999
DXF file: C:\Users\sesa63760\Dev\_Creo\CAD\MCADID0001383_3D-CAD\drw0001_7.dxf
999
Pro/ENGINEER 2019471 by Parametric Technology Corporation
  0
SECTION
  2
HEADER
  9
$ACADVER
  1
AC1024
  9
$DWGCODEPAGE
  3
ANSI_1252
  9
$EXTMAX
 10
175.7375252525
 20
248.5430714286
 30
0.0
  9
$EXTMIN
 10
0.0
 20
0.0
 30
0.0
  9
$LIMMIN
 10
0.0
 20
0.0
  9
$LIMMAX
 10
175.7375252525
 20
248.5430714286
  9
$VIEWCTR
 10
87.8687626263
 20
124.2715357143
  9
$VIEWSIZE
 40
248.5430714286
  9
$CLAYER
  8
0
  9
$LTSCALE
 40
16.2013261376
  9
$CELTYPE
  6
BYLAYER
  9
$DIMSCALE
 40
1.0
  9
$DIMASZ
 40
2.0921133959
  9
$DIMEXO
 40
1.0
  9
$DIMDLI
 40
11.1936435132
  9
$DIMEXE
 40
1.0
  9
$DIMCEN
 40
2.6511260952
  9
$DIMLFAC
 40
1.0
  9
$DIMBLK
  1
_FILLED
  9
$DIMALT
 70
0
  9
$DIMALTF
 40
0.0393700787
  9
$DIMTXT
 40
2.9289587542
  9
$DIMTOL
 70
1
  9
$DIMLIM
 70
0
  9
$DIMTFAC
 40
1.0
  9
$DIMTP
 40
0.01
  9
$DIMTM
 40
0.01
  9
$DIMGAP
 40
0.625
  9
$DIMDSEP
 70
46
  9
$AUNITS
 70
0
  9
$PDMODE
 70
3
  9
$PDSIZE
 40
0.3125
  9
$HANDSEED
  5
29D
  9
$TILEMODE
 70
1
  9
$MEASUREMENT
 70
1
  9
$INSUNITS
 70
4
  0
ENDSEC
  0
SECTION
  2
CLASSES
  0
CLASS
  1
ACDBDICTIONARYWDFLT
  2
AcDbDictionaryWithDefault
  3
AutoCAD 2000
 90
0
 91
1
280
0
281
0
  0
CLASS
  1
ACDBPLACEHOLDER
  2
AcDbPlaceHolder
  3
AutoCAD 2000
 90
0
 91
1
280
0
281
0
  0
CLASS
  1
LAYOUT
  2
AcDbLayout
  3
AutoCAD 2000
 90
0
 91
0
280
0
281
0
  0
ENDSEC
  0
SECTION
  2
TABLES
  0
TABLE
  2
VPORT
  5
8
100
AcDbSymbolTable
 70
2
  0
VPORT
  5
1F4
100
AcDbSymbolTableRecord
100
AcDbViewportTableRecord
  2
*ACTIVE
 70
0
 10
0.0
 20
0.0
 11
1.0
 21
1.0
 12
87.8687626263
 22
124.2715357143
 13
0.0
 23
0.0
 14
1.0
 24
1.0
 15
0.0
 25
0.0
 16
0.0
 26
0.0
 36
1.0
 17
0.0
 27
0.0
 37
0.0
 40
248.5430714286
 41
0.7070707071
 42
50.0
 43
0.0
 44
0.0
 50
0.0
 51
0.0
 71
0
 72
100
 73
1
 74
1
 75
0
 76
0
 77
0
 78
0
  0
ENDTAB
  0
TABLE
  2
LTYPE
  5
5
100
AcDbSymbolTable
 70
6
  0
LTYPE
  5
14
100
AcDbSymbolTableRecord
100
AcDbLinetypeTableRecord
  2
BYBLOCK
 70
0
  3

 72
65
 73
0
 40
0.0
  0
LTYPE
  5
15
100
AcDbSymbolTableRecord
100
AcDbLinetypeTableRecord
  2
BYLAYER
 70
0
  3

 72
65
 73
0
 40
0.0
  0
LTYPE
  5
16
100
AcDbSymbolTableRecord
100
AcDbLinetypeTableRecord
  2
CONTINUOUS
 70
64
  3
Solid line
 72
65
 73
0
 40
0.0
  0
LTYPE
  5
1F5
100
AcDbSymbolTableRecord
100
AcDbLinetypeTableRecord
  2
CENTER
 70
64
  3
____ _ ____ _ ____ _ ____ _ ____ _ ____ _ ____
 72
65
 73
4
 40
0.6
 49
0.375
 74
0
 49
-0.075
 74
0
 49
0.075
 74
0
 49
-0.075
 74
0
  0
LTYPE
  5
1F6
100
AcDbSymbolTableRecord
100
AcDbLinetypeTableRecord
  2
HIDDEN
 70
64
  3
- - - - - - - - - - - - - - - - - - - -
 72
65
 73
2
 40
0.2
 49
0.1
 74
0
 49
-0.1
 74
0
  0
LTYPE
  5
1F7
100
AcDbSymbolTableRecord
100
AcDbLinetypeTableRecord
  2
PHANTOM
 70
64
  3
_____ _ _ _____ _ _ _____ _ _ _____
 72
65
 73
6
 40
0.8
 49
0.45
 74
0
 49
-0.05
 74
0
 49
0.1
 74
0
 49
-0.05
 74
0
 49
0.1
 74
0
 49
-0.05
 74
0
  0
LTYPE
  5
1F8
100
AcDbSymbolTableRecord
100
AcDbLinetypeTableRecord
  2
DOT
 70
64
  3
. . . . . . . . . . . . . . . . . . . .
 72
65
 73
2
 40
0.2
 49
0.1
 74
0
 49
-0.1
 74
0
  0
LTYPE
  5
1F9
100
AcDbSymbolTableRecord
100
AcDbLinetypeTableRecord
  2
DASHED
 70
64
  3
- - - - - - - - - - - - - - - - - - - -
 72
65
 73
2
 40
0.2
 49
0.1
 74
0
 49
-0.1
 74
0
  0
ENDTAB
  0
TABLE
  2
LAYER
  5
2
100
AcDbSymbolTable
 70
36
  0
LAYER
  5
10
100
AcDbSymbolTableRecord
100
AcDbLayerTableRecord
  2
0
 70
0
 62
7
  6
CONTINUOUS
370
-3
390
F
  0
LAYER
  5
1FA
100
AcDbSymbolTableRecord
100
AcDbLayerTableRecord
  2
DEFAULT_1
 70
0
 62
7
  6
CENTER
370
-3
390
F
  0
LAYER
  5
1FB
100
AcDbSymbolTableRecord
100
AcDbLayerTableRecord
  2
DEFAULT_2
 70
0
 62
8
  6
HIDDEN
370
-3
390
F
  0
LAYER
  5
1FC
100
AcDbSymbolTableRecord
100
AcDbLayerTableRecord
  2
DEFAULT_3
 70
0
 62
7
  6
PHANTOM
370
-3
390
F
  0
LAYER
  5
1FD
100
AcDbSymbolTableRecord
100
AcDbLayerTableRecord
  2
00_COMPONENTS
 70
0
 62
7
  6
CONTINUOUS
370
-3
390
F
  0
LAYER
  5
1FE
100
AcDbSymbolTableRecord
100
AcDbLayerTableRecord
  2
01_1_DEFAULT_DATUMS
 70
0
 62
7
  6
CONTINUOUS
370
-3
390
F
  0
LAYER
  5
1FF
100
AcDbSymbolTableRecord
100
AcDbLayerTableRecord
  2
01_PLANES
 70
0
 62
7
  6
CONTINUOUS
370
-3
390
F
  0
LAYER
  5
200
100
AcDbSymbolTableRecord
100
AcDbLayerTableRecord
  2
02_COORD_SYS
 70
0
 62
7
  6
CONTINUOUS
370
-3
390
F
  0
LAYER
  5
201
100
AcDbSymbolTableRecord
100
AcDbLayerTableRecord
  2
03_AXES
 70
0
 62
7
  6
CONTINUOUS
370
-3
390
F
  0
LAYER
  5
202
100
AcDbSymbolTableRecord
100
AcDbLayerTableRecord
  2
04_POINTS
 70
0
 62
7
  6
CONTINUOUS
370
-3
390
F
  0
LAYER
  5
203
100
AcDbSymbolTableRecord
100
AcDbLayerTableRecord
  2
05_CURVES
 70
0
 62
7
  6
CONTINUOUS
370
-3
390
F
  0
LAYER
  5
204
100
AcDbSymbolTableRecord
100
AcDbLayerTableRecord
  2
06_SURFS
 70
0
 62
7
  6
CONTINUOUS
370
-3
390
F
  0
LAYER
  5
205
100
AcDbSymbolTableRecord
100
AcDbLayerTableRecord
  2
07_COSMETICS
 70
0
 62
7
  6
CONTINUOUS
370
-3
390
F
  0
LAYER
  5
206
100
AcDbSymbolTableRecord
100
AcDbLayerTableRecord
  2
10_NOTES
 70
0
 62
7
  6
CONTINUOUS
370
-3
390
F
  0
LAYER
  5
207
100
AcDbSymbolTableRecord
100
AcDbLayerTableRecord
  2
11_NOTES_PUB
 70
0
 62
7
  6
CONTINUOUS
370
-3
390
F
  0
LAYER
  5
208
100
AcDbSymbolTableRecord
100
AcDbLayerTableRecord
  2
13_REF_GTOL
 70
0
 62
7
  6
CONTINUOUS
370
-3
390
F
  0
LAYER
  5
209
100
AcDbSymbolTableRecord
100
AcDbLayerTableRecord
  2
16_MISC
 70
0
 62
7
  6
CONTINUOUS
370
-3
390
F
  0
LAYER
  5
20A
100
AcDbSymbolTableRecord
100
AcDbLayerTableRecord
  2
17_NO_PRINT
 70
0
 62
7
  6
CONTINUOUS
370
-3
390
F
  0
LAYER
  5
20B
100
AcDbSymbolTableRecord
100
AcDbLayerTableRecord
  2
18_DATUM_CAMS_JOINTS
 70
0
 62
7
  6
CONTINUOUS
370
-3
390
F
  0
LAYER
  5
20C
100
AcDbSymbolTableRecord
100
AcDbLayerTableRecord
  2
19_DATUM_FUNCTIONAL
 70
0
 62
7
  6
CONTINUOUS
370
-3
390
F
  0
LAYER
  5
20D
100
AcDbSymbolTableRecord
100
AcDbLayerTableRecord
  2
20_DATUM_KINEMATIC_SCHEME
 70
0
 62
7
  6
CONTINUOUS
370
-3
390
F
  0
LAYER
  5
20E
100
AcDbSymbolTableRecord
100
AcDbLayerTableRecord
  2
_1
 70
0
 62
7
  6
CONTINUOUS
370
-3
390
F
  0
ENDTAB
  0
TABLE
  2
STYLE
  5
3
100
AcDbSymbolTable
 70
1
  0
STYLE
  5
11
100
AcDbSymbolTableRecord
100
AcDbTextStyleTableRecord
  2
STANDARD
 70
0
 40
0.0
 41
0.8
 50
0.0
 71
0
 42
0.2
  3
txt
  4

  0
STYLE
  5
20F
100
AcDbSymbolTableRecord
100
AcDbTextStyleTableRecord
  2
TEXTSTYLE_1
 70
0
 40
0.0
 41
0.8
 50
0.0
 71
0
 42
0.2
  3
gdt
  4

  0
ENDTAB
  0
TABLE
  2
VIEW
  5
6
100
AcDbSymbolTable
 70
0
  0
ENDTAB
  0
TABLE
  2
UCS
  5
7
100
AcDbSymbolTable
 70
0
  0
ENDTAB
  0
TABLE
  2
APPID
  5
9
100
AcDbSymbolTable
 70
1
  0
APPID
  5
210
100
AcDbSymbolTableRecord
100
AcDbRegAppTableRecord
  2
ACAD
 70
0
  0
ENDTAB
  0
TABLE
  2
BLOCK_RECORD
  5
1
100
AcDbSymbolTable
 70
0
  0
BLOCK_RECORD
  5
211
100
AcDbSymbolTableRecord
100
AcDbBlockTableRecord
  2
*Model_Space
  0
BLOCK_RECORD
  5
212
100
AcDbSymbolTableRecord
100
AcDbBlockTableRecord
  2
*Paper_Space
  0
BLOCK_RECORD
  5
213
100
AcDbSymbolTableRecord
100
AcDbBlockTableRecord
  2
_FILLED
  0
ENDTAB
  0
TABLE
  2
DIMSTYLE
  5
A
100
AcDbSymbolTable
 70
1
100
AcDbDimStyleTable
 71
0
  0
DIMSTYLE
105
214
100
AcDbSymbolTableRecord
100
AcDbDimStyleTableRecord
  2
STANDARD
 70
0
  3

  4

 40
1.0
 41
2.0921133959
 42
1.0
 43
0.38
 44
1.0
 45
0.0
 46
0.0
 47
0.01
 48
0.01
140
2.9289587542
141
0.09
142
0.0
143
25.4
144
1.0
145
0.0
146
1.0
147
0.625
 71
1
 72
0
 73
0
 74
0
 75
0
 76
0
 77
1
 78
8
 79
2
170
0
171
1
172
0
173
0
174
0
175
0
176
0
177
0
178
0
270
2
179
2
271
2
272
2
273
2
274
2
275
0
280
0
281
0
282
0
283
1
284
8
285
0
286
0
287
3
288
0
340
11
278
46
341
213
342
213
343
213
344
213
  0
ENDTAB
  0
ENDSEC
  0
SECTION
  2
BLOCKS
  0
BLOCK
  5
20
100
AcDbEntity
  8
0
100
AcDbBlockBegin
  2
*Model_Space
 70
0
 10
0.0
 20
0.0
 30
0.0
  3
*Model_Space
  1

  0
ENDBLK
  5
21
100
AcDbEntity
  8
0
100
AcDbBlockEnd
  0
BLOCK
  5
1C
100
AcDbEntity
  8
0
100
AcDbBlockBegin
  2
*Paper_Space
 70
0
 10
0.0
 20
0.0
 30
0.0
  3
*Paper_Space
  1

  0
ENDBLK
  5
1D
100
AcDbEntity
  8
0
100
AcDbBlockEnd
  0
BLOCK
  5
215
100
AcDbEntity
  8
0
100
AcDbBlockBegin
  2
_FILLED
 70
64
 10
0.0
 20
0.0
  3
_FILLED
  1

  0
SOLID
  5
216
100
AcDbEntity
  8
0
  6
BYBLOCK
 62
0
100
AcDbTrace
 10
0.0
 20
0.0
 11
-1.0
 21
0.25
 12
-1.0
 22
-0.25
 13
-1.0
 23
-0.25
  0
ENDBLK
  5
217
100
AcDbEntity
  8
0
  6
BYBLOCK
 62
0
100
AcDbBlockEnd
  0
ENDSEC
  0
SECTION
  2
ENTITIES
  0
LINE
  5
218
100
AcDbEntity
  8
_1
100
AcDbLine
 62
7
  6
CONTINUOUS
 10
92.672976912
 20
18.4049642857
 11
83.672976912
 21
18.4049642857
  0
LINE
  5
219
100
AcDbEntity
  8
_1
100
AcDbLine
 62
7
  6
CONTINUOUS
 10
108.172976912
 20
36.4049642857
 11
68.172976912
 21
36.4049642857
  0
LINE
  5
21A
100
AcDbEntity
  8
_1
100
AcDbLine
 62
7
  6
CONTINUOUS
 10
60.672976912
 20
38.4049642857
 11
115.672976912
 21
38.4049642857
  0
LINE
  5
21B
100
AcDbEntity
  8
_1
100
AcDbLine
 62
7
  6
CONTINUOUS
 10
60.7428609812
 20
47.4049642857
 11
71.6642881226
 21
47.4049642857
  0
LINE
  5
21C
100
AcDbEntity
  8
_1
100
AcDbLine
 62
7
  6
CONTINUOUS
 10
104.6816657014
 20
47.4049642857
 11
115.6030928428
 21
47.4049642857
  0
LINE
  5
21D
100
AcDbEntity
  8
_1
100
AcDbLine
 62
7
  6
CONTINUOUS
 10
84.672976912
 20
42.8842383436
 11
88.172976912
 21
40.8635124014
  0
LINE
  5
21E
100
AcDbEntity
  8
_1
100
AcDbLine
 62
7
  6
CONTINUOUS
 10
91.672976912
 20
46.9256902279
 11
88.172976912
 21
48.94641617
  0
LINE
  5
21F
100
AcDbEntity
  8
_1
100
AcDbLine
 62
7
  6
CONTINUOUS
 10
81.172976912
 20
67.4049642857
 11
95.172976912
 21
67.4049642857
  0
LINE
  5
220
100
AcDbEntity
  8
_1
100
AcDbLine
 62
7
  6
CONTINUOUS
 10
60.2610753798
 20
215.4049642857
 11
59.422976912
 21
191.4049642857
  0
LINE
  5
221
100
AcDbEntity
  8
_1
100
AcDbLine
 62
7
  6
CONTINUOUS
 10
60.422976912
 20
181.4049642857
 11
60.422976912
 21
186.3853251379
  0
LINE
  5
222
100
AcDbEntity
  8
_1
100
AcDbLine
 62
7
  6
CONTINUOUS
 10
60.672976912
 20
38.4049642857
 11
60.672976912
 21
180.3734879355
  0
LINE
  5
223
100
AcDbEntity
  8
_1
100
AcDbLine
 62
7
  6
CONTINUOUS
 10
60.7402961623
 20
175.9049642857
 11
60.7402961623
 21
166.4049642857
  0
LINE
  5
224
100
AcDbEntity
  8
_1
100
AcDbLine
 62
7
  6
CONTINUOUS
 10
60.7428609812
 20
166.4049642857
 11
60.7428609812
 21
47.4049642857
  0
LINE
  5
225
100
AcDbEntity
  8
_1
100
AcDbLine
 62
7
  6
CONTINUOUS
 10
60.8697122139
 20
47.4049642857
 11
60.8697122139
 21
38.4049642857
  0
LINE
  5
226
100
AcDbEntity
  8
_1
100
AcDbLine
 62
7
  6
CONTINUOUS
 10
60.8783629263
 20
179.9478458591
 11
60.8783629263
 21
175.9049642857
  0
LINE
  5
227
100
AcDbEntity
  8
_1
100
AcDbLine
 62
7
  6
CONTINUOUS
 10
61.8401443219
 20
166.4049642857
 11
61.8401443219
 21
47.4049642857
  0
LINE
  5
228
100
AcDbEntity
  8
_1
100
AcDbLine
 62
7
  6
CONTINUOUS
 10
61.922976912
 20
231.3549642857
 11
61.922976912
 21
215.4049642857
  0
LINE
  5
229
100
AcDbEntity
  8
_1
100
AcDbLine
 62
7
  6
CONTINUOUS
 10
62.8191292527
 20
47.4049642857
 11
62.8191292527
 21
166.4049642857
  0
LINE
  5
22A
100
AcDbEntity
  8
_1
100
AcDbLine
 62
7
  6
CONTINUOUS
 10
64.87821062
 20
175.9049642857
 11
64.87821062
 21
178.1549642857
  0
LINE
  5
22B
100
AcDbEntity
  8
_1
100
AcDbLine
 62
7
  6
CONTINUOUS
 10
65.6291521811
 20
166.4049642857
 11
65.6291521811
 21
47.4049642857
  0
LINE
  5
22C
100
AcDbEntity
  8
_1
100
AcDbLine
 62
7
  6
CONTINUOUS
 10
65.8695218292
 20
38.4049642857
 11
65.8695218292
 21
47.4049642857
  0
LINE
  5
22D
100
AcDbEntity
  8
_1
100
AcDbLine
 62
7
  6
CONTINUOUS
 10
70.6643261995
 20
166.4049642857
 11
69.9144626891
 21
175.9049642857
  0
LINE
  5
22E
100
AcDbEntity
  8
_1
100
AcDbLine
 62
7
  6
CONTINUOUS
 10
68.172976912
 20
38.4049642857
 11
68.172976912
 21
36.4049642857
  0
LINE
  5
22F
100
AcDbEntity
  8
_1
100
AcDbLine
 62
7
  6
CONTINUOUS
 10
70.6289617964
 20
47.4049642857
 11
70.6289617964
 21
166.4049642857
  0
LINE
  5
230
100
AcDbEntity
  8
_1
100
AcDbLine
 62
7
  6
CONTINUOUS
 10
70.6643261995
 20
166.4049642857
 11
70.6643261995
 21
47.4049642857
  0
LINE
  5
231
100
AcDbEntity
  8
_1
100
AcDbLine
 62
7
  6
CONTINUOUS
 10
71.6642881226
 20
47.4049642857
 11
71.6642881226
 21
175.9049642857
  0
LINE
  5
232
100
AcDbEntity
  8
_1
100
AcDbLine
 62
7
  6
CONTINUOUS
 10
81.172976912
 20
46.9049642857
 11
81.172976912
 21
67.4049642857
  0
LINE
  5
233
100
AcDbEntity
  8
_1
100
AcDbLine
 62
7
  6
CONTINUOUS
 10
105.7169920275
 20
166.4049642857
 11
111.4677431538
 21
175.9049642857
  0
LINE
  5
234
100
AcDbEntity
  8
_1
100
AcDbLine
 62
7
  6
CONTINUOUS
 10
83.672976912
 20
36.4049642857
 11
83.672976912
 21
18.4049642857
  0
LINE
  5
235
100
AcDbEntity
  8
_1
100
AcDbLine
 62
7
  6
CONTINUOUS
 10
84.672976912
 20
42.8842383436
 11
84.672976912
 21
46.9256902279
  0
LINE
  5
236
100
AcDbEntity
  8
_1
100
AcDbLine
 62
7
  6
CONTINUOUS
 10
84.922976912
 20
231.3549642857
 11
84.922976912
 21
215.4049642857
  0
LINE
  5
237
100
AcDbEntity
  8
_1
100
AcDbLine
 62
7
  6
CONTINUOUS
 10
86.422976912
 20
186.3854610187
 11
86.422976912
 21
181.4049642857
  0
LINE
  5
238
100
AcDbEntity
  8
_1
100
AcDbLine
 62
7
  6
CONTINUOUS
 10
86.672976912
 20
23.9049642857
 11
86.672976912
 21
32.9049642857
  0
LINE
  5
239
100
AcDbEntity
  8
_1
100
AcDbLine
 62
7
  6
CONTINUOUS
 10
89.6912338408
 20
213.4049642857
 11
88.922976912
 21
191.4049642857
  0
LINE
  5
23A
100
AcDbEntity
  8
_1
100
AcDbLine
 62
7
  6
CONTINUOUS
 10
65.6291521797
 20
166.4049642857
 11
60.8783629263
 21
175.9049642857
  0
LINE
  5
23B
100
AcDbEntity
  8
_1
100
AcDbLine
 62
7
  6
CONTINUOUS
 10
86.5848784442
 20
215.4049642857
 11
87.422976912
 21
191.4049642857
  0
LINE
  5
23C
100
AcDbEntity
  8
_1
100
AcDbLine
 62
7
  6
CONTINUOUS
 10
89.672976912
 20
32.9049642857
 11
89.672976912
 21
23.9049642857
  0
LINE
  5
23D
100
AcDbEntity
  8
_1
100
AcDbLine
 62
7
  6
CONTINUOUS
 10
89.922976912
 20
181.4049642857
 11
89.922976912
 21
186.3848493662
  0
LINE
  5
23E
100
AcDbEntity
  8
_1
100
AcDbLine
 62
7
  6
CONTINUOUS
 10
91.422976912
 20
228.3549642857
 11
91.422976912
 21
213.4049642857
  0
LINE
  5
23F
100
AcDbEntity
  8
_1
100
AcDbLine
 62
7
  6
CONTINUOUS
 10
91.672976912
 20
46.9256902279
 11
91.672976912
 21
42.8842383436
  0
LINE
  5
240
100
AcDbEntity
  8
_1
100
AcDbLine
 62
7
  6
CONTINUOUS
 10
92.672976912
 20
36.4049642857
 11
92.672976912
 21
18.4049642857
  0
LINE
  5
241
100
AcDbEntity
  8
_1
100
AcDbLine
 62
7
  6
CONTINUOUS
 10
95.172976912
 20
67.4049642857
 11
95.172976912
 21
46.9049642857
  0
LINE
  5
242
100
AcDbEntity
  8
_1
100
AcDbLine
 62
7
  6
CONTINUOUS
 10
110.716801643
 20
166.4049616454
 11
115.4675701227
 21
175.9049642864
  0
LINE
  5
243
100
AcDbEntity
  8
_1
100
AcDbLine
 62
7
  6
CONTINUOUS
 10
70.6289407328
 20
166.4049514409
 11
64.8782106211
 21
175.9049771474
  0
LINE
  5
244
100
AcDbEntity
  8
_1
100
AcDbLine
 62
7
  6
CONTINUOUS
 10
105.6816282443
 20
166.4049642362
 11
106.4314911349
 21
175.9049642857
  0
LINE
  5
245
100
AcDbEntity
  8
_1
100
AcDbLine
 62
7
  6
CONTINUOUS
 10
104.6816657014
 20
175.9049642857
 11
104.6816657014
 21
47.4049642857
  0
LINE
  5
246
100
AcDbEntity
  8
_1
100
AcDbLine
 62
7
  6
CONTINUOUS
 10
105.6816276244
 20
47.4049642857
 11
105.6816276244
 21
166.4049642857
  0
LINE
  5
247
100
AcDbEntity
  8
_1
100
AcDbLine
 62
7
  6
CONTINUOUS
 10
105.7169920275
 20
166.4049642857
 11
105.7169920275
 21
47.4049642857
  0
LINE
  5
248
100
AcDbEntity
  8
_1
100
AcDbLine
 62
7
  6
CONTINUOUS
 10
108.172976912
 20
38.4049642857
 11
108.172976912
 21
36.4049642857
  0
LINE
  5
249
100
AcDbEntity
  8
_1
100
AcDbLine
 62
7
  6
CONTINUOUS
 10
110.4764319948
 20
47.4049642857
 11
110.4764319948
 21
38.4049642857
  0
LINE
  5
24A
100
AcDbEntity
  8
_1
100
AcDbLine
 62
7
  6
CONTINUOUS
 10
110.7168016429
 20
47.4049642857
 11
110.7168016429
 21
166.4049642857
  0
LINE
  5
24B
100
AcDbEntity
  8
_1
100
AcDbLine
 62
7
  6
CONTINUOUS
 10
111.4677432039
 20
178.1549642857
 11
111.4677432039
 21
175.9049642857
  0
LINE
  5
24C
100
AcDbEntity
  8
_1
100
AcDbLine
 62
7
  6
CONTINUOUS
 10
113.5268245712
 20
166.4049642857
 11
113.5268245712
 21
47.4049642857
  0
LINE
  5
24D
100
AcDbEntity
  8
_1
100
AcDbLine
 62
7
  6
CONTINUOUS
 10
114.422976912
 20
228.3549642857
 11
114.422976912
 21
213.4049642857
  0
LINE
  5
24E
100
AcDbEntity
  8
_1
100
AcDbLine
 62
7
  6
CONTINUOUS
 10
114.5058095021
 20
47.4049642857
 11
114.5058095021
 21
166.4049642857
  0
LINE
  5
24F
100
AcDbEntity
  8
_1
100
AcDbLine
 62
7
  6
CONTINUOUS
 10
115.4675908976
 20
175.9049642857
 11
115.4675908976
 21
179.9478458591
  0
LINE
  5
250
100
AcDbEntity
  8
_1
100
AcDbLine
 62
7
  6
CONTINUOUS
 10
115.4762416101
 20
38.4049642857
 11
115.4762416101
 21
47.4049642857
  0
LINE
  5
251
100
AcDbEntity
  8
_1
100
AcDbLine
 62
7
  6
CONTINUOUS
 10
115.6030928428
 20
47.4049642857
 11
115.6030928428
 21
166.4049642857
  0
LINE
  5
252
100
AcDbEntity
  8
_1
100
AcDbLine
 62
7
  6
CONTINUOUS
 10
115.6056576616
 20
166.4049642857
 11
115.6056576616
 21
175.9049642857
  0
LINE
  5
253
100
AcDbEntity
  8
_1
100
AcDbLine
 62
7
  6
CONTINUOUS
 10
115.672976912
 20
38.4049642857
 11
115.672976912
 21
180.3734879355
  0
LINE
  5
254
100
AcDbEntity
  8
_1
100
AcDbLine
 62
7
  6
CONTINUOUS
 10
115.922976912
 20
186.3849853112
 11
115.922976912
 21
181.4049642857
  0
LINE
  5
255
100
AcDbEntity
  8
_1
100
AcDbLine
 62
7
  6
CONTINUOUS
 10
116.1547199832
 20
213.4049642857
 11
116.922976912
 21
191.4049642857
  0
LINE
  5
256
100
AcDbEntity
  8
_1
100
AcDbLine
 62
7
  6
CONTINUOUS
 10
60.672976912
 20
166.4049642857
 11
115.672976912
 21
166.4049642857
  0
LINE
  5
257
100
AcDbEntity
  8
_1
100
AcDbLine
 62
7
  6
CONTINUOUS
 10
115.6056576616
 20
175.9049642857
 11
104.6816657014
 21
175.9049642857
  0
LINE
  5
258
100
AcDbEntity
  8
_1
100
AcDbLine
 62
7
  6
CONTINUOUS
 10
71.6642881226
 20
175.9049642857
 11
60.7402961623
 21
175.9049642857
  0
LINE
  5
259
100
AcDbEntity
  8
_1
100
AcDbLine
 62
7
  6
CONTINUOUS
 10
92.4090524469
 20
176.7487142857
 11
92.4083130935
 21
176.7491779006
  0
LINE
  5
25A
100
AcDbEntity
  8
_1
100
AcDbLine
 62
7
  6
CONTINUOUS
 10
113.4321915148
 20
178.1558369725
 11
106.9896390375
 21
178.1558369725
  0
LINE
  5
25B
100
AcDbEntity
  8
_1
100
AcDbLine
 62
7
  6
CONTINUOUS
 10
98.8563147864
 20
178.1558369725
 11
94.9506977678
 21
178.1558369725
  0
LINE
  5
25C
100
AcDbEntity
  8
_1
100
AcDbLine
 62
7
  6
CONTINUOUS
 10
81.3952560561
 20
178.1558369725
 11
77.4896390375
 21
178.1558369725
  0
LINE
  5
25D
100
AcDbEntity
  8
_1
100
AcDbLine
 62
7
  6
CONTINUOUS
 10
69.3563147864
 20
178.1558369725
 11
62.9137623091
 21
178.1558369725
  0
LINE
  5
25E
100
AcDbEntity
  8
_1
100
AcDbLine
 62
7
  6
CONTINUOUS
 10
112.922976912
 20
178.4049642857
 11
107.8398486571
 21
178.4049642857
  0
LINE
  5
25F
100
AcDbEntity
  8
_1
100
AcDbLine
 62
7
  6
CONTINUOUS
 10
98.0061051668
 20
178.4049642857
 11
92.922976912
 21
178.4049642857
  0
LINE
  5
260
100
AcDbEntity
  8
_1
100
AcDbLine
 62
7
  6
CONTINUOUS
 10
83.422976912
 20
178.4049642857
 11
78.3398486571
 21
178.4049642857
  0
LINE
  5
261
100
AcDbEntity
  8
_1
100
AcDbLine
 62
7
  6
CONTINUOUS
 10
68.5061051668
 20
178.4049642857
 11
63.422976912
 21
178.4049642857
  0
LINE
  5
262
100
AcDbEntity
  8
_1
100
AcDbLine
 62
7
  6
CONTINUOUS
 10
88.172976912
 20
48.94641617
 11
84.672976912
 21
46.9256902279
  0
LINE
  5
263
100
AcDbEntity
  8
_1
100
AcDbLine
 62
7
  6
CONTINUOUS
 10
88.172976912
 20
40.8635124014
 11
91.672976912
 21
42.8842383436
  0
LINE
  5
264
100
AcDbEntity
  8
_1
100
AcDbLine
 62
7
  6
CONTINUOUS
 10
86.9603071911
 20
204.6540915989
 11
89.3856466328
 21
204.6540915989
  0
LINE
  5
265
100
AcDbEntity
  8
_1
100
AcDbLine
 62
7
  6
CONTINUOUS
 10
89.4642488391
 20
206.9049642857
 11
86.8817049849
 21
206.9049642857
  0
LINE
  5
266
100
AcDbEntity
  8
_1
100
AcDbLine
 62
7
  6
CONTINUOUS
 10
89.6912338408
 20
213.4049642857
 11
116.1547199832
 21
213.4049642857
  0
LINE
  5
267
100
AcDbEntity
  8
_1
100
AcDbLine
 62
7
  6
CONTINUOUS
 10
60.2610753798
 20
215.4049642857
 11
86.5848784442
 21
215.4049642857
  0
LINE
  5
268
100
AcDbEntity
  8
_1
100
AcDbLine
 62
7
  6
CONTINUOUS
 10
91.422976912
 20
228.3549642857
 11
114.422976912
 21
228.3549642857
  0
LINE
  5
269
100
AcDbEntity
  8
_1
100
AcDbLine
 62
7
  6
CONTINUOUS
 10
61.922976912
 20
231.3549642857
 11
84.922976912
 21
231.3549642857
  0
ARC
  5
26A
100
AcDbEntity
  8
_1
100
AcDbCircle
 62
7
  6
CONTINUOUS
 10
73.422976912
 20
191.4049642857
 40
14.0
100
AcDbArc
 50
180.0
 51
360.0
  0
ARC
  5
26B
100
AcDbEntity
  8
_1
100
AcDbCircle
 62
7
  6
CONTINUOUS
 10
81.3952560561
 20
175.1549642857
 40
3.0008726868
100
AcDbArc
 50
32.0899512563
 51
90.0
  0
ARC
  5
26C
100
AcDbEntity
  8
_1
100
AcDbCircle
 62
7
  6
CONTINUOUS
 10
83.422976912
 20
181.4049642857
 40
3.0
100
AcDbArc
 50
270.0
 51
360.0
  0
ARC
  5
26D
100
AcDbEntity
  8
_1
100
AcDbCircle
 62
7
  6
CONTINUOUS
 10
63.422976912
 20
181.4049642857
 40
3.0
100
AcDbArc
 50
180.0
 51
270.0
  0
ARC
  5
26E
100
AcDbEntity
  8
_1
100
AcDbCircle
 62
7
  6
CONTINUOUS
 10
83.422976912
 20
181.4049642857
 40
2.75
100
AcDbArc
 50
214.4897319741
 51
54.8941798304
  0
ARC
  5
26F
100
AcDbEntity
  8
_1
100
AcDbCircle
 62
7
  6
CONTINUOUS
 10
63.422976912
 20
181.4049642857
 40
2.75
100
AcDbArc
 50
125.1079698351
 51
325.5101561194
  0
ARC
  5
270
100
AcDbEntity
  8
_1
100
AcDbCircle
 62
7
  6
CONTINUOUS
 10
63.422976912
 20
181.4049642857
 40
2.25
100
AcDbArc
 50
130.5748094414
 51
327.3353208224
  0
ARC
  5
271
100
AcDbEntity
  8
_1
100
AcDbCircle
 62
7
  6
CONTINUOUS
 10
83.422976912
 20
181.4049642857
 40
2.25
100
AcDbArc
 50
212.6613762452
 51
49.4177373582
  0
ARC
  5
272
100
AcDbEntity
  8
_1
100
AcDbCircle
 62
7
  6
CONTINUOUS
 10
71.1313442801
 20
167.2759395946
 40
0.9144834435
100
AcDbArc
 50
301.3830939689
 51
305.6464025973
  0
ARC
  5
273
100
AcDbEntity
  8
_1
100
AcDbCircle
 62
7
  6
CONTINUOUS
 10
71.1436912631
 20
167.2557952498
 40
0.8908563402
100
AcDbArc
 50
298.5068985152
 51
301.3798556192
  0
ARC
  5
274
100
AcDbEntity
  8
_1
100
AcDbCircle
 62
7
  6
CONTINUOUS
 10
88.172976912
 20
-65.2950357143
 40
280.0
100
AcDbArc
 50
84.4808964507
 51
84.6193391637
  0
ARC
  5
275
100
AcDbEntity
  8
_1
100
AcDbCircle
 62
7
  6
CONTINUOUS
 10
88.172976912
 20
-65.2950357143
 40
279.9206633584
100
AcDbArc
 50
89.073561343
 51
90.347110575
  0
ARC
  5
276
100
AcDbEntity
  8
_1
100
AcDbCircle
 62
7
  6
CONTINUOUS
 10
88.172976912
 20
-65.2950357143
 40
278.6462811523
100
AcDbArc
 50
89.7363769068
 51
90.2633410559
  0
ARC
  5
277
100
AcDbEntity
  8
_1
100
AcDbCircle
 62
7
  6
CONTINUOUS
 10
88.172976912
 20
46.9049642857
 40
7.0
100
AcDbArc
 50
180.0
 51
360.0
  0
CIRCLE
  5
278
100
AcDbEntity
  8
_1
100
AcDbCircle
 62
7
  6
CONTINUOUS
 10
88.172976912
 20
44.9049642857
 40
4.5
  0
ARC
  5
279
100
AcDbEntity
  8
_1
100
AcDbCircle
 62
7
  6
CONTINUOUS
 10
88.172976912
 20
44.9049642857
 40
3.8
100
AcDbArc
 50
217.0804578484
 51
262.9195421516
  0
ARC
  5
27A
100
AcDbEntity
  8
_1
100
AcDbCircle
 62
7
  6
CONTINUOUS
 10
88.172976912
 20
44.9049642857
 40
3.8
100
AcDbArc
 50
157.0804578484
 51
202.9195421516
  0
ARC
  5
27B
100
AcDbEntity
  8
_1
100
AcDbCircle
 62
7
  6
CONTINUOUS
 10
88.172976912
 20
44.9049642857
 40
3.8
100
AcDbArc
 50
97.0804578484
 51
142.9195421516
  0
ARC
  5
27C
100
AcDbEntity
  8
_1
100
AcDbCircle
 62
7
  6
CONTINUOUS
 10
88.172976912
 20
44.9049642857
 40
3.8
100
AcDbArc
 50
37.0804578484
 51
82.9195421516
  0
ARC
  5
27D
100
AcDbEntity
  8
_1
100
AcDbCircle
 62
7
  6
CONTINUOUS
 10
88.172976912
 20
44.9049642857
 40
3.8
100
AcDbArc
 50
337.0804578484
 51
22.9195421516
  0
ARC
  5
27E
100
AcDbEntity
  8
_1
100
AcDbCircle
 62
7
  6
CONTINUOUS
 10
88.172976912
 20
44.9049642857
 40
3.8
100
AcDbArc
 50
277.0804578484
 51
322.9195421516
  0
CIRCLE
  5
27F
100
AcDbEntity
  8
_1
100
AcDbCircle
 62
7
  6
CONTINUOUS
 10
88.172976912
 20
44.9049642857
 40
2.0
  0
ARC
  5
280
100
AcDbEntity
  8
_1
100
AcDbCircle
 62
7
  6
CONTINUOUS
 10
88.172976912
 20
23.9049642857
 40
1.5
100
AcDbArc
 50
180.0
 51
360.0
  0
ARC
  5
281
100
AcDbEntity
  8
_1
100
AcDbCircle
 62
7
  6
CONTINUOUS
 10
88.172976912
 20
32.9049642857
 40
1.5
100
AcDbArc
 50
0.0
 51
180.0
  0
ARC
  5
282
100
AcDbEntity
  8
_1
100
AcDbCircle
 62
7
  6
CONTINUOUS
 10
102.922976912
 20
191.4049642857
 40
14.0
100
AcDbArc
 50
180.0
 51
360.0
  0
ARC
  5
283
100
AcDbEntity
  8
_1
100
AcDbCircle
 62
7
  6
CONTINUOUS
 10
88.172976912
 20
179.4049642857
 40
4.9991273132
100
AcDbArc
 50
212.0899512563
 51
327.9100487437
  0
ARC
  5
284
100
AcDbEntity
  8
_1
100
AcDbCircle
 62
7
  6
CONTINUOUS
 10
94.9506977678
 20
175.1549642857
 40
3.0008726868
100
AcDbArc
 50
90.0
 51
147.9100487437
  0
ARC
  5
285
100
AcDbEntity
  8
_1
100
AcDbCircle
 62
7
  6
CONTINUOUS
 10
112.922976912
 20
181.4049642857
 40
3.0
100
AcDbArc
 50
270.0
 51
360.0
  0
ARC
  5
286
100
AcDbEntity
  8
_1
100
AcDbCircle
 62
7
  6
CONTINUOUS
 10
92.922976912
 20
181.4049642857
 40
3.0
100
AcDbArc
 50
180.0
 51
270.0
  0
ARC
  5
287
100
AcDbEntity
  8
_1
100
AcDbCircle
 62
7
  6
CONTINUOUS
 10
112.922976912
 20
181.4049642857
 40
2.75
100
AcDbArc
 50
214.4951529539
 51
54.902359309
  0
ARC
  5
288
100
AcDbEntity
  8
_1
100
AcDbCircle
 62
7
  6
CONTINUOUS
 10
92.922976912
 20
181.4049642857
 40
2.75
100
AcDbArc
 50
125.0997983399
 51
325.5047344122
  0
ARC
  5
289
100
AcDbEntity
  8
_1
100
AcDbCircle
 62
7
  6
CONTINUOUS
 10
92.922976912
 20
181.4049642857
 40
2.25
100
AcDbArc
 50
130.5879155205
 51
327.3297209884
  0
ARC
  5
28A
100
AcDbEntity
  8
_1
100
AcDbCircle
 62
7
  6
CONTINUOUS
 10
112.922976912
 20
181.4049642857
 40
2.25
100
AcDbArc
 50
212.6660295507
 51
49.4039463535
  0
ARC
  5
28B
100
AcDbEntity
  8
_1
100
AcDbCircle
 62
7
  6
CONTINUOUS
 10
105.2186846499
 20
167.2822223841
 40
0.9219639828
100
AcDbArc
 50
234.3753447138
 51
238.6030691127
  0
SPLINE
  5
28C
100
AcDbEntity
  8
_1
100
AcDbSpline
 62
7
  6
CONTINUOUS
 70
0
 71
3
 72
14
 73
10
 74
0
 42
0.0000001
 43
0.0000001
 44
0.0000000001
 40
0.0
 40
0.0
 40
0.0
 40
0.0
 40
0.1227068422
 40
0.2460405395
 40
0.3703593695
 40
0.4956627914
 40
0.6216606506
 40
0.7479614689
 40
1.0
 40
1.0
 40
1.0
 40
1.0
 10
113.5391839866
 20
166.4049642857
 30
0.0
 10
113.6170126906
 20
166.7944714749
 30
0.0
 10
113.7986858491
 20
167.5702355212
 30
0.0
 10
114.0965216227
 20
168.7314707832
 30
0.0
 10
114.4070520093
 20
169.8981385496
 30
0.0
 10
114.7027330472
 20
171.0776474258
 30
0.0
 10
114.9618431355
 20
172.2724611348
 30
0.0
 10
115.2477273821
 20
173.8801781203
 30
0.0
 10
115.4039483517
 20
175.0953323853
 30
0.0
 10
115.5045510257
 20
175.9049642857
 30
0.0
  0
SPLINE
  5
28D
100
AcDbEntity
  8
_1
100
AcDbSpline
 62
7
  6
CONTINUOUS
 70
0
 71
3
 72
9
 73
5
 74
0
 42
0.0000001
 43
0.0000001
 44
0.0000000001
 40
0.0
 40
0.0
 40
0.0
 40
0.0
 40
0.2461911501
 40
1.0
 40
1.0
 40
1.0
 40
1.0
 10
104.9670658073
 20
166.4049642857
 30
0.0
 10
104.9470561809
 20
166.4081300463
 30
0.0
 10
104.8665550673
 20
166.4261823958
 30
0.0
 10
104.791328984
 20
166.4629508385
 30
0.0
 10
104.7383746888
 20
166.4952535621
 30
0.0
  0
SPLINE
  5
28E
100
AcDbEntity
  8
_1
100
AcDbSpline
 62
7
  6
CONTINUOUS
 70
0
 71
3
 72
8
 73
4
 74
0
 42
0.0000001
 43
0.0000001
 44
0.0000000001
 40
0.0
 40
0.0
 40
0.0
 40
0.0
 40
1.0
 40
1.0
 40
1.0
 40
1.0
 10
71.5688654294
 20
166.4729466392
 30
0.0
 10
71.5379383097
 20
166.4561542832
 30
0.0
 10
71.5058756076
 20
166.4411460299
 30
0.0
 10
71.4727490087
 20
166.4292675449
 30
0.0
  0
SPLINE
  5
28F
100
AcDbEntity
  8
_1
100
AcDbSpline
 62
7
  6
CONTINUOUS
 70
0
 71
3
 72
8
 73
4
 74
0
 42
0.0000001
 43
0.0000001
 44
0.0000000001
 40
0.0
 40
0.0
 40
0.0
 40
0.0
 40
1.0
 40
1.0
 40
1.0
 40
1.0
 10
71.4727490087
 20
166.4292675449
 30
0.0
 10
71.4423268798
 20
166.4183588246
 30
0.0
 10
71.410810266
 20
166.4100109735
 30
0.0
 10
71.3788879063
 20
166.4049642857
 30
0.0
  0
SPLINE
  5
290
100
AcDbEntity
  8
_1
100
AcDbSpline
 62
7
  6
CONTINUOUS
 70
0
 71
3
 72
11
 73
7
 74
0
 42
0.0000001
 43
0.0000001
 44
0.0000000001
 40
0.0
 40
0.0
 40
0.0
 40
0.0
 40
0.2166343998
 40
0.4483147583
 40
0.7055262318
 40
1.0
 40
1.0
 40
1.0
 40
1.0
 10
60.9443080626
 20
179.6403083649
 30
0.0
 10
60.9934265529
 20
179.4561540378
 30
0.0
 10
61.1514401864
 20
179.0877470528
 30
0.0
 10
61.5592519517
 20
178.6073179207
 30
0.0
 10
62.1580861803
 20
178.2418155148
 30
0.0
 10
62.6492902725
 20
178.1491568666
 30
0.0
 10
62.9083616017
 20
178.1504362651
 30
0.0
  0
SPLINE
  5
291
100
AcDbEntity
  8
_1
100
AcDbSpline
 62
7
  6
CONTINUOUS
 70
0
 71
3
 72
14
 73
10
 74
0
 42
0.0000001
 43
0.0000001
 44
0.0000000001
 40
0.0
 40
0.0
 40
0.0
 40
0.0
 40
0.2520378372
 40
0.3783387703
 40
0.5043368938
 40
0.629640604
 40
0.7539596156
 40
0.8772932788
 40
1.0
 40
1.0
 40
1.0
 40
1.0
 10
60.8414027982
 20
175.9049642857
 30
0.0
 10
60.9420047049
 20
175.09533436
 30
0.0
 10
61.0982146398
 20
173.8801803458
 30
0.0
 10
61.3840897769
 20
172.2724622651
 30
0.0
 10
61.6432030352
 20
171.0776465886
 30
0.0
 10
61.938897992
 20
169.8981384106
 30
0.0
 10
62.2494464336
 20
168.7314736137
 30
0.0
 10
62.5472872613
 20
167.5702395181
 30
0.0
 10
62.7289604506
 20
166.7944750302
 30
0.0
 10
62.8067698373
 20
166.4049642857
 30
0.0
  0
SPLINE
  5
292
100
AcDbEntity
  8
_1
100
AcDbSpline
 62
7
  6
CONTINUOUS
 70
0
 71
3
 72
11
 73
7
 74
0
 42
0.0000001
 43
0.0000001
 44
0.0000000001
 40
0.0
 40
0.0
 40
0.0
 40
0.0
 40
0.2493710061
 40
0.498082179
 40
0.7479123657
 40
1.0
 40
1.0
 40
1.0
 40
1.0
 10
61.8488086645
 20
166.4049643779
 30
0.0
 10
61.7818254582
 20
167.1962922961
 30
0.0
 10
61.6393647133
 20
168.7761240619
 30
0.0
 10
61.4031368242
 20
171.1462675655
 30
0.0
 10
61.1345383041
 20
173.5216769685
 30
0.0
 10
60.9401826722
 20
175.1082552359
 30
0.0
 10
60.8414027982
 20
175.9049642857
 30
0.0
  0
SPLINE
  5
293
100
AcDbEntity
  8
_1
100
AcDbSpline
 62
7
  6
CONTINUOUS
 70
0
 71
3
 72
11
 73
7
 74
0
 42
0.0000001
 43
0.0000001
 44
0.0000000001
 40
0.0
 40
0.0
 40
0.0
 40
0.0
 40
0.2944761697
 40
0.5516886633
 40
0.7833863293
 40
1.0
 40
1.0
 40
1.0
 40
1.0
 10
113.4375922223
 20
178.1504362651
 30
0.0
 10
113.6966488348
 20
178.1491569394
 30
0.0
 10
114.1878228083
 20
178.2418063379
 30
0.0
 10
114.7866462073
 20
178.6072713829
 30
0.0
 10
115.1944492531
 20
179.0876516543
 30
0.0
 10
115.3524768159
 20
179.4560193643
 30
0.0
 10
115.4015994164
 20
179.6401409075
 30
0.0
  0
SPLINE
  5
294
100
AcDbEntity
  8
_1
100
AcDbSpline
 62
7
  6
CONTINUOUS
 70
0
 71
3
 72
11
 73
7
 74
0
 42
0.0000001
 43
0.0000001
 44
0.0000000001
 40
0.0
 40
0.0
 40
0.0
 40
0.0
 40
0.2520873724
 40
0.5019190461
 40
0.7506267921
 40
1.0
 40
1.0
 40
1.0
 40
1.0
 10
115.5045510257
 20
175.9049642857
 30
0.0
 10
115.4057729776
 20
175.1082558583
 30
0.0
 10
115.2114247774
 20
173.5216728699
 30
0.0
 10
114.9427962849
 20
171.1462737962
 30
0.0
 10
114.7066150579
 20
168.7761246751
 30
0.0
 10
114.5641460266
 20
167.1962978432
 30
0.0
 10
114.4971451636
 20
166.4049643911
 30
0.0
  0
ELLIPSE
  5
295
100
AcDbEntity
  8
_1
100
AcDbEllipse
 62
7
  6
CONTINUOUS
 10
102.922976912
 20
32.4932199969
 30
0.0
 11
-0.0
 21
-160.6319854394
 31
0.0
 40
0.0871557427
 41
2.7140339507
 42
3.1415926536
  0
ELLIPSE
  5
296
100
AcDbEntity
  8
_1
100
AcDbEllipse
 62
7
  6
CONTINUOUS
 10
102.922976912
 20
32.4932199969
 30
0.0
 11
0.0
 21
160.6319854394
 31
0.0
 40
0.0871557427
 41
-0.0
 42
0.4275587029
  0
ELLIPSE
  5
297
100
AcDbEntity
  8
_1
100
AcDbEllipse
 62
7
  6
CONTINUOUS
 10
73.422976912
 20
32.4932199969
 30
0.0
 11
-0.0
 21
-160.6319854394
 31
0.0
 40
0.0871557427
 41
2.7140339507
 42
3.1415926536
  0
ELLIPSE
  5
298
100
AcDbEntity
  8
_1
100
AcDbEllipse
 62
7
  6
CONTINUOUS
 10
73.422976912
 20
32.4932199969
 30
0.0
 11
0.0
 21
160.6319854394
 31
0.0
 40
0.0871557427
 41
0.0
 42
0.4275587029
  0
ELLIPSE
  5
299
100
AcDbEntity
  8
_1
100
AcDbEllipse
 62
7
  6
CONTINUOUS
 10
62.9139146198
 20
180.1559131293
 30
0.0
 11
1.4143212623
 21
1.4143212623
 31
0.0
 40
0.9999238505
 41
-3.598068205
 42
-2.3562325664
  0
ELLIPSE
  5
29A
100
AcDbEntity
  8
_1
100
AcDbEllipse
 62
7
  6
CONTINUOUS
 10
113.4320392042
 20
180.1559131293
 30
0.0
 11
1.4143212623
 21
-1.4143212623
 31
0.0
 40
0.9999238505
 41
-0.7853600872
 42
0.456475526
  0
ENDSEC
  0
SECTION
  2
OBJECTS
  0
DICTIONARY
  5
C
100
AcDbDictionary
280
0
281
1
  3
ACAD_GROUP
350
D
  3
ACAD_MLINESTYLE
350
17
  3
ACAD_LAYOUT
350
1A
  3
ACAD_PLOTSETTINGS
350
19
  3
ACAD_PLOTSTYLENAME
350
E
  0
DICTIONARY
  5
D
102
{ACAD_REACTORS
330
C
102
}
100
AcDbDictionary
280
0
281
1
  0
ACDBDICTIONARYWDFLT
  5
E
102
{ACAD_REACTORS
330
C
102
}
100
AcDbDictionary
281
1
  3
Normal
350
F
100
AcDbDictionaryWithDefault
340
F
  0
DICTIONARY
  5
17
102
{ACAD_REACTORS
330
C
102
}
100
AcDbDictionary
280
0
281
1
  3
Standard
350
18
  0
DICTIONARY
  5
19
102
{ACAD_REACTORS
330
C
102
}
100
AcDbDictionary
281
1
  0
DICTIONARY
  5
1A
102
{ACAD_REACTORS
330
C
102
}
100
AcDbDictionary
281
1
  3
Model
350
29B
  3
Layout1
350
29C
  0
ACDBPLACEHOLDER
  5
F
102
{ACAD_REACTORS
330
E
102
}
  0
MLINESTYLE
  5
18
102
{ACAD_REACTORS
330
17
102
}
100
AcDbMlineStyle
  2
STANDARD
 70
0
  3

 62
256
 51
90.0
 52
90.0
 71
2
 49
0.5
 62
256
  6
BYLAYER
 49
-0.5
 62
256
  6
BYLAYER
  0
LAYOUT
  5
29B
102
{ACAD_REACTORS
330
1A
102
}
100
AcDbPlotSettings
  1

  2
none_device
  4

  6

 40
0.0
 41
0.0
 42
0.0
 43
0.0
 44
210.0
 45
297.0
 46
0.0
 47
0.0
 48
0.0
 49
0.0
140
0.0
141
0.0
142
1.0
143
1.0
 70
1024
 72
1
 73
0
 74
0
  7

 75
0
147
1.0
148
0.0
149
0.0
100
AcDbLayout
  1
Model
 70
0
 71
0
 10
0.0
 20
0.0
 11
210.0
 21
297.0
 12
0.0
 22
0.0
 32
0.0
 14
0.0
 24
0.0
 34
0.0
 15
0.0
 25
0.0
 35
0.0
146
0.0
 13
0.0
 23
0.0
 33
0.0
 16
1.0
 26
0.0
 36
0.0
 17
0.0
 27
1.0
 37
0.0
 76
0
330
211
345
0
346
0
  0
LAYOUT
  5
29C
102
{ACAD_REACTORS
330
1A
102
}
100
AcDbPlotSettings
  1

  2
none_device
  4

  6

 40
0.0
 41
0.0
 42
0.0
 43
0.0
 44
210.0
 45
297.0
 46
0.0
 47
0.0
 48
0.0
 49
0.0
140
0.0
141
0.0
142
1.0
143
1.0
 70
0
 72
1
 73
0
 74
0
  7

 75
0
147
1.0
148
0.0
149
0.0
100
AcDbLayout
  1
Layout1
 70
0
 71
1
 10
0.0
 20
0.0
 11
210.0
 21
297.0
 12
0.0
 22
0.0
 32
0.0
 14
0.0
 24
0.0
 34
0.0
 15
0.0
 25
0.0
 35
0.0
146
0.0
 13
0.0
 23
0.0
 33
0.0
 16
1.0
 26
0.0
 36
0.0
 17
0.0
 27
1.0
 37
0.0
 76
0
330
212
345
0
346
0
  0
ENDSEC
  0
EOF
