  0
SECTION
  2
HEADER
  9
$ACADVER
  1
AC1009
  9
$DWGCODEPAGE
  3
ansi_1250
  9
$INSBASE
 10
0.0
 20
0.0
 30
0.0
  9
$EXTMIN
 10
-4.76378
 20
0.0
 30
0.0
  9
$EXTMAX
 10
4.76378
 20
4.082677
 30
0.0
  9
$LIMMIN
 10
0.0
 20
0.0
  9
$LIMMAX
 10
0.0
 20
0.0
  9
$ORTHOMODE
 70
     0
  9
$REGENMODE
 70
     1
  9
$FILLMODE
 70
     1
  9
$QTEXTMODE
 70
     0
  9
$MIRRTEXT
 70
     1
  9
$DRAGMODE
 70
     2
  9
$LTSCALE
 40
1.0
  9
$OSMODE
 70
     0
  9
$ATTMODE
 70
     1
  9
$TEXTSIZE
 40
0.2
  9
$TRACEWID
 40
0.05
  9
$TEXTSTYLE
  7
STANDARD
  9
$CLAYER
  8
0
  9
$CELTYPE
  6
CONTINUOUS
  9
$CECOLOR
 62
   256
  9
$DIMSCALE
 40
1.0
  9
$DIMASZ
 40
0.18
  9
$DIMEXO
 40
0.0625
  9
$DIMDLI
 40
0.38
  9
$DIMRND
 40
0.0
  9
$DIMDLE
 40
0.0
  9
$DIMEXE
 40
0.18
  9
$DIMTP
 40
0.0
  9
$DIMTM
 40
0.0
  9
$DIMTXT
 40
0.18
  9
$DIMCEN
 40
0.09
  9
$DIMTSZ
 40
0.0
  9
$DIMTOL
 70
     0
  9
$DIMLIM
 70
     0
  9
$DIMTIH
 70
     1
  9
$DIMTOH
 70
     1
  9
$DIMSE1
 70
     0
  9
$DIMSE2
 70
     0
  9
$DIMTAD
 70
     0
  9
$DIMZIN
 70
     0
  9
$DIMBLK
  1

  9
$DIMASO
 70
     1
  9
$DIMSHO
 70
     1
  9
$DIMPOST
  1

  9
$DIMAPOST
  1

  9
$DIMALT
 70
     0
  9
$DIMALTD
 70
     2
  9
$DIMALTF
 40
25.4
  9
$DIMLFAC
 40
1.0
  9
$DIMTOFL
 70
     0
  9
$DIMTVP
 40
0.0
  9
$DIMTIX
 70
     0
  9
$DIMSOXD
 70
     0
  9
$DIMSAH
 70
     0
  9
$DIMBLK1
  1

  9
$DIMBLK2
  1

  9
$DIMSTYLE
  2
STANDARD
  9
$DIMCLRD
 70
     0
  9
$DIMCLRE
 70
     0
  9
$DIMCLRT
 70
     0
  9
$DIMTFAC
 40
1.0
  9
$DIMGAP
 40
0.09
  9
$LUNITS
 70
     2
  9
$LUPREC
 70
     4
  9
$AXISMODE
 70
     0
  9
$AXISUNIT
 10
0.0
 20
0.0
  9
$SKETCHINC
 40
0.1
  9
$FILLETRAD
 40
0.0
  9
$AUNITS
 70
     0
  9
$AUPREC
 70
     0
  9
$MENU
  1
acad
  9
$ELEVATION
 40
0.0
  9
$PELEVATION
 40
0.0
  9
$THICKNESS
 40
0.0
  9
$LIMCHECK
 70
     0
  9
$BLIPMODE
 70
     1
  9
$CHAMFERA
 40
0.0
  9
$CHAMFERB
 40
0.0
  9
$SKPOLY
 70
     0
  9
$TDCREATE
 40
0.000000000
  9
$TDUPDATE
 40
0.000000000
  9
$TDINDWG
 40
0.0000000000
  9
$TDUSRTIMER
 40
0.0000000000
  9
$USRTIMER
 70
     1
  9
$ANGBASE
 50
0.0
  9
$ANGDIR
 70
     0
  9
$PDMODE
 70
     0
  9
$PDSIZE
 40
0.0
  9
$PLINEWID
 40
0.0
  9
$COORDS
 70
     0
  9
$SPLFRAME
 70
     0
  9
$SPLINETYPE
 70
     6
  9
$SPLINESEGS
 70
     8
  9
$ATTDIA
 70
     0
  9
$ATTREQ
 70
     1
  9
$HANDLING
 70
     1
  9
$HANDSEED
  5
337
  9
$SURFTAB1
 70
     6
  9
$SURFTAB2
 70
     6
  9
$SURFTYPE
 70
     6
  9
$SURFU
 70
     6
  9
$SURFV
 70
     6
  9
$UCSNAME
  2

  9
$UCSORG
 10
0.0
 20
0.0
 30
0.0
  9
$UCSXDIR
 10
1.0
 20
0.0
 30
0.0
  9
$UCSYDIR
 10
0.0
 20
1.0
 30
0.0
  9
$PUCSNAME
  2

  9
$PUCSORG
 10
0.0
 20
0.0
 30
0.0
  9
$PUCSXDIR
 10
1.0
 20
0.0
 30
0.0
  9
$PUCSYDIR
 10
0.0
 20
1.0
 30
0.0
  9
$USERI1
 70
     0
  9
$USERI2
 70
     0
  9
$USERI3
 70
     0
  9
$USERI4
 70
     0
  9
$USERI5
 70
     0
  9
$USERR1
 40
0.0
  9
$USERR2
 40
0.0
  9
$USERR3
 40
0.0
  9
$USERR4
 40
0.0
  9
$USERR5
 40
0.0
  9
$WORLDVIEW
 70
     1
  9
$SHADEDGE
 70
     3
  9
$SHADEDIF
 70
    70
  9
$TILEMODE
 70
     1
  9
$MAXACTVP
 70
    16
  9
$PINSBASE
 10
0.0
 20
0.0
 30
0.0
  9
$PLIMCHECK
 70
     0
  9
$PEXTMIN
 10
1.000000E+20
 20
1.000000E+20
 30
1.000000E+20
  9
$PEXTMAX
 10
-1.000000E+20
 20
-1.000000E+20
 30
-1.000000E+20
  9
$PLIMMIN
 10
0.0
 20
0.0
  9
$PLIMMAX
 10
12.0
 20
9.0
  9
$UNITMODE
 70
     0
  9
$VISRETAIN
 70
     0
  9
$PLINEGEN
 70
     1
  9
$PSLTSCALE
 70
     0
  9
$TREEDEPTH
 70
  3020
  0
ENDSEC
  0
SECTION
  2
TABLES
  0
TABLE
  2
VPORT
 70
     1
  0
VPORT
  2
*ACTIVE
 70
     0
 10
0.0
 20
0.0
 11
1.0
 21
1.0
 12
6.591288
 22
4.579184
 13
0.0
 23
0.0
 14
1.0
 24
1.0
 15
0.0
 25
0.0
 16
0.0
 26
0.0
 36
1.0
 17
0.0
 27
0.0
 37
0.0
 40
9.158369
 41
0.688564
 42
50.0
 43
0.0
 44
0.0
 50
0.0
 51
0.0
 71
     0
 72
   100
 73
     1
 74
     1
 75
     0
 76
     0
 77
     0
 78
     0
  0
ENDTAB
  0
TABLE
  2
LTYPE
 70
     5
  0
LTYPE
  2
CONTINUOUS
 70
    64
  3
Solid line
 72
    65
 73
     0
 40
0.0
  0
LTYPE
  2
CENTER
 70
    64
  3
Center ____ _ ____ _ ____ _ ____ _ ____ _ ____
 72
    65
 73
     4
 40
50.8
 49
31.75
 49
-6.35
 49
6.35
 49
-6.35
  0
LTYPE
  2
HIDDEN
 70
    64
  3
Hidden __ __ __ __ __ __ __ __ __ __ __ __ __ __
 72
    65
 73
     2
 40
9.525
 49
6.35
 49
-3.175
  0
LTYPE
  2
CENTER2
 70
    64
  3
Center (.5x) ___ _ ___ _ ___ _ ___ _ ___ _ ___
 72
    65
 73
     4
 40
28.575
 49
19.05
 49
-3.175
 49
3.175
 49
-3.175
  0
LTYPE
  2
HIDDEN2
 70
    64
  3
Hidden (.5x) _ _ _ _ _ _ _ _ _ _ _ _ _ _ _ _ _
 72
    65
 73
     2
 40
4.7625
 49
3.175
 49
-1.5875
  0
ENDTAB
  0
TABLE
  2
LAYER
 70
     1
  0
LAYER
  2
0
 70
     0
 62
     7
  6
CONTINUOUS
  0
ENDTAB
  0
TABLE
  2
STYLE
 70
     1
  0
STYLE
  2
STANDARD
 70
     0
 40
0.0
 41
1.0
 50
0.0
 71
     0
 42
0.0
  3
txt
  4

  0
ENDTAB
  0
TABLE
  2
VIEW
 70
     0
  0
ENDTAB
  0
TABLE
  2
UCS
 70
     0
  0
ENDTAB
  0
TABLE
  2
APPID
 70
     1
  0
APPID
  2
ACAD
 70
     0
  0
ENDTAB
  0
TABLE
  2
DIMSTYLE
 70
     1
  0
DIMSTYLE
  2
STANDARD
 70
     0
  3

  4

  5

  6

  7

 40
1.0
 41
0.18
 42
0.0625
 43
0.38
 44
0.18
 45
0.0
 46
0.0
 47
0.0
 48
0.0
 71
     0
 72
     0
 73
     1
 74
     1
 75
     0
 76
     0
 77
     0
 78
     0
140
0.18
141
0.09
142
0.0
143
25.4
144
1.0
145
0.0
146
1.0
147
0.09
170
     0
171
     2
172
     0
173
     0
174
     0
175
     0
176
     0
177
     0
178
     0
  0
ENDTAB
  0
ENDSEC
  0
SECTION
  2
BLOCKS
  0
ENDSEC
  0
SECTION
  2
ENTITIES
  0
LINE
  8
0
  6
CONTINUOUS
 62
     7
  5
1C5
 10
-2.799311
 20
3.148819
 30
0.0
 11
-2.720571
 21
3.148819
 31
0.0
  0
LINE
  8
0
  6
CONTINUOUS
 62
     7
  5
1C6
 10
-2.720571
 20
2.114567
 30
0.0
 11
-2.799311
 21
2.114567
 31
0.0
  0
LINE
  8
0
  6
CONTINUOUS
 62
     7
  5
1C7
 10
-2.799311
 20
2.114567
 30
0.0
 11
-2.799311
 21
3.148819
 31
0.0
  0
LINE
  8
0
  6
CONTINUOUS
 62
     7
  5
1C8
 10
-2.720571
 20
3.148819
 30
0.0
 11
-2.720571
 21
2.114567
 31
0.0
  0
ARC
  8
0
  6
CONTINUOUS
 62
     7
  5
1C9
 10
-2.691043
 20
2.122076
 30
0.0
 40
0.035433
 50
285.0
 51
0.0
  0
LINE
  8
0
  6
CONTINUOUS
 62
     7
  5
1CA
 10
-2.681873
 20
2.08785
 30
0.0
 11
-2.819668
 21
2.050928
 31
0.0
  0
ARC
  8
0
  6
CONTINUOUS
 62
     7
  5
1CB
 10
-2.828839
 20
2.085154
 30
0.0
 40
0.035433
 50
180.0
 51
285.0
  0
LINE
  8
0
  6
CONTINUOUS
 62
     7
  5
1CC
 10
-2.864272
 20
2.085154
 30
0.0
 11
-2.864272
 21
3.178232
 31
0.0
  0
ARC
  8
0
  6
CONTINUOUS
 62
     7
  5
1CD
 10
-2.828839
 20
3.178232
 30
0.0
 40
0.035433
 50
75.0
 51
180.0
  0
LINE
  8
0
  6
CONTINUOUS
 62
     7
  5
1CE
 10
-2.819668
 20
3.212458
 30
0.0
 11
-2.681873
 21
3.175536
 31
0.0
  0
ARC
  8
0
  6
CONTINUOUS
 62
     7
  5
1CF
 10
-2.691043
 20
3.14131
 30
0.0
 40
0.035433
 50
0.0
 51
75.0
  0
LINE
  8
0
  6
CONTINUOUS
 62
     7
  5
1D0
 10
-2.65561
 20
3.14131
 30
0.0
 11
-2.65561
 21
2.122076
 31
0.0
  0
LINE
  8
0
  6
CONTINUOUS
 62
     7
  5
1D1
 10
4.318799
 20
2.646063
 30
0.0
 11
4.397539
 21
2.646063
 31
0.0
  0
LINE
  8
0
  6
CONTINUOUS
 62
     7
  5
1D2
 10
4.397539
 20
1.611811
 30
0.0
 11
4.318799
 21
1.611811
 31
0.0
  0
LINE
  8
0
  6
CONTINUOUS
 62
     7
  5
1D3
 10
4.318799
 20
1.611811
 30
0.0
 11
4.318799
 21
2.646063
 31
0.0
  0
LINE
  8
0
  6
CONTINUOUS
 62
     7
  5
1D4
 10
4.397539
 20
2.646063
 30
0.0
 11
4.397539
 21
1.611811
 31
0.0
  0
ARC
  8
0
  6
CONTINUOUS
 62
     7
  5
1D5
 10
4.427067
 20
1.61932
 30
0.0
 40
0.035433
 50
285.0
 51
0.0
  0
LINE
  8
0
  6
CONTINUOUS
 62
     7
  5
1D6
 10
4.436238
 20
1.585094
 30
0.0
 11
4.298442
 21
1.548172
 31
0.0
  0
ARC
  8
0
  6
CONTINUOUS
 62
     7
  5
1D7
 10
4.289272
 20
1.582398
 30
0.0
 40
0.035433
 50
180.0
 51
285.0
  0
LINE
  8
0
  6
CONTINUOUS
 62
     7
  5
1D8
 10
4.253839
 20
1.582398
 30
0.0
 11
4.253839
 21
2.675476
 31
0.0
  0
ARC
  8
0
  6
CONTINUOUS
 62
     7
  5
1D9
 10
4.289272
 20
2.675476
 30
0.0
 40
0.035433
 50
75.0
 51
180.0
  0
LINE
  8
0
  6
CONTINUOUS
 62
     7
  5
1DA
 10
4.298442
 20
2.709702
 30
0.0
 11
4.436238
 21
2.67278
 31
0.0
  0
ARC
  8
0
  6
CONTINUOUS
 62
     7
  5
1DB
 10
4.427067
 20
2.638554
 30
0.0
 40
0.035433
 50
0.0
 51
75.0
  0
LINE
  8
0
  6
CONTINUOUS
 62
     7
  5
1DC
 10
4.4625
 20
2.638554
 30
0.0
 11
4.4625
 21
1.61932
 31
0.0
  0
LINE
  8
0
  6
CONTINUOUS
 62
     7
  5
1DD
 10
-2.082762
 20
3.148819
 30
0.0
 11
-2.004022
 21
3.148819
 31
0.0
  0
LINE
  8
0
  6
CONTINUOUS
 62
     7
  5
1DE
 10
-2.004022
 20
2.114567
 30
0.0
 11
-2.082762
 21
2.114567
 31
0.0
  0
LINE
  8
0
  6
CONTINUOUS
 62
     7
  5
1DF
 10
-2.082762
 20
2.114567
 30
0.0
 11
-2.082762
 21
3.148819
 31
0.0
  0
LINE
  8
0
  6
CONTINUOUS
 62
     7
  5
1E0
 10
-2.004022
 20
3.148819
 30
0.0
 11
-2.004022
 21
2.114567
 31
0.0
  0
ARC
  8
0
  6
CONTINUOUS
 62
     7
  5
1E1
 10
-1.974494
 20
2.122076
 30
0.0
 40
0.035433
 50
285.0
 51
0.0
  0
LINE
  8
0
  6
CONTINUOUS
 62
     7
  5
1E2
 10
-1.965323
 20
2.08785
 30
0.0
 11
-2.103119
 21
2.050928
 31
0.0
  0
ARC
  8
0
  6
CONTINUOUS
 62
     7
  5
1E3
 10
-2.112289
 20
2.085154
 30
0.0
 40
0.035433
 50
180.0
 51
285.0
  0
LINE
  8
0
  6
CONTINUOUS
 62
     7
  5
1E4
 10
-2.147722
 20
2.085154
 30
0.0
 11
-2.147722
 21
3.178232
 31
0.0
  0
ARC
  8
0
  6
CONTINUOUS
 62
     7
  5
1E5
 10
-2.112289
 20
3.178232
 30
0.0
 40
0.035433
 50
75.0
 51
180.0
  0
LINE
  8
0
  6
CONTINUOUS
 62
     7
  5
1E6
 10
-2.103119
 20
3.212458
 30
0.0
 11
-1.965323
 21
3.175536
 31
0.0
  0
ARC
  8
0
  6
CONTINUOUS
 62
     7
  5
1E7
 10
-1.974494
 20
3.14131
 30
0.0
 40
0.035433
 50
0.0
 51
75.0
  0
LINE
  8
0
  6
CONTINUOUS
 62
     7
  5
1E8
 10
-1.939061
 20
3.14131
 30
0.0
 11
-1.939061
 21
2.122076
 31
0.0
  0
LINE
  8
0
  6
CONTINUOUS
 62
     7
  5
1E9
 10
-0.799297
 20
3.148819
 30
0.0
 11
-0.720557
 21
3.148819
 31
0.0
  0
LINE
  8
0
  6
CONTINUOUS
 62
     7
  5
1EA
 10
-0.720557
 20
2.114567
 30
0.0
 11
-0.799297
 21
2.114567
 31
0.0
  0
LINE
  8
0
  6
CONTINUOUS
 62
     7
  5
1EB
 10
-0.799297
 20
2.114567
 30
0.0
 11
-0.799297
 21
3.148819
 31
0.0
  0
LINE
  8
0
  6
CONTINUOUS
 62
     7
  5
1EC
 10
-0.720557
 20
3.148819
 30
0.0
 11
-0.720557
 21
2.114567
 31
0.0
  0
ARC
  8
0
  6
CONTINUOUS
 62
     7
  5
1ED
 10
-0.69103
 20
2.122076
 30
0.0
 40
0.035433
 50
285.0
 51
0.0
  0
LINE
  8
0
  6
CONTINUOUS
 62
     7
  5
1EE
 10
-0.681859
 20
2.08785
 30
0.0
 11
-0.819654
 21
2.050928
 31
0.0
  0
ARC
  8
0
  6
CONTINUOUS
 62
     7
  5
1EF
 10
-0.828825
 20
2.085154
 30
0.0
 40
0.035433
 50
180.0
 51
285.0
  0
LINE
  8
0
  6
CONTINUOUS
 62
     7
  5
1F0
 10
-0.864258
 20
2.085154
 30
0.0
 11
-0.864258
 21
3.178232
 31
0.0
  0
ARC
  8
0
  6
CONTINUOUS
 62
     7
  5
1F1
 10
-0.828825
 20
3.178232
 30
0.0
 40
0.035433
 50
75.0
 51
180.0
  0
LINE
  8
0
  6
CONTINUOUS
 62
     7
  5
1F2
 10
-0.819654
 20
3.212458
 30
0.0
 11
-0.681859
 21
3.175536
 31
0.0
  0
ARC
  8
0
  6
CONTINUOUS
 62
     7
  5
1F3
 10
-0.69103
 20
3.14131
 30
0.0
 40
0.035433
 50
0.0
 51
75.0
  0
LINE
  8
0
  6
CONTINUOUS
 62
     7
  5
1F4
 10
-0.655596
 20
3.14131
 30
0.0
 11
-0.655596
 21
2.122076
 31
0.0
  0
LINE
  8
0
  6
CONTINUOUS
 62
     7
  5
1F5
 10
0.484167
 20
3.148819
 30
0.0
 11
0.562907
 21
3.148819
 31
0.0
  0
LINE
  8
0
  6
CONTINUOUS
 62
     7
  5
1F6
 10
0.562907
 20
2.114567
 30
0.0
 11
0.484167
 21
2.114567
 31
0.0
  0
LINE
  8
0
  6
CONTINUOUS
 62
     7
  5
1F7
 10
0.484167
 20
2.114567
 30
0.0
 11
0.484167
 21
3.148819
 31
0.0
  0
LINE
  8
0
  6
CONTINUOUS
 62
     7
  5
1F8
 10
0.562907
 20
3.148819
 30
0.0
 11
0.562907
 21
2.114567
 31
0.0
  0
ARC
  8
0
  6
CONTINUOUS
 62
     7
  5
1F9
 10
0.592435
 20
2.122076
 30
0.0
 40
0.035433
 50
285.0
 51
0.0
  0
LINE
  8
0
  6
CONTINUOUS
 62
     7
  5
1FA
 10
0.601606
 20
2.08785
 30
0.0
 11
0.463811
 21
2.050928
 31
0.0
  0
ARC
  8
0
  6
CONTINUOUS
 62
     7
  5
1FB
 10
0.45464
 20
2.085154
 30
0.0
 40
0.035433
 50
180.0
 51
285.0
  0
LINE
  8
0
  6
CONTINUOUS
 62
     7
  5
1FC
 10
0.419207
 20
2.085154
 30
0.0
 11
0.419207
 21
3.178232
 31
0.0
  0
ARC
  8
0
  6
CONTINUOUS
 62
     7
  5
1FD
 10
0.45464
 20
3.178232
 30
0.0
 40
0.035433
 50
75.0
 51
180.0
  0
LINE
  8
0
  6
CONTINUOUS
 62
     7
  5
1FE
 10
0.463811
 20
3.212458
 30
0.0
 11
0.601606
 21
3.175536
 31
0.0
  0
ARC
  8
0
  6
CONTINUOUS
 62
     7
  5
1FF
 10
0.592435
 20
3.14131
 30
0.0
 40
0.035433
 50
0.0
 51
75.0
  0
LINE
  8
0
  6
CONTINUOUS
 62
     7
  5
200
 10
0.627868
 20
3.14131
 30
0.0
 11
0.627868
 21
2.122076
 31
0.0
  0
LINE
  8
0
  6
CONTINUOUS
 62
     7
  5
201
 10
1.767632
 20
3.148819
 30
0.0
 11
1.846372
 21
3.148819
 31
0.0
  0
LINE
  8
0
  6
CONTINUOUS
 62
     7
  5
202
 10
1.846372
 20
2.114567
 30
0.0
 11
1.767632
 21
2.114567
 31
0.0
  0
LINE
  8
0
  6
CONTINUOUS
 62
     7
  5
203
 10
1.767632
 20
2.114567
 30
0.0
 11
1.767632
 21
3.148819
 31
0.0
  0
LINE
  8
0
  6
CONTINUOUS
 62
     7
  5
204
 10
1.846372
 20
3.148819
 30
0.0
 11
1.846372
 21
2.114567
 31
0.0
  0
ARC
  8
0
  6
CONTINUOUS
 62
     7
  5
205
 10
1.8759
 20
2.122076
 30
0.0
 40
0.035433
 50
285.0
 51
0.0
  0
LINE
  8
0
  6
CONTINUOUS
 62
     7
  5
206
 10
1.88507
 20
2.08785
 30
0.0
 11
1.747275
 21
2.050928
 31
0.0
  0
ARC
  8
0
  6
CONTINUOUS
 62
     7
  5
207
 10
1.738104
 20
2.085154
 30
0.0
 40
0.035433
 50
180.0
 51
285.0
  0
LINE
  8
0
  6
CONTINUOUS
 62
     7
  5
208
 10
1.702671
 20
2.085154
 30
0.0
 11
1.702671
 21
3.178232
 31
0.0
  0
ARC
  8
0
  6
CONTINUOUS
 62
     7
  5
209
 10
1.738104
 20
3.178232
 30
0.0
 40
0.035433
 50
75.0
 51
180.0
  0
LINE
  8
0
  6
CONTINUOUS
 62
     7
  5
20A
 10
1.747275
 20
3.212458
 30
0.0
 11
1.88507
 21
3.175536
 31
0.0
  0
ARC
  8
0
  6
CONTINUOUS
 62
     7
  5
20B
 10
1.8759
 20
3.14131
 30
0.0
 40
0.035433
 50
0.0
 51
75.0
  0
LINE
  8
0
  6
CONTINUOUS
 62
     7
  5
20C
 10
1.911333
 20
3.14131
 30
0.0
 11
1.911333
 21
2.122076
 31
0.0
  0
LINE
  8
0
  6
CONTINUOUS
 62
     7
  5
20D
 10
3.051096
 20
3.148819
 30
0.0
 11
3.129837
 21
3.148819
 31
0.0
  0
LINE
  8
0
  6
CONTINUOUS
 62
     7
  5
20E
 10
3.129837
 20
2.114567
 30
0.0
 11
3.051096
 21
2.114567
 31
0.0
  0
LINE
  8
0
  6
CONTINUOUS
 62
     7
  5
20F
 10
3.051096
 20
2.114567
 30
0.0
 11
3.051096
 21
3.148819
 31
0.0
  0
LINE
  8
0
  6
CONTINUOUS
 62
     7
  5
210
 10
3.129837
 20
3.148819
 30
0.0
 11
3.129837
 21
2.114567
 31
0.0
  0
ARC
  8
0
  6
CONTINUOUS
 62
     7
  5
211
 10
3.159364
 20
2.122076
 30
0.0
 40
0.035433
 50
285.0
 51
0.0
  0
LINE
  8
0
  6
CONTINUOUS
 62
     7
  5
212
 10
3.168535
 20
2.08785
 30
0.0
 11
3.03074
 21
2.050928
 31
0.0
  0
ARC
  8
0
  6
CONTINUOUS
 62
     7
  5
213
 10
3.021569
 20
2.085154
 30
0.0
 40
0.035433
 50
180.0
 51
285.0
  0
LINE
  8
0
  6
CONTINUOUS
 62
     7
  5
214
 10
2.986136
 20
2.085154
 30
0.0
 11
2.986136
 21
3.178232
 31
0.0
  0
ARC
  8
0
  6
CONTINUOUS
 62
     7
  5
215
 10
3.021569
 20
3.178232
 30
0.0
 40
0.035433
 50
75.0
 51
180.0
  0
LINE
  8
0
  6
CONTINUOUS
 62
     7
  5
216
 10
3.03074
 20
3.212458
 30
0.0
 11
3.168535
 21
3.175536
 31
0.0
  0
ARC
  8
0
  6
CONTINUOUS
 62
     7
  5
217
 10
3.159364
 20
3.14131
 30
0.0
 40
0.035433
 50
0.0
 51
75.0
  0
LINE
  8
0
  6
CONTINUOUS
 62
     7
  5
218
 10
3.194797
 20
3.14131
 30
0.0
 11
3.194797
 21
2.122076
 31
0.0
  0
LINE
  8
0
  6
CONTINUOUS
 62
     7
  5
219
 10
3.248031
 20
3.403543
 30
0.0
 11
3.248031
 21
1.866929
 31
0.0
  0
LINE
  8
0
  6
CONTINUOUS
 62
     7
  5
21A
 10
3.248031
 20
1.866929
 30
0.0
 11
2.933071
 21
1.866929
 31
0.0
  0
LINE
  8
0
  6
CONTINUOUS
 62
     7
  5
21B
 10
2.933071
 20
1.866929
 30
0.0
 11
2.933071
 21
3.403543
 31
0.0
  0
LINE
  8
0
  6
CONTINUOUS
 62
     7
  5
21C
 10
2.933071
 20
3.403543
 30
0.0
 11
3.248031
 21
3.403543
 31
0.0
  0
LINE
  8
0
  6
CONTINUOUS
 62
     7
  5
21D
 10
3.248031
 20
3.403543
 30
0.0
 11
3.332677
 21
3.403543
 31
0.0
  0
LINE
  8
0
  6
CONTINUOUS
 62
     7
  5
21E
 10
-3.568898
 20
3.403543
 30
0.0
 11
-2.917323
 21
3.403543
 31
0.0
  0
LINE
  8
0
  6
CONTINUOUS
 62
     7
  5
21F
 10
-2.917323
 20
3.403543
 30
0.0
 11
-2.602362
 21
3.403543
 31
0.0
  0
LINE
  8
0
  6
CONTINUOUS
 62
     7
  5
220
 10
-2.602362
 20
3.403543
 30
0.0
 11
-2.200787
 21
3.403543
 31
0.0
  0
LINE
  8
0
  6
CONTINUOUS
 62
     7
  5
221
 10
-2.200787
 20
3.403543
 30
0.0
 11
-1.885827
 21
3.403543
 31
0.0
  0
LINE
  8
0
  6
CONTINUOUS
 62
     7
  5
222
 10
-1.885827
 20
3.403543
 30
0.0
 11
-0.917323
 21
3.403543
 31
0.0
  0
LINE
  8
0
  6
CONTINUOUS
 62
     7
  5
223
 10
-0.917323
 20
3.403543
 30
0.0
 11
-0.602362
 21
3.403543
 31
0.0
  0
LINE
  8
0
  6
CONTINUOUS
 62
     7
  5
224
 10
-0.602362
 20
3.403543
 30
0.0
 11
0.366142
 21
3.403543
 31
0.0
  0
LINE
  8
0
  6
CONTINUOUS
 62
     7
  5
225
 10
0.366142
 20
3.403543
 30
0.0
 11
0.681102
 21
3.403543
 31
0.0
  0
LINE
  8
0
  6
CONTINUOUS
 62
     7
  5
226
 10
0.681102
 20
3.403543
 30
0.0
 11
1.649606
 21
3.403543
 31
0.0
  0
LINE
  8
0
  6
CONTINUOUS
 62
     7
  5
227
 10
1.649606
 20
3.403543
 30
0.0
 11
1.964567
 21
3.403543
 31
0.0
  0
LINE
  8
0
  6
CONTINUOUS
 62
     7
  5
228
 10
1.964567
 20
3.403543
 30
0.0
 11
2.933071
 21
3.403543
 31
0.0
  0
LINE
  8
0
  6
CONTINUOUS
 62
     7
  5
229
 10
1.964567
 20
3.403543
 30
0.0
 11
1.964567
 21
1.866929
 31
0.0
  0
LINE
  8
0
  6
CONTINUOUS
 62
     7
  5
22A
 10
1.964567
 20
1.866929
 30
0.0
 11
1.649606
 21
1.866929
 31
0.0
  0
LINE
  8
0
  6
CONTINUOUS
 62
     7
  5
22B
 10
1.649606
 20
1.866929
 30
0.0
 11
1.649606
 21
3.403543
 31
0.0
  0
LINE
  8
0
  6
CONTINUOUS
 62
     7
  5
22C
 10
0.681102
 20
3.403543
 30
0.0
 11
0.681102
 21
1.866929
 31
0.0
  0
LINE
  8
0
  6
CONTINUOUS
 62
     7
  5
22D
 10
0.681102
 20
1.866929
 30
0.0
 11
0.366142
 21
1.866929
 31
0.0
  0
LINE
  8
0
  6
CONTINUOUS
 62
     7
  5
22E
 10
0.366142
 20
1.866929
 30
0.0
 11
0.366142
 21
3.403543
 31
0.0
  0
LINE
  8
0
  6
CONTINUOUS
 62
     7
  5
22F
 10
-0.602362
 20
3.403543
 30
0.0
 11
-0.602362
 21
1.866929
 31
0.0
  0
LINE
  8
0
  6
CONTINUOUS
 62
     7
  5
230
 10
-0.602362
 20
1.866929
 30
0.0
 11
-0.917323
 21
1.866929
 31
0.0
  0
LINE
  8
0
  6
CONTINUOUS
 62
     7
  5
231
 10
-0.917323
 20
1.866929
 30
0.0
 11
-0.917323
 21
3.403543
 31
0.0
  0
LINE
  8
0
  6
CONTINUOUS
 62
     7
  5
232
 10
-1.885827
 20
3.403543
 30
0.0
 11
-1.885827
 21
1.866929
 31
0.0
  0
LINE
  8
0
  6
CONTINUOUS
 62
     7
  5
233
 10
-1.885827
 20
1.866929
 30
0.0
 11
-2.200787
 21
1.866929
 31
0.0
  0
LINE
  8
0
  6
CONTINUOUS
 62
     7
  5
234
 10
-2.200787
 20
1.866929
 30
0.0
 11
-2.200787
 21
3.403543
 31
0.0
  0
LINE
  8
0
  6
CONTINUOUS
 62
     7
  5
235
 10
-2.602362
 20
3.403543
 30
0.0
 11
-2.602362
 21
1.866929
 31
0.0
  0
LINE
  8
0
  6
CONTINUOUS
 62
     7
  5
236
 10
-2.602362
 20
1.866929
 30
0.0
 11
-2.917323
 21
1.866929
 31
0.0
  0
LINE
  8
0
  6
CONTINUOUS
 62
     7
  5
237
 10
-2.917323
 20
1.866929
 30
0.0
 11
-2.917323
 21
3.403543
 31
0.0
  0
ARC
  8
0
  6
CONTINUOUS
 62
     7
  5
238
 10
4.517717
 20
2.910236
 30
0.0
 40
0.059055
 50
0.0
 51
90.0
  0
LINE
  8
0
  6
CONTINUOUS
 62
     7
  5
239
 10
4.17126
 20
2.969291
 30
0.0
 11
4.517717
 21
2.969291
 31
0.0
  0
LINE
  8
0
  6
CONTINUOUS
 62
     7
  5
23A
 10
4.517717
 20
1.276378
 30
0.0
 11
4.17126
 21
1.276378
 31
0.0
  0
ARC
  8
0
  6
CONTINUOUS
 62
     7
  5
23B
 10
4.517717
 20
1.335433
 30
0.0
 40
0.059055
 50
270.0
 51
360.0
  0
LINE
  8
0
  6
CONTINUOUS
 62
     7
  5
23C
 10
4.576772
 20
2.910236
 30
0.0
 11
4.576772
 21
1.335433
 31
0.0
  0
LINE
  8
0
  6
CONTINUOUS
 62
     7
  5
23D
 10
4.17126
 20
1.276378
 30
0.0
 11
4.17126
 21
2.969291
 31
0.0
  0
LINE
  8
0
  6
CONTINUOUS
 62
     7
  5
23E
 10
4.17126
 20
1.276378
 30
0.0
 11
3.391732
 21
1.276378
 31
0.0
  0
LINE
  8
0
  6
CONTINUOUS
 62
     7
  5
23F
 10
3.391732
 20
2.969291
 30
0.0
 11
4.17126
 21
2.969291
 31
0.0
  0
LINE
  8
0
  6
CONTINUOUS
 62
     7
  5
240
 10
3.332677
 20
0.751969
 30
0.0
 11
-3.568898
 21
0.751969
 31
0.0
  0
ARC
  8
0
  6
CONTINUOUS
 62
     7
  5
241
 10
-3.568898
 20
0.811024
 30
0.0
 40
0.059055
 50
180.0
 51
270.0
  0
LINE
  8
0
  6
CONTINUOUS
 62
     7
  5
242
 10
-3.627953
 20
0.811024
 30
0.0
 11
-3.627953
 21
3.344488
 31
0.0
  0
ARC
  8
0
  6
CONTINUOUS
 62
     7
  5
243
 10
-3.568898
 20
3.344488
 30
0.0
 40
0.059055
 50
90.0
 51
180.0
  0
ARC
  8
0
  6
CONTINUOUS
 62
     7
  5
244
 10
3.332677
 20
3.344488
 30
0.0
 40
0.059055
 50
0.0
 51
90.0
  0
LINE
  8
0
  6
CONTINUOUS
 62
     7
  5
245
 10
3.391732
 20
3.344488
 30
0.0
 11
3.391732
 21
0.811024
 31
0.0
  0
ARC
  8
0
  6
CONTINUOUS
 62
     7
  5
246
 10
3.332677
 20
0.811024
 30
0.0
 40
0.059055
 50
270.0
 51
360.0
  0
LINE
  8
0
  6
CONTINUOUS
 62
     7
  5
247
 10
3.682677
 20
0.020866
 30
0.0
 11
3.682677
 21
0.11811
 31
0.0
  0
LINE
  8
0
  6
CONTINUOUS
 62
     7
  5
248
 10
3.682677
 20
0.0
 30
0.0
 11
3.682677
 21
0.020866
 31
0.0
  0
LINE
  8
0
  6
CONTINUOUS
 62
     7
  5
249
 10
3.682677
 20
0.11811
 30
0.0
 11
3.977953
 21
0.11811
 31
0.0
  0
LINE
  8
0
  6
CONTINUOUS
 62
     7
  5
24A
 10
3.977953
 20
0.020866
 30
0.0
 11
3.977953
 21
0.0
 31
0.0
  0
LINE
  8
0
  6
CONTINUOUS
 62
     7
  5
24B
 10
3.977953
 20
0.11811
 30
0.0
 11
3.977953
 21
0.020866
 31
0.0
  0
LINE
  8
0
  6
CONTINUOUS
 62
     7
  5
24C
 10
0.0
 20
0.0
 30
0.0
 11
3.682677
 21
0.0
 31
0.0
  0
LINE
  8
0
  6
CONTINUOUS
 62
     7
  5
24D
 10
3.682677
 20
0.020866
 30
0.0
 11
-4.724409
 21
0.020866
 31
0.0
  0
LINE
  8
0
  6
CONTINUOUS
 62
     7
  5
24E
 10
-4.724409
 20
0.0
 30
0.0
 11
0.0
 21
0.0
 31
0.0
  0
LINE
  8
0
  6
CONTINUOUS
 62
     7
  5
24F
 10
-4.76378
 20
0.629921
 30
0.0
 11
-4.76378
 21
0.03937
 31
0.0
  0
LINE
  8
0
  6
CONTINUOUS
 62
     7
  5
250
 10
-4.76378
 20
1.259843
 30
0.0
 11
-4.76378
 21
0.629921
 31
0.0
  0
LINE
  8
0
  6
CONTINUOUS
 62
     7
  5
251
 10
-4.76378
 20
2.992126
 30
0.0
 11
-4.76378
 21
1.259843
 31
0.0
  0
LINE
  8
0
  6
CONTINUOUS
 62
     7
  5
252
 10
-4.76378
 20
3.622047
 30
0.0
 11
-4.76378
 21
2.992126
 31
0.0
  0
LINE
  8
0
  6
CONTINUOUS
 62
     7
  5
253
 10
-4.76378
 20
3.897638
 30
0.0
 11
-4.76378
 21
3.622047
 31
0.0
  0
CIRCLE
  8
0
  6
CONTINUOUS
 62
     7
  5
254
 10
3.858268
 20
3.307087
 30
0.0
 40
0.227303
  0
CIRCLE
  8
0
  6
CONTINUOUS
 62
     7
  5
255
 10
3.858268
 20
0.944882
 30
0.0
 40
0.227303
  0
CIRCLE
  8
0
  6
CONTINUOUS
 62
     7
  5
256
 10
-4.322835
 20
3.307087
 30
0.0
 40
0.227303
  0
CIRCLE
  8
0
  6
CONTINUOUS
 62
     7
  5
257
 10
-4.322835
 20
0.944882
 30
0.0
 40
0.227303
  0
ARC
  8
0
  6
CONTINUOUS
 62
     7
  5
258
 10
4.226378
 20
1.28622
 30
0.0
 40
0.059055
 50
256.506601
 51
270.0
  0
LINE
  8
0
  6
CONTINUOUS
 62
     7
  5
259
 10
4.597638
 20
1.227165
 30
0.0
 11
4.226378
 21
1.227165
 31
0.0
  0
ARC
  8
0
  6
CONTINUOUS
 62
     7
  5
25A
 10
4.226378
 20
2.97126
 30
0.0
 40
0.059055
 50
90.0
 51
103.493399
  0
LINE
  8
0
  6
CONTINUOUS
 62
     7
  5
25B
 10
4.226378
 20
3.030315
 30
0.0
 11
4.597638
 21
3.030315
 31
0.0
  0
ARC
  8
0
  6
CONTINUOUS
 62
     7
  5
25C
 10
4.597638
 20
2.97126
 30
0.0
 40
0.059055
 50
0.0
 51
90.0
  0
LINE
  8
0
  6
CONTINUOUS
 62
     7
  5
25D
 10
4.656693
 20
2.97126
 30
0.0
 11
4.656693
 21
1.28622
 31
0.0
  0
ARC
  8
0
  6
CONTINUOUS
 62
     7
  5
25E
 10
4.597638
 20
1.28622
 30
0.0
 40
0.059055
 50
270.0
 51
360.0
  0
LINE
  8
0
  6
CONTINUOUS
 62
     7
  5
25F
 10
4.724409
 20
0.020866
 30
0.0
 11
3.977953
 21
0.020866
 31
0.0
  0
ARC
  8
0
  6
CONTINUOUS
 62
     7
  5
260
 10
4.724409
 20
0.03937
 30
0.0
 40
0.018504
 50
270.0
 51
360.0
  0
LINE
  8
0
  6
CONTINUOUS
 62
     7
  5
261
 10
4.742913
 20
3.897638
 30
0.0
 11
4.742913
 21
0.03937
 31
0.0
  0
ARC
  8
0
  6
CONTINUOUS
 62
     7
  5
262
 10
4.724409
 20
3.897638
 30
0.0
 40
0.018504
 50
0.0
 51
90.0
  0
LINE
  8
0
  6
CONTINUOUS
 62
     7
  5
263
 10
4.42364
 20
3.916141
 30
0.0
 11
4.724409
 21
3.916141
 31
0.0
  0
LINE
  8
0
  6
CONTINUOUS
 62
     7
  5
264
 10
4.294922
 20
4.04486
 30
0.0
 11
4.42364
 21
3.916141
 31
0.0
  0
ARC
  8
0
  6
CONTINUOUS
 62
     7
  5
265
 10
4.253999
 20
4.003937
 30
0.0
 40
0.057874
 50
45.0
 51
90.0
  0
LINE
  8
0
  6
CONTINUOUS
 62
     7
  5
266
 10
4.138127
 20
4.061811
 30
0.0
 11
4.253999
 21
4.061811
 31
0.0
  0
ARC
  8
0
  6
CONTINUOUS
 62
     7
  5
267
 10
4.138127
 20
4.003937
 30
0.0
 40
0.057874
 50
90.0
 51
135.0
  0
LINE
  8
0
  6
CONTINUOUS
 62
     7
  5
268
 10
3.968486
 20
3.916141
 30
0.0
 11
4.097204
 21
4.04486
 31
0.0
  0
LINE
  8
0
  6
CONTINUOUS
 62
     7
  5
269
 10
3.140176
 20
3.916141
 30
0.0
 11
3.968486
 21
3.916141
 31
0.0
  0
LINE
  8
0
  6
CONTINUOUS
 62
     7
  5
26A
 10
3.011457
 20
4.04486
 30
0.0
 11
3.140176
 21
3.916141
 31
0.0
  0
ARC
  8
0
  6
CONTINUOUS
 62
     7
  5
26B
 10
2.970534
 20
4.003937
 30
0.0
 40
0.057874
 50
45.0
 51
90.0
  0
LINE
  8
0
  6
CONTINUOUS
 62
     7
  5
26C
 10
2.854662
 20
4.061811
 30
0.0
 11
2.970534
 21
4.061811
 31
0.0
  0
ARC
  8
0
  6
CONTINUOUS
 62
     7
  5
26D
 10
2.854662
 20
4.003937
 30
0.0
 40
0.057874
 50
90.0
 51
135.0
  0
LINE
  8
0
  6
CONTINUOUS
 62
     7
  5
26E
 10
2.685021
 20
3.916141
 30
0.0
 11
2.81374
 21
4.04486
 31
0.0
  0
LINE
  8
0
  6
CONTINUOUS
 62
     7
  5
26F
 10
1.856711
 20
3.916141
 30
0.0
 11
2.685021
 21
3.916141
 31
0.0
  0
LINE
  8
0
  6
CONTINUOUS
 62
     7
  5
270
 10
1.727993
 20
4.04486
 30
0.0
 11
1.856711
 21
3.916141
 31
0.0
  0
ARC
  8
0
  6
CONTINUOUS
 62
     7
  5
271
 10
1.68707
 20
4.003937
 30
0.0
 40
0.057874
 50
45.0
 51
90.0
  0
LINE
  8
0
  6
CONTINUOUS
 62
     7
  5
272
 10
1.571198
 20
4.061811
 30
0.0
 11
1.68707
 21
4.061811
 31
0.0
  0
ARC
  8
0
  6
CONTINUOUS
 62
     7
  5
273
 10
1.571198
 20
4.003937
 30
0.0
 40
0.057874
 50
90.0
 51
135.0
  0
LINE
  8
0
  6
CONTINUOUS
 62
     7
  5
274
 10
1.401557
 20
3.916141
 30
0.0
 11
1.530275
 21
4.04486
 31
0.0
  0
LINE
  8
0
  6
CONTINUOUS
 62
     7
  5
275
 10
0.573247
 20
3.916141
 30
0.0
 11
1.401557
 21
3.916141
 31
0.0
  0
LINE
  8
0
  6
CONTINUOUS
 62
     7
  5
276
 10
0.444528
 20
4.04486
 30
0.0
 11
0.573247
 21
3.916141
 31
0.0
  0
ARC
  8
0
  6
CONTINUOUS
 62
     7
  5
277
 10
0.403605
 20
4.003937
 30
0.0
 40
0.057874
 50
45.0
 51
90.0
  0
LINE
  8
0
  6
CONTINUOUS
 62
     7
  5
278
 10
0.287733
 20
4.061811
 30
0.0
 11
0.403605
 21
4.061811
 31
0.0
  0
ARC
  8
0
  6
CONTINUOUS
 62
     7
  5
279
 10
0.287733
 20
4.003937
 30
0.0
 40
0.057874
 50
90.0
 51
135.0
  0
LINE
  8
0
  6
CONTINUOUS
 62
     7
  5
27A
 10
0.118092
 20
3.916141
 30
0.0
 11
0.24681
 21
4.04486
 31
0.0
  0
LINE
  8
0
  6
CONTINUOUS
 62
     7
  5
27B
 10
-0.710218
 20
3.916141
 30
0.0
 11
0.118092
 21
3.916141
 31
0.0
  0
LINE
  8
0
  6
CONTINUOUS
 62
     7
  5
27C
 10
-0.838936
 20
4.04486
 30
0.0
 11
-0.710218
 21
3.916141
 31
0.0
  0
ARC
  8
0
  6
CONTINUOUS
 62
     7
  5
27D
 10
-0.879859
 20
4.003937
 30
0.0
 40
0.057874
 50
45.0
 51
90.0
  0
LINE
  8
0
  6
CONTINUOUS
 62
     7
  5
27E
 10
-0.995731
 20
4.061811
 30
0.0
 11
-0.879859
 21
4.061811
 31
0.0
  0
ARC
  8
0
  6
CONTINUOUS
 62
     7
  5
27F
 10
-0.995731
 20
4.003937
 30
0.0
 40
0.057874
 50
90.0
 51
135.0
  0
LINE
  8
0
  6
CONTINUOUS
 62
     7
  5
280
 10
-1.165373
 20
3.916141
 30
0.0
 11
-1.036654
 21
4.04486
 31
0.0
  0
LINE
  8
0
  6
CONTINUOUS
 62
     7
  5
281
 10
-1.993683
 20
3.916141
 30
0.0
 11
-1.165373
 21
3.916141
 31
0.0
  0
LINE
  8
0
  6
CONTINUOUS
 62
     7
  5
282
 10
-2.122401
 20
4.04486
 30
0.0
 11
-1.993683
 21
3.916141
 31
0.0
  0
ARC
  8
0
  6
CONTINUOUS
 62
     7
  5
283
 10
-2.163324
 20
4.003937
 30
0.0
 40
0.057874
 50
45.0
 51
90.0
  0
LINE
  8
0
  6
CONTINUOUS
 62
     7
  5
284
 10
-2.279196
 20
4.061811
 30
0.0
 11
-2.163324
 21
4.061811
 31
0.0
  0
ARC
  8
0
  6
CONTINUOUS
 62
     7
  5
285
 10
-2.279196
 20
4.003937
 30
0.0
 40
0.057874
 50
90.0
 51
135.0
  0
LINE
  8
0
  6
CONTINUOUS
 62
     7
  5
286
 10
-2.448837
 20
3.916141
 30
0.0
 11
-2.320119
 21
4.04486
 31
0.0
  0
LINE
  8
0
  6
CONTINUOUS
 62
     7
  5
287
 10
-4.724409
 20
3.916141
 30
0.0
 11
-2.448837
 21
3.916141
 31
0.0
  0
ARC
  8
0
  6
CONTINUOUS
 62
     7
  5
288
 10
-4.724409
 20
3.897638
 30
0.0
 40
0.018504
 50
90.0
 51
180.0
  0
LINE
  8
0
  6
CONTINUOUS
 62
     7
  5
289
 10
-4.742913
 20
3.622047
 30
0.0
 11
-4.742913
 21
3.897638
 31
0.0
  0
LINE
  8
0
  6
CONTINUOUS
 62
     7
  5
28A
 10
-4.742913
 20
3.622047
 30
0.0
 11
-4.322835
 21
3.622047
 31
0.0
  0
ARC
  8
0
  6
CONTINUOUS
 62
     7
  5
28B
 10
-4.322835
 20
3.307087
 30
0.0
 40
0.314961
 50
270.0
 51
90.0
  0
LINE
  8
0
  6
CONTINUOUS
 62
     7
  5
28C
 10
-4.322835
 20
2.992126
 30
0.0
 11
-4.742913
 21
2.992126
 31
0.0
  0
LINE
  8
0
  6
CONTINUOUS
 62
     7
  5
28D
 10
-4.742913
 20
1.259843
 30
0.0
 11
-4.742913
 21
2.992126
 31
0.0
  0
LINE
  8
0
  6
CONTINUOUS
 62
     7
  5
28E
 10
-4.742913
 20
1.259843
 30
0.0
 11
-4.322835
 21
1.259843
 31
0.0
  0
ARC
  8
0
  6
CONTINUOUS
 62
     7
  5
28F
 10
-4.322835
 20
0.944882
 30
0.0
 40
0.314961
 50
270.0
 51
90.0
  0
LINE
  8
0
  6
CONTINUOUS
 62
     7
  5
290
 10
-4.322835
 20
0.629921
 30
0.0
 11
-4.742913
 21
0.629921
 31
0.0
  0
LINE
  8
0
  6
CONTINUOUS
 62
     7
  5
291
 10
-4.742913
 20
0.03937
 30
0.0
 11
-4.742913
 21
0.629921
 31
0.0
  0
ARC
  8
0
  6
CONTINUOUS
 62
     7
  5
292
 10
-4.724409
 20
0.03937
 30
0.0
 40
0.018504
 50
180.0
 51
270.0
  0
CIRCLE
  8
0
  6
CONTINUOUS
 62
     7
  5
293
 10
4.196063
 20
3.889764
 30
0.0
 40
0.145669
  0
CIRCLE
  8
0
  6
CONTINUOUS
 62
     7
  5
294
 10
2.912598
 20
3.889764
 30
0.0
 40
0.145669
  0
CIRCLE
  8
0
  6
CONTINUOUS
 62
     7
  5
295
 10
1.629134
 20
3.889764
 30
0.0
 40
0.145669
  0
CIRCLE
  8
0
  6
CONTINUOUS
 62
     7
  5
296
 10
0.345669
 20
3.889764
 30
0.0
 40
0.145669
  0
CIRCLE
  8
0
  6
CONTINUOUS
 62
     7
  5
297
 10
-0.937795
 20
3.889764
 30
0.0
 40
0.145669
  0
CIRCLE
  8
0
  6
CONTINUOUS
 62
     7
  5
298
 10
-2.22126
 20
3.889764
 30
0.0
 40
0.145669
  0
LINE
  8
0
  6
CONTINUOUS
 62
     7
  5
299
 10
-3.8
 20
0.173228
 30
0.0
 11
-4.03622
 21
0.173228
 31
0.0
  0
ARC
  8
0
  6
CONTINUOUS
 62
     7
  5
29A
 10
-4.03622
 20
0.177165
 30
0.0
 40
0.003937
 50
180.0
 51
269.999999
  0
LINE
  8
0
  6
CONTINUOUS
 62
     7
  5
29B
 10
-4.040157
 20
0.177165
 30
0.0
 11
-4.040157
 21
0.586614
 31
0.0
  0
ARC
  8
0
  6
CONTINUOUS
 62
     7
  5
29C
 10
-4.000787
 20
0.586614
 30
0.0
 40
0.03937
 50
90.0
 51
180.0
  0
LINE
  8
0
  6
CONTINUOUS
 62
     7
  5
29D
 10
-4.000787
 20
0.625984
 30
0.0
 11
-3.835433
 21
0.625984
 31
0.0
  0
ARC
  8
0
  6
CONTINUOUS
 62
     7
  5
29E
 10
-3.835433
 20
0.586614
 30
0.0
 40
0.03937
 50
0.0
 51
90.0
  0
LINE
  8
0
  6
CONTINUOUS
 62
     7
  5
29F
 10
-3.796063
 20
0.586614
 30
0.0
 11
-3.796063
 21
0.177165
 31
0.0
  0
ARC
  8
0
  6
CONTINUOUS
 62
     7
  5
2A0
 10
-3.8
 20
0.177165
 30
0.0
 40
0.003937
 50
270.0
 51
359.999999
  0
LINE
  8
0
  6
CONTINUOUS
 62
     7
  5
2A1
 10
3.546457
 20
0.173228
 30
0.0
 11
3.310236
 21
0.173228
 31
0.0
  0
ARC
  8
0
  6
CONTINUOUS
 62
     7
  5
2A2
 10
3.310236
 20
0.177165
 30
0.0
 40
0.003937
 50
180.0
 51
269.999999
  0
LINE
  8
0
  6
CONTINUOUS
 62
     7
  5
2A3
 10
3.306299
 20
0.177165
 30
0.0
 11
3.306299
 21
0.586614
 31
0.0
  0
ARC
  8
0
  6
CONTINUOUS
 62
     7
  5
2A4
 10
3.345669
 20
0.586614
 30
0.0
 40
0.03937
 50
90.0
 51
180.0
  0
LINE
  8
0
  6
CONTINUOUS
 62
     7
  5
2A5
 10
3.345669
 20
0.625984
 30
0.0
 11
3.511024
 21
0.625984
 31
0.0
  0
ARC
  8
0
  6
CONTINUOUS
 62
     7
  5
2A6
 10
3.511024
 20
0.586614
 30
0.0
 40
0.03937
 50
0.0
 51
90.0
  0
LINE
  8
0
  6
CONTINUOUS
 62
     7
  5
2A7
 10
3.550394
 20
0.586614
 30
0.0
 11
3.550394
 21
0.177165
 31
0.0
  0
ARC
  8
0
  6
CONTINUOUS
 62
     7
  5
2A8
 10
3.546457
 20
0.177165
 30
0.0
 40
0.003937
 50
270.0
 51
359.999999
  0
LINE
  8
0
  6
CONTINUOUS
 62
     7
  5
2A9
 10
-2.634646
 20
0.173228
 30
0.0
 11
-2.870866
 21
0.173228
 31
0.0
  0
ARC
  8
0
  6
CONTINUOUS
 62
     7
  5
2AA
 10
-2.870866
 20
0.177165
 30
0.0
 40
0.003937
 50
180.0
 51
269.999999
  0
LINE
  8
0
  6
CONTINUOUS
 62
     7
  5
2AB
 10
-2.874803
 20
0.177165
 30
0.0
 11
-2.874803
 21
0.523543
 31
0.0
  0
ARC
  8
0
  6
CONTINUOUS
 62
     7
  5
2AC
 10
-2.835433
 20
0.523543
 30
0.0
 40
0.03937
 50
90.0
 51
180.0
  0
LINE
  8
0
  6
CONTINUOUS
 62
     7
  5
2AD
 10
-2.835433
 20
0.562913
 30
0.0
 11
-2.670079
 21
0.562913
 31
0.0
  0
ARC
  8
0
  6
CONTINUOUS
 62
     7
  5
2AE
 10
-2.670079
 20
0.523543
 30
0.0
 40
0.03937
 50
0.0
 51
90.0
  0
LINE
  8
0
  6
CONTINUOUS
 62
     7
  5
2AF
 10
-2.630709
 20
0.523543
 30
0.0
 11
-2.630709
 21
0.177165
 31
0.0
  0
ARC
  8
0
  6
CONTINUOUS
 62
     7
  5
2B0
 10
-2.634646
 20
0.177165
 30
0.0
 40
0.003937
 50
270.0
 51
359.999999
  0
LINE
  8
0
  6
CONTINUOUS
 62
     7
  5
2B1
 10
4.468504
 20
0.173228
 30
0.0
 11
4.114173
 21
0.173228
 31
0.0
  0
ARC
  8
0
  6
CONTINUOUS
 62
     7
  5
2B2
 10
4.114173
 20
0.177165
 30
0.0
 40
0.003937
 50
180.0
 51
269.999999
  0
LINE
  8
0
  6
CONTINUOUS
 62
     7
  5
2B3
 10
4.110236
 20
0.177165
 30
0.0
 11
4.110236
 21
0.586614
 31
0.0
  0
ARC
  8
0
  6
CONTINUOUS
 62
     7
  5
2B4
 10
4.149606
 20
0.586614
 30
0.0
 40
0.03937
 50
90.0
 51
180.0
  0
LINE
  8
0
  6
CONTINUOUS
 62
     7
  5
2B5
 10
4.149606
 20
0.625984
 30
0.0
 11
4.433071
 21
0.625984
 31
0.0
  0
ARC
  8
0
  6
CONTINUOUS
 62
     7
  5
2B6
 10
4.433071
 20
0.586614
 30
0.0
 40
0.03937
 50
0.0
 51
90.0
  0
LINE
  8
0
  6
CONTINUOUS
 62
     7
  5
2B7
 10
4.472441
 20
0.586614
 30
0.0
 11
4.472441
 21
0.177165
 31
0.0
  0
ARC
  8
0
  6
CONTINUOUS
 62
     7
  5
2B8
 10
4.468504
 20
0.177165
 30
0.0
 40
0.003937
 50
270.0
 51
359.999999
  0
LINE
  8
0
  6
CONTINUOUS
 62
     7
  5
2B9
 10
-1.351181
 20
0.173228
 30
0.0
 11
-1.807874
 21
0.173228
 31
0.0
  0
ARC
  8
0
  6
CONTINUOUS
 62
     7
  5
2BA
 10
-1.807874
 20
0.177165
 30
0.0
 40
0.003937
 50
180.0
 51
269.999999
  0
LINE
  8
0
  6
CONTINUOUS
 62
     7
  5
2BB
 10
-1.811811
 20
0.177165
 30
0.0
 11
-1.811811
 21
0.586614
 31
0.0
  0
ARC
  8
0
  6
CONTINUOUS
 62
     7
  5
2BC
 10
-1.772441
 20
0.586614
 30
0.0
 40
0.03937
 50
90.0
 51
180.0
  0
LINE
  8
0
  6
CONTINUOUS
 62
     7
  5
2BD
 10
-1.772441
 20
0.625984
 30
0.0
 11
-1.386614
 21
0.625984
 31
0.0
  0
ARC
  8
0
  6
CONTINUOUS
 62
     7
  5
2BE
 10
-1.386614
 20
0.586614
 30
0.0
 40
0.03937
 50
0.0
 51
90.0
  0
LINE
  8
0
  6
CONTINUOUS
 62
     7
  5
2BF
 10
-1.347244
 20
0.586614
 30
0.0
 11
-1.347244
 21
0.177165
 31
0.0
  0
ARC
  8
0
  6
CONTINUOUS
 62
     7
  5
2C0
 10
-1.351181
 20
0.177165
 30
0.0
 40
0.003937
 50
270.0
 51
359.999999
  0
LINE
  8
0
  6
CONTINUOUS
 62
     7
  5
2C1
 10
-0.067717
 20
0.173228
 30
0.0
 11
-0.524409
 21
0.173228
 31
0.0
  0
ARC
  8
0
  6
CONTINUOUS
 62
     7
  5
2C2
 10
-0.524409
 20
0.177165
 30
0.0
 40
0.003937
 50
180.0
 51
269.999999
  0
LINE
  8
0
  6
CONTINUOUS
 62
     7
  5
2C3
 10
-0.528346
 20
0.177165
 30
0.0
 11
-0.528346
 21
0.586614
 31
0.0
  0
ARC
  8
0
  6
CONTINUOUS
 62
     7
  5
2C4
 10
-0.488976
 20
0.586614
 30
0.0
 40
0.03937
 50
90.0
 51
180.0
  0
LINE
  8
0
  6
CONTINUOUS
 62
     7
  5
2C5
 10
-0.488976
 20
0.625984
 30
0.0
 11
-0.10315
 21
0.625984
 31
0.0
  0
ARC
  8
0
  6
CONTINUOUS
 62
     7
  5
2C6
 10
-0.10315
 20
0.586614
 30
0.0
 40
0.03937
 50
0.0
 51
90.0
  0
LINE
  8
0
  6
CONTINUOUS
 62
     7
  5
2C7
 10
-0.06378
 20
0.586614
 30
0.0
 11
-0.06378
 21
0.177165
 31
0.0
  0
ARC
  8
0
  6
CONTINUOUS
 62
     7
  5
2C8
 10
-0.067717
 20
0.177165
 30
0.0
 40
0.003937
 50
270.0
 51
359.999999
  0
LINE
  8
0
  6
CONTINUOUS
 62
     7
  5
2C9
 10
1.215748
 20
0.173228
 30
0.0
 11
0.759055
 21
0.173228
 31
0.0
  0
ARC
  8
0
  6
CONTINUOUS
 62
     7
  5
2CA
 10
0.759055
 20
0.177165
 30
0.0
 40
0.003937
 50
180.0
 51
269.999999
  0
LINE
  8
0
  6
CONTINUOUS
 62
     7
  5
2CB
 10
0.755118
 20
0.177165
 30
0.0
 11
0.755118
 21
0.586614
 31
0.0
  0
ARC
  8
0
  6
CONTINUOUS
 62
     7
  5
2CC
 10
0.794488
 20
0.586614
 30
0.0
 40
0.03937
 50
90.0
 51
180.0
  0
LINE
  8
0
  6
CONTINUOUS
 62
     7
  5
2CD
 10
0.794488
 20
0.625984
 30
0.0
 11
1.180315
 21
0.625984
 31
0.0
  0
ARC
  8
0
  6
CONTINUOUS
 62
     7
  5
2CE
 10
1.180315
 20
0.586614
 30
0.0
 40
0.03937
 50
0.0
 51
90.0
  0
LINE
  8
0
  6
CONTINUOUS
 62
     7
  5
2CF
 10
1.219685
 20
0.586614
 30
0.0
 11
1.219685
 21
0.177165
 31
0.0
  0
ARC
  8
0
  6
CONTINUOUS
 62
     7
  5
2D0
 10
1.215748
 20
0.177165
 30
0.0
 40
0.003937
 50
270.0
 51
359.999999
  0
LINE
  8
0
  6
CONTINUOUS
 62
     7
  5
2D1
 10
2.499213
 20
0.173228
 30
0.0
 11
2.04252
 21
0.173228
 31
0.0
  0
ARC
  8
0
  6
CONTINUOUS
 62
     7
  5
2D2
 10
2.04252
 20
0.177165
 30
0.0
 40
0.003937
 50
180.0
 51
269.999999
  0
LINE
  8
0
  6
CONTINUOUS
 62
     7
  5
2D3
 10
2.038583
 20
0.177165
 30
0.0
 11
2.038583
 21
0.586614
 31
0.0
  0
ARC
  8
0
  6
CONTINUOUS
 62
     7
  5
2D4
 10
2.077953
 20
0.586614
 30
0.0
 40
0.03937
 50
90.0
 51
180.0
  0
LINE
  8
0
  6
CONTINUOUS
 62
     7
  5
2D5
 10
2.077953
 20
0.625984
 30
0.0
 11
2.46378
 21
0.625984
 31
0.0
  0
ARC
  8
0
  6
CONTINUOUS
 62
     7
  5
2D6
 10
2.46378
 20
0.586614
 30
0.0
 40
0.03937
 50
0.0
 51
90.0
  0
LINE
  8
0
  6
CONTINUOUS
 62
     7
  5
2D7
 10
2.50315
 20
0.586614
 30
0.0
 11
2.50315
 21
0.177165
 31
0.0
  0
ARC
  8
0
  6
CONTINUOUS
 62
     7
  5
2D8
 10
2.499213
 20
0.177165
 30
0.0
 40
0.003937
 50
270.0
 51
359.999999
  0
LINE
  8
0
  6
CONTINUOUS
 62
     7
  5
2D9
 10
4.212598
 20
1.228795
 30
0.0
 11
4.212598
 21
0.944882
 31
0.0
  0
ARC
  8
0
  6
CONTINUOUS
 62
     7
  5
2DA
 10
3.858268
 20
0.944882
 30
0.0
 40
0.354331
 50
330.717912
 51
360.0
  0
LINE
  8
0
  6
CONTINUOUS
 62
     7
  5
2DB
 10
4.167323
 20
0.771575
 30
0.0
 11
4.167323
 21
0.732283
 31
0.0
  0
ARC
  8
0
  6
CONTINUOUS
 62
     7
  5
2DC
 10
4.108268
 20
0.732283
 30
0.0
 40
0.059055
 50
270.0
 51
360.0
  0
LINE
  8
0
  6
CONTINUOUS
 62
     7
  5
2DD
 10
4.108268
 20
0.673228
 30
0.0
 11
4.085764
 21
0.673228
 31
0.0
  0
ARC
  8
0
  6
CONTINUOUS
 62
     7
  5
2DE
 10
3.858268
 20
0.944882
 30
0.0
 40
0.354331
 50
270.0
 51
309.944505
  0
ARC
  8
0
  6
CONTINUOUS
 62
     7
  5
2DF
 10
3.858268
 20
0.944882
 30
0.0
 40
0.354331
 50
230.055495
 51
270.0
  0
LINE
  8
0
  6
CONTINUOUS
 62
     7
  5
2E0
 10
3.630771
 20
0.673228
 30
0.0
 11
-3.647638
 21
0.673228
 31
0.0
  0
ARC
  8
0
  6
CONTINUOUS
 62
     7
  5
2E1
 10
-3.647638
 20
0.732283
 30
0.0
 40
0.059055
 50
180.0
 51
270.0
  0
LINE
  8
0
  6
CONTINUOUS
 62
     7
  5
2E2
 10
-3.706693
 20
0.732283
 30
0.0
 11
-3.706693
 21
3.423228
 31
0.0
  0
ARC
  8
0
  6
CONTINUOUS
 62
     7
  5
2E3
 10
-3.647638
 20
3.423228
 30
0.0
 40
0.059055
 50
90.0
 51
180.0
  0
LINE
  8
0
  6
CONTINUOUS
 62
     7
  5
2E4
 10
-3.647638
 20
3.482283
 30
0.0
 11
3.611152
 21
3.482283
 31
0.0
  0
ARC
  8
0
  6
CONTINUOUS
 62
     7
  5
2E5
 10
3.858268
 20
3.228346
 30
0.0
 40
0.354331
 50
90.0
 51
134.220044
  0
ARC
  8
0
  6
CONTINUOUS
 62
     7
  5
2E6
 10
3.858268
 20
3.228346
 30
0.0
 40
0.354331
 50
45.779956
 51
90.0
  0
LINE
  8
0
  6
CONTINUOUS
 62
     7
  5
2E7
 10
4.105384
 20
3.482283
 30
0.0
 11
4.108268
 21
3.482283
 31
0.0
  0
ARC
  8
0
  6
CONTINUOUS
 62
     7
  5
2E8
 10
4.108268
 20
3.423228
 30
0.0
 40
0.059055
 50
0.0
 51
90.0
  0
LINE
  8
0
  6
CONTINUOUS
 62
     7
  5
2E9
 10
4.167323
 20
3.423228
 30
0.0
 11
4.167323
 21
3.401653
 31
0.0
  0
ARC
  8
0
  6
CONTINUOUS
 62
     7
  5
2EA
 10
3.858268
 20
3.228346
 30
0.0
 40
0.354331
 50
0.0
 51
29.282088
  0
LINE
  8
0
  6
CONTINUOUS
 62
     7
  5
2EB
 10
4.212598
 20
3.228346
 30
0.0
 11
4.212598
 21
3.028685
 31
0.0
  0
LINE
  8
0
  6
CONTINUOUS
 62
     7
  5
2EC
 10
-4.742913
 20
2.992126
 30
0.0
 11
-4.76378
 21
2.992126
 31
0.0
  0
LINE
  8
0
  6
CONTINUOUS
 62
     7
  5
2ED
 10
-4.76378
 20
3.622047
 30
0.0
 11
-4.742913
 21
3.622047
 31
0.0
  0
LINE
  8
0
  6
CONTINUOUS
 62
     7
  5
2EE
 10
-4.76378
 20
1.259843
 30
0.0
 11
-4.742913
 21
1.259843
 31
0.0
  0
LINE
  8
0
  6
CONTINUOUS
 62
     7
  5
2EF
 10
-4.742913
 20
0.629921
 30
0.0
 11
-4.76378
 21
0.629921
 31
0.0
  0
CIRCLE
  8
0
  6
CONTINUOUS
 62
     7
  5
2F0
 10
4.196063
 20
3.889764
 30
0.0
 40
0.07874
  0
CIRCLE
  8
0
  6
CONTINUOUS
 62
     7
  5
2F1
 10
2.912598
 20
3.889764
 30
0.0
 40
0.07874
  0
CIRCLE
  8
0
  6
CONTINUOUS
 62
     7
  5
2F2
 10
1.629134
 20
3.889764
 30
0.0
 40
0.07874
  0
CIRCLE
  8
0
  6
CONTINUOUS
 62
     7
  5
2F3
 10
0.345669
 20
3.889764
 30
0.0
 40
0.07874
  0
CIRCLE
  8
0
  6
CONTINUOUS
 62
     7
  5
2F4
 10
-0.937795
 20
3.889764
 30
0.0
 40
0.07874
  0
CIRCLE
  8
0
  6
CONTINUOUS
 62
     7
  5
2F5
 10
-2.22126
 20
3.889764
 30
0.0
 40
0.07874
  0
LINE
  8
0
  6
CONTINUOUS
 62
     7
  5
2F6
 10
3.959843
 20
3.937008
 30
0.0
 11
3.148819
 21
3.937008
 31
0.0
  0
LINE
  8
0
  6
CONTINUOUS
 62
     7
  5
2F7
 10
2.676378
 20
3.937008
 30
0.0
 11
1.865354
 21
3.937008
 31
0.0
  0
LINE
  8
0
  6
CONTINUOUS
 62
     7
  5
2F8
 10
1.392913
 20
3.937008
 30
0.0
 11
0.58189
 21
3.937008
 31
0.0
  0
LINE
  8
0
  6
CONTINUOUS
 62
     7
  5
2F9
 10
0.109449
 20
3.937008
 30
0.0
 11
-0.701575
 21
3.937008
 31
0.0
  0
LINE
  8
0
  6
CONTINUOUS
 62
     7
  5
2FA
 10
-1.174016
 20
3.937008
 30
0.0
 11
-1.985039
 21
3.937008
 31
0.0
  0
LINE
  8
0
  6
CONTINUOUS
 62
     7
  5
2FB
 10
4.724409
 20
3.937008
 30
0.0
 11
4.432283
 21
3.937008
 31
0.0
  0
LINE
  8
0
  6
CONTINUOUS
 62
     7
  5
2FC
 10
4.309677
 20
4.059615
 30
0.0
 11
4.432283
 21
3.937008
 31
0.0
  0
LINE
  8
0
  6
CONTINUOUS
 62
     7
  5
2FD
 10
4.138127
 20
4.082677
 30
0.0
 11
4.253999
 21
4.082677
 31
0.0
  0
ARC
  8
0
  6
CONTINUOUS
 62
     7
  5
2FE
 10
4.138127
 20
4.003937
 30
0.0
 40
0.07874
 50
90.0
 51
135.0
  0
LINE
  8
0
  6
CONTINUOUS
 62
     7
  5
2FF
 10
3.959843
 20
3.937008
 30
0.0
 11
4.082449
 21
4.059615
 31
0.0
  0
ARC
  8
0
  6
CONTINUOUS
 62
     7
  5
300
 10
4.253999
 20
4.003937
 30
0.0
 40
0.07874
 50
45.0
 51
90.0
  0
LINE
  8
0
  6
CONTINUOUS
 62
     7
  5
301
 10
-2.45748
 20
3.937008
 30
0.0
 11
-4.724409
 21
3.937008
 31
0.0
  0
LINE
  8
0
  6
CONTINUOUS
 62
     7
  5
302
 10
3.026212
 20
4.059615
 30
0.0
 11
3.148819
 21
3.937008
 31
0.0
  0
LINE
  8
0
  6
CONTINUOUS
 62
     7
  5
303
 10
2.854662
 20
4.082677
 30
0.0
 11
2.970534
 21
4.082677
 31
0.0
  0
ARC
  8
0
  6
CONTINUOUS
 62
     7
  5
304
 10
2.854662
 20
4.003937
 30
0.0
 40
0.07874
 50
90.0
 51
135.0
  0
LINE
  8
0
  6
CONTINUOUS
 62
     7
  5
305
 10
2.676378
 20
3.937008
 30
0.0
 11
2.798985
 21
4.059615
 31
0.0
  0
ARC
  8
0
  6
CONTINUOUS
 62
     7
  5
306
 10
2.970534
 20
4.003937
 30
0.0
 40
0.07874
 50
45.0
 51
90.0
  0
LINE
  8
0
  6
CONTINUOUS
 62
     7
  5
307
 10
1.742747
 20
4.059615
 30
0.0
 11
1.865354
 21
3.937008
 31
0.0
  0
LINE
  8
0
  6
CONTINUOUS
 62
     7
  5
308
 10
1.571198
 20
4.082677
 30
0.0
 11
1.68707
 21
4.082677
 31
0.0
  0
ARC
  8
0
  6
CONTINUOUS
 62
     7
  5
309
 10
1.571198
 20
4.003937
 30
0.0
 40
0.07874
 50
90.0
 51
135.0
  0
LINE
  8
0
  6
CONTINUOUS
 62
     7
  5
30A
 10
1.392913
 20
3.937008
 30
0.0
 11
1.51552
 21
4.059615
 31
0.0
  0
ARC
  8
0
  6
CONTINUOUS
 62
     7
  5
30B
 10
1.68707
 20
4.003937
 30
0.0
 40
0.07874
 50
45.0
 51
90.0
  0
LINE
  8
0
  6
CONTINUOUS
 62
     7
  5
30C
 10
0.459283
 20
4.059615
 30
0.0
 11
0.58189
 21
3.937008
 31
0.0
  0
LINE
  8
0
  6
CONTINUOUS
 62
     7
  5
30D
 10
0.287733
 20
4.082677
 30
0.0
 11
0.403605
 21
4.082677
 31
0.0
  0
ARC
  8
0
  6
CONTINUOUS
 62
     7
  5
30E
 10
0.287733
 20
4.003937
 30
0.0
 40
0.07874
 50
90.0
 51
135.0
  0
LINE
  8
0
  6
CONTINUOUS
 62
     7
  5
30F
 10
0.109449
 20
3.937008
 30
0.0
 11
0.232056
 21
4.059615
 31
0.0
  0
ARC
  8
0
  6
CONTINUOUS
 62
     7
  5
310
 10
0.403605
 20
4.003937
 30
0.0
 40
0.07874
 50
45.0
 51
90.0
  0
LINE
  8
0
  6
CONTINUOUS
 62
     7
  5
311
 10
-0.824182
 20
4.059615
 30
0.0
 11
-0.701575
 21
3.937008
 31
0.0
  0
LINE
  8
0
  6
CONTINUOUS
 62
     7
  5
312
 10
-0.995731
 20
4.082677
 30
0.0
 11
-0.879859
 21
4.082677
 31
0.0
  0
ARC
  8
0
  6
CONTINUOUS
 62
     7
  5
313
 10
-0.995731
 20
4.003937
 30
0.0
 40
0.07874
 50
90.0
 51
135.0
  0
LINE
  8
0
  6
CONTINUOUS
 62
     7
  5
314
 10
-1.174016
 20
3.937008
 30
0.0
 11
-1.051409
 21
4.059615
 31
0.0
  0
ARC
  8
0
  6
CONTINUOUS
 62
     7
  5
315
 10
-0.879859
 20
4.003937
 30
0.0
 40
0.07874
 50
45.0
 51
90.0
  0
LINE
  8
0
  6
CONTINUOUS
 62
     7
  5
316
 10
-2.45748
 20
3.937008
 30
0.0
 11
-2.334873
 21
4.059615
 31
0.0
  0
LINE
  8
0
  6
CONTINUOUS
 62
     7
  5
317
 10
-2.279196
 20
4.082677
 30
0.0
 11
-2.163324
 21
4.082677
 31
0.0
  0
ARC
  8
0
  6
CONTINUOUS
 62
     7
  5
318
 10
-2.279196
 20
4.003937
 30
0.0
 40
0.07874
 50
90.0
 51
135.0
  0
LINE
  8
0
  6
CONTINUOUS
 62
     7
  5
319
 10
-2.107646
 20
4.059615
 30
0.0
 11
-1.985039
 21
3.937008
 31
0.0
  0
ARC
  8
0
  6
CONTINUOUS
 62
     7
  5
31A
 10
-2.163324
 20
4.003937
 30
0.0
 40
0.07874
 50
45.0
 51
90.0
  0
LINE
  8
0
  6
CONTINUOUS
 62
     7
  5
31B
 10
3.968486
 20
3.916141
 30
0.0
 11
3.959843
 21
3.937008
 31
0.0
  0
LINE
  8
0
  6
CONTINUOUS
 62
     7
  5
31C
 10
4.432283
 20
3.937008
 30
0.0
 11
4.42364
 21
3.916141
 31
0.0
  0
LINE
  8
0
  6
CONTINUOUS
 62
     7
  5
31D
 10
3.148819
 20
3.937008
 30
0.0
 11
3.140176
 21
3.916141
 31
0.0
  0
LINE
  8
0
  6
CONTINUOUS
 62
     7
  5
31E
 10
2.685021
 20
3.916141
 30
0.0
 11
2.676378
 21
3.937008
 31
0.0
  0
LINE
  8
0
  6
CONTINUOUS
 62
     7
  5
31F
 10
1.865354
 20
3.937008
 30
0.0
 11
1.856711
 21
3.916141
 31
0.0
  0
LINE
  8
0
  6
CONTINUOUS
 62
     7
  5
320
 10
1.401557
 20
3.916141
 30
0.0
 11
1.392913
 21
3.937008
 31
0.0
  0
LINE
  8
0
  6
CONTINUOUS
 62
     7
  5
321
 10
0.58189
 20
3.937008
 30
0.0
 11
0.573247
 21
3.916141
 31
0.0
  0
LINE
  8
0
  6
CONTINUOUS
 62
     7
  5
322
 10
0.118092
 20
3.916141
 30
0.0
 11
0.109449
 21
3.937008
 31
0.0
  0
LINE
  8
0
  6
CONTINUOUS
 62
     7
  5
323
 10
-0.701575
 20
3.937008
 30
0.0
 11
-0.710218
 21
3.916141
 31
0.0
  0
LINE
  8
0
  6
CONTINUOUS
 62
     7
  5
324
 10
-1.165373
 20
3.916141
 30
0.0
 11
-1.174016
 21
3.937008
 31
0.0
  0
LINE
  8
0
  6
CONTINUOUS
 62
     7
  5
325
 10
-1.985039
 20
3.937008
 30
0.0
 11
-1.993683
 21
3.916141
 31
0.0
  0
LINE
  8
0
  6
CONTINUOUS
 62
     7
  5
326
 10
-2.448837
 20
3.916141
 30
0.0
 11
-2.45748
 21
3.937008
 31
0.0
  0
ARC
  8
0
  6
CONTINUOUS
 62
     7
  5
327
 10
4.724409
 20
0.03937
 30
0.0
 40
0.03937
 50
270.0
 51
360.0
  0
LINE
  8
0
  6
CONTINUOUS
 62
     7
  5
328
 10
4.76378
 20
0.03937
 30
0.0
 11
4.76378
 21
3.897638
 31
0.0
  0
ARC
  8
0
  6
CONTINUOUS
 62
     7
  5
329
 10
4.724409
 20
3.897638
 30
0.0
 40
0.03937
 50
0.0
 51
90.0
  0
ARC
  8
0
  6
CONTINUOUS
 62
     7
  5
32A
 10
-4.724409
 20
3.897638
 30
0.0
 40
0.03937
 50
90.0
 51
180.0
  0
ARC
  8
0
  6
CONTINUOUS
 62
     7
  5
32B
 10
-4.724409
 20
0.03937
 30
0.0
 40
0.03937
 50
180.0
 51
270.0
  0
LINE
  8
0
  6
CONTINUOUS
 62
     7
  5
32C
 10
3.977953
 20
0.0
 30
0.0
 11
4.724409
 21
0.0
 31
0.0
  0
LINE
  8
0
  6
CONTINUOUS
 62
     3
  5
32D
 10
-4.550138
 20
0.944882
 30
0.0
 11
-4.095531
 21
0.944882
 31
0.0
  0
LINE
  8
0
  6
CONTINUOUS
 62
     3
  5
32E
 10
-4.322835
 20
0.717579
 30
0.0
 11
-4.322835
 21
1.172185
 31
0.0
  0
LINE
  8
0
  6
CONTINUOUS
 62
     3
  5
32F
 10
-4.550138
 20
3.307087
 30
0.0
 11
-4.095531
 21
3.307087
 31
0.0
  0
LINE
  8
0
  6
CONTINUOUS
 62
     3
  5
330
 10
-4.322835
 20
3.079783
 30
0.0
 11
-4.322835
 21
3.53439
 31
0.0
  0
LINE
  8
0
  6
CONTINUOUS
 62
     3
  5
331
 10
3.630965
 20
0.944882
 30
0.0
 11
4.085571
 21
0.944882
 31
0.0
  0
LINE
  8
0
  6
CONTINUOUS
 62
     3
  5
332
 10
3.858268
 20
0.717579
 30
0.0
 11
3.858268
 21
1.172185
 31
0.0
  0
LINE
  8
0
  6
CONTINUOUS
 62
     3
  5
333
 10
3.630965
 20
3.307087
 30
0.0
 11
4.085571
 21
3.307087
 31
0.0
  0
LINE
  8
0
  6
CONTINUOUS
 62
     3
  5
334
 10
3.858268
 20
3.079783
 30
0.0
 11
3.858268
 21
3.53439
 31
0.0
  0
ENDSEC
  0
EOF
