999
DXF file: C:\Users\sesa63760\Dev\_Creo\CAD\MCADPP0003216_3D-CAD\drw0001_7.dxf
999
Pro/ENGINEER 2019471 by Parametric Technology Corporation
  0
SECTION
  2
HEADER
  9
$ACADVER
  1
AC1024
  9
$DWGCODEPAGE
  3
ANSI_1252
  9
$EXTMAX
 10
295.8526691422
 20
418.4202035011
 30
0.0
  9
$EXTMIN
 10
0.0
 20
0.0
 30
0.0
  9
$LIMMIN
 10
0.0
 20
0.0
  9
$LIMMAX
 10
295.8526691422
 20
418.4202035011
  9
$VIEWCTR
 10
147.9263345711
 20
209.2101017505
  9
$VIEWSIZE
 40
418.4202035011
  9
$CLAYER
  8
0
  9
$LTSCALE
 40
27.2747984504
  9
$CELTYPE
  6
BYLAYER
  9
$DIMSCALE
 40
1.0
  9
$DIMASZ
 40
3.522055585
  9
$DIMEXO
 40
1.0
  9
$DIMDLI
 40
18.8444062021
  9
$DIMEXE
 40
1.0
  9
$DIMCEN
 40
4.4631488373
  9
$DIMLFAC
 40
1.0
  9
$DIMBLK
  1
_FILLED
  9
$DIMALT
 70
0
  9
$DIMALTF
 40
0.0393700787
  9
$DIMTXT
 40
4.930877819
  9
$DIMTOL
 70
1
  9
$DIMLIM
 70
0
  9
$DIMTFAC
 40
1.0
  9
$DIMTP
 40
0.01
  9
$DIMTM
 40
0.01
  9
$DIMGAP
 40
0.625
  9
$DIMDSEP
 70
46
  9
$AUNITS
 70
0
  9
$PDMODE
 70
3
  9
$PDSIZE
 40
0.3125
  9
$HANDSEED
  5
3BE
  9
$TILEMODE
 70
1
  9
$MEASUREMENT
 70
1
  9
$INSUNITS
 70
4
  0
ENDSEC
  0
SECTION
  2
CLASSES
  0
CLASS
  1
ACDBDICTIONARYWDFLT
  2
AcDbDictionaryWithDefault
  3
AutoCAD 2000
 90
0
 91
1
280
0
281
0
  0
CLASS
  1
ACDBPLACEHOLDER
  2
AcDbPlaceHolder
  3
AutoCAD 2000
 90
0
 91
1
280
0
281
0
  0
CLASS
  1
LAYOUT
  2
AcDbLayout
  3
AutoCAD 2000
 90
0
 91
0
280
0
281
0
  0
ENDSEC
  0
SECTION
  2
TABLES
  0
TABLE
  2
VPORT
  5
8
100
AcDbSymbolTable
 70
2
  0
VPORT
  5
1F4
100
AcDbSymbolTableRecord
100
AcDbViewportTableRecord
  2
*ACTIVE
 70
0
 10
0.0
 20
0.0
 11
1.0
 21
1.0
 12
147.9263345711
 22
209.2101017505
 13
0.0
 23
0.0
 14
1.0
 24
1.0
 15
0.0
 25
0.0
 16
0.0
 26
0.0
 36
1.0
 17
0.0
 27
0.0
 37
0.0
 40
418.4202035011
 41
0.7070707071
 42
50.0
 43
0.0
 44
0.0
 50
0.0
 51
0.0
 71
0
 72
100
 73
1
 74
1
 75
0
 76
0
 77
0
 78
0
  0
ENDTAB
  0
TABLE
  2
LTYPE
  5
5
100
AcDbSymbolTable
 70
6
  0
LTYPE
  5
14
100
AcDbSymbolTableRecord
100
AcDbLinetypeTableRecord
  2
BYBLOCK
 70
0
  3

 72
65
 73
0
 40
0.0
  0
LTYPE
  5
15
100
AcDbSymbolTableRecord
100
AcDbLinetypeTableRecord
  2
BYLAYER
 70
0
  3

 72
65
 73
0
 40
0.0
  0
LTYPE
  5
16
100
AcDbSymbolTableRecord
100
AcDbLinetypeTableRecord
  2
CONTINUOUS
 70
64
  3
Solid line
 72
65
 73
0
 40
0.0
  0
LTYPE
  5
1F5
100
AcDbSymbolTableRecord
100
AcDbLinetypeTableRecord
  2
CENTER
 70
64
  3
____ _ ____ _ ____ _ ____ _ ____ _ ____ _ ____
 72
65
 73
4
 40
0.6
 49
0.375
 74
0
 49
-0.075
 74
0
 49
0.075
 74
0
 49
-0.075
 74
0
  0
LTYPE
  5
1F6
100
AcDbSymbolTableRecord
100
AcDbLinetypeTableRecord
  2
HIDDEN
 70
64
  3
- - - - - - - - - - - - - - - - - - - -
 72
65
 73
2
 40
0.2
 49
0.1
 74
0
 49
-0.1
 74
0
  0
LTYPE
  5
1F7
100
AcDbSymbolTableRecord
100
AcDbLinetypeTableRecord
  2
PHANTOM
 70
64
  3
_____ _ _ _____ _ _ _____ _ _ _____
 72
65
 73
6
 40
0.8
 49
0.45
 74
0
 49
-0.05
 74
0
 49
0.1
 74
0
 49
-0.05
 74
0
 49
0.1
 74
0
 49
-0.05
 74
0
  0
LTYPE
  5
1F8
100
AcDbSymbolTableRecord
100
AcDbLinetypeTableRecord
  2
DOT
 70
64
  3
. . . . . . . . . . . . . . . . . . . .
 72
65
 73
2
 40
0.2
 49
0.1
 74
0
 49
-0.1
 74
0
  0
LTYPE
  5
1F9
100
AcDbSymbolTableRecord
100
AcDbLinetypeTableRecord
  2
DASHED
 70
64
  3
- - - - - - - - - - - - - - - - - - - -
 72
65
 73
2
 40
0.2
 49
0.1
 74
0
 49
-0.1
 74
0
  0
ENDTAB
  0
TABLE
  2
LAYER
  5
2
100
AcDbSymbolTable
 70
36
  0
LAYER
  5
10
100
AcDbSymbolTableRecord
100
AcDbLayerTableRecord
  2
0
 70
0
 62
7
  6
CONTINUOUS
370
-3
390
F
  0
LAYER
  5
1FA
100
AcDbSymbolTableRecord
100
AcDbLayerTableRecord
  2
DEFAULT_1
 70
0
 62
7
  6
CENTER
370
-3
390
F
  0
LAYER
  5
1FB
100
AcDbSymbolTableRecord
100
AcDbLayerTableRecord
  2
DEFAULT_2
 70
0
 62
8
  6
HIDDEN
370
-3
390
F
  0
LAYER
  5
1FC
100
AcDbSymbolTableRecord
100
AcDbLayerTableRecord
  2
DEFAULT_3
 70
0
 62
7
  6
PHANTOM
370
-3
390
F
  0
LAYER
  5
1FD
100
AcDbSymbolTableRecord
100
AcDbLayerTableRecord
  2
00_COMPONENTS
 70
0
 62
7
  6
CONTINUOUS
370
-3
390
F
  0
LAYER
  5
1FE
100
AcDbSymbolTableRecord
100
AcDbLayerTableRecord
  2
01_1_DEFAULT_DATUMS
 70
0
 62
7
  6
CONTINUOUS
370
-3
390
F
  0
LAYER
  5
1FF
100
AcDbSymbolTableRecord
100
AcDbLayerTableRecord
  2
01_PLANES
 70
0
 62
7
  6
CONTINUOUS
370
-3
390
F
  0
LAYER
  5
200
100
AcDbSymbolTableRecord
100
AcDbLayerTableRecord
  2
02_COORD_SYS
 70
0
 62
7
  6
CONTINUOUS
370
-3
390
F
  0
LAYER
  5
201
100
AcDbSymbolTableRecord
100
AcDbLayerTableRecord
  2
03_AXES
 70
0
 62
7
  6
CONTINUOUS
370
-3
390
F
  0
LAYER
  5
202
100
AcDbSymbolTableRecord
100
AcDbLayerTableRecord
  2
04_POINTS
 70
0
 62
7
  6
CONTINUOUS
370
-3
390
F
  0
LAYER
  5
203
100
AcDbSymbolTableRecord
100
AcDbLayerTableRecord
  2
05_CURVES
 70
0
 62
7
  6
CONTINUOUS
370
-3
390
F
  0
LAYER
  5
204
100
AcDbSymbolTableRecord
100
AcDbLayerTableRecord
  2
06_SURFS
 70
0
 62
7
  6
CONTINUOUS
370
-3
390
F
  0
LAYER
  5
205
100
AcDbSymbolTableRecord
100
AcDbLayerTableRecord
  2
07_COSMETICS
 70
0
 62
7
  6
CONTINUOUS
370
-3
390
F
  0
LAYER
  5
206
100
AcDbSymbolTableRecord
100
AcDbLayerTableRecord
  2
10_NOTES
 70
0
 62
7
  6
CONTINUOUS
370
-3
390
F
  0
LAYER
  5
207
100
AcDbSymbolTableRecord
100
AcDbLayerTableRecord
  2
11_NOTES_PUB
 70
0
 62
7
  6
CONTINUOUS
370
-3
390
F
  0
LAYER
  5
208
100
AcDbSymbolTableRecord
100
AcDbLayerTableRecord
  2
13_REF_GTOL
 70
0
 62
7
  6
CONTINUOUS
370
-3
390
F
  0
LAYER
  5
209
100
AcDbSymbolTableRecord
100
AcDbLayerTableRecord
  2
16_MISC
 70
0
 62
7
  6
CONTINUOUS
370
-3
390
F
  0
LAYER
  5
20A
100
AcDbSymbolTableRecord
100
AcDbLayerTableRecord
  2
17_NO_PRINT
 70
0
 62
7
  6
CONTINUOUS
370
-3
390
F
  0
LAYER
  5
20B
100
AcDbSymbolTableRecord
100
AcDbLayerTableRecord
  2
18_DATUM_CAMS_JOINTS
 70
0
 62
7
  6
CONTINUOUS
370
-3
390
F
  0
LAYER
  5
20C
100
AcDbSymbolTableRecord
100
AcDbLayerTableRecord
  2
19_DATUM_FUNCTIONAL
 70
0
 62
7
  6
CONTINUOUS
370
-3
390
F
  0
LAYER
  5
20D
100
AcDbSymbolTableRecord
100
AcDbLayerTableRecord
  2
20_DATUM_KINEMATIC_SCHEME
 70
0
 62
7
  6
CONTINUOUS
370
-3
390
F
  0
ENDTAB
  0
TABLE
  2
STYLE
  5
3
100
AcDbSymbolTable
 70
1
  0
STYLE
  5
11
100
AcDbSymbolTableRecord
100
AcDbTextStyleTableRecord
  2
STANDARD
 70
0
 40
0.0
 41
0.8
 50
0.0
 71
0
 42
0.2
  3
txt
  4

  0
STYLE
  5
20E
100
AcDbSymbolTableRecord
100
AcDbTextStyleTableRecord
  2
TEXTSTYLE_1
 70
0
 40
0.0
 41
0.8
 50
0.0
 71
0
 42
0.2
  3
gdt
  4

  0
ENDTAB
  0
TABLE
  2
VIEW
  5
6
100
AcDbSymbolTable
 70
0
  0
ENDTAB
  0
TABLE
  2
UCS
  5
7
100
AcDbSymbolTable
 70
0
  0
ENDTAB
  0
TABLE
  2
APPID
  5
9
100
AcDbSymbolTable
 70
1
  0
APPID
  5
20F
100
AcDbSymbolTableRecord
100
AcDbRegAppTableRecord
  2
ACAD
 70
0
  0
ENDTAB
  0
TABLE
  2
BLOCK_RECORD
  5
1
100
AcDbSymbolTable
 70
0
  0
BLOCK_RECORD
  5
210
100
AcDbSymbolTableRecord
100
AcDbBlockTableRecord
  2
*Model_Space
  0
BLOCK_RECORD
  5
211
100
AcDbSymbolTableRecord
100
AcDbBlockTableRecord
  2
*Paper_Space
  0
BLOCK_RECORD
  5
212
100
AcDbSymbolTableRecord
100
AcDbBlockTableRecord
  2
_FILLED
  0
ENDTAB
  0
TABLE
  2
DIMSTYLE
  5
A
100
AcDbSymbolTable
 70
1
100
AcDbDimStyleTable
 71
0
  0
DIMSTYLE
105
213
100
AcDbSymbolTableRecord
100
AcDbDimStyleTableRecord
  2
STANDARD
 70
0
  3

  4

 40
1.0
 41
3.522055585
 42
1.0
 43
0.38
 44
1.0
 45
0.0
 46
0.0
 47
0.01
 48
0.01
140
4.930877819
141
0.09
142
0.0
143
25.4
144
1.0
145
0.0
146
1.0
147
0.625
 71
1
 72
0
 73
0
 74
0
 75
0
 76
0
 77
1
 78
8
 79
2
170
0
171
1
172
0
173
0
174
0
175
0
176
0
177
0
178
0
270
2
179
2
271
2
272
2
273
2
274
2
275
0
280
0
281
0
282
0
283
1
284
8
285
0
286
0
287
3
288
0
340
11
278
46
341
212
342
212
343
212
344
212
  0
ENDTAB
  0
ENDSEC
  0
SECTION
  2
BLOCKS
  0
BLOCK
  5
20
100
AcDbEntity
  8
0
100
AcDbBlockBegin
  2
*Model_Space
 70
0
 10
0.0
 20
0.0
 30
0.0
  3
*Model_Space
  1

  0
ENDBLK
  5
21
100
AcDbEntity
  8
0
100
AcDbBlockEnd
  0
BLOCK
  5
1C
100
AcDbEntity
  8
0
100
AcDbBlockBegin
  2
*Paper_Space
 70
0
 10
0.0
 20
0.0
 30
0.0
  3
*Paper_Space
  1

  0
ENDBLK
  5
1D
100
AcDbEntity
  8
0
100
AcDbBlockEnd
  0
BLOCK
  5
214
100
AcDbEntity
  8
0
100
AcDbBlockBegin
  2
_FILLED
 70
64
 10
0.0
 20
0.0
  3
_FILLED
  1

  0
SOLID
  5
215
100
AcDbEntity
  8
0
  6
BYBLOCK
 62
0
100
AcDbTrace
 10
0.0
 20
0.0
 11
-1.0
 21
0.25
 12
-1.0
 22
-0.25
 13
-1.0
 23
-0.25
  0
ENDBLK
  5
216
100
AcDbEntity
  8
0
  6
BYBLOCK
 62
0
100
AcDbBlockEnd
  0
ENDSEC
  0
SECTION
  2
ENTITIES
  0
LINE
  5
217
100
AcDbEntity
  8
0
100
AcDbLine
 62
7
  6
CONTINUOUS
 10
31.4139768031
 20
171.1402231949
 11
31.4139768031
 21
163.3043231949
  0
LINE
  5
218
100
AcDbEntity
  8
0
100
AcDbLine
 62
7
  6
CONTINUOUS
 10
34.2714768031
 20
172.2895126355
 11
34.2714768031
 21
162.1550337542
  0
LINE
  5
219
100
AcDbEntity
  8
0
100
AcDbLine
 62
7
  6
CONTINUOUS
 10
35.828973285
 20
174.5693767129
 11
35.828973285
 21
159.9551696768
  0
LINE
  5
21A
100
AcDbEntity
  8
0
100
AcDbLine
 62
7
  6
CONTINUOUS
 10
36.8194449989
 20
158.9646979629
 11
36.8194449989
 21
175.5595721693
  0
LINE
  5
21B
100
AcDbEntity
  8
0
100
AcDbLine
 62
7
  6
CONTINUOUS
 10
36.938476803
 20
156.0974731949
 11
36.938476803
 21
279.0222731949
  0
LINE
  5
21C
100
AcDbEntity
  8
0
100
AcDbLine
 62
7
  6
CONTINUOUS
 10
34.9066005729
 20
162.1549731949
 11
34.9069240905
 21
172.2895731949
  0
LINE
  5
21D
100
AcDbEntity
  8
0
100
AcDbLine
 62
7
  6
CONTINUOUS
 10
34.9067441303
 20
171.3223205823
 11
34.9069240905
 21
172.2895731949
  0
LINE
  5
21E
100
AcDbEntity
  8
0
100
AcDbLine
 62
7
  6
CONTINUOUS
 10
62.354573285
 20
284.4497767129
 11
58.552669767
 21
280.6478731949
  0
LINE
  5
21F
100
AcDbEntity
  8
0
100
AcDbLine
 62
7
  6
CONTINUOUS
 10
35.828973285
 20
159.9551696768
 11
36.8194449989
 21
158.9646979629
  0
LINE
  5
220
100
AcDbEntity
  8
0
100
AcDbLine
 62
7
  6
CONTINUOUS
 10
38.564076803
 20
154.4718731949
 11
38.564076803
 21
156.0974731949
  0
LINE
  5
221
100
AcDbEntity
  8
0
100
AcDbLine
 62
7
  6
CONTINUOUS
 10
38.564076803
 20
279.0222731949
 11
38.564076803
 21
280.6478731949
  0
LINE
  5
222
100
AcDbEntity
  8
0
100
AcDbLine
 62
7
  6
CONTINUOUS
 10
38.7872614358
 20
278.8915354721
 11
38.7872614358
 21
278.6412755502
  0
LINE
  5
223
100
AcDbEntity
  8
0
100
AcDbLine
 62
7
  6
CONTINUOUS
 10
39.235676803
 20
175.0206731949
 11
39.235676803
 21
160.9118731949
  0
LINE
  5
224
100
AcDbEntity
  8
0
100
AcDbLine
 62
7
  6
CONTINUOUS
 10
39.5719803211
 20
277.8334499168
 11
39.5719803211
 21
278.2702266388
  0
LINE
  5
225
100
AcDbEntity
  8
0
100
AcDbLine
 62
7
  6
CONTINUOUS
 10
40.189676803
 20
277.3966731949
 11
40.189676803
 21
157.7230731949
  0
LINE
  5
226
100
AcDbEntity
  8
0
100
AcDbLine
 62
7
  6
CONTINUOUS
 10
40.861276803
 20
175.0206731949
 11
40.861276803
 21
160.9118731949
  0
LINE
  5
227
100
AcDbEntity
  8
0
100
AcDbLine
 62
7
  6
CONTINUOUS
 10
40.906076803
 20
255.1438614189
 11
40.906076803
 21
212.4612731949
  0
LINE
  5
228
100
AcDbEntity
  8
0
100
AcDbLine
 62
7
  6
CONTINUOUS
 10
42.486876803
 20
159.2862732098
 11
42.486876803
 21
157.6606731949
  0
LINE
  5
229
100
AcDbEntity
  8
0
100
AcDbLine
 62
7
  6
CONTINUOUS
 10
42.531676803
 20
212.4612731949
 11
42.531676803
 21
255.1438614189
  0
LINE
  5
22A
100
AcDbEntity
  8
0
100
AcDbLine
 62
7
  6
CONTINUOUS
 10
44.569676803
 20
159.2862731949
 11
44.569676803
 21
157.6606731949
  0
LINE
  5
22B
100
AcDbEntity
  8
0
100
AcDbLine
 62
7
  6
CONTINUOUS
 10
79.776276803
 20
157.6606731949
 11
79.776276803
 21
159.2862731949
  0
LINE
  5
22C
100
AcDbEntity
  8
0
100
AcDbLine
 62
7
  6
CONTINUOUS
 10
80.586876803
 20
159.2862731949
 11
80.586876803
 21
157.6606731949
  0
LINE
  5
22D
100
AcDbEntity
  8
0
100
AcDbLine
 62
7
  6
CONTINUOUS
 10
81.776276803
 20
157.6606731949
 11
81.776276803
 21
159.2862731949
  0
LINE
  5
22E
100
AcDbEntity
  8
0
100
AcDbLine
 62
7
  6
CONTINUOUS
 10
83.226276803
 20
157.6606731949
 11
83.226276803
 21
159.2862731949
  0
LINE
  5
22F
100
AcDbEntity
  8
0
100
AcDbLine
 62
7
  6
CONTINUOUS
 10
83.7269248686
 20
160.8246166242
 11
83.7269248685
 21
160.7373600549
  0
LINE
  5
230
100
AcDbEntity
  8
0
100
AcDbLine
 62
7
  6
CONTINUOUS
 10
91.7514528035
 20
259.3499731949
 11
90.0456255352
 21
258.3651133623
  0
LINE
  5
231
100
AcDbEntity
  8
0
100
AcDbLine
 62
7
  6
CONTINUOUS
 10
85.226276803
 20
157.6606731949
 11
85.226276803
 21
159.2862731949
  0
LINE
  5
232
100
AcDbEntity
  8
0
100
AcDbLine
 62
7
  6
CONTINUOUS
 10
95.0237755397
 20
242.6339731948
 11
92.3034742764
 21
237.9222731949
  0
LINE
  5
233
100
AcDbEntity
  8
0
100
AcDbLine
 62
7
  6
CONTINUOUS
 10
41.512477542
 20
159.6106731949
 11
40.5380782809
 21
158.3094731949
  0
LINE
  5
234
100
AcDbEntity
  8
0
100
AcDbLine
 62
7
  6
CONTINUOUS
 10
138.554573285
 20
284.4497767129
 11
134.752669767
 21
280.6478731949
  0
LINE
  5
235
100
AcDbEntity
  8
0
100
AcDbLine
 62
7
  6
CONTINUOUS
 10
36.8194449989
 20
175.5598484268
 11
35.828973285
 21
174.5693767129
  0
LINE
  5
236
100
AcDbEntity
  8
0
100
AcDbLine
 62
7
  6
CONTINUOUS
 10
92.303396803
 20
244.9529987006
 11
124.076561603
 21
269.5404501837
  0
LINE
  5
237
100
AcDbEntity
  8
0
100
AcDbLine
 62
7
  6
CONTINUOUS
 10
258.312876803
 20
154.4718731949
 11
38.564076803
 21
154.4718731949
  0
LINE
  5
238
100
AcDbEntity
  8
0
100
AcDbLine
 62
7
  6
CONTINUOUS
 10
96.861426803
 20
233.2105731949
 11
96.861426803
 21
242.6339731949
  0
LINE
  5
239
100
AcDbEntity
  8
0
100
AcDbLine
 62
7
  6
CONTINUOUS
 10
98.626726803
 20
233.2105731948
 11
98.626726803
 21
242.6339731949
  0
LINE
  5
23A
100
AcDbEntity
  8
0
100
AcDbLine
 62
7
  6
CONTINUOUS
 10
100.4643780664
 20
233.2105731949
 11
103.1846793297
 21
237.9222731949
  0
LINE
  5
23B
100
AcDbEntity
  8
0
100
AcDbLine
 62
7
  6
CONTINUOUS
 10
259.938476803
 20
156.0974731949
 11
258.312876803
 21
156.0974731949
  0
LINE
  5
23C
100
AcDbEntity
  8
0
100
AcDbLine
 62
7
  6
CONTINUOUS
 10
38.5640767979
 20
156.0974731949
 11
36.9384768047
 21
156.0974731949
  0
LINE
  5
23D
100
AcDbEntity
  8
0
100
AcDbLine
 62
7
  6
CONTINUOUS
 10
253.594476803
 20
157.6606731949
 11
42.486876803
 21
157.6606731949
  0
LINE
  5
23E
100
AcDbEntity
  8
0
100
AcDbLine
 62
7
  6
CONTINUOUS
 10
40.189676803
 20
157.7230731949
 11
256.687276803
 21
157.7230731949
  0
LINE
  5
23F
100
AcDbEntity
  8
0
100
AcDbLine
 62
7
  6
CONTINUOUS
 10
42.486876803
 20
159.2862731949
 11
253.594476803
 21
159.2862731949
  0
LINE
  5
240
100
AcDbEntity
  8
0
100
AcDbLine
 62
7
  6
CONTINUOUS
 10
256.845676803
 20
160.9118731949
 11
39.235676803
 21
160.9118731948
  0
LINE
  5
241
100
AcDbEntity
  8
0
100
AcDbLine
 62
7
  6
CONTINUOUS
 10
34.9065951203
 20
162.1549731949
 11
34.2714768031
 21
162.1549731949
  0
LINE
  5
242
100
AcDbEntity
  8
0
100
AcDbLine
 62
7
  6
CONTINUOUS
 10
261.9704511981
 20
162.1949731949
 11
262.605476803
 21
162.1949731949
  0
LINE
  5
243
100
AcDbEntity
  8
0
100
AcDbLine
 62
7
  6
CONTINUOUS
 10
34.2714768031
 20
163.3043232006
 11
31.413976803
 21
163.3043231949
  0
LINE
  5
244
100
AcDbEntity
  8
0
100
AcDbLine
 62
7
  6
CONTINUOUS
 10
265.462976803
 20
163.3443231949
 11
262.605476803
 21
163.344323172
  0
LINE
  5
245
100
AcDbEntity
  8
0
100
AcDbLine
 62
7
  6
CONTINUOUS
 10
256.845676803
 20
164.7336731949
 11
255.220076803
 21
164.7336731949
  0
LINE
  5
246
100
AcDbEntity
  8
0
100
AcDbLine
 62
7
  6
CONTINUOUS
 10
40.861276803
 20
164.7336731949
 11
39.235676803
 21
164.7336731949
  0
LINE
  5
247
100
AcDbEntity
  8
0
100
AcDbLine
 62
7
  6
CONTINUOUS
 10
88.5568768031
 20
165.6306731949
 11
207.524476803
 21
165.6306731949
  0
LINE
  5
248
100
AcDbEntity
  8
0
100
AcDbLine
 62
7
  6
CONTINUOUS
 10
31.6339472556
 20
167.2222731949
 11
34.2714768031
 21
167.2222731949
  0
LINE
  5
249
100
AcDbEntity
  8
0
100
AcDbLine
 62
7
  6
CONTINUOUS
 10
262.605476803
 20
167.2622732079
 11
265.2430127403
 21
167.2622733412
  0
LINE
  5
24A
100
AcDbEntity
  8
0
100
AcDbLine
 62
7
  6
CONTINUOUS
 10
256.845676803
 20
171.0836731949
 11
255.220076803
 21
171.0836731949
  0
LINE
  5
24B
100
AcDbEntity
  8
0
100
AcDbLine
 62
7
  6
CONTINUOUS
 10
40.861276803
 20
171.0836731949
 11
39.235676803
 21
171.0836731949
  0
LINE
  5
24C
100
AcDbEntity
  8
0
100
AcDbLine
 62
7
  6
CONTINUOUS
 10
31.413976803
 20
171.1402231949
 11
34.2714768031
 21
171.1402232063
  0
LINE
  5
24D
100
AcDbEntity
  8
0
100
AcDbLine
 62
7
  6
CONTINUOUS
 10
262.605476803
 20
171.1802231949
 11
265.4629768031
 21
171.1802231949
  0
LINE
  5
24E
100
AcDbEntity
  8
0
100
AcDbLine
 62
7
  6
CONTINUOUS
 10
34.9069177296
 20
172.2895731949
 11
34.2714768031
 21
172.2895731949
  0
LINE
  5
24F
100
AcDbEntity
  8
0
100
AcDbLine
 62
7
  6
CONTINUOUS
 10
261.9704511981
 20
172.3295731949
 11
262.605476803
 21
172.3295731949
  0
LINE
  5
250
100
AcDbEntity
  8
0
100
AcDbLine
 62
7
  6
CONTINUOUS
 10
39.235676803
 20
175.0206731949
 11
256.845676803
 21
175.0206731948
  0
LINE
  5
251
100
AcDbEntity
  8
0
100
AcDbLine
 62
7
  6
CONTINUOUS
 10
92.3034742764
 20
237.9222731949
 11
95.0237755397
 21
233.2105731949
  0
LINE
  5
252
100
AcDbEntity
  8
0
100
AcDbLine
 62
7
  6
CONTINUOUS
 10
148.946476803
 20
151.8728050488
 11
147.4459041092
 21
154.4718731949
  0
LINE
  5
253
100
AcDbEntity
  8
0
100
AcDbLine
 62
7
  6
CONTINUOUS
 10
126.769476803
 20
280.5462731949
 11
126.769476803
 21
278.9206731949
  0
LINE
  5
254
100
AcDbEntity
  8
0
100
AcDbLine
 62
7
  6
CONTINUOUS
 10
126.8887803126
 20
278.9206731949
 11
126.8887803126
 21
280.5462731949
  0
LINE
  5
255
100
AcDbEntity
  8
0
100
AcDbLine
 62
7
  6
CONTINUOUS
 10
127.4353592612
 20
278.9206731949
 11
127.4353592612
 21
280.5462731949
  0
LINE
  5
256
100
AcDbEntity
  8
0
100
AcDbLine
 62
7
  6
CONTINUOUS
 10
128.6819244923
 20
280.5462731949
 11
128.6819244923
 21
278.9206731949
  0
LINE
  5
257
100
AcDbEntity
  8
0
100
AcDbLine
 62
7
  6
CONTINUOUS
 10
138.955576803
 20
231.5020178084
 11
138.653951803
 21
231.0912944531
  0
LINE
  5
258
100
AcDbEntity
  8
0
100
AcDbLine
 62
7
  6
CONTINUOUS
 10
138.955576803
 20
229.3457199774
 11
138.653951803
 21
228.9349965861
  0
LINE
  5
259
100
AcDbEntity
  8
0
100
AcDbLine
 62
7
  6
CONTINUOUS
 10
138.1512433738
 20
231.3993369696
 11
138.352326803
 21
231.6046986472
  0
LINE
  5
25A
100
AcDbEntity
  8
0
100
AcDbLine
 62
7
  6
CONTINUOUS
 10
138.1512433738
 20
229.2430391385
 11
138.352326803
 21
229.4484008881
  0
LINE
  5
25B
100
AcDbEntity
  8
0
100
AcDbLine
 62
7
  6
CONTINUOUS
 10
138.653951803
 20
228.9349965861
 11
138.2517852323
 21
228.6269540427
  0
LINE
  5
25C
100
AcDbEntity
  8
0
100
AcDbLine
 62
7
  6
CONTINUOUS
 10
138.4528683738
 20
230.9886136143
 11
138.653951803
 21
231.0912944531
  0
LINE
  5
25D
100
AcDbEntity
  8
0
100
AcDbLine
 62
7
  6
CONTINUOUS
 10
152.4281605199
 20
233.0422306784
 11
152.830326803
 21
233.247592356
  0
LINE
  5
25E
100
AcDbEntity
  8
0
100
AcDbLine
 62
7
  6
CONTINUOUS
 10
137.8496183738
 20
231.2966561307
 11
138.1512433738
 21
231.3993369696
  0
LINE
  5
25F
100
AcDbEntity
  8
0
100
AcDbLine
 62
7
  6
CONTINUOUS
 10
137.8496183738
 20
229.1403582997
 11
138.1512433738
 21
229.2430391385
  0
LINE
  5
260
100
AcDbEntity
  8
0
100
AcDbLine
 62
7
  6
CONTINUOUS
 10
124.0765616031
 20
206.304096206
 11
92.303396803
 21
230.8915476891
  0
LINE
  5
261
100
AcDbEntity
  8
0
100
AcDbLine
 62
7
  6
CONTINUOUS
 10
103.1846793297
 20
237.9222731949
 11
100.4643780664
 21
242.6339731948
  0
LINE
  5
262
100
AcDbEntity
  8
0
100
AcDbLine
 62
7
  6
CONTINUOUS
 10
131.595476803
 20
278.9206731949
 11
131.595476803
 21
280.5462731949
  0
LINE
  5
263
100
AcDbEntity
  8
0
100
AcDbLine
 62
7
  6
CONTINUOUS
 10
131.9627133191
 20
280.5462731949
 11
131.9627133191
 21
278.9206731949
  0
LINE
  5
264
100
AcDbEntity
  8
0
100
AcDbLine
 62
7
  6
CONTINUOUS
 10
132.5817470235
 20
280.5462731949
 11
132.5817470235
 21
278.9206731949
  0
LINE
  5
265
100
AcDbEntity
  8
0
100
AcDbLine
 62
7
  6
CONTINUOUS
 10
133.8901140456
 20
280.5462731949
 11
133.8901140456
 21
278.9206731949
  0
LINE
  5
266
100
AcDbEntity
  8
0
100
AcDbLine
 62
7
  6
CONTINUOUS
 10
133.9265008026
 20
278.9206731949
 11
133.9265008026
 21
280.5462731949
  0
LINE
  5
267
100
AcDbEntity
  8
0
100
AcDbLine
 62
7
  6
CONTINUOUS
 10
134.719676803
 20
280.5462731949
 11
134.719676803
 21
278.9206731949
  0
LINE
  5
268
100
AcDbEntity
  8
0
100
AcDbLine
 62
7
  6
CONTINUOUS
 10
135.336076803
 20
233.3502731949
 11
135.336076803
 21
228.5242731949
  0
LINE
  5
269
100
AcDbEntity
  8
0
100
AcDbLine
 62
7
  6
CONTINUOUS
 10
135.6323280709
 20
280.5462731949
 11
135.6323280709
 21
278.9206731949
  0
LINE
  5
26A
100
AcDbEntity
  8
0
100
AcDbLine
 62
7
  6
CONTINUOUS
 10
135.939326803
 20
232.7341881619
 11
135.939326803
 21
231.2966561307
  0
LINE
  5
26B
100
AcDbEntity
  8
0
100
AcDbLine
 62
7
  6
CONTINUOUS
 10
135.939326803
 20
230.6805710978
 11
135.939326803
 21
229.1403582997
  0
LINE
  5
26C
100
AcDbEntity
  8
0
100
AcDbLine
 62
7
  6
CONTINUOUS
 10
136.865676803
 20
160.9118731949
 11
136.865676803
 21
157.6606731949
  0
LINE
  5
26D
100
AcDbEntity
  8
0
100
AcDbLine
 62
7
  6
CONTINUOUS
 10
137.894676803
 20
280.5462731949
 11
137.894676803
 21
278.9206731949
  0
LINE
  5
26E
100
AcDbEntity
  8
0
100
AcDbLine
 62
7
  6
CONTINUOUS
 10
138.4528683738
 20
229.7564434046
 11
138.4528683738
 21
230.064485921
  0
LINE
  5
26F
100
AcDbEntity
  8
0
100
AcDbLine
 62
7
  6
CONTINUOUS
 10
138.4528683738
 20
231.9127411637
 11
138.4528683738
 21
232.1181028413
  0
LINE
  5
270
100
AcDbEntity
  8
0
100
AcDbLine
 62
7
  6
CONTINUOUS
 10
139.0561183738
 20
229.6537625657
 11
139.0561183738
 21
230.1671667599
  0
LINE
  5
271
100
AcDbEntity
  8
0
100
AcDbLine
 62
7
  6
CONTINUOUS
 10
139.0561183738
 20
231.8100603249
 11
139.0561183738
 21
232.2207839678
  0
LINE
  5
272
100
AcDbEntity
  8
0
100
AcDbLine
 62
7
  6
CONTINUOUS
 10
139.294476803
 20
154.4718731949
 11
139.294476803
 21
144.6562731949
  0
LINE
  5
273
100
AcDbEntity
  8
0
100
AcDbLine
 62
7
  6
CONTINUOUS
 10
138.352326803
 20
231.6046986472
 11
138.4528683738
 21
231.9127411637
  0
LINE
  5
274
100
AcDbEntity
  8
0
100
AcDbLine
 62
7
  6
CONTINUOUS
 10
138.955576803
 20
231.5020178084
 11
139.0561183738
 21
231.8100603249
  0
LINE
  5
275
100
AcDbEntity
  8
0
100
AcDbLine
 62
7
  6
CONTINUOUS
 10
138.352326803
 20
229.4484008881
 11
138.4528683738
 21
229.7564434046
  0
LINE
  5
276
100
AcDbEntity
  8
0
100
AcDbLine
 62
7
  6
CONTINUOUS
 10
138.955576803
 20
229.3457199774
 11
139.0561183738
 21
229.6537625657
  0
LINE
  5
277
100
AcDbEntity
  8
0
100
AcDbLine
 62
7
  6
CONTINUOUS
 10
152.6292430861
 20
232.4261456454
 11
152.4281605199
 21
232.1181028413
  0
LINE
  5
278
100
AcDbEntity
  8
0
100
AcDbLine
 62
7
  6
CONTINUOUS
 10
152.0259930862
 20
232.6315073231
 11
152.4281605199
 21
233.0422306784
  0
LINE
  5
279
100
AcDbEntity
  8
0
100
AcDbLine
 62
7
  6
CONTINUOUS
 10
155.544951803
 20
229.2430391385
 11
155.1427843693
 21
228.8323157473
  0
LINE
  5
27A
100
AcDbEntity
  8
0
100
AcDbLine
 62
7
  6
CONTINUOUS
 10
88.556876803
 20
165.6306731949
 11
83.8380767087
 21
160.9118733149
  0
LINE
  5
27B
100
AcDbEntity
  8
0
100
AcDbLine
 62
7
  6
CONTINUOUS
 10
152.9308680861
 20
232.6315073231
 11
152.6292430861
 21
232.4261456454
  0
LINE
  5
27C
100
AcDbEntity
  8
0
100
AcDbLine
 62
7
  6
CONTINUOUS
 10
154.640076803
 20
229.2430391385
 11
154.941701803
 21
229.4484008881
  0
LINE
  5
27D
100
AcDbEntity
  8
0
100
AcDbLine
 62
7
  6
CONTINUOUS
 10
155.1427843693
 20
228.8323157473
 11
154.7406192368
 21
228.6269540427
  0
LINE
  5
27E
100
AcDbEntity
  8
0
100
AcDbLine
 62
7
  6
CONTINUOUS
 10
163.7893692368
 20
231.2966561307
 11
164.0909942367
 21
231.3993369695
  0
LINE
  5
27F
100
AcDbEntity
  8
0
100
AcDbLine
 62
7
  6
CONTINUOUS
 10
144.686451803
 20
230.2698475987
 11
144.686451803
 21
230.7832519366
  0
LINE
  5
280
100
AcDbEntity
  8
0
100
AcDbLine
 62
7
  6
CONTINUOUS
 10
146.0940355199
 20
230.7832519366
 11
146.0940355199
 21
230.2698475987
  0
LINE
  5
281
100
AcDbEntity
  8
0
100
AcDbLine
 62
7
  6
CONTINUOUS
 10
147.421019024
 20
278.9206731949
 11
147.421019024
 21
280.5462731949
  0
LINE
  5
282
100
AcDbEntity
  8
0
100
AcDbLine
 62
7
  6
CONTINUOUS
 10
151.7243680861
 20
231.7073794859
 11
151.8249105199
 21
232.2207839678
  0
LINE
  5
283
100
AcDbEntity
  8
0
100
AcDbLine
 62
7
  6
CONTINUOUS
 10
152.4281605199
 20
232.1181028413
 11
152.3276180861
 21
231.707379486
  0
LINE
  5
284
100
AcDbEntity
  8
0
100
AcDbLine
 62
7
  6
CONTINUOUS
 10
154.941701803
 20
229.4484008881
 11
155.0422442367
 21
229.7564434046
  0
LINE
  5
285
100
AcDbEntity
  8
0
100
AcDbLine
 62
7
  6
CONTINUOUS
 10
151.8249105199
 20
232.2207839678
 11
152.0259930862
 21
232.6315073231
  0
LINE
  5
286
100
AcDbEntity
  8
0
100
AcDbLine
 62
7
  6
CONTINUOUS
 10
164.895326803
 20
231.5020178084
 11
164.5937018031
 21
231.0912944531
  0
LINE
  5
287
100
AcDbEntity
  8
0
100
AcDbLine
 62
7
  6
CONTINUOUS
 10
164.0909942367
 20
231.3993369695
 11
164.292076803
 21
231.6046986472
  0
LINE
  5
288
100
AcDbEntity
  8
0
100
AcDbLine
 62
7
  6
CONTINUOUS
 10
214.754573285
 20
284.4497767129
 11
210.952669767
 21
280.6478731949
  0
LINE
  5
289
100
AcDbEntity
  8
0
100
AcDbLine
 62
7
  6
CONTINUOUS
 10
164.5937018031
 20
231.0912944531
 11
164.1915343693
 21
230.7832519366
  0
LINE
  5
28A
100
AcDbEntity
  8
0
100
AcDbLine
 62
7
  6
CONTINUOUS
 10
63.3213280709
 20
258.3651133623
 11
61.6155008026
 21
259.3499731949
  0
LINE
  5
28B
100
AcDbEntity
  8
0
100
AcDbLine
 62
7
  6
CONTINUOUS
 10
138.4528683738
 20
230.064485921
 11
138.352326803
 21
230.3725285813
  0
LINE
  5
28C
100
AcDbEntity
  8
0
100
AcDbLine
 62
7
  6
CONTINUOUS
 10
139.0561183738
 20
230.1671667599
 11
138.955576803
 21
230.4752094202
  0
LINE
  5
28D
100
AcDbEntity
  8
0
100
AcDbLine
 62
7
  6
CONTINUOUS
 10
138.4528683738
 20
232.1181028413
 11
138.352326803
 21
232.4261456454
  0
LINE
  5
28E
100
AcDbEntity
  8
0
100
AcDbLine
 62
7
  6
CONTINUOUS
 10
139.0561183738
 20
232.2207839678
 11
138.955576803
 21
232.5288264843
  0
LINE
  5
28F
100
AcDbEntity
  8
0
100
AcDbLine
 62
7
  6
CONTINUOUS
 10
150.3210950575
 20
278.9206731949
 11
150.3210950575
 21
280.5462731949
  0
LINE
  5
290
100
AcDbEntity
  8
0
100
AcDbLine
 62
7
  6
CONTINUOUS
 10
150.5668792021
 20
280.5462731949
 11
150.5668792021
 21
278.9206731949
  0
LINE
  5
291
100
AcDbEntity
  8
0
100
AcDbLine
 62
7
  6
CONTINUOUS
 10
151.7243680861
 20
230.1671667599
 11
151.7243680861
 21
231.7073794859
  0
LINE
  5
292
100
AcDbEntity
  8
0
100
AcDbLine
 62
7
  6
CONTINUOUS
 10
152.3276180861
 20
231.707379486
 11
152.3276180861
 21
230.16716676
  0
LINE
  5
293
100
AcDbEntity
  8
0
100
AcDbLine
 62
7
  6
CONTINUOUS
 10
153.3557106588
 20
280.5462731949
 11
153.3557106588
 21
278.9206731949
  0
LINE
  5
294
100
AcDbEntity
  8
0
100
AcDbLine
 62
7
  6
CONTINUOUS
 10
153.4421164398
 20
280.5462731949
 11
153.4421164398
 21
278.9206731949
  0
LINE
  5
295
100
AcDbEntity
  8
0
100
AcDbLine
 62
7
  6
CONTINUOUS
 10
158.598476803
 20
154.4718731949
 11
158.598476803
 21
144.6562731949
  0
LINE
  5
296
100
AcDbEntity
  8
0
100
AcDbLine
 62
7
  6
CONTINUOUS
 10
155.6454942368
 20
229.7564434046
 11
155.544951803
 21
229.2430391385
  0
LINE
  5
297
100
AcDbEntity
  8
0
100
AcDbLine
 62
7
  6
CONTINUOUS
 10
158.4606593693
 20
232.9395498396
 11
157.5557843694
 21
230.1671667599
  0
LINE
  5
298
100
AcDbEntity
  8
0
100
AcDbLine
 62
7
  6
CONTINUOUS
 10
157.4552442367
 20
229.7564434046
 11
157.053076803
 21
228.5242731949
  0
LINE
  5
299
100
AcDbEntity
  8
0
100
AcDbLine
 62
7
  6
CONTINUOUS
 10
164.292076803
 20
231.6046986472
 11
164.3926192367
 21
231.9127411637
  0
LINE
  5
29A
100
AcDbEntity
  8
0
100
AcDbLine
 62
7
  6
CONTINUOUS
 10
164.9958692367
 20
231.8100603248
 11
164.895326803
 21
231.5020178084
  0
LINE
  5
29B
100
AcDbEntity
  8
0
100
AcDbLine
 62
7
  6
CONTINUOUS
 10
156.449826803
 20
228.5242731949
 11
158.0584942367
 21
233.3502731949
  0
LINE
  5
29C
100
AcDbEntity
  8
0
100
AcDbLine
 62
7
  6
CONTINUOUS
 10
236.0234528035
 20
259.3499731949
 11
234.3176255352
 21
258.3651133623
  0
LINE
  5
29D
100
AcDbEntity
  8
0
100
AcDbLine
 62
7
  6
CONTINUOUS
 10
40.906076803
 20
212.4612731949
 11
42.531676803
 21
212.4612731949
  0
LINE
  5
29E
100
AcDbEntity
  8
0
100
AcDbLine
 62
7
  6
CONTINUOUS
 10
256.744076803
 20
212.4912731949
 11
255.118476803
 21
212.4912731949
  0
LINE
  5
29F
100
AcDbEntity
  8
0
100
AcDbLine
 62
7
  6
CONTINUOUS
 10
86.3586838391
 20
280.6478731949
 11
82.5567803211
 21
284.4497767129
  0
LINE
  5
2A0
100
AcDbEntity
  8
0
100
AcDbLine
 62
7
  6
CONTINUOUS
 10
207.524476803
 20
165.6306731949
 11
212.2432769966
 21
160.911873318
  0
LINE
  5
2A1
100
AcDbEntity
  8
0
100
AcDbLine
 62
7
  6
CONTINUOUS
 10
138.352326803
 20
230.3725285813
 11
138.1512433738
 21
230.577890259
  0
LINE
  5
2A2
100
AcDbEntity
  8
0
100
AcDbLine
 62
7
  6
CONTINUOUS
 10
138.352326803
 20
232.4261456454
 11
138.1512433738
 21
232.6315073231
  0
LINE
  5
2A3
100
AcDbEntity
  8
0
100
AcDbLine
 62
7
  6
CONTINUOUS
 10
138.653951803
 20
230.8859327754
 11
138.955576803
 21
230.4752094202
  0
LINE
  5
2A4
100
AcDbEntity
  8
0
100
AcDbLine
 62
7
  6
CONTINUOUS
 10
138.653951803
 20
232.9395498396
 11
138.955576803
 21
232.5288264843
  0
LINE
  5
2A5
100
AcDbEntity
  8
0
100
AcDbLine
 62
7
  6
CONTINUOUS
 10
152.3276180861
 20
230.16716676
 11
152.4281605199
 21
229.7564434046
  0
LINE
  5
2A6
100
AcDbEntity
  8
0
100
AcDbLine
 62
7
  6
CONTINUOUS
 10
151.8249105199
 20
229.6537625657
 11
151.7243680861
 21
230.1671667599
  0
LINE
  5
2A7
100
AcDbEntity
  8
0
100
AcDbLine
 62
7
  6
CONTINUOUS
 10
159.215676803
 20
160.9118731949
 11
159.215676803
 21
157.6606731949
  0
LINE
  5
2A8
100
AcDbEntity
  8
0
100
AcDbLine
 62
7
  6
CONTINUOUS
 10
160.0942768031
 20
280.5462731949
 11
160.0942768031
 21
278.9206731949
  0
LINE
  5
2A9
100
AcDbEntity
  8
0
100
AcDbLine
 62
7
  6
CONTINUOUS
 10
161.275826803
 20
228.5242731949
 11
161.275826803
 21
233.3502731949
  0
LINE
  5
2AA
100
AcDbEntity
  8
0
100
AcDbLine
 62
7
  6
CONTINUOUS
 10
161.879076803
 20
232.8368690007
 11
161.879076803
 21
231.2966561307
  0
LINE
  5
2AB
100
AcDbEntity
  8
0
100
AcDbLine
 62
7
  6
CONTINUOUS
 10
161.879076803
 20
230.6805710978
 11
161.879076803
 21
228.5242731949
  0
LINE
  5
2AC
100
AcDbEntity
  8
0
100
AcDbLine
 62
7
  6
CONTINUOUS
 10
162.3566255352
 20
278.9206731949
 11
162.3566255352
 21
280.5462731949
  0
LINE
  5
2AD
100
AcDbEntity
  8
0
100
AcDbLine
 62
7
  6
CONTINUOUS
 10
163.269276803
 20
280.5462731949
 11
163.269276803
 21
278.9206731949
  0
LINE
  5
2AE
100
AcDbEntity
  8
0
100
AcDbLine
 62
7
  6
CONTINUOUS
 10
164.0624528034
 20
280.5462731949
 11
164.0624528034
 21
278.9206731949
  0
LINE
  5
2AF
100
AcDbEntity
  8
0
100
AcDbLine
 62
7
  6
CONTINUOUS
 10
164.0988395604
 20
278.9206731949
 11
164.0988395604
 21
280.5462731949
  0
LINE
  5
2B0
100
AcDbEntity
  8
0
100
AcDbLine
 62
7
  6
CONTINUOUS
 10
164.3926192367
 20
231.9127411637
 11
164.3926192367
 21
232.2207839679
  0
LINE
  5
2B1
100
AcDbEntity
  8
0
100
AcDbLine
 62
7
  6
CONTINUOUS
 10
164.9958692367
 20
232.2207839678
 11
164.9958692367
 21
231.8100603248
  0
LINE
  5
2B2
100
AcDbEntity
  8
0
100
AcDbLine
 62
7
  6
CONTINUOUS
 10
165.4072065826
 20
278.9206731949
 11
165.4072065826
 21
280.5462731949
  0
LINE
  5
2B3
100
AcDbEntity
  8
0
100
AcDbLine
 62
7
  6
CONTINUOUS
 10
166.0262402871
 20
278.9206731949
 11
166.0262402871
 21
280.5462731949
  0
LINE
  5
2B4
100
AcDbEntity
  8
0
100
AcDbLine
 62
7
  6
CONTINUOUS
 10
166.3926373909
 20
280.5462731949
 11
166.3926373909
 21
278.9206731949
  0
LINE
  5
2B5
100
AcDbEntity
  8
0
100
AcDbLine
 62
7
  6
CONTINUOUS
 10
204.784756803
 20
230.8915476891
 11
173.011592003
 21
206.304096206
  0
LINE
  5
2B6
100
AcDbEntity
  8
0
100
AcDbLine
 62
7
  6
CONTINUOUS
 10
154.2379105199
 20
229.1403582997
 11
154.640076803
 21
229.2430391385
  0
LINE
  5
2B7
100
AcDbEntity
  8
0
100
AcDbLine
 62
7
  6
CONTINUOUS
 10
154.7406192368
 20
228.6269540427
 11
154.2379105199
 21
228.5242731949
  0
LINE
  5
2B8
100
AcDbEntity
  8
0
100
AcDbLine
 62
7
  6
CONTINUOUS
 10
164.1915343693
 20
230.7832519366
 11
163.6888268031
 21
230.6805710978
  0
LINE
  5
2B9
100
AcDbEntity
  8
0
100
AcDbLine
 62
7
  6
CONTINUOUS
 10
42.531676803
 20
221.7322731949
 11
40.906076803
 21
221.7322731949
  0
LINE
  5
2BA
100
AcDbEntity
  8
0
100
AcDbLine
 62
7
  6
CONTINUOUS
 10
255.118476803
 20
221.7622731949
 11
256.744076803
 21
221.7622731949
  0
LINE
  5
2BB
100
AcDbEntity
  8
0
100
AcDbLine
 62
7
  6
CONTINUOUS
 10
40.906076803
 20
227.635739387
 11
42.531676803
 21
227.635739387
  0
LINE
  5
2BC
100
AcDbEntity
  8
0
100
AcDbLine
 62
7
  6
CONTINUOUS
 10
256.744076803
 20
227.665739387
 11
255.118476803
 21
227.665739387
  0
LINE
  5
2BD
100
AcDbEntity
  8
0
100
AcDbLine
 62
7
  6
CONTINUOUS
 10
161.879076803
 20
228.5242731949
 11
161.275826803
 21
228.5242731949
  0
LINE
  5
2BE
100
AcDbEntity
  8
0
100
AcDbLine
 62
7
  6
CONTINUOUS
 10
160.4714942367
 20
228.5242731949
 11
159.8682442367
 21
228.5242731949
  0
LINE
  5
2BF
100
AcDbEntity
  8
0
100
AcDbLine
 62
7
  6
CONTINUOUS
 10
157.053076803
 20
228.5242731949
 11
156.449826803
 21
228.5242731949
  0
LINE
  5
2C0
100
AcDbEntity
  8
0
100
AcDbLine
 62
7
  6
CONTINUOUS
 10
154.2379105199
 20
228.5242731949
 11
153.3330355199
 21
228.5242731949
  0
LINE
  5
2C1
100
AcDbEntity
  8
0
100
AcDbLine
 62
7
  6
CONTINUOUS
 10
135.336076803
 20
228.5242731949
 11
137.749076803
 21
228.5242731949
  0
LINE
  5
2C2
100
AcDbEntity
  8
0
100
AcDbLine
 62
7
  6
CONTINUOUS
 10
40.906076803
 20
229.1236731949
 11
42.531676803
 21
229.1236731949
  0
LINE
  5
2C3
100
AcDbEntity
  8
0
100
AcDbLine
 62
7
  6
CONTINUOUS
 10
135.939326803
 20
229.1403582997
 11
137.8496183738
 21
229.1403582997
  0
LINE
  5
2C4
100
AcDbEntity
  8
0
100
AcDbLine
 62
7
  6
CONTINUOUS
 10
153.3330355199
 20
229.1403582997
 11
154.2379105199
 21
229.1403582997
  0
LINE
  5
2C5
100
AcDbEntity
  8
0
100
AcDbLine
 62
7
  6
CONTINUOUS
 10
256.744076803
 20
229.1536731949
 11
255.118476803
 21
229.1536731949
  0
LINE
  5
2C6
100
AcDbEntity
  8
0
100
AcDbLine
 62
7
  6
CONTINUOUS
 10
42.531676803
 20
229.2867291569
 11
40.906076803
 21
229.2867291569
  0
LINE
  5
2C7
100
AcDbEntity
  8
0
100
AcDbLine
 62
7
  6
CONTINUOUS
 10
255.118476803
 20
229.3167291569
 11
256.744076803
 21
229.3167291569
  0
LINE
  5
2C8
100
AcDbEntity
  8
0
100
AcDbLine
 62
7
  6
CONTINUOUS
 10
40.906076803
 20
229.5272897082
 11
42.531676803
 21
229.5272897082
  0
LINE
  5
2C9
100
AcDbEntity
  8
0
100
AcDbLine
 62
7
  6
CONTINUOUS
 10
256.744076803
 20
229.5572897082
 11
255.118476803
 21
229.5572897082
  0
LINE
  5
2CA
100
AcDbEntity
  8
0
100
AcDbLine
 62
7
  6
CONTINUOUS
 10
159.466076803
 20
229.7564434046
 11
157.4552442367
 21
229.7564434046
  0
LINE
  5
2CB
100
AcDbEntity
  8
0
100
AcDbLine
 62
7
  6
CONTINUOUS
 10
155.0422442367
 20
229.7564434046
 11
155.6454942368
 21
229.7564434046
  0
LINE
  5
2CC
100
AcDbEntity
  8
0
100
AcDbLine
 62
7
  6
CONTINUOUS
 10
153.3330355199
 20
228.5242731949
 11
152.830326803
 21
228.6269540427
  0
LINE
  5
2CD
100
AcDbEntity
  8
0
100
AcDbLine
 62
7
  6
CONTINUOUS
 10
152.9308680861
 20
229.2430391386
 11
153.3330355199
 21
229.1403582997
  0
LINE
  5
2CE
100
AcDbEntity
  8
0
100
AcDbLine
 62
7
  6
CONTINUOUS
 10
138.1512433738
 20
230.577890259
 11
137.8496183738
 21
230.6805710978
  0
LINE
  5
2CF
100
AcDbEntity
  8
0
100
AcDbLine
 62
7
  6
CONTINUOUS
 10
138.1512433738
 20
232.6315073231
 11
137.8496183738
 21
232.7341881619
  0
LINE
  5
2D0
100
AcDbEntity
  8
0
100
AcDbLine
 62
7
  6
CONTINUOUS
 10
138.653951803
 20
230.8859327754
 11
138.4528683738
 21
230.9886136143
  0
LINE
  5
2D1
100
AcDbEntity
  8
0
100
AcDbLine
 62
7
  6
CONTINUOUS
 10
152.830326803
 20
228.6269540427
 11
152.4281605199
 21
228.8323157473
  0
LINE
  5
2D2
100
AcDbEntity
  8
0
100
AcDbLine
 62
7
  6
CONTINUOUS
 10
152.6292430862
 20
229.4484008881
 11
152.9308680861
 21
229.2430391386
  0
LINE
  5
2D3
100
AcDbEntity
  8
0
100
AcDbLine
 62
7
  6
CONTINUOUS
 10
138.2517852323
 20
233.247592356
 11
138.653951803
 21
232.9395498396
  0
LINE
  5
2D4
100
AcDbEntity
  8
0
100
AcDbLine
 62
7
  6
CONTINUOUS
 10
152.4281605199
 20
228.8323157473
 11
152.0259930861
 21
229.2430391385
  0
LINE
  5
2D5
100
AcDbEntity
  8
0
100
AcDbLine
 62
7
  6
CONTINUOUS
 10
152.4281605199
 20
229.7564434046
 11
152.6292430862
 21
229.4484008881
  0
LINE
  5
2D6
100
AcDbEntity
  8
0
100
AcDbLine
 62
7
  6
CONTINUOUS
 10
152.0259930861
 20
229.2430391385
 11
151.8249105199
 21
229.6537625657
  0
LINE
  5
2D7
100
AcDbEntity
  8
0
100
AcDbLine
 62
7
  6
CONTINUOUS
 10
158.862826803
 20
233.3502731949
 11
160.4714942367
 21
228.5242731949
  0
LINE
  5
2D8
100
AcDbEntity
  8
0
100
AcDbLine
 62
7
  6
CONTINUOUS
 10
155.0422442368
 20
232.1181028413
 11
154.941701803
 21
232.4261456455
  0
LINE
  5
2D9
100
AcDbEntity
  8
0
100
AcDbLine
 62
7
  6
CONTINUOUS
 10
159.8682442367
 20
228.5242731949
 11
159.466076803
 21
229.7564434046
  0
LINE
  5
2DA
100
AcDbEntity
  8
0
100
AcDbLine
 62
7
  6
CONTINUOUS
 10
159.3655343693
 20
230.1671667598
 11
158.4606593693
 21
232.9395498396
  0
LINE
  5
2DB
100
AcDbEntity
  8
0
100
AcDbLine
 62
7
  6
CONTINUOUS
 10
155.544951803
 20
232.6315073231
 11
155.6454942367
 21
232.1181028413
  0
LINE
  5
2DC
100
AcDbEntity
  8
0
100
AcDbLine
 62
7
  6
CONTINUOUS
 10
169.3070291137
 20
280.5462731949
 11
169.3070291137
 21
278.9206731949
  0
LINE
  5
2DD
100
AcDbEntity
  8
0
100
AcDbLine
 62
7
  6
CONTINUOUS
 10
170.5535943449
 20
278.9206731949
 11
170.5535943449
 21
280.5462731949
  0
LINE
  5
2DE
100
AcDbEntity
  8
0
100
AcDbLine
 62
7
  6
CONTINUOUS
 10
171.1001732935
 20
278.9206731949
 11
171.1001732935
 21
280.5462731949
  0
LINE
  5
2DF
100
AcDbEntity
  8
0
100
AcDbLine
 62
7
  6
CONTINUOUS
 10
171.2194768031
 20
280.5462731949
 11
171.2194768031
 21
278.9206731949
  0
LINE
  5
2E0
100
AcDbEntity
  8
0
100
AcDbLine
 62
7
  6
CONTINUOUS
 10
196.6237755397
 20
242.6339731949
 11
193.9034742764
 21
237.9222731948
  0
LINE
  5
2E1
100
AcDbEntity
  8
0
100
AcDbLine
 62
7
  6
CONTINUOUS
 10
153.3330355199
 20
232.7341881619
 11
152.9308680861
 21
232.6315073231
  0
LINE
  5
2E2
100
AcDbEntity
  8
0
100
AcDbLine
 62
7
  6
CONTINUOUS
 10
137.749076803
 20
228.5242731949
 11
138.2517852323
 21
228.6269540427
  0
LINE
  5
2E3
100
AcDbEntity
  8
0
100
AcDbLine
 62
7
  6
CONTINUOUS
 10
152.830326803
 20
233.247592356
 11
153.3330355199
 21
233.3502731949
  0
LINE
  5
2E4
100
AcDbEntity
  8
0
100
AcDbLine
 62
7
  6
CONTINUOUS
 10
157.5557843694
 20
230.1671667599
 11
159.3655343693
 21
230.1671667598
  0
LINE
  5
2E5
100
AcDbEntity
  8
0
100
AcDbLine
 62
7
  6
CONTINUOUS
 10
146.0940355199
 20
230.2698475987
 11
144.686451803
 21
230.2698475987
  0
LINE
  5
2E6
100
AcDbEntity
  8
0
100
AcDbLine
 62
7
  6
CONTINUOUS
 10
40.906076803
 20
230.3213877977
 11
42.531676803
 21
230.3213877977
  0
LINE
  5
2E7
100
AcDbEntity
  8
0
100
AcDbLine
 62
7
  6
CONTINUOUS
 10
256.744076803
 20
230.3513877977
 11
255.118476803
 21
230.3513877977
  0
LINE
  5
2E8
100
AcDbEntity
  8
0
100
AcDbLine
 62
7
  6
CONTINUOUS
 10
42.531676803
 20
230.4951035177
 11
40.906076803
 21
230.4951035177
  0
LINE
  5
2E9
100
AcDbEntity
  8
0
100
AcDbLine
 62
7
  6
CONTINUOUS
 10
256.744076803
 20
230.5251035177
 11
255.118476803
 21
230.5251035177
  0
LINE
  5
2EA
100
AcDbEntity
  8
0
100
AcDbLine
 62
7
  6
CONTINUOUS
 10
163.6888268031
 20
230.6805710978
 11
161.879076803
 21
230.6805710978
  0
LINE
  5
2EB
100
AcDbEntity
  8
0
100
AcDbLine
 62
7
  6
CONTINUOUS
 10
137.8496183738
 20
230.6805710978
 11
135.939326803
 21
230.6805710978
  0
LINE
  5
2EC
100
AcDbEntity
  8
0
100
AcDbLine
 62
7
  6
CONTINUOUS
 10
40.906076803
 20
230.7238731949
 11
42.531676803
 21
230.7238731949
  0
LINE
  5
2ED
100
AcDbEntity
  8
0
100
AcDbLine
 62
7
  6
CONTINUOUS
 10
256.744076803
 20
230.7538731949
 11
255.118476803
 21
230.7538731949
  0
LINE
  5
2EE
100
AcDbEntity
  8
0
100
AcDbLine
 62
7
  6
CONTINUOUS
 10
144.686451803
 20
230.7832519366
 11
146.0940355199
 21
230.7832519366
  0
LINE
  5
2EF
100
AcDbEntity
  8
0
100
AcDbLine
 62
7
  6
CONTINUOUS
 10
42.531676803
 20
230.8034352643
 11
40.906076803
 21
230.8034352643
  0
LINE
  5
2F0
100
AcDbEntity
  8
0
100
AcDbLine
 62
7
  6
CONTINUOUS
 10
255.118476803
 20
230.8334352643
 11
256.744076803
 21
230.8334352643
  0
LINE
  5
2F1
100
AcDbEntity
  8
0
100
AcDbLine
 62
7
  6
CONTINUOUS
 10
135.939326803
 20
231.2966561307
 11
137.8496183738
 21
231.2966561307
  0
LINE
  5
2F2
100
AcDbEntity
  8
0
100
AcDbLine
 62
7
  6
CONTINUOUS
 10
161.879076803
 20
231.2966561307
 11
163.7893692368
 21
231.2966561307
  0
LINE
  5
2F3
100
AcDbEntity
  8
0
100
AcDbLine
 62
7
  6
CONTINUOUS
 10
40.906076803
 20
231.616558064
 11
42.531676803
 21
231.616558064
  0
LINE
  5
2F4
100
AcDbEntity
  8
0
100
AcDbLine
 62
7
  6
CONTINUOUS
 10
256.744076803
 20
231.646558064
 11
255.118476803
 21
231.646558064
  0
LINE
  5
2F5
100
AcDbEntity
  8
0
100
AcDbLine
 62
7
  6
CONTINUOUS
 10
155.6454942367
 20
232.1181028413
 11
155.0422442368
 21
232.1181028413
  0
LINE
  5
2F6
100
AcDbEntity
  8
0
100
AcDbLine
 62
7
  6
CONTINUOUS
 10
42.531676803
 20
232.3865324113
 11
40.906076803
 21
232.3865324113
  0
LINE
  5
2F7
100
AcDbEntity
  8
0
100
AcDbLine
 62
7
  6
CONTINUOUS
 10
40.906076803
 20
232.4017424462
 11
42.531676803
 21
232.4017424462
  0
LINE
  5
2F8
100
AcDbEntity
  8
0
100
AcDbLine
 62
7
  6
CONTINUOUS
 10
255.118476803
 20
232.4165324113
 11
256.744076803
 21
232.4165324113
  0
LINE
  5
2F9
100
AcDbEntity
  8
0
100
AcDbLine
 62
7
  6
CONTINUOUS
 10
256.744076803
 20
232.4317424462
 11
255.118476803
 21
232.4317424462
  0
LINE
  5
2FA
100
AcDbEntity
  8
0
100
AcDbLine
 62
7
  6
CONTINUOUS
 10
154.2379105199
 20
232.7341881619
 11
153.3330355199
 21
232.7341881619
  0
LINE
  5
2FB
100
AcDbEntity
  8
0
100
AcDbLine
 62
7
  6
CONTINUOUS
 10
137.8496183738
 20
232.7341881619
 11
135.939326803
 21
232.7341881619
  0
LINE
  5
2FC
100
AcDbEntity
  8
0
100
AcDbLine
 62
7
  6
CONTINUOUS
 10
163.7893692367
 20
232.8368690007
 11
161.879076803
 21
232.8368690007
  0
LINE
  5
2FD
100
AcDbEntity
  8
0
100
AcDbLine
 62
7
  6
CONTINUOUS
 10
95.0237755397
 20
233.2105731949
 11
100.4643780664
 21
233.2105731949
  0
LINE
  5
2FE
100
AcDbEntity
  8
0
100
AcDbLine
 62
7
  6
CONTINUOUS
 10
196.6237755397
 20
233.2105731949
 11
202.0643780663
 21
233.2105731949
  0
LINE
  5
2FF
100
AcDbEntity
  8
0
100
AcDbLine
 62
7
  6
CONTINUOUS
 10
137.749076803
 20
233.3502731949
 11
135.336076803
 21
233.3502731949
  0
LINE
  5
300
100
AcDbEntity
  8
0
100
AcDbLine
 62
7
  6
CONTINUOUS
 10
153.3330355199
 20
233.3502731949
 11
154.2379105199
 21
233.3502731949
  0
LINE
  5
301
100
AcDbEntity
  8
0
100
AcDbLine
 62
7
  6
CONTINUOUS
 10
158.0584942367
 20
233.3502731949
 11
158.862826803
 21
233.3502731949
  0
LINE
  5
302
100
AcDbEntity
  8
0
100
AcDbLine
 62
7
  6
CONTINUOUS
 10
161.275826803
 20
233.3502731949
 11
163.688826803
 21
233.3502731949
  0
LINE
  5
303
100
AcDbEntity
  8
0
100
AcDbLine
 62
7
  6
CONTINUOUS
 10
42.531676803
 20
233.3565435749
 11
40.906076803
 21
233.3565435749
  0
LINE
  5
304
100
AcDbEntity
  8
0
100
AcDbLine
 62
7
  6
CONTINUOUS
 10
256.744076803
 20
233.3865435749
 11
255.118476803
 21
233.3865435749
  0
LINE
  5
305
100
AcDbEntity
  8
0
100
AcDbLine
 62
7
  6
CONTINUOUS
 10
138.2517852323
 20
233.247592356
 11
137.749076803
 21
233.3502731949
  0
LINE
  5
306
100
AcDbEntity
  8
0
100
AcDbLine
 62
7
  6
CONTINUOUS
 10
154.2379105199
 20
233.3502731949
 11
154.7406192367
 21
233.247592356
  0
LINE
  5
307
100
AcDbEntity
  8
0
100
AcDbLine
 62
7
  6
CONTINUOUS
 10
163.688826803
 20
233.3502731949
 11
164.1915343693
 21
233.247592356
  0
LINE
  5
308
100
AcDbEntity
  8
0
100
AcDbLine
 62
7
  6
CONTINUOUS
 10
154.640076803
 20
232.6315073231
 11
154.2379105199
 21
232.7341881619
  0
LINE
  5
309
100
AcDbEntity
  8
0
100
AcDbLine
 62
7
  6
CONTINUOUS
 10
164.0909942368
 20
232.7341881619
 11
163.7893692367
 21
232.8368690007
  0
LINE
  5
30A
100
AcDbEntity
  8
0
100
AcDbLine
 62
7
  6
CONTINUOUS
 10
154.7406192367
 20
233.247592356
 11
155.1427843694
 21
233.0422306784
  0
LINE
  5
30B
100
AcDbEntity
  8
0
100
AcDbLine
 62
7
  6
CONTINUOUS
 10
154.941701803
 20
232.4261456455
 11
154.640076803
 21
232.6315073231
  0
LINE
  5
30C
100
AcDbEntity
  8
0
100
AcDbLine
 62
7
  6
CONTINUOUS
 10
164.1915343693
 20
233.247592356
 11
164.593701803
 21
232.9395498396
  0
LINE
  5
30D
100
AcDbEntity
  8
0
100
AcDbLine
 62
7
  6
CONTINUOUS
 10
155.1427843694
 20
233.0422306784
 11
155.544951803
 21
232.6315073231
  0
LINE
  5
30E
100
AcDbEntity
  8
0
100
AcDbLine
 62
7
  6
CONTINUOUS
 10
164.292076803
 20
232.5288264843
 11
164.0909942368
 21
232.7341881619
  0
LINE
  5
30F
100
AcDbEntity
  8
0
100
AcDbLine
 62
7
  6
CONTINUOUS
 10
164.593701803
 20
232.9395498396
 11
164.895326803
 21
232.5288264843
  0
LINE
  5
310
100
AcDbEntity
  8
0
100
AcDbLine
 62
7
  6
CONTINUOUS
 10
164.3926192367
 20
232.2207839679
 11
164.292076803
 21
232.5288264843
  0
LINE
  5
311
100
AcDbEntity
  8
0
100
AcDbLine
 62
7
  6
CONTINUOUS
 10
164.895326803
 20
232.5288264843
 11
164.9958692367
 21
232.2207839678
  0
LINE
  5
312
100
AcDbEntity
  8
0
100
AcDbLine
 62
7
  6
CONTINUOUS
 10
150.4470494968
 20
154.4718731949
 11
148.946476803
 21
151.8728050488
  0
LINE
  5
313
100
AcDbEntity
  8
0
100
AcDbLine
 62
7
  6
CONTINUOUS
 10
202.0643780664
 20
233.2105731948
 11
204.7846793297
 21
237.9222731949
  0
LINE
  5
314
100
AcDbEntity
  8
0
100
AcDbLine
 62
7
  6
CONTINUOUS
 10
202.0643780663
 20
242.6339731949
 11
196.6237755397
 21
242.6339731949
  0
LINE
  5
315
100
AcDbEntity
  8
0
100
AcDbLine
 62
7
  6
CONTINUOUS
 10
100.4643780664
 20
242.6339731949
 11
95.0237755397
 21
242.6339731949
  0
LINE
  5
316
100
AcDbEntity
  8
0
100
AcDbLine
 62
7
  6
CONTINUOUS
 10
42.531676803
 20
246.8459133623
 11
40.906076803
 21
246.8459133623
  0
LINE
  5
317
100
AcDbEntity
  8
0
100
AcDbLine
 62
7
  6
CONTINUOUS
 10
256.744076803
 20
246.8759133623
 11
255.118476803
 21
246.8759133623
  0
LINE
  5
318
100
AcDbEntity
  8
0
100
AcDbLine
 62
7
  6
CONTINUOUS
 10
42.531676803
 20
247.8307731949
 11
40.906076803
 21
247.8307731949
  0
LINE
  5
319
100
AcDbEntity
  8
0
100
AcDbLine
 62
7
  6
CONTINUOUS
 10
256.744076803
 20
247.8607731949
 11
255.118476803
 21
247.8607731949
  0
LINE
  5
31A
100
AcDbEntity
  8
0
100
AcDbLine
 62
7
  6
CONTINUOUS
 10
42.531676803
 20
248.9645664271
 11
40.906076803
 21
248.9645664271
  0
LINE
  5
31B
100
AcDbEntity
  8
0
100
AcDbLine
 62
7
  6
CONTINUOUS
 10
256.744076803
 20
248.9945664271
 11
255.118476803
 21
248.9945664271
  0
LINE
  5
31C
100
AcDbEntity
  8
0
100
AcDbLine
 62
7
  6
CONTINUOUS
 10
40.906076803
 20
252.9234731949
 11
42.531676803
 21
252.9234731949
  0
LINE
  5
31D
100
AcDbEntity
  8
0
100
AcDbLine
 62
7
  6
CONTINUOUS
 10
256.744076803
 20
252.9534731949
 11
255.118476803
 21
252.9534731949
  0
LINE
  5
31E
100
AcDbEntity
  8
0
100
AcDbLine
 62
7
  6
CONTINUOUS
 10
40.906076803
 20
253.6340664788
 11
42.531676803
 21
253.6340664788
  0
LINE
  5
31F
100
AcDbEntity
  8
0
100
AcDbLine
 62
7
  6
CONTINUOUS
 10
256.744076803
 20
253.6640664788
 11
255.118476803
 21
253.6640664788
  0
LINE
  5
320
100
AcDbEntity
  8
0
100
AcDbLine
 62
7
  6
CONTINUOUS
 10
42.531676803
 20
255.1438614189
 11
40.906076803
 21
255.1438614189
  0
LINE
  5
321
100
AcDbEntity
  8
0
100
AcDbLine
 62
7
  6
CONTINUOUS
 10
255.118476803
 20
255.1738614189
 11
256.744076803
 21
255.1738614189
  0
LINE
  5
322
100
AcDbEntity
  8
0
100
AcDbLine
 62
7
  6
CONTINUOUS
 10
198.461426803
 20
233.2105731949
 11
198.461426803
 21
242.6339731949
  0
LINE
  5
323
100
AcDbEntity
  8
0
100
AcDbLine
 62
7
  6
CONTINUOUS
 10
200.226726803
 20
233.2105731948
 11
200.226726803
 21
242.6339731949
  0
LINE
  5
324
100
AcDbEntity
  8
0
100
AcDbLine
 62
7
  6
CONTINUOUS
 10
260.0575086072
 20
175.5598484268
 11
261.0479803211
 21
174.5693767129
  0
LINE
  5
325
100
AcDbEntity
  8
0
100
AcDbLine
 62
7
  6
CONTINUOUS
 10
255.5432753252
 20
158.3094731948
 11
254.5688760641
 21
159.6106731949
  0
LINE
  5
326
100
AcDbEntity
  8
0
100
AcDbLine
 62
7
  6
CONTINUOUS
 10
193.9034742764
 20
237.9222731949
 11
196.6237755397
 21
233.2105731948
  0
LINE
  5
327
100
AcDbEntity
  8
0
100
AcDbLine
 62
7
  6
CONTINUOUS
 10
212.3544287376
 20
160.7373600549
 11
212.3544287375
 21
160.8246166242
  0
LINE
  5
328
100
AcDbEntity
  8
0
100
AcDbLine
 62
7
  6
CONTINUOUS
 10
212.856276803
 20
157.6606731949
 11
212.856276803
 21
159.2862731949
  0
LINE
  5
329
100
AcDbEntity
  8
0
100
AcDbLine
 62
7
  6
CONTINUOUS
 10
173.011592003
 20
269.5404501837
 11
204.784756803
 21
244.9529987006
  0
LINE
  5
32A
100
AcDbEntity
  8
0
100
AcDbLine
 62
7
  6
CONTINUOUS
 10
162.5586838391
 20
280.6478731949
 11
158.7567803211
 21
284.4497767129
  0
LINE
  5
32B
100
AcDbEntity
  8
0
100
AcDbLine
 62
7
  6
CONTINUOUS
 10
204.7846793297
 20
237.9222731948
 11
202.0643780664
 21
242.6339731949
  0
LINE
  5
32C
100
AcDbEntity
  8
0
100
AcDbLine
 62
7
  6
CONTINUOUS
 10
215.494476803
 20
159.2862731949
 11
215.4944768031
 21
157.6606732195
  0
LINE
  5
32D
100
AcDbEntity
  8
0
100
AcDbLine
 62
7
  6
CONTINUOUS
 10
216.306276803
 20
157.6606731949
 11
216.306276803
 21
159.2862731949
  0
LINE
  5
32E
100
AcDbEntity
  8
0
100
AcDbLine
 62
7
  6
CONTINUOUS
 10
256.687276803
 20
277.3966731949
 11
154.8797031178
 21
277.3966731949
  0
LINE
  5
32F
100
AcDbEntity
  8
0
100
AcDbLine
 62
7
  6
CONTINUOUS
 10
142.2084504883
 20
277.3966731949
 11
40.189676803
 21
277.3966731949
  0
LINE
  5
330
100
AcDbEntity
  8
0
100
AcDbLine
 62
7
  6
CONTINUOUS
 10
126.769476803
 20
278.9206731949
 11
171.2194768031
 21
278.9206731949
  0
LINE
  5
331
100
AcDbEntity
  8
0
100
AcDbLine
 62
7
  6
CONTINUOUS
 10
38.564076803
 20
279.0222731949
 11
36.938476803
 21
279.0222731949
  0
LINE
  5
332
100
AcDbEntity
  8
0
100
AcDbLine
 62
7
  6
CONTINUOUS
 10
258.312876803
 20
279.0222731949
 11
259.938476803
 21
279.0222731949
  0
LINE
  5
333
100
AcDbEntity
  8
0
100
AcDbLine
 62
7
  6
CONTINUOUS
 10
171.2194768031
 20
280.5462731949
 11
126.769476803
 21
280.5462731949
  0
LINE
  5
334
100
AcDbEntity
  8
0
100
AcDbLine
 62
7
  6
CONTINUOUS
 10
38.564076803
 20
280.6478731949
 11
258.312876803
 21
280.6478731949
  0
LINE
  5
335
100
AcDbEntity
  8
0
100
AcDbLine
 62
7
  6
CONTINUOUS
 10
234.956780321
 20
284.4497767129
 11
214.754573285
 21
284.4497767129
  0
LINE
  5
336
100
AcDbEntity
  8
0
100
AcDbLine
 62
7
  6
CONTINUOUS
 10
158.7567803211
 20
284.4497767129
 11
138.554573285
 21
284.4497767129
  0
LINE
  5
337
100
AcDbEntity
  8
0
100
AcDbLine
 62
7
  6
CONTINUOUS
 10
82.5567803211
 20
284.4497767129
 11
62.354573285
 21
284.4497767129
  0
LINE
  5
338
100
AcDbEntity
  8
0
100
AcDbLine
 62
7
  6
CONTINUOUS
 10
232.729676803
 20
285.3722731949
 11
216.981676803
 21
285.3722731949
  0
LINE
  5
339
100
AcDbEntity
  8
0
100
AcDbLine
 62
7
  6
CONTINUOUS
 10
156.529676803
 20
285.3722731949
 11
140.781676803
 21
285.3722731949
  0
LINE
  5
33A
100
AcDbEntity
  8
0
100
AcDbLine
 62
7
  6
CONTINUOUS
 10
80.329676803
 20
285.3722731949
 11
64.581676803
 21
285.3722731949
  0
LINE
  5
33B
100
AcDbEntity
  8
0
100
AcDbLine
 62
7
  6
CONTINUOUS
 10
207.5933280708
 20
258.3651133623
 11
205.8875008026
 21
259.3499731949
  0
LINE
  5
33C
100
AcDbEntity
  8
0
100
AcDbLine
 62
7
  6
CONTINUOUS
 10
251.4874760641
 20
159.2862731949
 11
251.4874760641
 21
157.6606731949
  0
LINE
  5
33D
100
AcDbEntity
  8
0
100
AcDbLine
 62
7
  6
CONTINUOUS
 10
253.594476803
 20
159.2862732098
 11
253.5944768031
 21
157.6606731949
  0
LINE
  5
33E
100
AcDbEntity
  8
0
100
AcDbLine
 62
7
  6
CONTINUOUS
 10
255.118476803
 20
212.4912731949
 11
255.118476803
 21
255.1738614189
  0
LINE
  5
33F
100
AcDbEntity
  8
0
100
AcDbLine
 62
7
  6
CONTINUOUS
 10
255.220076803
 20
175.0206731949
 11
255.220076803
 21
160.9118731949
  0
LINE
  5
340
100
AcDbEntity
  8
0
100
AcDbLine
 62
7
  6
CONTINUOUS
 10
256.687276803
 20
157.7230731949
 11
256.687276803
 21
277.3966731949
  0
LINE
  5
341
100
AcDbEntity
  8
0
100
AcDbLine
 62
7
  6
CONTINUOUS
 10
256.744076803
 20
255.1738614189
 11
256.744076803
 21
212.4912731949
  0
LINE
  5
342
100
AcDbEntity
  8
0
100
AcDbLine
 62
7
  6
CONTINUOUS
 10
256.845676803
 20
160.9118731949
 11
256.845676803
 21
175.0206731949
  0
LINE
  5
343
100
AcDbEntity
  8
0
100
AcDbLine
 62
7
  6
CONTINUOUS
 10
257.144476803
 20
277.7199628957
 11
257.144476803
 21
278.0432525964
  0
LINE
  5
344
100
AcDbEntity
  8
0
100
AcDbLine
 62
7
  6
CONTINUOUS
 10
258.0669732849
 20
278.8782253584
 11
258.0669732849
 21
278.6024870363
  0
LINE
  5
345
100
AcDbEntity
  8
0
100
AcDbLine
 62
7
  6
CONTINUOUS
 10
258.312876803
 20
280.6478731949
 11
258.312876803
 21
279.0222731949
  0
LINE
  5
346
100
AcDbEntity
  8
0
100
AcDbLine
 62
7
  6
CONTINUOUS
 10
258.312876803
 20
156.0974731949
 11
258.312876803
 21
154.4718731949
  0
LINE
  5
347
100
AcDbEntity
  8
0
100
AcDbLine
 62
7
  6
CONTINUOUS
 10
259.938476803
 20
279.0222731949
 11
259.938476803
 21
156.0974731949
  0
LINE
  5
348
100
AcDbEntity
  8
0
100
AcDbLine
 62
7
  6
CONTINUOUS
 10
260.0575086072
 20
175.5598484268
 11
260.0575086072
 21
158.9649742203
  0
LINE
  5
349
100
AcDbEntity
  8
0
100
AcDbLine
 62
7
  6
CONTINUOUS
 10
261.0479803211
 20
159.9551696768
 11
261.0479803211
 21
174.5693767129
  0
LINE
  5
34A
100
AcDbEntity
  8
0
100
AcDbLine
 62
7
  6
CONTINUOUS
 10
261.9704511981
 20
172.3295731949
 11
261.9704511981
 21
162.1949731949
  0
LINE
  5
34B
100
AcDbEntity
  8
0
100
AcDbLine
 62
7
  6
CONTINUOUS
 10
262.605476803
 20
162.1950337542
 11
262.605476803
 21
172.3295126355
  0
LINE
  5
34C
100
AcDbEntity
  8
0
100
AcDbLine
 62
7
  6
CONTINUOUS
 10
265.462976803
 20
163.3443231949
 11
265.462976803
 21
171.1802231949
  0
LINE
  5
34D
100
AcDbEntity
  8
0
100
AcDbLine
 62
7
  6
CONTINUOUS
 10
261.0479803211
 20
159.9551696768
 11
260.0575086072
 21
158.9646979629
  0
LINE
  5
34E
100
AcDbEntity
  8
0
100
AcDbLine
 62
7
  6
CONTINUOUS
 10
238.7586838391
 20
280.6478731949
 11
234.956780321
 21
284.4497767129
  0
ARC
  5
34F
100
AcDbEntity
  8
0
100
AcDbCircle
 62
7
  6
CONTINUOUS
 10
40.2081916703
 20
170.0805398864
 40
9.0381057618
100
AcDbArc
 50
198.016009141
 51
198.4360627437
  0
ARC
  5
350
100
AcDbEntity
  8
0
100
AcDbCircle
 62
7
  6
CONTINUOUS
 10
38.0442786974
 20
164.9903108546
 40
6.7847855312
100
AcDbArc
 50
165.4916537931
 51
167.74993722
  0
ARC
  5
351
100
AcDbEntity
  8
0
100
AcDbCircle
 62
7
  6
CONTINUOUS
 10
42.486876803
 20
160.9118731949
 40
3.2512
100
AcDbArc
 50
180.0
 51
270.0
  0
ARC
  5
352
100
AcDbEntity
  8
0
100
AcDbCircle
 62
7
  6
CONTINUOUS
 10
38.056076803
 20
162.1822731949
 40
3.1496
100
AcDbArc
 50
180.4966327047
 51
225.0
  0
ARC
  5
353
100
AcDbEntity
  8
0
100
AcDbCircle
 62
7
  6
CONTINUOUS
 10
38.056076803
 20
172.3422731949
 40
3.1496
100
AcDbArc
 50
135.0
 51
180.95873785
  0
CIRCLE
  5
354
100
AcDbEntity
  8
0
100
AcDbCircle
 62
7
  6
CONTINUOUS
 10
66.261276803
 20
169.4406731949
 40
2.6929953583
  0
ARC
  5
355
100
AcDbEntity
  8
0
100
AcDbCircle
 62
7
  6
CONTINUOUS
 10
42.486876803
 20
160.9118731949
 40
1.6256
100
AcDbArc
 50
180.0
 51
270.0
  0
CIRCLE
  5
356
100
AcDbEntity
  8
0
100
AcDbCircle
 62
7
  6
CONTINUOUS
 10
66.261276803
 20
169.4406731949
 40
1.52
  0
ARC
  5
357
100
AcDbEntity
  8
0
100
AcDbCircle
 62
7
  6
CONTINUOUS
 10
76.683476803
 20
239.0680731949
 40
1.5748
100
AcDbArc
 50
3.1620482349
 51
176.8379517651
  0
ARC
  5
358
100
AcDbEntity
  8
0
100
AcDbCircle
 62
7
  6
CONTINUOUS
 10
79.5563164399
 20
242.6212897082
 40
1.5748
100
AcDbArc
 50
190.9321230424
 51
19.0678769576
  0
ARC
  5
359
100
AcDbEntity
  8
0
100
AcDbCircle
 62
7
  6
CONTINUOUS
 10
76.683476803
 20
247.6526664788
 40
19.0754
100
AcDbArc
 50
37.8222773281
 51
85.2685114413
  0
ARC
  5
35A
100
AcDbEntity
  8
0
100
AcDbCircle
 62
7
  6
CONTINUOUS
 10
76.683476803
 20
247.6526664788
 40
19.0754
100
AcDbArc
 50
94.7314885587
 51
142.1777226719
  0
ARC
  5
35B
100
AcDbEntity
  8
0
100
AcDbCircle
 62
7
  6
CONTINUOUS
 10
76.683476803
 20
253.3428731949
 40
14.2748
100
AcDbArc
 50
276.3240964697
 51
20.5990180846
  0
ARC
  5
35C
100
AcDbEntity
  8
0
100
AcDbCircle
 62
7
  6
CONTINUOUS
 10
76.683476803
 20
253.3428731949
 40
14.2748
100
AcDbArc
 50
159.4009819154
 51
263.6759035303
  0
ARC
  5
35D
100
AcDbEntity
  8
0
100
AcDbCircle
 62
7
  6
CONTINUOUS
 10
76.683476803
 20
253.3428731949
 40
11.0998
100
AcDbArc
 50
293.1344586892
 51
276.8642460847
  0
ARC
  5
35E
100
AcDbEntity
  8
0
100
AcDbCircle
 62
7
  6
CONTINUOUS
 10
97.744076803
 20
237.9222731949
 40
8.89
100
AcDbArc
 50
127.7342569
 51
232.2657430999
  0
CIRCLE
  5
35F
100
AcDbEntity
  8
0
100
AcDbCircle
 62
7
  6
CONTINUOUS
 10
97.744076803
 20
237.9222731949
 40
6.35
  0
ARC
  5
360
100
AcDbEntity
  8
0
100
AcDbCircle
 62
7
  6
CONTINUOUS
 10
97.744076803
 20
237.9222731949
 40
4.7117
100
AcDbArc
 50
100.7970965042
 51
259.2029034958
  0
ARC
  5
361
100
AcDbEntity
  8
0
100
AcDbCircle
 62
7
  6
CONTINUOUS
 10
97.744076803
 20
237.9222731949
 40
4.7117
100
AcDbArc
 50
280.7970965042
 51
79.2029034958
  0
ARC
  5
362
100
AcDbEntity
  8
0
100
AcDbCircle
 62
7
  6
CONTINUOUS
 10
97.744076803
 20
237.9222731949
 40
3.683
100
AcDbArc
 50
103.8661892603
 51
256.1338107397
  0
ARC
  5
363
100
AcDbEntity
  8
0
100
AcDbCircle
 62
7
  6
CONTINUOUS
 10
97.744076803
 20
237.9222731949
 40
3.683
100
AcDbArc
 50
283.8661892603
 51
76.1338107397
  0
CIRCLE
  5
364
100
AcDbEntity
  8
0
100
AcDbCircle
 62
7
  6
CONTINUOUS
 10
97.744076803
 20
237.9222731949
 40
2.54
  0
ARC
  5
365
100
AcDbEntity
  8
0
100
AcDbCircle
 62
7
  6
CONTINUOUS
 10
80.329676803
 20
282.2226731949
 40
3.1496
100
AcDbArc
 50
44.9999999999
 51
90.0
  0
ARC
  5
366
100
AcDbEntity
  8
0
100
AcDbCircle
 62
7
  6
CONTINUOUS
 10
64.581676803
 20
282.2226731949
 40
3.1496
100
AcDbArc
 50
90.0
 51
135.0000000001
  0
ARC
  5
367
100
AcDbEntity
  8
0
100
AcDbCircle
 62
7
  6
CONTINUOUS
 10
76.683476803
 20
266.7280664788
 40
1.5748
100
AcDbArc
 50
182.3657442793
 51
357.6342557206
  0
ARC
  5
368
100
AcDbEntity
  8
0
100
AcDbCircle
 62
7
  6
CONTINUOUS
 10
140.781676803
 20
282.2226731949
 40
3.1496
100
AcDbArc
 50
90.0
 51
135.0000000001
  0
ARC
  5
369
100
AcDbEntity
  8
0
100
AcDbCircle
 62
7
  6
CONTINUOUS
 10
148.946476803
 20
144.6562731949
 40
9.652
100
AcDbArc
 50
180.0
 51
360.0
  0
ARC
  5
36A
100
AcDbEntity
  8
0
100
AcDbCircle
 62
7
  6
CONTINUOUS
 10
258.8319996422
 20
165.0301655156
 40
6.7854824874
100
AcDbArc
 50
12.2502944142
 51
14.5118553661
  0
ARC
  5
36B
100
AcDbEntity
  8
0
100
AcDbCircle
 62
7
  6
CONTINUOUS
 10
258.8326250102
 20
169.4942472648
 40
6.7848430094
100
AcDbArc
 50
345.4915090888
 51
347.7496876393
  0
CIRCLE
  5
36C
100
AcDbEntity
  8
0
100
AcDbCircle
 62
7
  6
CONTINUOUS
 10
148.946476803
 20
144.6562731949
 40
4.826
  0
ARC
  5
36D
100
AcDbEntity
  8
0
100
AcDbCircle
 62
7
  6
CONTINUOUS
 10
253.594476803
 20
160.9118731949
 40
3.2512
100
AcDbArc
 50
270.0
 51
360.0
  0
ARC
  5
36E
100
AcDbEntity
  8
0
100
AcDbCircle
 62
7
  6
CONTINUOUS
 10
258.820876803
 20
172.3422731949
 40
3.1496
100
AcDbArc
 50
359.7689680049
 51
45.0000000005
  0
ARC
  5
36F
100
AcDbEntity
  8
0
100
AcDbCircle
 62
7
  6
CONTINUOUS
 10
258.820876803
 20
162.1822731949
 40
3.1496
100
AcDbArc
 50
314.9999999995
 51
0.2310319951
  0
CIRCLE
  5
370
100
AcDbEntity
  8
0
100
AcDbCircle
 62
7
  6
CONTINUOUS
 10
229.820076803
 20
169.4406731949
 40
2.6929953583
  0
ARC
  5
371
100
AcDbEntity
  8
0
100
AcDbCircle
 62
7
  6
CONTINUOUS
 10
253.594476803
 20
160.9118731949
 40
1.6256
100
AcDbArc
 50
270.0
 51
360.0
  0
CIRCLE
  5
372
100
AcDbEntity
  8
0
100
AcDbCircle
 62
7
  6
CONTINUOUS
 10
155.550476803
 20
152.2762731949
 40
1.524
  0
CIRCLE
  5
373
100
AcDbEntity
  8
0
100
AcDbCircle
 62
7
  6
CONTINUOUS
 10
229.820076803
 20
169.4406731949
 40
1.52
  0
ARC
  5
374
100
AcDbEntity
  8
0
100
AcDbCircle
 62
7
  6
CONTINUOUS
 10
148.544076803
 20
237.9222731949
 40
39.9796
100
AcDbArc
 50
232.2657431
 51
307.7342569
  0
ARC
  5
375
100
AcDbEntity
  8
0
100
AcDbCircle
 62
7
  6
CONTINUOUS
 10
148.544076803
 20
237.9222731949
 40
39.9796
100
AcDbArc
 50
52.2657430999
 51
127.7342569001
  0
CIRCLE
  5
376
100
AcDbEntity
  8
0
100
AcDbCircle
 62
7
  6
CONTINUOUS
 10
148.544076803
 20
237.9222731949
 40
38.2778
  0
CIRCLE
  5
377
100
AcDbEntity
  8
0
100
AcDbCircle
 62
7
  6
CONTINUOUS
 10
148.544076803
 20
237.9222731949
 40
35.9032795226
  0
CIRCLE
  5
378
100
AcDbEntity
  8
0
100
AcDbCircle
 62
7
  6
CONTINUOUS
 10
148.544076803
 20
237.9222731949
 40
35.3330274889
  0
CIRCLE
  5
379
100
AcDbEntity
  8
0
100
AcDbCircle
 62
7
  6
CONTINUOUS
 10
148.544076803
 20
237.9222731949
 40
25.9612498601
  0
ARC
  5
37A
100
AcDbEntity
  8
0
100
AcDbCircle
 62
7
  6
CONTINUOUS
 10
156.529676803
 20
282.2226731949
 40
3.1496
100
AcDbArc
 50
44.9999999999
 51
90.0
  0
ARC
  5
37B
100
AcDbEntity
  8
0
100
AcDbCircle
 62
7
  6
CONTINUOUS
 10
199.344076803
 20
237.9222731949
 40
8.89
100
AcDbArc
 50
307.7342569
 51
52.2657431
  0
CIRCLE
  5
37C
100
AcDbEntity
  8
0
100
AcDbCircle
 62
7
  6
CONTINUOUS
 10
199.344076803
 20
237.9222731949
 40
6.35
  0
ARC
  5
37D
100
AcDbEntity
  8
0
100
AcDbCircle
 62
7
  6
CONTINUOUS
 10
199.344076803
 20
237.9222731949
 40
4.7117
100
AcDbArc
 50
100.7970965042
 51
259.2029034958
  0
ARC
  5
37E
100
AcDbEntity
  8
0
100
AcDbCircle
 62
7
  6
CONTINUOUS
 10
199.344076803
 20
237.9222731949
 40
4.7117
100
AcDbArc
 50
280.7970965042
 51
79.2029034958
  0
ARC
  5
37F
100
AcDbEntity
  8
0
100
AcDbCircle
 62
7
  6
CONTINUOUS
 10
199.344076803
 20
237.9222731949
 40
3.683
100
AcDbArc
 50
103.8661892603
 51
256.1338107397
  0
ARC
  5
380
100
AcDbEntity
  8
0
100
AcDbCircle
 62
7
  6
CONTINUOUS
 10
199.344076803
 20
237.9222731949
 40
3.683
100
AcDbArc
 50
283.8661892603
 51
76.1338107397
  0
CIRCLE
  5
381
100
AcDbEntity
  8
0
100
AcDbCircle
 62
7
  6
CONTINUOUS
 10
199.344076803
 20
237.9222731949
 40
2.54
  0
ARC
  5
382
100
AcDbEntity
  8
0
100
AcDbCircle
 62
7
  6
CONTINUOUS
 10
220.955476803
 20
239.0680731949
 40
1.5748
100
AcDbArc
 50
3.1620482349
 51
176.8379517665
  0
ARC
  5
383
100
AcDbEntity
  8
0
100
AcDbCircle
 62
7
  6
CONTINUOUS
 10
223.8283164398
 20
242.6212897082
 40
1.5748
100
AcDbArc
 50
190.9321230434
 51
19.0678769563
  0
ARC
  5
384
100
AcDbEntity
  8
0
100
AcDbCircle
 62
7
  6
CONTINUOUS
 10
220.955476803
 20
247.6526664788
 40
19.0754
100
AcDbArc
 50
37.8222773282
 51
85.2685114412
  0
ARC
  5
385
100
AcDbEntity
  8
0
100
AcDbCircle
 62
7
  6
CONTINUOUS
 10
220.955476803
 20
247.6526664788
 40
19.0754
100
AcDbArc
 50
94.7314885588
 51
142.1777226718
  0
ARC
  5
386
100
AcDbEntity
  8
0
100
AcDbCircle
 62
7
  6
CONTINUOUS
 10
220.955476803
 20
253.3428731949
 40
14.2748
100
AcDbArc
 50
276.3240964698
 51
20.5990180845
  0
ARC
  5
387
100
AcDbEntity
  8
0
100
AcDbCircle
 62
7
  6
CONTINUOUS
 10
220.955476803
 20
253.3428731949
 40
14.2748
100
AcDbArc
 50
159.4009819154
 51
263.6759035302
  0
ARC
  5
388
100
AcDbEntity
  8
0
100
AcDbCircle
 62
7
  6
CONTINUOUS
 10
220.955476803
 20
253.3428731949
 40
11.0998
100
AcDbArc
 50
293.134458689
 51
276.8642460846
  0
ARC
  5
389
100
AcDbEntity
  8
0
100
AcDbCircle
 62
7
  6
CONTINUOUS
 10
232.729676803
 20
282.2226731949
 40
3.1496
100
AcDbArc
 50
44.9999999999
 51
90.0
  0
ARC
  5
38A
100
AcDbEntity
  8
0
100
AcDbCircle
 62
7
  6
CONTINUOUS
 10
216.981676803
 20
282.2226731949
 40
3.1496
100
AcDbArc
 50
90.0
 51
135.0000000001
  0
ARC
  5
38B
100
AcDbEntity
  8
0
100
AcDbCircle
 62
7
  6
CONTINUOUS
 10
220.955476803
 20
266.7280664788
 40
1.5748
100
AcDbArc
 50
182.3657442795
 51
357.6342557195
  0
SPLINE
  5
38C
100
AcDbEntity
  8
0
100
AcDbSpline
 62
7
  6
CONTINUOUS
 70
0
 71
3
 72
10
 73
6
 74
0
 42
0.0000001
 43
0.0000001
 44
0.0000000001
 40
0.0
 40
0.0
 40
0.0
 40
0.0
 40
0.3160848762
 40
0.5993013931
 40
1.0
 40
1.0
 40
1.0
 40
1.0
 10
256.687276803
 20
277.3966731949
 30
0.0
 10
256.8202940312
 20
277.6056161662
 30
0.0
 10
257.0762649419
 20
278.0050019575
 30
0.0
 10
257.5235841863
 20
278.6225955528
 30
0.0
 10
257.9988808519
 20
279.0222731949
 30
0.0
 10
258.312876803
 20
279.0222731949
 30
0.0
  0
SPLINE
  5
38D
100
AcDbEntity
  8
0
100
AcDbSpline
 62
7
  6
CONTINUOUS
 70
0
 71
3
 72
10
 73
6
 74
0
 42
0.0000001
 43
0.0000001
 44
0.0000000001
 40
0.0
 40
0.0
 40
0.0
 40
0.0
 40
0.3160848762
 40
0.5993013931
 40
1.0
 40
1.0
 40
1.0
 40
1.0
 10
256.687276803
 20
157.7230731949
 30
0.0
 10
256.8962197744
 20
157.5900559667
 30
0.0
 10
257.2956055656
 20
157.334085056
 30
0.0
 10
257.913199161
 20
156.8867658116
 30
0.0
 10
258.312876803
 20
156.411469146
 30
0.0
 10
258.312876803
 20
156.0974731949
 30
0.0
  0
SPLINE
  5
38E
100
AcDbEntity
  8
0
100
AcDbSpline
 62
7
  6
CONTINUOUS
 70
0
 71
3
 72
10
 73
6
 74
0
 42
0.0000001
 43
0.0000001
 44
0.0000000001
 40
0.0
 40
0.0
 40
0.0
 40
0.0
 40
0.4006985384
 40
0.6839150743
 40
1.0
 40
1.0
 40
1.0
 40
1.0
 10
258.312876803
 20
279.0222731949
 30
0.0
 10
258.312876803
 20
278.7082772967
 30
0.0
 10
257.913199232
 20
278.2329806494
 30
0.0
 10
257.2956056442
 20
277.785661386
 30
0.0
 10
256.8962198076
 20
277.5296904441
 30
0.0
 10
256.687276803
 20
277.3966731949
 30
0.0
  0
SPLINE
  5
38F
100
AcDbEntity
  8
0
100
AcDbSpline
 62
7
  6
CONTINUOUS
 70
0
 71
3
 72
10
 73
6
 74
0
 42
0.0000001
 43
0.0000001
 44
0.0000000001
 40
0.0
 40
0.0
 40
0.0
 40
0.0
 40
0.3160848762
 40
0.5993013931
 40
1.0
 40
1.0
 40
1.0
 40
1.0
 10
40.189676803
 20
157.7230731949
 30
0.0
 10
40.0566595749
 20
157.5141302235
 30
0.0
 10
39.8006886642
 20
157.1147444322
 30
0.0
 10
39.3533694198
 20
156.4971508369
 30
0.0
 10
38.8780727542
 20
156.0974731949
 30
0.0
 10
38.564076803
 20
156.0974731949
 30
0.0
  0
SPLINE
  5
390
100
AcDbEntity
  8
0
100
AcDbSpline
 62
7
  6
CONTINUOUS
 70
0
 71
3
 72
10
 73
6
 74
0
 42
0.0000001
 43
0.0000001
 44
0.0000000001
 40
0.0
 40
0.0
 40
0.0
 40
0.0
 40
0.4006985384
 40
0.6839150743
 40
1.0
 40
1.0
 40
1.0
 40
1.0
 10
258.312876803
 20
156.0974731949
 30
0.0
 10
257.9988809049
 20
156.0974731949
 30
0.0
 10
257.5235842576
 20
156.4971507659
 30
0.0
 10
257.0762649941
 20
157.1147443537
 30
0.0
 10
256.8202940523
 20
157.5141301903
 30
0.0
 10
256.687276803
 20
157.7230731949
 30
0.0
  0
SPLINE
  5
391
100
AcDbEntity
  8
0
100
AcDbSpline
 62
7
  6
CONTINUOUS
 70
0
 71
3
 72
10
 73
6
 74
0
 42
0.0000001
 43
0.0000001
 44
0.0000000001
 40
0.0
 40
0.0
 40
0.0
 40
0.0
 40
0.3160848762
 40
0.5993013931
 40
1.0
 40
1.0
 40
1.0
 40
1.0
 10
40.189676803
 20
277.3966731949
 30
0.0
 10
39.9807338316
 20
277.529690423
 30
0.0
 10
39.5813480404
 20
277.7856613337
 30
0.0
 10
38.9637544451
 20
278.2329805781
 30
0.0
 10
38.564076803
 20
278.7082772437
 30
0.0
 10
38.564076803
 20
279.0222731949
 30
0.0
  0
SPLINE
  5
392
100
AcDbEntity
  8
0
100
AcDbSpline
 62
7
  6
CONTINUOUS
 70
0
 71
3
 72
10
 73
6
 74
0
 42
0.0000001
 43
0.0000001
 44
0.0000000001
 40
0.0
 40
0.0
 40
0.0
 40
0.0
 40
0.4006985384
 40
0.6839150743
 40
1.0
 40
1.0
 40
1.0
 40
1.0
 10
38.564076803
 20
156.0974731949
 30
0.0
 10
38.564076803
 20
156.411469093
 30
0.0
 10
38.9637543741
 20
156.8867657402
 30
0.0
 10
39.5813479619
 20
157.3340850038
 30
0.0
 10
39.9807337984
 20
157.5900559456
 30
0.0
 10
40.189676803
 20
157.7230731949
 30
0.0
  0
SPLINE
  5
393
100
AcDbEntity
  8
0
100
AcDbSpline
 62
7
  6
CONTINUOUS
 70
0
 71
3
 72
10
 73
6
 74
0
 42
0.0000001
 43
0.0000001
 44
0.0000000001
 40
0.0
 40
0.0
 40
0.0
 40
0.0
 40
0.4006985384
 40
0.6839150743
 40
1.0
 40
1.0
 40
1.0
 40
1.0
 10
38.564076803
 20
279.0222731949
 30
0.0
 10
38.8780727012
 20
279.0222731949
 30
0.0
 10
39.3533693484
 20
278.6225956238
 30
0.0
 10
39.800688612
 20
278.005002036
 30
0.0
 10
40.0566595538
 20
277.6056161994
 30
0.0
 10
40.189676803
 20
277.3966731949
 30
0.0
  0
SPLINE
  5
394
100
AcDbEntity
  8
0
100
AcDbSpline
 62
7
  6
CONTINUOUS
 70
0
 71
3
 72
8
 73
4
 74
0
 42
0.0000001
 43
0.0000001
 44
0.0000000001
 40
0.0
 40
0.0
 40
0.0
 40
0.0
 40
1.0
 40
1.0
 40
1.0
 40
1.0
 10
31.413976803
 20
164.0966885484
 30
0.0
 10
31.4720445306
 20
163.8287993148
 30
0.0
 10
31.5472630825
 20
163.5643672004
 30
0.0
 10
31.6339441064
 20
163.3043231608
 30
0.0
  0
SPLINE
  5
395
100
AcDbEntity
  8
0
100
AcDbSpline
 62
7
  6
CONTINUOUS
 70
0
 71
3
 72
8
 73
4
 74
0
 42
0.0000001
 43
0.0000001
 44
0.0000000001
 40
0.0
 40
0.0
 40
0.0
 40
0.0
 40
1.0
 40
1.0
 40
1.0
 40
1.0
 10
31.6339472556
 20
167.2222731949
 30
0.0
 10
31.575422448
 20
167.0466987722
 30
0.0
 10
31.5221551761
 20
166.8692281368
 30
0.0
 10
31.4758521231
 20
166.6900423162
 30
0.0
  0
SPLINE
  5
396
100
AcDbEntity
  8
0
100
AcDbSpline
 62
7
  6
CONTINUOUS
 70
0
 71
3
 72
8
 73
4
 74
0
 42
0.0000001
 43
0.0000001
 44
0.0000000001
 40
0.0
 40
0.0
 40
0.0
 40
0.0
 40
1.0
 40
1.0
 40
1.0
 40
1.0
 10
31.413976803
 20
168.01464827
 30
0.0
 10
31.4673720133
 20
167.7683151939
 30
0.0
 10
31.5352718379
 20
167.5249069538
 30
0.0
 10
31.6132230043
 20
167.2852099606
 30
0.0
  0
SPLINE
  5
397
100
AcDbEntity
  8
0
100
AcDbSpline
 62
7
  6
CONTINUOUS
 70
0
 71
3
 72
8
 73
4
 74
0
 42
0.0000001
 43
0.0000001
 44
0.0000000001
 40
0.0
 40
0.0
 40
0.0
 40
0.0
 40
1.0
 40
1.0
 40
1.0
 40
1.0
 10
31.6339441064
 20
171.1402232294
 30
0.0
 10
31.5472630824
 20
170.8801791896
 30
0.0
 10
31.4720445306
 20
170.615747075
 30
0.0
 10
31.413976803
 20
170.3478578413
 30
0.0
  0
SPLINE
  5
398
100
AcDbEntity
  8
0
100
AcDbSpline
 62
7
  6
CONTINUOUS
 70
0
 71
3
 72
10
 73
6
 74
0
 42
0.0000001
 43
0.0000001
 44
0.0000000001
 40
0.0
 40
0.0
 40
0.0
 40
0.0
 40
0.3537364032
 40
0.6410042772
 40
1.0
 40
1.0
 40
1.0
 40
1.0
 10
259.938476803
 20
156.0974731949
 30
0.0
 10
259.938476803
 20
156.2984436097
 30
0.0
 10
259.6125160809
 20
156.5946238576
 30
0.0
 10
259.131287912
 20
156.8510788315
 30
0.0
 10
258.7880401085
 20
156.9981594675
 30
0.0
 10
258.598249111
 20
157.0728482618
 30
0.0
  0
SPLINE
  5
399
100
AcDbEntity
  8
0
100
AcDbSpline
 62
7
  6
CONTINUOUS
 70
0
 71
3
 72
9
 73
5
 74
0
 42
0.0000001
 43
0.0000001
 44
0.0000000001
 40
0.0
 40
0.0
 40
0.0
 40
0.0
 40
0.2299544866
 40
1.0
 40
1.0
 40
1.0
 40
1.0
 10
258.598249111
 20
157.0728482618
 30
0.0
 10
258.4542517351
 20
157.1295158094
 30
0.0
 10
257.8230461085
 20
157.363234473
 30
0.0
 10
257.1810620703
 20
157.5658964626
 30
0.0
 10
256.687276803
 20
157.7230731949
 30
0.0
  0
SPLINE
  5
39A
100
AcDbEntity
  8
0
100
AcDbSpline
 62
7
  6
CONTINUOUS
 70
0
 71
3
 72
9
 73
5
 74
0
 42
0.0000001
 43
0.0000001
 44
0.0000000001
 40
0.0
 40
0.0
 40
0.0
 40
0.0
 40
0.2641809785
 40
1.0
 40
1.0
 40
1.0
 40
1.0
 10
256.687276803
 20
277.3966731949
 30
0.0
 10
256.8566727647
 20
277.4505936041
 30
0.0
 10
257.497668283
 20
277.6550298489
 30
0.0
 10
258.1375444588
 20
277.8655940547
 30
0.0
 10
258.5982917494
 20
278.0469149047
 30
0.0
  0
SPLINE
  5
39B
100
AcDbEntity
  8
0
100
AcDbSpline
 62
7
  6
CONTINUOUS
 70
0
 71
3
 72
10
 73
6
 74
0
 42
0.0000001
 43
0.0000001
 44
0.0000000001
 40
0.0
 40
0.0
 40
0.0
 40
0.0
 40
0.3589951393
 40
0.6462624077
 40
1.0
 40
1.0
 40
1.0
 40
1.0
 10
258.5982917494
 20
278.0469149047
 30
0.0
 10
258.7880771251
 20
278.1216023664
 30
0.0
 10
259.1313143521
 20
278.2686804243
 30
0.0
 10
259.6125290174
 20
278.5251318806
 30
0.0
 10
259.938476803
 20
278.8213074134
 30
0.0
 10
259.938476803
 20
279.0222731949
 30
0.0
  0
SPLINE
  5
39C
100
AcDbEntity
  8
0
100
AcDbSpline
 62
7
  6
CONTINUOUS
 70
0
 71
3
 72
8
 73
4
 74
0
 42
0.0000001
 43
0.0000001
 44
0.0000000001
 40
0.0
 40
0.0
 40
0.0
 40
0.0
 40
1.0
 40
1.0
 40
1.0
 40
1.0
 10
265.2430127403
 20
167.2622733412
 30
0.0
 10
265.3014906219
 20
167.0868397065
 30
0.0
 10
265.3547198751
 20
166.9095131988
 30
0.0
 10
265.4009968221
 20
166.7304739098
 30
0.0
  0
SPLINE
  5
39D
100
AcDbEntity
  8
0
100
AcDbSpline
 62
7
  6
CONTINUOUS
 70
0
 71
3
 72
8
 73
4
 74
0
 42
0.0000001
 43
0.0000001
 44
0.0000000001
 40
0.0
 40
0.0
 40
0.0
 40
0.0
 40
1.0
 40
1.0
 40
1.0
 40
1.0
 10
265.462976803
 20
164.1366689223
 30
0.0
 10
265.4049093038
 20
163.8687863651
 30
0.0
 10
265.3296918846
 20
163.6043608328
 30
0.0
 10
265.2430126489
 20
163.3443231259
 30
0.0
  0
SPLINE
  5
39E
100
AcDbEntity
  8
0
100
AcDbSpline
 62
7
  6
CONTINUOUS
 70
0
 71
3
 72
8
 73
4
 74
0
 42
0.0000001
 43
0.0000001
 44
0.0000000001
 40
0.0
 40
0.0
 40
0.0
 40
0.0
 40
1.0
 40
1.0
 40
1.0
 40
1.0
 10
265.2430127403
 20
167.2622732728
 30
0.0
 10
265.3015354429
 20
167.4378413903
 30
0.0
 10
265.3548010965
 20
167.6153055463
 30
0.0
 10
265.401102937
 20
167.7944848146
 30
0.0
  0
SPLINE
  5
39F
100
AcDbEntity
  8
0
100
AcDbSpline
 62
7
  6
CONTINUOUS
 70
0
 71
3
 72
9
 73
5
 74
0
 42
0.0000001
 43
0.0000001
 44
0.0000000001
 40
0.0
 40
0.0
 40
0.0
 40
0.0
 40
0.2641809785
 40
1.0
 40
1.0
 40
1.0
 40
1.0
 10
40.189676803
 20
277.3966731949
 30
0.0
 10
40.1357563938
 20
277.5660691566
 30
0.0
 10
39.931320149
 20
278.2070646748
 30
0.0
 10
39.7207559432
 20
278.8469408506
 30
0.0
 10
39.5394350932
 20
279.3076881412
 30
0.0
  0
SPLINE
  5
3A0
100
AcDbEntity
  8
0
100
AcDbSpline
 62
7
  6
CONTINUOUS
 70
0
 71
3
 72
10
 73
6
 74
0
 42
0.0000001
 43
0.0000001
 44
0.0000000001
 40
0.0
 40
0.0
 40
0.0
 40
0.0
 40
0.3589951393
 40
0.6462624077
 40
1.0
 40
1.0
 40
1.0
 40
1.0
 10
39.5394350932
 20
279.3076881412
 30
0.0
 10
39.4647476315
 20
279.4974735169
 30
0.0
 10
39.3176695736
 20
279.8407107439
 30
0.0
 10
39.0612181173
 20
280.3219254092
 30
0.0
 10
38.7650425845
 20
280.6478731949
 30
0.0
 10
38.564076803
 20
280.6478731949
 30
0.0
  0
SPLINE
  5
3A1
100
AcDbEntity
  8
0
100
AcDbSpline
 62
7
  6
CONTINUOUS
 70
0
 71
3
 72
10
 73
6
 74
0
 42
0.0000001
 43
0.0000001
 44
0.0000000001
 40
0.0
 40
0.0
 40
0.0
 40
0.0
 40
0.3537364032
 40
0.6410042772
 40
1.0
 40
1.0
 40
1.0
 40
1.0
 10
258.312876803
 20
280.6478731949
 30
0.0
 10
258.1119063882
 20
280.6478731949
 30
0.0
 10
257.8157261403
 20
280.3219124727
 30
0.0
 10
257.5592711664
 20
279.8406843039
 30
0.0
 10
257.4121905305
 20
279.4974365004
 30
0.0
 10
257.3375017361
 20
279.3076455029
 30
0.0
  0
SPLINE
  5
3A2
100
AcDbEntity
  8
0
100
AcDbSpline
 62
7
  6
CONTINUOUS
 70
0
 71
3
 72
9
 73
5
 74
0
 42
0.0000001
 43
0.0000001
 44
0.0000000001
 40
0.0
 40
0.0
 40
0.0
 40
0.0
 40
0.2299544866
 40
1.0
 40
1.0
 40
1.0
 40
1.0
 10
257.3375017361
 20
279.3076455029
 30
0.0
 10
257.2808341885
 20
279.163648127
 30
0.0
 10
257.0471155249
 20
278.5324425004
 30
0.0
 10
256.8444535353
 20
277.8904584622
 30
0.0
 10
256.687276803
 20
277.3966731949
 30
0.0
  0
SPLINE
  5
3A3
100
AcDbEntity
  8
0
100
AcDbSpline
 62
7
  6
CONTINUOUS
 70
0
 71
3
 72
8
 73
4
 74
0
 42
0.0000001
 43
0.0000001
 44
0.0000000001
 40
0.0
 40
0.0
 40
0.0
 40
0.0
 40
1.0
 40
1.0
 40
1.0
 40
1.0
 10
265.462976803
 20
170.3878774674
 30
0.0
 10
265.4049093039
 20
170.6557600243
 30
0.0
 10
265.3296918844
 20
170.9201855563
 30
0.0
 10
265.2430126488
 20
171.1802232629
 30
0.0
  0
SPLINE
  5
3A4
100
AcDbEntity
  8
0
100
AcDbSpline
 62
7
  6
CONTINUOUS
 70
0
 71
3
 72
9
 73
5
 74
0
 42
0.0000001
 43
0.0000001
 44
0.0000000001
 40
0.0
 40
0.0
 40
0.0
 40
0.0
 40
0.2641809785
 40
1.0
 40
1.0
 40
1.0
 40
1.0
 10
40.189676803
 20
157.7230731949
 30
0.0
 10
40.0202808413
 20
157.6691527856
 30
0.0
 10
39.3792853229
 20
157.4647165408
 30
0.0
 10
38.7394091471
 20
157.2541523349
 30
0.0
 10
38.2786618564
 20
157.0728314849
 30
0.0
  0
SPLINE
  5
3A5
100
AcDbEntity
  8
0
100
AcDbSpline
 62
7
  6
CONTINUOUS
 70
0
 71
3
 72
10
 73
6
 74
0
 42
0.0000001
 43
0.0000001
 44
0.0000000001
 40
0.0
 40
0.0
 40
0.0
 40
0.0
 40
0.3589951393
 40
0.6462624077
 40
1.0
 40
1.0
 40
1.0
 40
1.0
 10
38.2786618564
 20
157.0728314849
 30
0.0
 10
38.0888764808
 20
156.9981440232
 30
0.0
 10
37.7456392538
 20
156.8510659653
 30
0.0
 10
37.2644245886
 20
156.5946145091
 30
0.0
 10
36.938476803
 20
156.2984389763
 30
0.0
 10
36.938476803
 20
156.0974731949
 30
0.0
  0
SPLINE
  5
3A6
100
AcDbEntity
  8
0
100
AcDbSpline
 62
7
  6
CONTINUOUS
 70
0
 71
3
 72
10
 73
6
 74
0
 42
0.0000001
 43
0.0000001
 44
0.0000000001
 40
0.0
 40
0.0
 40
0.0
 40
0.0
 40
0.3537364032
 40
0.6410042772
 40
1.0
 40
1.0
 40
1.0
 40
1.0
 10
36.938476803
 20
279.0222731949
 30
0.0
 10
36.938476803
 20
278.82130278
 30
0.0
 10
37.2644375252
 20
278.5251225322
 30
0.0
 10
37.745665694
 20
278.2686675582
 30
0.0
 10
38.0889134975
 20
278.1215869223
 30
0.0
 10
38.278704495
 20
278.046898128
 30
0.0
  0
SPLINE
  5
3A7
100
AcDbEntity
  8
0
100
AcDbSpline
 62
7
  6
CONTINUOUS
 70
0
 71
3
 72
9
 73
5
 74
0
 42
0.0000001
 43
0.0000001
 44
0.0000000001
 40
0.0
 40
0.0
 40
0.0
 40
0.0
 40
0.2299544866
 40
1.0
 40
1.0
 40
1.0
 40
1.0
 10
38.278704495
 20
278.046898128
 30
0.0
 10
38.4227018709
 20
277.9902305803
 30
0.0
 10
39.0539074975
 20
277.7565119166
 30
0.0
 10
39.6958915357
 20
277.5538499271
 30
0.0
 10
40.189676803
 20
277.3966731949
 30
0.0
  0
SPLINE
  5
3A8
100
AcDbEntity
  8
0
100
AcDbSpline
 62
7
  6
CONTINUOUS
 70
0
 71
3
 72
9
 73
5
 74
0
 42
0.0000001
 43
0.0000001
 44
0.0000000001
 40
0.0
 40
0.0
 40
0.0
 40
0.0
 40
0.2641809785
 40
1.0
 40
1.0
 40
1.0
 40
1.0
 10
256.687276803
 20
157.7230731949
 30
0.0
 10
256.7411972123
 20
157.5536772332
 30
0.0
 10
256.9456334571
 20
156.9126817149
 30
0.0
 10
257.1561976629
 20
156.2728055391
 30
0.0
 10
257.3375185129
 20
155.8120582485
 30
0.0
  0
SPLINE
  5
3A9
100
AcDbEntity
  8
0
100
AcDbSpline
 62
7
  6
CONTINUOUS
 70
0
 71
3
 72
10
 73
6
 74
0
 42
0.0000001
 43
0.0000001
 44
0.0000000001
 40
0.0
 40
0.0
 40
0.0
 40
0.0
 40
0.3589951393
 40
0.6462624077
 40
1.0
 40
1.0
 40
1.0
 40
1.0
 10
257.3375185129
 20
155.8120582485
 30
0.0
 10
257.4122059746
 20
155.6222728728
 30
0.0
 10
257.5592840326
 20
155.2790356458
 30
0.0
 10
257.8157354888
 20
154.7978209804
 30
0.0
 10
258.1119110215
 20
154.4718731949
 30
0.0
 10
258.312876803
 20
154.4718731949
 30
0.0
  0
SPLINE
  5
3AA
100
AcDbEntity
  8
0
100
AcDbSpline
 62
7
  6
CONTINUOUS
 70
0
 71
3
 72
10
 73
6
 74
0
 42
0.0000001
 43
0.0000001
 44
0.0000000001
 40
0.0
 40
0.0
 40
0.0
 40
0.0
 40
0.3537364032
 40
0.6410042772
 40
1.0
 40
1.0
 40
1.0
 40
1.0
 10
38.564076803
 20
154.4718731949
 30
0.0
 10
38.7650472179
 20
154.4718731949
 30
0.0
 10
39.0612274658
 20
154.797833917
 30
0.0
 10
39.3176824397
 20
155.2790620859
 30
0.0
 10
39.4647630756
 20
155.6223098894
 30
0.0
 10
39.5394518699
 20
155.8121008869
 30
0.0
  0
SPLINE
  5
3AB
100
AcDbEntity
  8
0
100
AcDbSpline
 62
7
  6
CONTINUOUS
 70
0
 71
3
 72
9
 73
5
 74
0
 42
0.0000001
 43
0.0000001
 44
0.0000000001
 40
0.0
 40
0.0
 40
0.0
 40
0.0
 40
0.2299544866
 40
1.0
 40
1.0
 40
1.0
 40
1.0
 10
39.5394518699
 20
155.8121008869
 30
0.0
 10
39.5961194176
 20
155.9560982628
 30
0.0
 10
39.8298380813
 20
156.5873038894
 30
0.0
 10
40.0325000708
 20
157.2292879276
 30
0.0
 10
40.189676803
 20
157.7230731949
 30
0.0
  0
SPLINE
  5
3AC
100
AcDbEntity
  8
0
100
AcDbSpline
 62
7
  6
CONTINUOUS
 70
0
 71
3
 72
15
 73
11
 74
0
 42
0.0000001
 43
0.0000001
 44
0.0000000001
 40
0.0
 40
0.0
 40
0.0
 40
0.0
 40
0.1294010243
 40
0.2540762126
 40
0.3765933228
 40
0.5003112875
 40
0.6241850514
 40
0.7468512021
 40
0.8715981851
 40
1.0
 40
1.0
 40
1.0
 40
1.0
 10
202.519076803
 20
237.9222731949
 30
0.0
 10
202.5068586388
 20
237.4949886797
 30
0.0
 10
202.3492243624
 20
236.6459093805
 30
0.0
 10
201.6208660712
 20
235.5947162254
 30
0.0
 10
200.570582737
 20
234.9086825094
 30
0.0
 10
199.3403486963
 20
234.6653051355
 30
0.0
 10
198.109981301
 20
234.9112625903
 30
0.0
 10
197.0605234854
 20
235.6012949083
 30
0.0
 10
196.337475207
 20
236.6524914327
 30
0.0
 10
196.1799244401
 20
237.4982535169
 30
0.0
 10
196.169076803
 20
237.9222731949
 30
0.0
  0
SPLINE
  5
3AD
100
AcDbEntity
  8
0
100
AcDbSpline
 62
7
  6
CONTINUOUS
 70
0
 71
3
 72
15
 73
11
 74
0
 42
0.0000001
 43
0.0000001
 44
0.0000000001
 40
0.0
 40
0.0
 40
0.0
 40
0.0
 40
0.1294010243
 40
0.2540762126
 40
0.3765933228
 40
0.5003112875
 40
0.6241850514
 40
0.7468512021
 40
0.8715981851
 40
1.0
 40
1.0
 40
1.0
 40
1.0
 10
196.169076803
 20
237.9222731949
 30
0.0
 10
196.1812949672
 20
238.34955771
 30
0.0
 10
196.3389292436
 20
239.1986370092
 30
0.0
 10
197.0672875349
 20
240.2498301643
 30
0.0
 10
198.1175708691
 20
240.9358638803
 30
0.0
 10
199.3478049098
 20
241.1792412543
 30
0.0
 10
200.5781723051
 20
240.9332837995
 30
0.0
 10
201.6276301207
 20
240.2432514814
 30
0.0
 10
202.3506783991
 20
239.192054957
 30
0.0
 10
202.5082291659
 20
238.3462928728
 30
0.0
 10
202.519076803
 20
237.9222731949
 30
0.0
  0
SPLINE
  5
3AE
100
AcDbEntity
  8
0
100
AcDbSpline
 62
7
  6
CONTINUOUS
 70
0
 71
3
 72
15
 73
11
 74
0
 42
0.0000001
 43
0.0000001
 44
0.0000000001
 40
0.0
 40
0.0
 40
0.0
 40
0.0
 40
0.1294010243
 40
0.2540762126
 40
0.3765933229
 40
0.5003112876
 40
0.6241850514
 40
0.7468512021
 40
0.8715981851
 40
1.0
 40
1.0
 40
1.0
 40
1.0
 10
100.919076803
 20
237.9222731949
 30
0.0
 10
100.9068586388
 20
237.4949886797
 30
0.0
 10
100.7492243624
 20
236.6459093804
 30
0.0
 10
100.0208660711
 20
235.5947162253
 30
0.0
 10
98.9705827369
 20
234.9086825094
 30
0.0
 10
97.7403486962
 20
234.6653051355
 30
0.0
 10
96.509981301
 20
234.9112625903
 30
0.0
 10
95.4605234854
 20
235.6012949083
 30
0.0
 10
94.7374752071
 20
236.6524914326
 30
0.0
 10
94.5799244402
 20
237.4982535169
 30
0.0
 10
94.569076803
 20
237.9222731949
 30
0.0
  0
SPLINE
  5
3AF
100
AcDbEntity
  8
0
100
AcDbSpline
 62
7
  6
CONTINUOUS
 70
0
 71
3
 72
15
 73
11
 74
0
 42
0.0000001
 43
0.0000001
 44
0.0000000001
 40
0.0
 40
0.0
 40
0.0
 40
0.0
 40
0.1294010243
 40
0.2540762126
 40
0.3765933229
 40
0.5003112876
 40
0.6241850514
 40
0.7468512021
 40
0.8715981851
 40
1.0
 40
1.0
 40
1.0
 40
1.0
 10
94.569076803
 20
237.9222731949
 30
0.0
 10
94.5812949673
 20
238.3495577101
 30
0.0
 10
94.7389292437
 20
239.1986370093
 30
0.0
 10
95.467287535
 20
240.2498301644
 30
0.0
 10
96.5175708692
 20
240.9358638803
 30
0.0
 10
97.7478049098
 20
241.1792412542
 30
0.0
 10
98.9781723051
 20
240.9332837995
 30
0.0
 10
100.0276301207
 20
240.2432514814
 30
0.0
 10
100.750678399
 20
239.1920549571
 30
0.0
 10
100.9082291659
 20
238.3462928728
 30
0.0
 10
100.919076803
 20
237.9222731949
 30
0.0
  0
SPLINE
  5
3B0
100
AcDbEntity
  8
0
100
AcDbSpline
 62
7
  6
CONTINUOUS
 70
0
 71
3
 72
11
 73
7
 74
0
 42
0.0000001
 43
0.0000001
 44
0.0000000001
 40
0.0
 40
0.0
 40
0.0
 40
0.0
 40
0.3133176981
 40
0.5940589416
 40
0.8208717139
 40
1.0
 40
1.0
 40
1.0
 40
1.0
 10
255.220076803
 20
160.9118731949
 30
0.0
 10
255.0870612887
 20
160.7029329155
 30
0.0
 10
254.8353805402
 20
160.3062503833
 30
0.0
 10
254.4484055635
 20
159.784393771
 30
0.0
 10
254.0552626623
 20
159.4022245436
 30
0.0
 10
253.7360834306
 20
159.2862731949
 30
0.0
 10
253.594476803
 20
159.2862731949
 30
0.0
  0
SPLINE
  5
3B1
100
AcDbEntity
  8
0
100
AcDbSpline
 62
7
  6
CONTINUOUS
 70
0
 71
3
 72
11
 73
7
 74
0
 42
0.0000001
 43
0.0000001
 44
0.0000000001
 40
0.0
 40
0.0
 40
0.0
 40
0.0
 40
0.1791242488
 40
0.4059340583
 40
0.6866760783
 40
1.0
 40
1.0
 40
1.0
 40
1.0
 10
42.486876803
 20
159.2862731949
 30
0.0
 10
42.3452733527
 20
159.2862731949
 30
0.0
 10
42.0260992186
 20
159.4022198227
 30
0.0
 10
41.6329568093
 20
159.7843830967
 30
0.0
 10
41.2459787277
 20
160.3062414828
 30
0.0
 10
40.994294973
 20
160.702928744
 30
0.0
 10
40.861276803
 20
160.9118731949
 30
0.0
  0
LINE
  5
3B2
100
AcDbEntity
  8
0
100
AcDbLine
 62
7
  6
CONTINUOUS
 10
212.2432769965
 20
160.9118731949
 11
212.354428705
 21
160.7373600329
  0
SPLINE
  5
3B3
100
AcDbEntity
  8
0
100
AcDbSpline
 62
7
  6
CONTINUOUS
 70
0
 71
3
 72
11
 73
7
 74
0
 42
0.0000001
 43
0.0000001
 44
0.0000000001
 40
0.0
 40
0.0
 40
0.0
 40
0.0
 40
0.3141182424
 40
0.5935681728
 40
0.8196501782
 40
1.0
 40
1.0
 40
1.0
 40
1.0
 10
212.354428705
 20
160.7373600329
 30
0.0
 10
212.6098255769
 20
160.3367619135
 30
0.0
 10
213.0948033894
 20
159.5808186368
 30
0.0
 10
213.8448426824
 20
158.5916594645
 30
0.0
 10
214.6090733155
 20
157.8740018214
 30
0.0
 10
215.2217081177
 20
157.6606731949
 30
0.0
 10
215.494476803
 20
157.6606731949
 30
0.0
  0
SPLINE
  5
3B4
100
AcDbEntity
  8
0
100
AcDbSpline
 62
7
  6
CONTINUOUS
 70
0
 71
3
 72
11
 73
7
 74
0
 42
0.0000001
 43
0.0000001
 44
0.0000000001
 40
0.0
 40
0.0
 40
0.0
 40
0.0
 40
0.1803462835
 40
0.4064257373
 40
0.6858763268
 40
1.0
 40
1.0
 40
1.0
 40
1.0
 10
80.586876803
 20
157.6606731949
 30
0.0
 10
80.8596401601
 20
157.6606731949
 30
0.0
 10
81.47226638
 20
157.8739942253
 30
0.0
 10
82.2364960282
 20
158.5916418423
 30
0.0
 10
82.9865407032
 20
159.5808038564
 30
0.0
 10
83.4715235595
 20
160.3367549743
 30
0.0
 10
83.7269248685
 20
160.7373600536
 30
0.0
  0
LINE
  5
3B5
100
AcDbEntity
  8
0
100
AcDbLine
 62
7
  6
CONTINUOUS
 10
83.7269248685
 20
160.7373600536
 11
83.8380765444
 21
160.9118731949
  0
LINE
  5
3B6
100
AcDbEntity
  8
0
100
AcDbLine
 62
7
  6
CONTINUOUS
 10
83.8380767088
 20
160.9118731949
 11
83.7269248686
 21
160.8246166243
  0
SPLINE
  5
3B7
100
AcDbEntity
  8
0
100
AcDbSpline
 62
7
  6
CONTINUOUS
 70
0
 71
3
 72
10
 73
6
 74
0
 42
0.0000001
 43
0.0000001
 44
0.0000000001
 40
0.0
 40
0.0
 40
0.0
 40
0.0
 40
0.3663497268
 40
0.7001223668
 40
1.0
 40
1.0
 40
1.0
 40
1.0
 10
83.7269248686
 20
160.8246166243
 30
0.0
 10
83.385256189
 20
160.5566575248
 30
0.0
 10
82.7291656112
 20
160.0481866537
 30
0.0
 10
81.6960968511
 20
159.4504985881
 30
0.0
 10
80.9423030155
 20
159.2862731949
 30
0.0
 10
80.586876803
 20
159.2862731949
 30
0.0
  0
SPLINE
  5
3B8
100
AcDbEntity
  8
0
100
AcDbSpline
 62
7
  6
CONTINUOUS
 70
0
 71
3
 72
10
 73
6
 74
0
 42
0.0000001
 43
0.0000001
 44
0.0000000001
 40
0.0
 40
0.0
 40
0.0
 40
0.0
 40
0.2998776332
 40
0.6336502732
 40
1.0
 40
1.0
 40
1.0
 40
1.0
 10
215.494476803
 20
159.2862731949
 30
0.0
 10
215.1390505906
 20
159.2862731949
 30
0.0
 10
214.3852567551
 20
159.4504985881
 30
0.0
 10
213.352187995
 20
160.0481866537
 30
0.0
 10
212.6960974172
 20
160.5566575248
 30
0.0
 10
212.3544287375
 20
160.8246166243
 30
0.0
  0
LINE
  5
3B9
100
AcDbEntity
  8
0
100
AcDbLine
 62
7
  6
CONTINUOUS
 10
212.3544287375
 20
160.8246166243
 11
212.2432768973
 21
160.9118731949
  0
SPLINE
  5
3BA
100
AcDbEntity
  8
0
100
AcDbSpline
 62
7
  6
CONTINUOUS
 70
0
 71
3
 72
11
 73
7
 74
0
 42
0.0000001
 43
0.0000001
 44
0.0000000001
 40
0.0
 40
0.0
 40
0.0
 40
0.0
 40
0.3510370242
 40
0.6541989943
 40
0.8723912043
 40
1.0
 40
1.0
 40
1.0
 40
1.0
 10
40.861276803
 20
160.9118731949
 30
0.0
 10
40.9936103575
 20
160.4961350724
 30
0.0
 10
41.235679194
 20
159.7222352154
 30
0.0
 10
41.6246075868
 20
158.6998887657
 30
0.0
 10
41.9566184926
 20
157.9857419313
 30
0.0
 10
42.3282763102
 20
157.6606731949
 30
0.0
 10
42.486876803
 20
157.6606731949
 30
0.0
  0
SPLINE
  5
3BB
100
AcDbEntity
  8
0
100
AcDbSpline
 62
7
  6
CONTINUOUS
 70
0
 71
3
 72
11
 73
7
 74
0
 42
0.0000001
 43
0.0000001
 44
0.0000000001
 40
0.0
 40
0.0
 40
0.0
 40
0.0
 40
0.1276139266
 40
0.3458120208
 40
0.6489734645
 40
1.0
 40
1.0
 40
1.0
 40
1.0
 10
253.594476803
 20
157.6606731949
 30
0.0
 10
253.7530836322
 20
157.6606731949
 30
0.0
 10
254.1247486796
 20
157.9857613947
 30
0.0
 10
254.4567586696
 20
158.6999191362
 30
0.0
 10
254.8456824556
 20
159.7222613085
 30
0.0
 10
255.0877472367
 20
160.4961476013
 30
0.0
 10
255.220076803
 20
160.9118731949
 30
0.0
  0
ENDSEC
  0
SECTION
  2
OBJECTS
  0
DICTIONARY
  5
C
100
AcDbDictionary
280
0
281
1
  3
ACAD_GROUP
350
D
  3
ACAD_MLINESTYLE
350
17
  3
ACAD_LAYOUT
350
1A
  3
ACAD_PLOTSETTINGS
350
19
  3
ACAD_PLOTSTYLENAME
350
E
  0
DICTIONARY
  5
D
102
{ACAD_REACTORS
330
C
102
}
100
AcDbDictionary
280
0
281
1
  0
ACDBDICTIONARYWDFLT
  5
E
102
{ACAD_REACTORS
330
C
102
}
100
AcDbDictionary
281
1
  3
Normal
350
F
100
AcDbDictionaryWithDefault
340
F
  0
DICTIONARY
  5
17
102
{ACAD_REACTORS
330
C
102
}
100
AcDbDictionary
280
0
281
1
  3
Standard
350
18
  0
DICTIONARY
  5
19
102
{ACAD_REACTORS
330
C
102
}
100
AcDbDictionary
281
1
  0
DICTIONARY
  5
1A
102
{ACAD_REACTORS
330
C
102
}
100
AcDbDictionary
281
1
  3
Model
350
3BC
  3
Layout1
350
3BD
  0
ACDBPLACEHOLDER
  5
F
102
{ACAD_REACTORS
330
E
102
}
  0
MLINESTYLE
  5
18
102
{ACAD_REACTORS
330
17
102
}
100
AcDbMlineStyle
  2
STANDARD
 70
0
  3

 62
256
 51
90.0
 52
90.0
 71
2
 49
0.5
 62
256
  6
BYLAYER
 49
-0.5
 62
256
  6
BYLAYER
  0
LAYOUT
  5
3BC
102
{ACAD_REACTORS
330
1A
102
}
100
AcDbPlotSettings
  1

  2
none_device
  4

  6

 40
0.0
 41
0.0
 42
0.0
 43
0.0
 44
210.0
 45
297.0
 46
0.0
 47
0.0
 48
0.0
 49
0.0
140
0.0
141
0.0
142
1.0
143
1.0
 70
1024
 72
1
 73
0
 74
0
  7

 75
0
147
1.0
148
0.0
149
0.0
100
AcDbLayout
  1
Model
 70
0
 71
0
 10
0.0
 20
0.0
 11
210.0
 21
297.0
 12
0.0
 22
0.0
 32
0.0
 14
0.0
 24
0.0
 34
0.0
 15
0.0
 25
0.0
 35
0.0
146
0.0
 13
0.0
 23
0.0
 33
0.0
 16
1.0
 26
0.0
 36
0.0
 17
0.0
 27
1.0
 37
0.0
 76
0
330
210
345
0
346
0
  0
LAYOUT
  5
3BD
102
{ACAD_REACTORS
330
1A
102
}
100
AcDbPlotSettings
  1

  2
none_device
  4

  6

 40
0.0
 41
0.0
 42
0.0
 43
0.0
 44
210.0
 45
297.0
 46
0.0
 47
0.0
 48
0.0
 49
0.0
140
0.0
141
0.0
142
1.0
143
1.0
 70
0
 72
1
 73
0
 74
0
  7

 75
0
147
1.0
148
0.0
149
0.0
100
AcDbLayout
  1
Layout1
 70
0
 71
1
 10
0.0
 20
0.0
 11
210.0
 21
297.0
 12
0.0
 22
0.0
 32
0.0
 14
0.0
 24
0.0
 34
0.0
 15
0.0
 25
0.0
 35
0.0
146
0.0
 13
0.0
 23
0.0
 33
0.0
 16
1.0
 26
0.0
 36
0.0
 17
0.0
 27
1.0
 37
0.0
 76
0
330
211
345
0
346
0
  0
ENDSEC
  0
EOF
