999
DXF file: C:\Users\sesa63760\Dev\_Creo\CAD\MCADPP0003101_3D-CAD\drw0001_4.dxf
999
Pro/ENGINEER 2019471 by Parametric Technology Corporation
  0
SECTION
  2
HEADER
  9
$ACADVER
  1
AC1024
  9
$DWGCODEPAGE
  3
ANSI_1252
  9
$EXTMAX
 10
191.0018512713
 20
270.1311896552
 30
0.0
  9
$EXTMIN
 10
0.0
 20
0.0
 30
0.0
  9
$LIMMIN
 10
0.0
 20
0.0
  9
$LIMMAX
 10
191.0018512713
 20
270.1311896552
  9
$VIEWCTR
 10
95.5009256357
 20
135.0655948276
  9
$VIEWSIZE
 40
270.1311896552
  9
$CLAYER
  8
0
  9
$LTSCALE
 40
17.608551622
  9
$CELTYPE
  6
BYLAYER
  9
$DIMSCALE
 40
1.0
  9
$DIMASZ
 40
2.2738315628
  9
$DIMEXO
 40
1.0
  9
$DIMDLI
 40
12.1659083934
  9
$DIMEXE
 40
1.0
  9
$DIMCEN
 40
2.8813993563
  9
$DIMLFAC
 40
1.0
  9
$DIMBLK
  1
_FILLED
  9
$DIMALT
 70
0
  9
$DIMALTF
 40
0.0393700787
  9
$DIMTXT
 40
3.1833641879
  9
$DIMTOL
 70
1
  9
$DIMLIM
 70
0
  9
$DIMTFAC
 40
1.0
  9
$DIMTP
 40
0.01
  9
$DIMTM
 40
0.01
  9
$DIMGAP
 40
0.625
  9
$DIMDSEP
 70
46
  9
$AUNITS
 70
0
  9
$PDMODE
 70
3
  9
$PDSIZE
 40
0.3125
  9
$HANDSEED
  5
342
  9
$TILEMODE
 70
1
  9
$MEASUREMENT
 70
1
  9
$INSUNITS
 70
4
  0
ENDSEC
  0
SECTION
  2
CLASSES
  0
CLASS
  1
ACDBDICTIONARYWDFLT
  2
AcDbDictionaryWithDefault
  3
AutoCAD 2000
 90
0
 91
1
280
0
281
0
  0
CLASS
  1
ACDBPLACEHOLDER
  2
AcDbPlaceHolder
  3
AutoCAD 2000
 90
0
 91
1
280
0
281
0
  0
CLASS
  1
LAYOUT
  2
AcDbLayout
  3
AutoCAD 2000
 90
0
 91
0
280
0
281
0
  0
ENDSEC
  0
SECTION
  2
TABLES
  0
TABLE
  2
VPORT
  5
8
100
AcDbSymbolTable
 70
2
  0
VPORT
  5
1F4
100
AcDbSymbolTableRecord
100
AcDbViewportTableRecord
  2
*ACTIVE
 70
0
 10
0.0
 20
0.0
 11
1.0
 21
1.0
 12
95.5009256357
 22
135.0655948276
 13
0.0
 23
0.0
 14
1.0
 24
1.0
 15
0.0
 25
0.0
 16
0.0
 26
0.0
 36
1.0
 17
0.0
 27
0.0
 37
0.0
 40
270.1311896552
 41
0.7070707071
 42
50.0
 43
0.0
 44
0.0
 50
0.0
 51
0.0
 71
0
 72
100
 73
1
 74
1
 75
0
 76
0
 77
0
 78
0
  0
ENDTAB
  0
TABLE
  2
LTYPE
  5
5
100
AcDbSymbolTable
 70
6
  0
LTYPE
  5
14
100
AcDbSymbolTableRecord
100
AcDbLinetypeTableRecord
  2
BYBLOCK
 70
0
  3

 72
65
 73
0
 40
0.0
  0
LTYPE
  5
15
100
AcDbSymbolTableRecord
100
AcDbLinetypeTableRecord
  2
BYLAYER
 70
0
  3

 72
65
 73
0
 40
0.0
  0
LTYPE
  5
16
100
AcDbSymbolTableRecord
100
AcDbLinetypeTableRecord
  2
CONTINUOUS
 70
64
  3
Solid line
 72
65
 73
0
 40
0.0
  0
LTYPE
  5
1F5
100
AcDbSymbolTableRecord
100
AcDbLinetypeTableRecord
  2
CENTER
 70
64
  3
____ _ ____ _ ____ _ ____ _ ____ _ ____ _ ____
 72
65
 73
4
 40
0.6
 49
0.375
 74
0
 49
-0.075
 74
0
 49
0.075
 74
0
 49
-0.075
 74
0
  0
LTYPE
  5
1F6
100
AcDbSymbolTableRecord
100
AcDbLinetypeTableRecord
  2
HIDDEN
 70
64
  3
- - - - - - - - - - - - - - - - - - - -
 72
65
 73
2
 40
0.2
 49
0.1
 74
0
 49
-0.1
 74
0
  0
LTYPE
  5
1F7
100
AcDbSymbolTableRecord
100
AcDbLinetypeTableRecord
  2
PHANTOM
 70
64
  3
_____ _ _ _____ _ _ _____ _ _ _____
 72
65
 73
6
 40
0.8
 49
0.45
 74
0
 49
-0.05
 74
0
 49
0.1
 74
0
 49
-0.05
 74
0
 49
0.1
 74
0
 49
-0.05
 74
0
  0
LTYPE
  5
1F8
100
AcDbSymbolTableRecord
100
AcDbLinetypeTableRecord
  2
DOT
 70
64
  3
. . . . . . . . . . . . . . . . . . . .
 72
65
 73
2
 40
0.2
 49
0.1
 74
0
 49
-0.1
 74
0
  0
LTYPE
  5
1F9
100
AcDbSymbolTableRecord
100
AcDbLinetypeTableRecord
  2
DASHED
 70
64
  3
- - - - - - - - - - - - - - - - - - - -
 72
65
 73
2
 40
0.2
 49
0.1
 74
0
 49
-0.1
 74
0
  0
ENDTAB
  0
TABLE
  2
LAYER
  5
2
100
AcDbSymbolTable
 70
36
  0
LAYER
  5
10
100
AcDbSymbolTableRecord
100
AcDbLayerTableRecord
  2
0
 70
0
 62
7
  6
CONTINUOUS
370
-3
390
F
  0
LAYER
  5
1FA
100
AcDbSymbolTableRecord
100
AcDbLayerTableRecord
  2
DEFAULT_1
 70
0
 62
7
  6
CENTER
370
-3
390
F
  0
LAYER
  5
1FB
100
AcDbSymbolTableRecord
100
AcDbLayerTableRecord
  2
DEFAULT_2
 70
0
 62
8
  6
HIDDEN
370
-3
390
F
  0
LAYER
  5
1FC
100
AcDbSymbolTableRecord
100
AcDbLayerTableRecord
  2
DEFAULT_3
 70
0
 62
7
  6
PHANTOM
370
-3
390
F
  0
LAYER
  5
1FD
100
AcDbSymbolTableRecord
100
AcDbLayerTableRecord
  2
00_COMPONENTS
 70
0
 62
7
  6
CONTINUOUS
370
-3
390
F
  0
LAYER
  5
1FE
100
AcDbSymbolTableRecord
100
AcDbLayerTableRecord
  2
01_1_DEFAULT_DATUMS
 70
0
 62
7
  6
CONTINUOUS
370
-3
390
F
  0
LAYER
  5
1FF
100
AcDbSymbolTableRecord
100
AcDbLayerTableRecord
  2
01_PLANES
 70
0
 62
7
  6
CONTINUOUS
370
-3
390
F
  0
LAYER
  5
200
100
AcDbSymbolTableRecord
100
AcDbLayerTableRecord
  2
02_COORD_SYS
 70
0
 62
7
  6
CONTINUOUS
370
-3
390
F
  0
LAYER
  5
201
100
AcDbSymbolTableRecord
100
AcDbLayerTableRecord
  2
03_AXES
 70
0
 62
7
  6
CONTINUOUS
370
-3
390
F
  0
LAYER
  5
202
100
AcDbSymbolTableRecord
100
AcDbLayerTableRecord
  2
04_POINTS
 70
0
 62
7
  6
CONTINUOUS
370
-3
390
F
  0
LAYER
  5
203
100
AcDbSymbolTableRecord
100
AcDbLayerTableRecord
  2
05_CURVES
 70
0
 62
7
  6
CONTINUOUS
370
-3
390
F
  0
LAYER
  5
204
100
AcDbSymbolTableRecord
100
AcDbLayerTableRecord
  2
06_SURFS
 70
0
 62
7
  6
CONTINUOUS
370
-3
390
F
  0
LAYER
  5
205
100
AcDbSymbolTableRecord
100
AcDbLayerTableRecord
  2
07_COSMETICS
 70
0
 62
7
  6
CONTINUOUS
370
-3
390
F
  0
LAYER
  5
206
100
AcDbSymbolTableRecord
100
AcDbLayerTableRecord
  2
10_NOTES
 70
0
 62
7
  6
CONTINUOUS
370
-3
390
F
  0
LAYER
  5
207
100
AcDbSymbolTableRecord
100
AcDbLayerTableRecord
  2
11_NOTES_PUB
 70
0
 62
7
  6
CONTINUOUS
370
-3
390
F
  0
LAYER
  5
208
100
AcDbSymbolTableRecord
100
AcDbLayerTableRecord
  2
13_REF_GTOL
 70
0
 62
7
  6
CONTINUOUS
370
-3
390
F
  0
LAYER
  5
209
100
AcDbSymbolTableRecord
100
AcDbLayerTableRecord
  2
16_MISC
 70
0
 62
7
  6
CONTINUOUS
370
-3
390
F
  0
LAYER
  5
20A
100
AcDbSymbolTableRecord
100
AcDbLayerTableRecord
  2
17_NO_PRINT
 70
0
 62
7
  6
CONTINUOUS
370
-3
390
F
  0
LAYER
  5
20B
100
AcDbSymbolTableRecord
100
AcDbLayerTableRecord
  2
18_DATUM_CAMS_JOINTS
 70
0
 62
7
  6
CONTINUOUS
370
-3
390
F
  0
LAYER
  5
20C
100
AcDbSymbolTableRecord
100
AcDbLayerTableRecord
  2
19_DATUM_FUNCTIONAL
 70
0
 62
7
  6
CONTINUOUS
370
-3
390
F
  0
LAYER
  5
20D
100
AcDbSymbolTableRecord
100
AcDbLayerTableRecord
  2
20_DATUM_KINEMATIC_SCHEME
 70
0
 62
7
  6
CONTINUOUS
370
-3
390
F
  0
LAYER
  5
20E
100
AcDbSymbolTableRecord
100
AcDbLayerTableRecord
  2
SHELL2
 70
0
 62
7
  6
CONTINUOUS
370
-3
390
F
  0
ENDTAB
  0
TABLE
  2
STYLE
  5
3
100
AcDbSymbolTable
 70
1
  0
STYLE
  5
11
100
AcDbSymbolTableRecord
100
AcDbTextStyleTableRecord
  2
STANDARD
 70
0
 40
0.0
 41
0.8
 50
0.0
 71
0
 42
0.2
  3
txt
  4

  0
STYLE
  5
20F
100
AcDbSymbolTableRecord
100
AcDbTextStyleTableRecord
  2
TEXTSTYLE_1
 70
0
 40
0.0
 41
0.8
 50
0.0
 71
0
 42
0.2
  3
gdt
  4

  0
ENDTAB
  0
TABLE
  2
VIEW
  5
6
100
AcDbSymbolTable
 70
0
  0
ENDTAB
  0
TABLE
  2
UCS
  5
7
100
AcDbSymbolTable
 70
0
  0
ENDTAB
  0
TABLE
  2
APPID
  5
9
100
AcDbSymbolTable
 70
1
  0
APPID
  5
210
100
AcDbSymbolTableRecord
100
AcDbRegAppTableRecord
  2
ACAD
 70
0
  0
ENDTAB
  0
TABLE
  2
BLOCK_RECORD
  5
1
100
AcDbSymbolTable
 70
0
  0
BLOCK_RECORD
  5
211
100
AcDbSymbolTableRecord
100
AcDbBlockTableRecord
  2
*Model_Space
  0
BLOCK_RECORD
  5
212
100
AcDbSymbolTableRecord
100
AcDbBlockTableRecord
  2
*Paper_Space
  0
BLOCK_RECORD
  5
213
100
AcDbSymbolTableRecord
100
AcDbBlockTableRecord
  2
_FILLED
  0
ENDTAB
  0
TABLE
  2
DIMSTYLE
  5
A
100
AcDbSymbolTable
 70
1
100
AcDbDimStyleTable
 71
0
  0
DIMSTYLE
105
214
100
AcDbSymbolTableRecord
100
AcDbDimStyleTableRecord
  2
STANDARD
 70
0
  3

  4

 40
1.0
 41
2.2738315628
 42
1.0
 43
0.38
 44
1.0
 45
0.0
 46
0.0
 47
0.01
 48
0.01
140
3.1833641879
141
0.09
142
0.0
143
25.4
144
1.0
145
0.0
146
1.0
147
0.625
 71
1
 72
0
 73
0
 74
0
 75
0
 76
0
 77
1
 78
8
 79
2
170
0
171
1
172
0
173
0
174
0
175
0
176
0
177
0
178
0
270
2
179
2
271
2
272
2
273
2
274
2
275
0
280
0
281
0
282
0
283
1
284
8
285
0
286
0
287
3
288
0
340
11
278
46
341
213
342
213
343
213
344
213
  0
ENDTAB
  0
ENDSEC
  0
SECTION
  2
BLOCKS
  0
BLOCK
  5
20
100
AcDbEntity
  8
0
100
AcDbBlockBegin
  2
*Model_Space
 70
0
 10
0.0
 20
0.0
 30
0.0
  3
*Model_Space
  1

  0
ENDBLK
  5
21
100
AcDbEntity
  8
0
100
AcDbBlockEnd
  0
BLOCK
  5
1C
100
AcDbEntity
  8
0
100
AcDbBlockBegin
  2
*Paper_Space
 70
0
 10
0.0
 20
0.0
 30
0.0
  3
*Paper_Space
  1

  0
ENDBLK
  5
1D
100
AcDbEntity
  8
0
100
AcDbBlockEnd
  0
BLOCK
  5
215
100
AcDbEntity
  8
0
100
AcDbBlockBegin
  2
_FILLED
 70
64
 10
0.0
 20
0.0
  3
_FILLED
  1

  0
SOLID
  5
216
100
AcDbEntity
  8
0
  6
BYBLOCK
 62
0
100
AcDbTrace
 10
0.0
 20
0.0
 11
-1.0
 21
0.25
 12
-1.0
 22
-0.25
 13
-1.0
 23
-0.25
  0
ENDBLK
  5
217
100
AcDbEntity
  8
0
  6
BYBLOCK
 62
0
100
AcDbBlockEnd
  0
ENDSEC
  0
SECTION
  2
ENTITIES
  0
LINE
  5
218
100
AcDbEntity
  8
SHELL2
100
AcDbLine
 62
7
  6
CONTINUOUS
 10
21.2727101184
 20
171.323
 11
21.2727101184
 21
97.1550000025
  0
LINE
  5
219
100
AcDbEntity
  8
SHELL2
100
AcDbLine
 62
7
  6
CONTINUOUS
 10
21.2981101184
 20
162.0519999975
 11
21.2981101184
 21
106.4260000025
  0
LINE
  5
21A
100
AcDbEntity
  8
SHELL2
100
AcDbLine
 62
7
  6
CONTINUOUS
 10
28.0037101184
 20
158.369
 11
28.0037101184
 21
97.155
  0
LINE
  5
21B
100
AcDbEntity
  8
SHELL2
100
AcDbLine
 62
7
  6
CONTINUOUS
 10
30.5437101184
 20
158.369
 11
30.5437101184
 21
124.714
  0
LINE
  5
21C
100
AcDbEntity
  8
SHELL2
100
AcDbLine
 62
7
  6
CONTINUOUS
 10
30.5437101184
 20
124.714
 11
30.5437101184
 21
97.155
  0
LINE
  5
21D
100
AcDbEntity
  8
SHELL2
100
AcDbLine
 62
7
  6
CONTINUOUS
 10
31.6867101184
 20
125.984
 11
31.6867101184
 21
124.714
  0
LINE
  5
21E
100
AcDbEntity
  8
SHELL2
100
AcDbLine
 62
7
  6
CONTINUOUS
 10
31.6867101184
 20
107.569
 11
31.6867101184
 21
106.299
  0
LINE
  5
21F
100
AcDbEntity
  8
SHELL2
100
AcDbLine
 62
7
  6
CONTINUOUS
 10
33.3641012376
 20
126.698375
 11
33.3641012376
 21
124.714
  0
LINE
  5
220
100
AcDbEntity
  8
SHELL2
100
AcDbLine
 62
7
  6
CONTINUOUS
 10
33.3641012376
 20
108.283375
 11
33.3641012376
 21
106.299
  0
LINE
  5
221
100
AcDbEntity
  8
SHELL2
100
AcDbLine
 62
7
  6
CONTINUOUS
 10
34.509780678
 20
126.698375
 11
34.509780678
 21
124.714
  0
LINE
  5
222
100
AcDbEntity
  8
SHELL2
100
AcDbLine
 62
7
  6
CONTINUOUS
 10
34.509780678
 20
108.283375
 11
34.509780678
 21
106.299
  0
LINE
  5
223
100
AcDbEntity
  8
SHELL2
100
AcDbLine
 62
7
  6
CONTINUOUS
 10
36.8011395588
 20
126.698375
 11
36.8011395588
 21
124.714
  0
LINE
  5
224
100
AcDbEntity
  8
SHELL2
100
AcDbLine
 62
7
  6
CONTINUOUS
 10
36.8011395588
 20
108.283375
 11
36.8011395588
 21
106.299
  0
LINE
  5
225
100
AcDbEntity
  8
SHELL2
100
AcDbLine
 62
7
  6
CONTINUOUS
 10
37.9468189993
 20
126.698375
 11
37.9468189993
 21
124.714
  0
LINE
  5
226
100
AcDbEntity
  8
SHELL2
100
AcDbLine
 62
7
  6
CONTINUOUS
 10
37.9468189993
 20
108.283375
 11
37.9468189993
 21
106.299
  0
LINE
  5
227
100
AcDbEntity
  8
SHELL2
100
AcDbLine
 62
7
  6
CONTINUOUS
 10
39.1162101184
 20
107.569
 11
39.1162101184
 21
106.299
  0
LINE
  5
228
100
AcDbEntity
  8
SHELL2
100
AcDbLine
 62
7
  6
CONTINUOUS
 10
39.6242101184
 20
125.984
 11
39.6242101184
 21
124.714
  0
LINE
  5
229
100
AcDbEntity
  8
SHELL2
100
AcDbLine
 62
7
  6
CONTINUOUS
 10
39.6242101184
 20
107.569
 11
39.6242101184
 21
106.299
  0
LINE
  5
22A
100
AcDbEntity
  8
SHELL2
100
AcDbLine
 62
7
  6
CONTINUOUS
 10
41.4022101184
 20
125.984
 11
41.4022101184
 21
124.714
  0
LINE
  5
22B
100
AcDbEntity
  8
SHELL2
100
AcDbLine
 62
7
  6
CONTINUOUS
 10
41.4022101184
 20
107.569
 11
41.4022101184
 21
106.299
  0
LINE
  5
22C
100
AcDbEntity
  8
SHELL2
100
AcDbLine
 62
7
  6
CONTINUOUS
 10
42.8963616997
 20
112.649
 11
42.8963616997
 21
106.299
  0
LINE
  5
22D
100
AcDbEntity
  8
SHELL2
100
AcDbLine
 62
7
  6
CONTINUOUS
 10
43.0796012376
 20
126.698375
 11
43.0796012376
 21
124.714
  0
LINE
  5
22E
100
AcDbEntity
  8
SHELL2
100
AcDbLine
 62
7
  6
CONTINUOUS
 10
43.0796012376
 20
108.283375
 11
43.0796012376
 21
106.299
  0
LINE
  5
22F
100
AcDbEntity
  8
SHELL2
100
AcDbLine
 62
7
  6
CONTINUOUS
 10
43.8787101184
 20
124.714
 11
43.8787101184
 21
122.174
  0
LINE
  5
230
100
AcDbEntity
  8
SHELL2
100
AcDbLine
 62
7
  6
CONTINUOUS
 10
44.225280678
 20
126.698375
 11
44.225280678
 21
124.714
  0
LINE
  5
231
100
AcDbEntity
  8
SHELL2
100
AcDbLine
 62
7
  6
CONTINUOUS
 10
44.225280678
 20
108.283375
 11
44.225280678
 21
106.299
  0
LINE
  5
232
100
AcDbEntity
  8
SHELL2
100
AcDbLine
 62
7
  6
CONTINUOUS
 10
45.1487101184
 20
162.941
 11
45.1487101184
 21
158.369
  0
LINE
  5
233
100
AcDbEntity
  8
SHELL2
100
AcDbLine
 62
7
  6
CONTINUOUS
 10
46.5166395588
 20
126.698375
 11
46.5166395588
 21
124.714
  0
LINE
  5
234
100
AcDbEntity
  8
SHELL2
100
AcDbLine
 62
7
  6
CONTINUOUS
 10
46.5166395588
 20
108.283375
 11
46.5166395588
 21
106.299
  0
LINE
  5
235
100
AcDbEntity
  8
SHELL2
100
AcDbLine
 62
7
  6
CONTINUOUS
 10
46.5625359091
 20
112.649
 11
46.5625359091
 21
106.299
  0
LINE
  5
236
100
AcDbEntity
  8
SHELL2
100
AcDbLine
 62
7
  6
CONTINUOUS
 10
47.6623189993
 20
126.698375
 11
47.6623189993
 21
124.714
  0
LINE
  5
237
100
AcDbEntity
  8
SHELL2
100
AcDbLine
 62
7
  6
CONTINUOUS
 10
47.6623189993
 20
108.283375
 11
47.6623189993
 21
106.299
  0
LINE
  5
238
100
AcDbEntity
  8
SHELL2
100
AcDbLine
 62
7
  6
CONTINUOUS
 10
47.6887101184
 20
162.941
 11
47.6887101184
 21
171.323
  0
LINE
  5
239
100
AcDbEntity
  8
SHELL2
100
AcDbLine
 62
7
  6
CONTINUOUS
 10
49.3397101184
 20
125.984
 11
49.3397101184
 21
124.714
  0
LINE
  5
23A
100
AcDbEntity
  8
SHELL2
100
AcDbLine
 62
7
  6
CONTINUOUS
 10
49.3397101184
 20
107.569
 11
49.3397101184
 21
106.299
  0
LINE
  5
23B
100
AcDbEntity
  8
SHELL2
100
AcDbLine
 62
7
  6
CONTINUOUS
 10
51.1177101184
 20
125.984
 11
51.1177101184
 21
124.714
  0
LINE
  5
23C
100
AcDbEntity
  8
SHELL2
100
AcDbLine
 62
7
  6
CONTINUOUS
 10
51.1177101184
 20
107.569
 11
51.1177101184
 21
106.299
  0
LINE
  5
23D
100
AcDbEntity
  8
SHELL2
100
AcDbLine
 62
7
  6
CONTINUOUS
 10
52.7687101184
 20
162.941
 11
52.7687101184
 21
171.323
  0
LINE
  5
23E
100
AcDbEntity
  8
SHELL2
100
AcDbLine
 62
7
  6
CONTINUOUS
 10
52.7951012376
 20
126.698375
 11
52.7951012376
 21
124.714
  0
LINE
  5
23F
100
AcDbEntity
  8
SHELL2
100
AcDbLine
 62
7
  6
CONTINUOUS
 10
52.7951012376
 20
108.283375
 11
52.7951012376
 21
106.299
  0
LINE
  5
240
100
AcDbEntity
  8
SHELL2
100
AcDbLine
 62
7
  6
CONTINUOUS
 10
53.8948843278
 20
112.649
 11
53.8948843278
 21
106.299
  0
LINE
  5
241
100
AcDbEntity
  8
SHELL2
100
AcDbLine
 62
7
  6
CONTINUOUS
 10
53.940780678
 20
126.698375
 11
53.940780678
 21
124.714
  0
LINE
  5
242
100
AcDbEntity
  8
SHELL2
100
AcDbLine
 62
7
  6
CONTINUOUS
 10
53.940780678
 20
108.283375
 11
53.940780678
 21
106.299
  0
LINE
  5
243
100
AcDbEntity
  8
SHELL2
100
AcDbLine
 62
7
  6
CONTINUOUS
 10
55.3087101184
 20
162.941
 11
55.3087101184
 21
158.369
  0
LINE
  5
244
100
AcDbEntity
  8
SHELL2
100
AcDbLine
 62
7
  6
CONTINUOUS
 10
56.2321395588
 20
126.698375
 11
56.2321395588
 21
124.714
  0
LINE
  5
245
100
AcDbEntity
  8
SHELL2
100
AcDbLine
 62
7
  6
CONTINUOUS
 10
56.2321395588
 20
108.283375
 11
56.2321395588
 21
106.299
  0
LINE
  5
246
100
AcDbEntity
  8
SHELL2
100
AcDbLine
 62
7
  6
CONTINUOUS
 10
56.5787101184
 20
124.714
 11
56.5787101184
 21
122.174
  0
LINE
  5
247
100
AcDbEntity
  8
SHELL2
100
AcDbLine
 62
7
  6
CONTINUOUS
 10
57.3778189993
 20
126.698375
 11
57.3778189993
 21
124.714
  0
LINE
  5
248
100
AcDbEntity
  8
SHELL2
100
AcDbLine
 62
7
  6
CONTINUOUS
 10
57.3778189993
 20
108.283375
 11
57.3778189993
 21
106.299
  0
LINE
  5
249
100
AcDbEntity
  8
SHELL2
100
AcDbLine
 62
7
  6
CONTINUOUS
 10
57.5610585371
 20
112.649
 11
57.5610585371
 21
106.299
  0
LINE
  5
24A
100
AcDbEntity
  8
SHELL2
100
AcDbLine
 62
7
  6
CONTINUOUS
 10
59.0552101184
 20
125.984
 11
59.0552101184
 21
124.714
  0
LINE
  5
24B
100
AcDbEntity
  8
SHELL2
100
AcDbLine
 62
7
  6
CONTINUOUS
 10
59.0552101184
 20
107.569
 11
59.0552101184
 21
106.299
  0
LINE
  5
24C
100
AcDbEntity
  8
SHELL2
100
AcDbLine
 62
7
  6
CONTINUOUS
 10
60.8332101184
 20
125.984
 11
60.8332101184
 21
124.714
  0
LINE
  5
24D
100
AcDbEntity
  8
SHELL2
100
AcDbLine
 62
7
  6
CONTINUOUS
 10
60.8332101184
 20
107.569
 11
60.8332101184
 21
106.299
  0
LINE
  5
24E
100
AcDbEntity
  8
SHELL2
100
AcDbLine
 62
7
  6
CONTINUOUS
 10
61.3412101184
 20
107.569
 11
61.3412101184
 21
106.299
  0
LINE
  5
24F
100
AcDbEntity
  8
SHELL2
100
AcDbLine
 62
7
  6
CONTINUOUS
 10
62.5106012376
 20
126.698375
 11
62.5106012376
 21
124.714
  0
LINE
  5
250
100
AcDbEntity
  8
SHELL2
100
AcDbLine
 62
7
  6
CONTINUOUS
 10
62.5106012376
 20
108.283375
 11
62.5106012376
 21
106.299
  0
LINE
  5
251
100
AcDbEntity
  8
SHELL2
100
AcDbLine
 62
7
  6
CONTINUOUS
 10
63.656280678
 20
126.698375
 11
63.656280678
 21
124.714
  0
LINE
  5
252
100
AcDbEntity
  8
SHELL2
100
AcDbLine
 62
7
  6
CONTINUOUS
 10
63.656280678
 20
108.283375
 11
63.656280678
 21
106.299
  0
LINE
  5
253
100
AcDbEntity
  8
SHELL2
100
AcDbLine
 62
7
  6
CONTINUOUS
 10
174.6887101184
 20
97.1550000025
 11
165.4177101184
 21
97.155
  0
LINE
  5
254
100
AcDbEntity
  8
SHELL2
100
AcDbLine
 62
7
  6
CONTINUOUS
 10
126.0477101184
 20
97.155
 11
117.6657101184
 21
97.155
  0
LINE
  5
255
100
AcDbEntity
  8
SHELL2
100
AcDbLine
 62
7
  6
CONTINUOUS
 10
72.4537101184
 20
97.155
 11
69.9137101184
 21
97.155
  0
LINE
  5
256
100
AcDbEntity
  8
SHELL2
100
AcDbLine
 62
7
  6
CONTINUOUS
 10
30.5437101184
 20
97.155
 11
21.2727101184
 21
97.1550000025
  0
LINE
  5
257
100
AcDbEntity
  8
SHELL2
100
AcDbLine
 62
7
  6
CONTINUOUS
 10
72.4537101184
 20
97.155
 11
78.2957101184
 21
97.155
  0
LINE
  5
258
100
AcDbEntity
  8
SHELL2
100
AcDbLine
 62
7
  6
CONTINUOUS
 10
65.9476395588
 20
126.698375
 11
65.9476395588
 21
124.714
  0
LINE
  5
259
100
AcDbEntity
  8
SHELL2
100
AcDbLine
 62
7
  6
CONTINUOUS
 10
65.9476395588
 20
108.283375
 11
65.9476395588
 21
106.299
  0
LINE
  5
25A
100
AcDbEntity
  8
SHELL2
100
AcDbLine
 62
7
  6
CONTINUOUS
 10
67.0933189993
 20
126.698375
 11
67.0933189993
 21
124.714
  0
LINE
  5
25B
100
AcDbEntity
  8
SHELL2
100
AcDbLine
 62
7
  6
CONTINUOUS
 10
67.0933189993
 20
108.283375
 11
67.0933189993
 21
106.299
  0
LINE
  5
25C
100
AcDbEntity
  8
SHELL2
100
AcDbLine
 62
7
  6
CONTINUOUS
 10
68.7707101184
 20
125.984
 11
68.7707101184
 21
124.714
  0
LINE
  5
25D
100
AcDbEntity
  8
SHELL2
100
AcDbLine
 62
7
  6
CONTINUOUS
 10
68.7707101184
 20
107.569
 11
68.7707101184
 21
106.299
  0
LINE
  5
25E
100
AcDbEntity
  8
SHELL2
100
AcDbLine
 62
7
  6
CONTINUOUS
 10
69.9137101184
 20
144.399
 11
69.9137101184
 21
107.569
  0
LINE
  5
25F
100
AcDbEntity
  8
SHELL2
100
AcDbLine
 62
7
  6
CONTINUOUS
 10
69.9137101184
 20
158.369
 11
69.9137101184
 21
144.399
  0
LINE
  5
260
100
AcDbEntity
  8
SHELL2
100
AcDbLine
 62
7
  6
CONTINUOUS
 10
69.9137101184
 20
107.569
 11
69.9137101184
 21
97.155
  0
LINE
  5
261
100
AcDbEntity
  8
SHELL2
100
AcDbLine
 62
7
  6
CONTINUOUS
 10
164.2747101184
 20
106.299
 11
127.1907101184
 21
106.299
  0
LINE
  5
262
100
AcDbEntity
  8
SHELL2
100
AcDbLine
 62
7
  6
CONTINUOUS
 10
116.5227101184
 20
106.299
 11
79.4387101184
 21
106.299
  0
LINE
  5
263
100
AcDbEntity
  8
SHELL2
100
AcDbLine
 62
7
  6
CONTINUOUS
 10
68.7707101184
 20
106.299
 11
31.6867101184
 21
106.299
  0
LINE
  5
264
100
AcDbEntity
  8
SHELL2
100
AcDbLine
 62
7
  6
CONTINUOUS
 10
21.2981101184
 20
106.4260000025
 11
21.2727101184
 21
106.4260000025
  0
LINE
  5
265
100
AcDbEntity
  8
SHELL2
100
AcDbLine
 62
7
  6
CONTINUOUS
 10
72.4537101184
 20
158.369
 11
72.4537101184
 21
97.155
  0
LINE
  5
266
100
AcDbEntity
  8
SHELL2
100
AcDbLine
 62
7
  6
CONTINUOUS
 10
75.7557101184
 20
158.369
 11
75.7557101184
 21
97.155
  0
LINE
  5
267
100
AcDbEntity
  8
SHELL2
100
AcDbLine
 62
7
  6
CONTINUOUS
 10
165.4177101184
 20
107.569
 11
126.0477101184
 21
107.569
  0
LINE
  5
268
100
AcDbEntity
  8
SHELL2
100
AcDbLine
 62
7
  6
CONTINUOUS
 10
117.6657101184
 20
107.569
 11
78.2957101184
 21
107.569
  0
LINE
  5
269
100
AcDbEntity
  8
SHELL2
100
AcDbLine
 62
7
  6
CONTINUOUS
 10
69.9137101184
 20
107.569
 11
30.5437101184
 21
107.569
  0
LINE
  5
26A
100
AcDbEntity
  8
SHELL2
100
AcDbLine
 62
7
  6
CONTINUOUS
 10
162.5973189993
 20
108.283375
 11
158.0146012376
 21
108.283375
  0
LINE
  5
26B
100
AcDbEntity
  8
SHELL2
100
AcDbLine
 62
7
  6
CONTINUOUS
 10
152.8818189993
 20
108.283375
 11
148.2991012376
 21
108.283375
  0
LINE
  5
26C
100
AcDbEntity
  8
SHELL2
100
AcDbLine
 62
7
  6
CONTINUOUS
 10
143.1663189993
 20
108.283375
 11
138.5836012376
 21
108.283375
  0
LINE
  5
26D
100
AcDbEntity
  8
SHELL2
100
AcDbLine
 62
7
  6
CONTINUOUS
 10
133.4508189993
 20
108.283375
 11
128.8681012376
 21
108.283375
  0
LINE
  5
26E
100
AcDbEntity
  8
SHELL2
100
AcDbLine
 62
7
  6
CONTINUOUS
 10
114.8453189993
 20
108.283375
 11
110.2626012376
 21
108.283375
  0
LINE
  5
26F
100
AcDbEntity
  8
SHELL2
100
AcDbLine
 62
7
  6
CONTINUOUS
 10
105.1298189993
 20
108.283375
 11
100.5471012376
 21
108.283375
  0
LINE
  5
270
100
AcDbEntity
  8
SHELL2
100
AcDbLine
 62
7
  6
CONTINUOUS
 10
95.4143189993
 20
108.283375
 11
90.8316012376
 21
108.283375
  0
LINE
  5
271
100
AcDbEntity
  8
SHELL2
100
AcDbLine
 62
7
  6
CONTINUOUS
 10
85.6988189993
 20
108.283375
 11
81.1161012376
 21
108.283375
  0
LINE
  5
272
100
AcDbEntity
  8
SHELL2
100
AcDbLine
 62
7
  6
CONTINUOUS
 10
67.0933189993
 20
108.283375
 11
62.5106012376
 21
108.283375
  0
LINE
  5
273
100
AcDbEntity
  8
SHELL2
100
AcDbLine
 62
7
  6
CONTINUOUS
 10
57.3778189993
 20
108.283375
 11
52.7951012376
 21
108.283375
  0
LINE
  5
274
100
AcDbEntity
  8
SHELL2
100
AcDbLine
 62
7
  6
CONTINUOUS
 10
47.6623189993
 20
108.283375
 11
43.0796012376
 21
108.283375
  0
LINE
  5
275
100
AcDbEntity
  8
SHELL2
100
AcDbLine
 62
7
  6
CONTINUOUS
 10
37.9468189993
 20
108.283375
 11
33.3641012376
 21
108.283375
  0
LINE
  5
276
100
AcDbEntity
  8
SHELL2
100
AcDbLine
 62
7
  6
CONTINUOUS
 10
174.6887101184
 20
108.585
 11
167.9577101184
 21
108.585
  0
LINE
  5
277
100
AcDbEntity
  8
SHELL2
100
AcDbLine
 62
7
  6
CONTINUOUS
 10
123.5077101184
 20
108.585
 11
120.2057101184
 21
108.585
  0
LINE
  5
278
100
AcDbEntity
  8
SHELL2
100
AcDbLine
 62
7
  6
CONTINUOUS
 10
75.7557101184
 20
108.585
 11
72.4537101184
 21
108.585
  0
LINE
  5
279
100
AcDbEntity
  8
SHELL2
100
AcDbLine
 62
7
  6
CONTINUOUS
 10
28.0037101184
 20
108.585
 11
21.2727101184
 21
108.585
  0
LINE
  5
27A
100
AcDbEntity
  8
SHELL2
100
AcDbLine
 62
7
  6
CONTINUOUS
 10
78.2957101184
 20
158.369
 11
78.2957101184
 21
124.714
  0
LINE
  5
27B
100
AcDbEntity
  8
SHELL2
100
AcDbLine
 62
7
  6
CONTINUOUS
 10
78.2957101184
 20
124.714
 11
78.2957101184
 21
97.155
  0
LINE
  5
27C
100
AcDbEntity
  8
SHELL2
100
AcDbLine
 62
7
  6
CONTINUOUS
 10
79.4387101184
 20
125.984
 11
79.4387101184
 21
124.714
  0
LINE
  5
27D
100
AcDbEntity
  8
SHELL2
100
AcDbLine
 62
7
  6
CONTINUOUS
 10
79.4387101184
 20
107.569
 11
79.4387101184
 21
106.299
  0
LINE
  5
27E
100
AcDbEntity
  8
SHELL2
100
AcDbLine
 62
7
  6
CONTINUOUS
 10
81.1161012376
 20
126.698375
 11
81.1161012376
 21
124.714
  0
LINE
  5
27F
100
AcDbEntity
  8
SHELL2
100
AcDbLine
 62
7
  6
CONTINUOUS
 10
81.1161012376
 20
108.283375
 11
81.1161012376
 21
106.299
  0
LINE
  5
280
100
AcDbEntity
  8
SHELL2
100
AcDbLine
 62
7
  6
CONTINUOUS
 10
153.0650585371
 20
112.649
 11
138.4003616997
 21
112.649
  0
LINE
  5
281
100
AcDbEntity
  8
SHELL2
100
AcDbLine
 62
7
  6
CONTINUOUS
 10
105.3130585371
 20
112.649
 11
90.6483616997
 21
112.649
  0
LINE
  5
282
100
AcDbEntity
  8
SHELL2
100
AcDbLine
 62
7
  6
CONTINUOUS
 10
57.5610585371
 20
112.649
 11
42.8963616997
 21
112.649
  0
LINE
  5
283
100
AcDbEntity
  8
SHELL2
100
AcDbLine
 62
7
  6
CONTINUOUS
 10
21.2981101184
 20
114.427
 11
21.2727101184
 21
114.427
  0
LINE
  5
284
100
AcDbEntity
  8
SHELL2
100
AcDbLine
 62
7
  6
CONTINUOUS
 10
82.261780678
 20
126.698375
 11
82.261780678
 21
124.714
  0
LINE
  5
285
100
AcDbEntity
  8
SHELL2
100
AcDbLine
 62
7
  6
CONTINUOUS
 10
82.261780678
 20
108.283375
 11
82.261780678
 21
106.299
  0
LINE
  5
286
100
AcDbEntity
  8
SHELL2
100
AcDbLine
 62
7
  6
CONTINUOUS
 10
84.5531395588
 20
126.698375
 11
84.5531395588
 21
124.714
  0
LINE
  5
287
100
AcDbEntity
  8
SHELL2
100
AcDbLine
 62
7
  6
CONTINUOUS
 10
84.5531395588
 20
108.283375
 11
84.5531395588
 21
106.299
  0
LINE
  5
288
100
AcDbEntity
  8
SHELL2
100
AcDbLine
 62
7
  6
CONTINUOUS
 10
85.6988189993
 20
126.698375
 11
85.6988189993
 21
124.714
  0
LINE
  5
289
100
AcDbEntity
  8
SHELL2
100
AcDbLine
 62
7
  6
CONTINUOUS
 10
85.6988189993
 20
108.283375
 11
85.6988189993
 21
106.299
  0
LINE
  5
28A
100
AcDbEntity
  8
SHELL2
100
AcDbLine
 62
7
  6
CONTINUOUS
 10
86.8682101184
 20
107.569
 11
86.8682101184
 21
106.299
  0
LINE
  5
28B
100
AcDbEntity
  8
SHELL2
100
AcDbLine
 62
7
  6
CONTINUOUS
 10
87.3762101184
 20
125.984
 11
87.3762101184
 21
124.714
  0
LINE
  5
28C
100
AcDbEntity
  8
SHELL2
100
AcDbLine
 62
7
  6
CONTINUOUS
 10
87.3762101184
 20
107.569
 11
87.3762101184
 21
106.299
  0
LINE
  5
28D
100
AcDbEntity
  8
SHELL2
100
AcDbLine
 62
7
  6
CONTINUOUS
 10
152.0827101184
 20
122.174
 11
139.3827101184
 21
122.174
  0
LINE
  5
28E
100
AcDbEntity
  8
SHELL2
100
AcDbLine
 62
7
  6
CONTINUOUS
 10
104.3307101184
 20
122.174
 11
91.6307101184
 21
122.174
  0
LINE
  5
28F
100
AcDbEntity
  8
SHELL2
100
AcDbLine
 62
7
  6
CONTINUOUS
 10
56.5787101184
 20
122.174
 11
43.8787101184
 21
122.174
  0
LINE
  5
290
100
AcDbEntity
  8
SHELL2
100
AcDbLine
 62
7
  6
CONTINUOUS
 10
89.1542101184
 20
125.984
 11
89.1542101184
 21
124.714
  0
LINE
  5
291
100
AcDbEntity
  8
SHELL2
100
AcDbLine
 62
7
  6
CONTINUOUS
 10
89.1542101184
 20
107.569
 11
89.1542101184
 21
106.299
  0
LINE
  5
292
100
AcDbEntity
  8
SHELL2
100
AcDbLine
 62
7
  6
CONTINUOUS
 10
90.6483616997
 20
112.649
 11
90.6483616997
 21
106.299
  0
LINE
  5
293
100
AcDbEntity
  8
SHELL2
100
AcDbLine
 62
7
  6
CONTINUOUS
 10
90.8316012376
 20
126.698375
 11
90.8316012376
 21
124.714
  0
LINE
  5
294
100
AcDbEntity
  8
SHELL2
100
AcDbLine
 62
7
  6
CONTINUOUS
 10
90.8316012376
 20
108.283375
 11
90.8316012376
 21
106.299
  0
LINE
  5
295
100
AcDbEntity
  8
SHELL2
100
AcDbLine
 62
7
  6
CONTINUOUS
 10
91.6307101184
 20
124.714
 11
91.6307101184
 21
122.174
  0
LINE
  5
296
100
AcDbEntity
  8
SHELL2
100
AcDbLine
 62
7
  6
CONTINUOUS
 10
91.977280678
 20
126.698375
 11
91.977280678
 21
124.714
  0
LINE
  5
297
100
AcDbEntity
  8
SHELL2
100
AcDbLine
 62
7
  6
CONTINUOUS
 10
91.977280678
 20
108.283375
 11
91.977280678
 21
106.299
  0
LINE
  5
298
100
AcDbEntity
  8
SHELL2
100
AcDbLine
 62
7
  6
CONTINUOUS
 10
92.9007101184
 20
162.941
 11
92.9007101184
 21
158.369
  0
LINE
  5
299
100
AcDbEntity
  8
SHELL2
100
AcDbLine
 62
7
  6
CONTINUOUS
 10
165.4177101184
 20
124.714
 11
126.0477101184
 21
124.714
  0
LINE
  5
29A
100
AcDbEntity
  8
SHELL2
100
AcDbLine
 62
7
  6
CONTINUOUS
 10
117.6657101184
 20
124.714
 11
78.2957101184
 21
124.714
  0
LINE
  5
29B
100
AcDbEntity
  8
SHELL2
100
AcDbLine
 62
7
  6
CONTINUOUS
 10
69.9137101184
 20
124.714
 11
30.5437101184
 21
124.714
  0
LINE
  5
29C
100
AcDbEntity
  8
SHELL2
100
AcDbLine
 62
7
  6
CONTINUOUS
 10
165.4177101184
 20
125.984
 11
126.0477101184
 21
125.984
  0
LINE
  5
29D
100
AcDbEntity
  8
SHELL2
100
AcDbLine
 62
7
  6
CONTINUOUS
 10
117.6657101184
 20
125.984
 11
78.2957101184
 21
125.984
  0
LINE
  5
29E
100
AcDbEntity
  8
SHELL2
100
AcDbLine
 62
7
  6
CONTINUOUS
 10
69.9137101184
 20
125.984
 11
30.5437101184
 21
125.984
  0
LINE
  5
29F
100
AcDbEntity
  8
SHELL2
100
AcDbLine
 62
7
  6
CONTINUOUS
 10
162.5973189993
 20
126.698375
 11
158.0146012376
 21
126.698375
  0
LINE
  5
2A0
100
AcDbEntity
  8
SHELL2
100
AcDbLine
 62
7
  6
CONTINUOUS
 10
152.8818189993
 20
126.698375
 11
148.2991012376
 21
126.698375
  0
LINE
  5
2A1
100
AcDbEntity
  8
SHELL2
100
AcDbLine
 62
7
  6
CONTINUOUS
 10
143.1663189993
 20
126.698375
 11
138.5836012376
 21
126.698375
  0
LINE
  5
2A2
100
AcDbEntity
  8
SHELL2
100
AcDbLine
 62
7
  6
CONTINUOUS
 10
133.4508189993
 20
126.698375
 11
128.8681012376
 21
126.698375
  0
LINE
  5
2A3
100
AcDbEntity
  8
SHELL2
100
AcDbLine
 62
7
  6
CONTINUOUS
 10
114.8453189993
 20
126.698375
 11
110.2626012376
 21
126.698375
  0
LINE
  5
2A4
100
AcDbEntity
  8
SHELL2
100
AcDbLine
 62
7
  6
CONTINUOUS
 10
105.1298189993
 20
126.698375
 11
100.5471012376
 21
126.698375
  0
LINE
  5
2A5
100
AcDbEntity
  8
SHELL2
100
AcDbLine
 62
7
  6
CONTINUOUS
 10
95.4143189993
 20
126.698375
 11
90.8316012376
 21
126.698375
  0
LINE
  5
2A6
100
AcDbEntity
  8
SHELL2
100
AcDbLine
 62
7
  6
CONTINUOUS
 10
85.6988189993
 20
126.698375
 11
81.1161012376
 21
126.698375
  0
LINE
  5
2A7
100
AcDbEntity
  8
SHELL2
100
AcDbLine
 62
7
  6
CONTINUOUS
 10
67.0933189993
 20
126.698375
 11
62.5106012376
 21
126.698375
  0
LINE
  5
2A8
100
AcDbEntity
  8
SHELL2
100
AcDbLine
 62
7
  6
CONTINUOUS
 10
57.3778189993
 20
126.698375
 11
52.7951012376
 21
126.698375
  0
LINE
  5
2A9
100
AcDbEntity
  8
SHELL2
100
AcDbLine
 62
7
  6
CONTINUOUS
 10
47.6623189993
 20
126.698375
 11
43.0796012376
 21
126.698375
  0
LINE
  5
2AA
100
AcDbEntity
  8
SHELL2
100
AcDbLine
 62
7
  6
CONTINUOUS
 10
37.9468189993
 20
126.698375
 11
33.3641012376
 21
126.698375
  0
LINE
  5
2AB
100
AcDbEntity
  8
SHELL2
100
AcDbLine
 62
7
  6
CONTINUOUS
 10
94.2686395588
 20
126.698375
 11
94.2686395588
 21
124.714
  0
LINE
  5
2AC
100
AcDbEntity
  8
SHELL2
100
AcDbLine
 62
7
  6
CONTINUOUS
 10
94.2686395588
 20
108.283375
 11
94.2686395588
 21
106.299
  0
LINE
  5
2AD
100
AcDbEntity
  8
SHELL2
100
AcDbLine
 62
7
  6
CONTINUOUS
 10
94.3145359091
 20
112.649
 11
94.3145359091
 21
106.299
  0
LINE
  5
2AE
100
AcDbEntity
  8
SHELL2
100
AcDbLine
 62
7
  6
CONTINUOUS
 10
95.4143189993
 20
126.698375
 11
95.4143189993
 21
124.714
  0
LINE
  5
2AF
100
AcDbEntity
  8
SHELL2
100
AcDbLine
 62
7
  6
CONTINUOUS
 10
95.4143189993
 20
108.283375
 11
95.4143189993
 21
106.299
  0
LINE
  5
2B0
100
AcDbEntity
  8
SHELL2
100
AcDbLine
 62
7
  6
CONTINUOUS
 10
95.4407101184
 20
162.941
 11
95.4407101184
 21
171.323
  0
LINE
  5
2B1
100
AcDbEntity
  8
SHELL2
100
AcDbLine
 62
7
  6
CONTINUOUS
 10
97.0917101184
 20
125.984
 11
97.0917101184
 21
124.714
  0
LINE
  5
2B2
100
AcDbEntity
  8
SHELL2
100
AcDbLine
 62
7
  6
CONTINUOUS
 10
97.0917101184
 20
107.569
 11
97.0917101184
 21
106.299
  0
LINE
  5
2B3
100
AcDbEntity
  8
SHELL2
100
AcDbLine
 62
7
  6
CONTINUOUS
 10
98.8697101184
 20
125.984
 11
98.8697101184
 21
124.714
  0
LINE
  5
2B4
100
AcDbEntity
  8
SHELL2
100
AcDbLine
 62
7
  6
CONTINUOUS
 10
98.8697101184
 20
107.569
 11
98.8697101184
 21
106.299
  0
LINE
  5
2B5
100
AcDbEntity
  8
SHELL2
100
AcDbLine
 62
7
  6
CONTINUOUS
 10
100.5207101184
 20
162.941
 11
100.5207101184
 21
171.323
  0
LINE
  5
2B6
100
AcDbEntity
  8
SHELL2
100
AcDbLine
 62
7
  6
CONTINUOUS
 10
100.5471012376
 20
126.698375
 11
100.5471012376
 21
124.714
  0
LINE
  5
2B7
100
AcDbEntity
  8
SHELL2
100
AcDbLine
 62
7
  6
CONTINUOUS
 10
100.5471012376
 20
108.283375
 11
100.5471012376
 21
106.299
  0
LINE
  5
2B8
100
AcDbEntity
  8
SHELL2
100
AcDbLine
 62
7
  6
CONTINUOUS
 10
101.6468843278
 20
112.649
 11
101.6468843278
 21
106.299
  0
LINE
  5
2B9
100
AcDbEntity
  8
SHELL2
100
AcDbLine
 62
7
  6
CONTINUOUS
 10
101.692780678
 20
126.698375
 11
101.692780678
 21
124.714
  0
LINE
  5
2BA
100
AcDbEntity
  8
SHELL2
100
AcDbLine
 62
7
  6
CONTINUOUS
 10
101.692780678
 20
108.283375
 11
101.692780678
 21
106.299
  0
LINE
  5
2BB
100
AcDbEntity
  8
SHELL2
100
AcDbLine
 62
7
  6
CONTINUOUS
 10
103.0607101184
 20
162.941
 11
103.0607101184
 21
158.369
  0
LINE
  5
2BC
100
AcDbEntity
  8
SHELL2
100
AcDbLine
 62
7
  6
CONTINUOUS
 10
103.9841395588
 20
126.698375
 11
103.9841395588
 21
124.714
  0
LINE
  5
2BD
100
AcDbEntity
  8
SHELL2
100
AcDbLine
 62
7
  6
CONTINUOUS
 10
103.9841395588
 20
108.283375
 11
103.9841395588
 21
106.299
  0
LINE
  5
2BE
100
AcDbEntity
  8
SHELL2
100
AcDbLine
 62
7
  6
CONTINUOUS
 10
104.3307101184
 20
124.714
 11
104.3307101184
 21
122.174
  0
LINE
  5
2BF
100
AcDbEntity
  8
SHELL2
100
AcDbLine
 62
7
  6
CONTINUOUS
 10
105.1298189993
 20
126.698375
 11
105.1298189993
 21
124.714
  0
LINE
  5
2C0
100
AcDbEntity
  8
SHELL2
100
AcDbLine
 62
7
  6
CONTINUOUS
 10
105.1298189993
 20
108.283375
 11
105.1298189993
 21
106.299
  0
LINE
  5
2C1
100
AcDbEntity
  8
SHELL2
100
AcDbLine
 62
7
  6
CONTINUOUS
 10
105.3130585371
 20
112.649
 11
105.3130585371
 21
106.299
  0
LINE
  5
2C2
100
AcDbEntity
  8
SHELL2
100
AcDbLine
 62
7
  6
CONTINUOUS
 10
106.8072101184
 20
125.984
 11
106.8072101184
 21
124.714
  0
LINE
  5
2C3
100
AcDbEntity
  8
SHELL2
100
AcDbLine
 62
7
  6
CONTINUOUS
 10
106.8072101184
 20
107.569
 11
106.8072101184
 21
106.299
  0
LINE
  5
2C4
100
AcDbEntity
  8
SHELL2
100
AcDbLine
 62
7
  6
CONTINUOUS
 10
108.5852101184
 20
125.984
 11
108.5852101184
 21
124.714
  0
LINE
  5
2C5
100
AcDbEntity
  8
SHELL2
100
AcDbLine
 62
7
  6
CONTINUOUS
 10
108.5852101184
 20
107.569
 11
108.5852101184
 21
106.299
  0
LINE
  5
2C6
100
AcDbEntity
  8
SHELL2
100
AcDbLine
 62
7
  6
CONTINUOUS
 10
109.0932101184
 20
107.569
 11
109.0932101184
 21
106.299
  0
LINE
  5
2C7
100
AcDbEntity
  8
SHELL2
100
AcDbLine
 62
7
  6
CONTINUOUS
 10
165.4177101184
 20
144.399
 11
126.0477101184
 21
144.399
  0
LINE
  5
2C8
100
AcDbEntity
  8
SHELL2
100
AcDbLine
 62
7
  6
CONTINUOUS
 10
117.6657101184
 20
144.399
 11
78.2957101184
 21
144.399
  0
LINE
  5
2C9
100
AcDbEntity
  8
SHELL2
100
AcDbLine
 62
7
  6
CONTINUOUS
 10
69.9137101184
 20
144.399
 11
30.5437101184
 21
144.399
  0
LINE
  5
2CA
100
AcDbEntity
  8
SHELL2
100
AcDbLine
 62
7
  6
CONTINUOUS
 10
110.2626012376
 20
126.698375
 11
110.2626012376
 21
124.714
  0
LINE
  5
2CB
100
AcDbEntity
  8
SHELL2
100
AcDbLine
 62
7
  6
CONTINUOUS
 10
110.2626012376
 20
108.283375
 11
110.2626012376
 21
106.299
  0
LINE
  5
2CC
100
AcDbEntity
  8
SHELL2
100
AcDbLine
 62
7
  6
CONTINUOUS
 10
111.408280678
 20
126.698375
 11
111.408280678
 21
124.714
  0
LINE
  5
2CD
100
AcDbEntity
  8
SHELL2
100
AcDbLine
 62
7
  6
CONTINUOUS
 10
111.408280678
 20
108.283375
 11
111.408280678
 21
106.299
  0
LINE
  5
2CE
100
AcDbEntity
  8
SHELL2
100
AcDbLine
 62
7
  6
CONTINUOUS
 10
113.6996395588
 20
126.698375
 11
113.6996395588
 21
124.714
  0
LINE
  5
2CF
100
AcDbEntity
  8
SHELL2
100
AcDbLine
 62
7
  6
CONTINUOUS
 10
113.6996395588
 20
108.283375
 11
113.6996395588
 21
106.299
  0
LINE
  5
2D0
100
AcDbEntity
  8
SHELL2
100
AcDbLine
 62
7
  6
CONTINUOUS
 10
114.8453189993
 20
126.698375
 11
114.8453189993
 21
124.714
  0
LINE
  5
2D1
100
AcDbEntity
  8
SHELL2
100
AcDbLine
 62
7
  6
CONTINUOUS
 10
114.8453189993
 20
108.283375
 11
114.8453189993
 21
106.299
  0
LINE
  5
2D2
100
AcDbEntity
  8
SHELL2
100
AcDbLine
 62
7
  6
CONTINUOUS
 10
116.5227101184
 20
125.984
 11
116.5227101184
 21
124.714
  0
LINE
  5
2D3
100
AcDbEntity
  8
SHELL2
100
AcDbLine
 62
7
  6
CONTINUOUS
 10
116.5227101184
 20
107.569
 11
116.5227101184
 21
106.299
  0
LINE
  5
2D4
100
AcDbEntity
  8
SHELL2
100
AcDbLine
 62
7
  6
CONTINUOUS
 10
117.6657101184
 20
158.369
 11
117.6657101184
 21
107.569
  0
LINE
  5
2D5
100
AcDbEntity
  8
SHELL2
100
AcDbLine
 62
7
  6
CONTINUOUS
 10
117.6657101184
 20
107.569
 11
117.6657101184
 21
97.155
  0
LINE
  5
2D6
100
AcDbEntity
  8
SHELL2
100
AcDbLine
 62
7
  6
CONTINUOUS
 10
120.2057101184
 20
158.369
 11
120.2057101184
 21
97.155
  0
LINE
  5
2D7
100
AcDbEntity
  8
SHELL2
100
AcDbLine
 62
7
  6
CONTINUOUS
 10
21.2981101184
 20
154.051
 11
21.2727101184
 21
154.051
  0
LINE
  5
2D8
100
AcDbEntity
  8
SHELL2
100
AcDbLine
 62
7
  6
CONTINUOUS
 10
123.5077101184
 20
158.369
 11
123.5077101184
 21
97.155
  0
LINE
  5
2D9
100
AcDbEntity
  8
SHELL2
100
AcDbLine
 62
7
  6
CONTINUOUS
 10
126.0477101184
 20
144.399
 11
126.0477101184
 21
107.569
  0
LINE
  5
2DA
100
AcDbEntity
  8
SHELL2
100
AcDbLine
 62
7
  6
CONTINUOUS
 10
126.0477101184
 20
158.369
 11
126.0477101184
 21
144.399
  0
LINE
  5
2DB
100
AcDbEntity
  8
SHELL2
100
AcDbLine
 62
7
  6
CONTINUOUS
 10
126.0477101184
 20
107.569
 11
126.0477101184
 21
97.155
  0
LINE
  5
2DC
100
AcDbEntity
  8
SHELL2
100
AcDbLine
 62
7
  6
CONTINUOUS
 10
167.9577101184
 20
158.369
 11
123.5077101184
 21
158.369
  0
LINE
  5
2DD
100
AcDbEntity
  8
SHELL2
100
AcDbLine
 62
7
  6
CONTINUOUS
 10
120.2057101184
 20
158.369
 11
75.7557101184
 21
158.369
  0
LINE
  5
2DE
100
AcDbEntity
  8
SHELL2
100
AcDbLine
 62
7
  6
CONTINUOUS
 10
72.4537101184
 20
158.369
 11
69.9137101184
 21
158.369
  0
LINE
  5
2DF
100
AcDbEntity
  8
SHELL2
100
AcDbLine
 62
7
  6
CONTINUOUS
 10
69.9137101184
 20
158.369
 11
28.0037101184
 21
158.369
  0
LINE
  5
2E0
100
AcDbEntity
  8
SHELL2
100
AcDbLine
 62
7
  6
CONTINUOUS
 10
21.2981101184
 20
162.0519999975
 11
21.2727101184
 21
162.0519999975
  0
LINE
  5
2E1
100
AcDbEntity
  8
SHELL2
100
AcDbLine
 62
7
  6
CONTINUOUS
 10
150.8127101184
 20
162.941
 11
140.6527101184
 21
162.941
  0
LINE
  5
2E2
100
AcDbEntity
  8
SHELL2
100
AcDbLine
 62
7
  6
CONTINUOUS
 10
103.0607101184
 20
162.941
 11
92.9007101184
 21
162.941
  0
LINE
  5
2E3
100
AcDbEntity
  8
SHELL2
100
AcDbLine
 62
7
  6
CONTINUOUS
 10
55.3087101184
 20
162.941
 11
45.1487101184
 21
162.941
  0
LINE
  5
2E4
100
AcDbEntity
  8
SHELL2
100
AcDbLine
 62
7
  6
CONTINUOUS
 10
127.1907101184
 20
125.984
 11
127.1907101184
 21
124.714
  0
LINE
  5
2E5
100
AcDbEntity
  8
SHELL2
100
AcDbLine
 62
7
  6
CONTINUOUS
 10
127.1907101184
 20
107.569
 11
127.1907101184
 21
106.299
  0
LINE
  5
2E6
100
AcDbEntity
  8
SHELL2
100
AcDbLine
 62
7
  6
CONTINUOUS
 10
128.8681012376
 20
126.698375
 11
128.8681012376
 21
124.714
  0
LINE
  5
2E7
100
AcDbEntity
  8
SHELL2
100
AcDbLine
 62
7
  6
CONTINUOUS
 10
128.8681012376
 20
108.283375
 11
128.8681012376
 21
106.299
  0
LINE
  5
2E8
100
AcDbEntity
  8
SHELL2
100
AcDbLine
 62
7
  6
CONTINUOUS
 10
130.013780678
 20
126.698375
 11
130.013780678
 21
124.714
  0
LINE
  5
2E9
100
AcDbEntity
  8
SHELL2
100
AcDbLine
 62
7
  6
CONTINUOUS
 10
130.013780678
 20
108.283375
 11
130.013780678
 21
106.299
  0
LINE
  5
2EA
100
AcDbEntity
  8
SHELL2
100
AcDbLine
 62
7
  6
CONTINUOUS
 10
132.3051395588
 20
126.698375
 11
132.3051395588
 21
124.714
  0
LINE
  5
2EB
100
AcDbEntity
  8
SHELL2
100
AcDbLine
 62
7
  6
CONTINUOUS
 10
132.3051395588
 20
108.283375
 11
132.3051395588
 21
106.299
  0
LINE
  5
2EC
100
AcDbEntity
  8
SHELL2
100
AcDbLine
 62
7
  6
CONTINUOUS
 10
133.4508189993
 20
126.698375
 11
133.4508189993
 21
124.714
  0
LINE
  5
2ED
100
AcDbEntity
  8
SHELL2
100
AcDbLine
 62
7
  6
CONTINUOUS
 10
133.4508189993
 20
108.283375
 11
133.4508189993
 21
106.299
  0
LINE
  5
2EE
100
AcDbEntity
  8
SHELL2
100
AcDbLine
 62
7
  6
CONTINUOUS
 10
134.6202101184
 20
107.569
 11
134.6202101184
 21
106.299
  0
LINE
  5
2EF
100
AcDbEntity
  8
SHELL2
100
AcDbLine
 62
7
  6
CONTINUOUS
 10
135.1282101184
 20
125.984
 11
135.1282101184
 21
124.714
  0
LINE
  5
2F0
100
AcDbEntity
  8
SHELL2
100
AcDbLine
 62
7
  6
CONTINUOUS
 10
135.1282101184
 20
107.569
 11
135.1282101184
 21
106.299
  0
LINE
  5
2F1
100
AcDbEntity
  8
SHELL2
100
AcDbLine
 62
7
  6
CONTINUOUS
 10
136.9062101184
 20
125.984
 11
136.9062101184
 21
124.714
  0
LINE
  5
2F2
100
AcDbEntity
  8
SHELL2
100
AcDbLine
 62
7
  6
CONTINUOUS
 10
136.9062101184
 20
107.569
 11
136.9062101184
 21
106.299
  0
LINE
  5
2F3
100
AcDbEntity
  8
SHELL2
100
AcDbLine
 62
7
  6
CONTINUOUS
 10
138.4003616997
 20
112.649
 11
138.4003616997
 21
106.299
  0
LINE
  5
2F4
100
AcDbEntity
  8
SHELL2
100
AcDbLine
 62
7
  6
CONTINUOUS
 10
174.6887101184
 20
171.323
 11
21.2727101184
 21
171.323
  0
LINE
  5
2F5
100
AcDbEntity
  8
SHELL2
100
AcDbLine
 62
7
  6
CONTINUOUS
 10
138.5836012376
 20
126.698375
 11
138.5836012376
 21
124.714
  0
LINE
  5
2F6
100
AcDbEntity
  8
SHELL2
100
AcDbLine
 62
7
  6
CONTINUOUS
 10
138.5836012376
 20
108.283375
 11
138.5836012376
 21
106.299
  0
LINE
  5
2F7
100
AcDbEntity
  8
SHELL2
100
AcDbLine
 62
7
  6
CONTINUOUS
 10
139.3827101184
 20
124.714
 11
139.3827101184
 21
122.174
  0
LINE
  5
2F8
100
AcDbEntity
  8
SHELL2
100
AcDbLine
 62
7
  6
CONTINUOUS
 10
139.729280678
 20
126.698375
 11
139.729280678
 21
124.714
  0
LINE
  5
2F9
100
AcDbEntity
  8
SHELL2
100
AcDbLine
 62
7
  6
CONTINUOUS
 10
139.729280678
 20
108.283375
 11
139.729280678
 21
106.299
  0
LINE
  5
2FA
100
AcDbEntity
  8
SHELL2
100
AcDbLine
 62
7
  6
CONTINUOUS
 10
140.6527101184
 20
162.941
 11
140.6527101184
 21
158.369
  0
LINE
  5
2FB
100
AcDbEntity
  8
SHELL2
100
AcDbLine
 62
7
  6
CONTINUOUS
 10
142.0206395588
 20
126.698375
 11
142.0206395588
 21
124.714
  0
LINE
  5
2FC
100
AcDbEntity
  8
SHELL2
100
AcDbLine
 62
7
  6
CONTINUOUS
 10
142.0206395588
 20
108.283375
 11
142.0206395588
 21
106.299
  0
LINE
  5
2FD
100
AcDbEntity
  8
SHELL2
100
AcDbLine
 62
7
  6
CONTINUOUS
 10
142.0665359091
 20
112.649
 11
142.0665359091
 21
106.299
  0
LINE
  5
2FE
100
AcDbEntity
  8
SHELL2
100
AcDbLine
 62
7
  6
CONTINUOUS
 10
143.1663189993
 20
126.698375
 11
143.1663189993
 21
124.714
  0
LINE
  5
2FF
100
AcDbEntity
  8
SHELL2
100
AcDbLine
 62
7
  6
CONTINUOUS
 10
143.1663189993
 20
108.283375
 11
143.1663189993
 21
106.299
  0
LINE
  5
300
100
AcDbEntity
  8
SHELL2
100
AcDbLine
 62
7
  6
CONTINUOUS
 10
143.1927101184
 20
162.941
 11
143.1927101184
 21
171.323
  0
LINE
  5
301
100
AcDbEntity
  8
SHELL2
100
AcDbLine
 62
7
  6
CONTINUOUS
 10
144.8437101184
 20
125.984
 11
144.8437101184
 21
124.714
  0
LINE
  5
302
100
AcDbEntity
  8
SHELL2
100
AcDbLine
 62
7
  6
CONTINUOUS
 10
144.8437101184
 20
107.569
 11
144.8437101184
 21
106.299
  0
LINE
  5
303
100
AcDbEntity
  8
SHELL2
100
AcDbLine
 62
7
  6
CONTINUOUS
 10
146.6217101184
 20
125.984
 11
146.6217101184
 21
124.714
  0
LINE
  5
304
100
AcDbEntity
  8
SHELL2
100
AcDbLine
 62
7
  6
CONTINUOUS
 10
146.6217101184
 20
107.569
 11
146.6217101184
 21
106.299
  0
LINE
  5
305
100
AcDbEntity
  8
SHELL2
100
AcDbLine
 62
7
  6
CONTINUOUS
 10
148.2727101184
 20
162.941
 11
148.2727101184
 21
171.323
  0
LINE
  5
306
100
AcDbEntity
  8
SHELL2
100
AcDbLine
 62
7
  6
CONTINUOUS
 10
148.2991012376
 20
126.698375
 11
148.2991012376
 21
124.714
  0
LINE
  5
307
100
AcDbEntity
  8
SHELL2
100
AcDbLine
 62
7
  6
CONTINUOUS
 10
148.2991012376
 20
108.283375
 11
148.2991012376
 21
106.299
  0
LINE
  5
308
100
AcDbEntity
  8
SHELL2
100
AcDbLine
 62
7
  6
CONTINUOUS
 10
149.3988843278
 20
112.649
 11
149.3988843278
 21
106.299
  0
LINE
  5
309
100
AcDbEntity
  8
SHELL2
100
AcDbLine
 62
7
  6
CONTINUOUS
 10
149.444780678
 20
126.698375
 11
149.444780678
 21
124.714
  0
LINE
  5
30A
100
AcDbEntity
  8
SHELL2
100
AcDbLine
 62
7
  6
CONTINUOUS
 10
149.444780678
 20
108.283375
 11
149.444780678
 21
106.299
  0
LINE
  5
30B
100
AcDbEntity
  8
SHELL2
100
AcDbLine
 62
7
  6
CONTINUOUS
 10
150.8127101184
 20
162.941
 11
150.8127101184
 21
158.369
  0
LINE
  5
30C
100
AcDbEntity
  8
SHELL2
100
AcDbLine
 62
7
  6
CONTINUOUS
 10
151.7361395588
 20
126.698375
 11
151.7361395588
 21
124.714
  0
LINE
  5
30D
100
AcDbEntity
  8
SHELL2
100
AcDbLine
 62
7
  6
CONTINUOUS
 10
151.7361395588
 20
108.283375
 11
151.7361395588
 21
106.299
  0
LINE
  5
30E
100
AcDbEntity
  8
SHELL2
100
AcDbLine
 62
7
  6
CONTINUOUS
 10
152.0827101184
 20
124.714
 11
152.0827101184
 21
122.174
  0
LINE
  5
30F
100
AcDbEntity
  8
SHELL2
100
AcDbLine
 62
7
  6
CONTINUOUS
 10
152.8818189993
 20
126.698375
 11
152.8818189993
 21
124.714
  0
LINE
  5
310
100
AcDbEntity
  8
SHELL2
100
AcDbLine
 62
7
  6
CONTINUOUS
 10
152.8818189993
 20
108.283375
 11
152.8818189993
 21
106.299
  0
LINE
  5
311
100
AcDbEntity
  8
SHELL2
100
AcDbLine
 62
7
  6
CONTINUOUS
 10
153.0650585371
 20
112.649
 11
153.0650585371
 21
106.299
  0
LINE
  5
312
100
AcDbEntity
  8
SHELL2
100
AcDbLine
 62
7
  6
CONTINUOUS
 10
154.5592101184
 20
125.984
 11
154.5592101184
 21
124.714
  0
LINE
  5
313
100
AcDbEntity
  8
SHELL2
100
AcDbLine
 62
7
  6
CONTINUOUS
 10
154.5592101184
 20
107.569
 11
154.5592101184
 21
106.299
  0
LINE
  5
314
100
AcDbEntity
  8
SHELL2
100
AcDbLine
 62
7
  6
CONTINUOUS
 10
156.3372101184
 20
125.984
 11
156.3372101184
 21
124.714
  0
LINE
  5
315
100
AcDbEntity
  8
SHELL2
100
AcDbLine
 62
7
  6
CONTINUOUS
 10
156.3372101184
 20
107.569
 11
156.3372101184
 21
106.299
  0
LINE
  5
316
100
AcDbEntity
  8
SHELL2
100
AcDbLine
 62
7
  6
CONTINUOUS
 10
156.8452101184
 20
107.569
 11
156.8452101184
 21
106.299
  0
LINE
  5
317
100
AcDbEntity
  8
SHELL2
100
AcDbLine
 62
7
  6
CONTINUOUS
 10
158.0146012376
 20
126.698375
 11
158.0146012376
 21
124.714
  0
LINE
  5
318
100
AcDbEntity
  8
SHELL2
100
AcDbLine
 62
7
  6
CONTINUOUS
 10
158.0146012376
 20
108.283375
 11
158.0146012376
 21
106.299
  0
LINE
  5
319
100
AcDbEntity
  8
SHELL2
100
AcDbLine
 62
7
  6
CONTINUOUS
 10
159.160280678
 20
126.698375
 11
159.160280678
 21
124.714
  0
LINE
  5
31A
100
AcDbEntity
  8
SHELL2
100
AcDbLine
 62
7
  6
CONTINUOUS
 10
159.160280678
 20
108.283375
 11
159.160280678
 21
106.299
  0
LINE
  5
31B
100
AcDbEntity
  8
SHELL2
100
AcDbLine
 62
7
  6
CONTINUOUS
 10
161.4516395588
 20
126.698375
 11
161.4516395588
 21
124.714
  0
LINE
  5
31C
100
AcDbEntity
  8
SHELL2
100
AcDbLine
 62
7
  6
CONTINUOUS
 10
161.4516395588
 20
108.283375
 11
161.4516395588
 21
106.299
  0
LINE
  5
31D
100
AcDbEntity
  8
SHELL2
100
AcDbLine
 62
7
  6
CONTINUOUS
 10
162.5973189993
 20
126.698375
 11
162.5973189993
 21
124.714
  0
LINE
  5
31E
100
AcDbEntity
  8
SHELL2
100
AcDbLine
 62
7
  6
CONTINUOUS
 10
162.5973189993
 20
108.283375
 11
162.5973189993
 21
106.299
  0
LINE
  5
31F
100
AcDbEntity
  8
SHELL2
100
AcDbLine
 62
7
  6
CONTINUOUS
 10
164.2747101184
 20
125.984
 11
164.2747101184
 21
124.714
  0
LINE
  5
320
100
AcDbEntity
  8
SHELL2
100
AcDbLine
 62
7
  6
CONTINUOUS
 10
164.2747101184
 20
107.569
 11
164.2747101184
 21
106.299
  0
LINE
  5
321
100
AcDbEntity
  8
SHELL2
100
AcDbLine
 62
7
  6
CONTINUOUS
 10
165.4177101184
 20
158.369
 11
165.4177101184
 21
124.714
  0
LINE
  5
322
100
AcDbEntity
  8
SHELL2
100
AcDbLine
 62
7
  6
CONTINUOUS
 10
165.4177101184
 20
124.714
 11
165.4177101184
 21
97.155
  0
LINE
  5
323
100
AcDbEntity
  8
SHELL2
100
AcDbLine
 62
7
  6
CONTINUOUS
 10
167.9577101184
 20
158.369
 11
167.9577101184
 21
97.155
  0
LINE
  5
324
100
AcDbEntity
  8
SHELL2
100
AcDbLine
 62
7
  6
CONTINUOUS
 10
174.6887101184
 20
171.323
 11
174.6887101184
 21
97.1550000025
  0
CIRCLE
  5
325
100
AcDbEntity
  8
SHELL2
100
AcDbCircle
 62
7
  6
CONTINUOUS
 10
93.1229601184
 20
116.7765
 40
4.09575
  0
CIRCLE
  5
326
100
AcDbEntity
  8
SHELL2
100
AcDbCircle
 62
7
  6
CONTINUOUS
 10
83.4074601184
 20
116.7765
 40
4.09575
  0
CIRCLE
  5
327
100
AcDbEntity
  8
SHELL2
100
AcDbCircle
 62
7
  6
CONTINUOUS
 10
64.8019601184
 20
116.7765
 40
4.09575
  0
CIRCLE
  5
328
100
AcDbEntity
  8
SHELL2
100
AcDbCircle
 62
7
  6
CONTINUOUS
 10
55.0864601184
 20
116.7765
 40
4.09575
  0
CIRCLE
  5
329
100
AcDbEntity
  8
SHELL2
100
AcDbCircle
 62
7
  6
CONTINUOUS
 10
45.3709601184
 20
116.7765
 40
4.09575
  0
CIRCLE
  5
32A
100
AcDbEntity
  8
SHELL2
100
AcDbCircle
 62
7
  6
CONTINUOUS
 10
35.6554601184
 20
116.7765
 40
4.09575
  0
CIRCLE
  5
32B
100
AcDbEntity
  8
SHELL2
100
AcDbCircle
 62
7
  6
CONTINUOUS
 10
50.2287101184
 20
125.984
 40
11.1252
  0
CIRCLE
  5
32C
100
AcDbEntity
  8
SHELL2
100
AcDbCircle
 62
7
  6
CONTINUOUS
 10
93.1229601184
 20
135.1915
 40
4.09575
  0
CIRCLE
  5
32D
100
AcDbEntity
  8
SHELL2
100
AcDbCircle
 62
7
  6
CONTINUOUS
 10
83.4074601184
 20
135.1915
 40
4.09575
  0
CIRCLE
  5
32E
100
AcDbEntity
  8
SHELL2
100
AcDbCircle
 62
7
  6
CONTINUOUS
 10
64.8019601184
 20
135.1915
 40
4.09575
  0
CIRCLE
  5
32F
100
AcDbEntity
  8
SHELL2
100
AcDbCircle
 62
7
  6
CONTINUOUS
 10
55.0864601184
 20
135.1915
 40
4.09575
  0
CIRCLE
  5
330
100
AcDbEntity
  8
SHELL2
100
AcDbCircle
 62
7
  6
CONTINUOUS
 10
45.3709601184
 20
135.1915
 40
4.09575
  0
CIRCLE
  5
331
100
AcDbEntity
  8
SHELL2
100
AcDbCircle
 62
7
  6
CONTINUOUS
 10
35.6554601184
 20
135.1915
 40
4.09575
  0
CIRCLE
  5
332
100
AcDbEntity
  8
SHELL2
100
AcDbCircle
 62
7
  6
CONTINUOUS
 10
160.3059601184
 20
116.7765
 40
4.09575
  0
CIRCLE
  5
333
100
AcDbEntity
  8
SHELL2
100
AcDbCircle
 62
7
  6
CONTINUOUS
 10
150.5904601184
 20
116.7765
 40
4.09575
  0
CIRCLE
  5
334
100
AcDbEntity
  8
SHELL2
100
AcDbCircle
 62
7
  6
CONTINUOUS
 10
140.8749601184
 20
116.7765
 40
4.09575
  0
CIRCLE
  5
335
100
AcDbEntity
  8
SHELL2
100
AcDbCircle
 62
7
  6
CONTINUOUS
 10
131.1594601184
 20
116.7765
 40
4.09575
  0
CIRCLE
  5
336
100
AcDbEntity
  8
SHELL2
100
AcDbCircle
 62
7
  6
CONTINUOUS
 10
112.5539601184
 20
116.7765
 40
4.09575
  0
CIRCLE
  5
337
100
AcDbEntity
  8
SHELL2
100
AcDbCircle
 62
7
  6
CONTINUOUS
 10
102.8384601184
 20
116.7765
 40
4.09575
  0
CIRCLE
  5
338
100
AcDbEntity
  8
SHELL2
100
AcDbCircle
 62
7
  6
CONTINUOUS
 10
145.7327101184
 20
125.984
 40
11.1252
  0
CIRCLE
  5
339
100
AcDbEntity
  8
SHELL2
100
AcDbCircle
 62
7
  6
CONTINUOUS
 10
97.9807101184
 20
125.984
 40
11.1252
  0
CIRCLE
  5
33A
100
AcDbEntity
  8
SHELL2
100
AcDbCircle
 62
7
  6
CONTINUOUS
 10
160.3059601184
 20
135.1915
 40
4.09575
  0
CIRCLE
  5
33B
100
AcDbEntity
  8
SHELL2
100
AcDbCircle
 62
7
  6
CONTINUOUS
 10
150.5904601184
 20
135.1915
 40
4.09575
  0
CIRCLE
  5
33C
100
AcDbEntity
  8
SHELL2
100
AcDbCircle
 62
7
  6
CONTINUOUS
 10
140.8749601184
 20
135.1915
 40
4.09575
  0
CIRCLE
  5
33D
100
AcDbEntity
  8
SHELL2
100
AcDbCircle
 62
7
  6
CONTINUOUS
 10
131.1594601184
 20
135.1915
 40
4.09575
  0
CIRCLE
  5
33E
100
AcDbEntity
  8
SHELL2
100
AcDbCircle
 62
7
  6
CONTINUOUS
 10
112.5539601184
 20
135.1915
 40
4.09575
  0
CIRCLE
  5
33F
100
AcDbEntity
  8
SHELL2
100
AcDbCircle
 62
7
  6
CONTINUOUS
 10
102.8384601184
 20
135.1915
 40
4.09575
  0
ENDSEC
  0
SECTION
  2
OBJECTS
  0
DICTIONARY
  5
C
100
AcDbDictionary
280
0
281
1
  3
ACAD_GROUP
350
D
  3
ACAD_MLINESTYLE
350
17
  3
ACAD_LAYOUT
350
1A
  3
ACAD_PLOTSETTINGS
350
19
  3
ACAD_PLOTSTYLENAME
350
E
  0
DICTIONARY
  5
D
102
{ACAD_REACTORS
330
C
102
}
100
AcDbDictionary
280
0
281
1
  0
ACDBDICTIONARYWDFLT
  5
E
102
{ACAD_REACTORS
330
C
102
}
100
AcDbDictionary
281
1
  3
Normal
350
F
100
AcDbDictionaryWithDefault
340
F
  0
DICTIONARY
  5
17
102
{ACAD_REACTORS
330
C
102
}
100
AcDbDictionary
280
0
281
1
  3
Standard
350
18
  0
DICTIONARY
  5
19
102
{ACAD_REACTORS
330
C
102
}
100
AcDbDictionary
281
1
  0
DICTIONARY
  5
1A
102
{ACAD_REACTORS
330
C
102
}
100
AcDbDictionary
281
1
  3
Model
350
340
  3
Layout1
350
341
  0
ACDBPLACEHOLDER
  5
F
102
{ACAD_REACTORS
330
E
102
}
  0
MLINESTYLE
  5
18
102
{ACAD_REACTORS
330
17
102
}
100
AcDbMlineStyle
  2
STANDARD
 70
0
  3

 62
256
 51
90.0
 52
90.0
 71
2
 49
0.5
 62
256
  6
BYLAYER
 49
-0.5
 62
256
  6
BYLAYER
  0
LAYOUT
  5
340
102
{ACAD_REACTORS
330
1A
102
}
100
AcDbPlotSettings
  1

  2
none_device
  4

  6

 40
0.0
 41
0.0
 42
0.0
 43
0.0
 44
210.0
 45
297.0
 46
0.0
 47
0.0
 48
0.0
 49
0.0
140
0.0
141
0.0
142
1.0
143
1.0
 70
1024
 72
1
 73
0
 74
0
  7

 75
0
147
1.0
148
0.0
149
0.0
100
AcDbLayout
  1
Model
 70
0
 71
0
 10
0.0
 20
0.0
 11
210.0
 21
297.0
 12
0.0
 22
0.0
 32
0.0
 14
0.0
 24
0.0
 34
0.0
 15
0.0
 25
0.0
 35
0.0
146
0.0
 13
0.0
 23
0.0
 33
0.0
 16
1.0
 26
0.0
 36
0.0
 17
0.0
 27
1.0
 37
0.0
 76
0
330
211
345
0
346
0
  0
LAYOUT
  5
341
102
{ACAD_REACTORS
330
1A
102
}
100
AcDbPlotSettings
  1

  2
none_device
  4

  6

 40
0.0
 41
0.0
 42
0.0
 43
0.0
 44
210.0
 45
297.0
 46
0.0
 47
0.0
 48
0.0
 49
0.0
140
0.0
141
0.0
142
1.0
143
1.0
 70
0
 72
1
 73
0
 74
0
  7

 75
0
147
1.0
148
0.0
149
0.0
100
AcDbLayout
  1
Layout1
 70
0
 71
1
 10
0.0
 20
0.0
 11
210.0
 21
297.0
 12
0.0
 22
0.0
 32
0.0
 14
0.0
 24
0.0
 34
0.0
 15
0.0
 25
0.0
 35
0.0
146
0.0
 13
0.0
 23
0.0
 33
0.0
 16
1.0
 26
0.0
 36
0.0
 17
0.0
 27
1.0
 37
0.0
 76
0
330
212
345
0
346
0
  0
ENDSEC
  0
EOF
