999
DXF file: C:\Users\sesa63760\Dev\_Creo\CAD\MCADID0005227_3D-CAD\drw0001_2.dxf
999
Pro/ENGINEER 2019471 by Parametric Technology Corporation
  0
SECTION
  2
HEADER
  9
$ACADVER
  1
AC1024
  9
$DWGCODEPAGE
  3
ANSI_1252
  9
$EXTMAX
 10
82.2537971201
 20
116.3303702128
 30
0.0
  9
$EXTMIN
 10
0.0
 20
0.0
 30
0.0
  9
$LIMMIN
 10
0.0
 20
0.0
  9
$LIMMAX
 10
82.2537971201
 20
116.3303702128
  9
$VIEWCTR
 10
41.1268985601
 20
58.1651851064
  9
$VIEWSIZE
 40
116.3303702128
  9
$CLAYER
  8
0
  9
$LTSCALE
 40
7.583016725
  9
$CELTYPE
  6
BYLAYER
  9
$DIMSCALE
 40
1.0
  9
$DIMASZ
 40
0.9792118705
  9
$DIMEXO
 40
1.0
  9
$DIMDLI
 40
5.2391751918
  9
$DIMEXE
 40
1.0
  9
$DIMCEN
 40
1.2408572823
  9
$DIMLFAC
 40
1.0
  9
$DIMBLK
  1
_FILLED
  9
$DIMALT
 70
0
  9
$DIMALTF
 40
0.0393700787
  9
$DIMTXT
 40
1.3708966187
  9
$DIMTOL
 70
1
  9
$DIMLIM
 70
0
  9
$DIMTFAC
 40
1.0
  9
$DIMTP
 40
0.01
  9
$DIMTM
 40
0.01
  9
$DIMGAP
 40
0.625
  9
$DIMDSEP
 70
46
  9
$AUNITS
 70
0
  9
$PDMODE
 70
3
  9
$PDSIZE
 40
0.3125
  9
$HANDSEED
  5
2D9
  9
$TILEMODE
 70
1
  9
$MEASUREMENT
 70
1
  9
$INSUNITS
 70
4
  0
ENDSEC
  0
SECTION
  2
CLASSES
  0
CLASS
  1
ACDBDICTIONARYWDFLT
  2
AcDbDictionaryWithDefault
  3
AutoCAD 2000
 90
0
 91
1
280
0
281
0
  0
CLASS
  1
ACDBPLACEHOLDER
  2
AcDbPlaceHolder
  3
AutoCAD 2000
 90
0
 91
1
280
0
281
0
  0
CLASS
  1
LAYOUT
  2
AcDbLayout
  3
AutoCAD 2000
 90
0
 91
0
280
0
281
0
  0
ENDSEC
  0
SECTION
  2
TABLES
  0
TABLE
  2
VPORT
  5
8
100
AcDbSymbolTable
 70
2
  0
VPORT
  5
1F4
100
AcDbSymbolTableRecord
100
AcDbViewportTableRecord
  2
*ACTIVE
 70
0
 10
0.0
 20
0.0
 11
1.0
 21
1.0
 12
41.1268985601
 22
58.1651851064
 13
0.0
 23
0.0
 14
1.0
 24
1.0
 15
0.0
 25
0.0
 16
0.0
 26
0.0
 36
1.0
 17
0.0
 27
0.0
 37
0.0
 40
116.3303702128
 41
0.7070707071
 42
50.0
 43
0.0
 44
0.0
 50
0.0
 51
0.0
 71
0
 72
100
 73
1
 74
1
 75
0
 76
0
 77
0
 78
0
  0
ENDTAB
  0
TABLE
  2
LTYPE
  5
5
100
AcDbSymbolTable
 70
6
  0
LTYPE
  5
14
100
AcDbSymbolTableRecord
100
AcDbLinetypeTableRecord
  2
BYBLOCK
 70
0
  3

 72
65
 73
0
 40
0.0
  0
LTYPE
  5
15
100
AcDbSymbolTableRecord
100
AcDbLinetypeTableRecord
  2
BYLAYER
 70
0
  3

 72
65
 73
0
 40
0.0
  0
LTYPE
  5
16
100
AcDbSymbolTableRecord
100
AcDbLinetypeTableRecord
  2
CONTINUOUS
 70
64
  3
Solid line
 72
65
 73
0
 40
0.0
  0
LTYPE
  5
1F5
100
AcDbSymbolTableRecord
100
AcDbLinetypeTableRecord
  2
CENTER
 70
64
  3
____ _ ____ _ ____ _ ____ _ ____ _ ____ _ ____
 72
65
 73
4
 40
0.6
 49
0.375
 74
0
 49
-0.075
 74
0
 49
0.075
 74
0
 49
-0.075
 74
0
  0
LTYPE
  5
1F6
100
AcDbSymbolTableRecord
100
AcDbLinetypeTableRecord
  2
HIDDEN
 70
64
  3
- - - - - - - - - - - - - - - - - - - -
 72
65
 73
2
 40
0.2
 49
0.1
 74
0
 49
-0.1
 74
0
  0
LTYPE
  5
1F7
100
AcDbSymbolTableRecord
100
AcDbLinetypeTableRecord
  2
PHANTOM
 70
64
  3
_____ _ _ _____ _ _ _____ _ _ _____
 72
65
 73
6
 40
0.8
 49
0.45
 74
0
 49
-0.05
 74
0
 49
0.1
 74
0
 49
-0.05
 74
0
 49
0.1
 74
0
 49
-0.05
 74
0
  0
LTYPE
  5
1F8
100
AcDbSymbolTableRecord
100
AcDbLinetypeTableRecord
  2
DOT
 70
64
  3
. . . . . . . . . . . . . . . . . . . .
 72
65
 73
2
 40
0.2
 49
0.1
 74
0
 49
-0.1
 74
0
  0
LTYPE
  5
1F9
100
AcDbSymbolTableRecord
100
AcDbLinetypeTableRecord
  2
DASHED
 70
64
  3
- - - - - - - - - - - - - - - - - - - -
 72
65
 73
2
 40
0.2
 49
0.1
 74
0
 49
-0.1
 74
0
  0
ENDTAB
  0
TABLE
  2
LAYER
  5
2
100
AcDbSymbolTable
 70
36
  0
LAYER
  5
10
100
AcDbSymbolTableRecord
100
AcDbLayerTableRecord
  2
0
 70
0
 62
7
  6
CONTINUOUS
370
-3
390
F
  0
LAYER
  5
1FA
100
AcDbSymbolTableRecord
100
AcDbLayerTableRecord
  2
DEFAULT_1
 70
0
 62
7
  6
CENTER
370
-3
390
F
  0
LAYER
  5
1FB
100
AcDbSymbolTableRecord
100
AcDbLayerTableRecord
  2
DEFAULT_2
 70
0
 62
7
  6
HIDDEN
370
-3
390
F
  0
LAYER
  5
1FC
100
AcDbSymbolTableRecord
100
AcDbLayerTableRecord
  2
DEFAULT_3
 70
0
 62
7
  6
PHANTOM
370
-3
390
F
  0
LAYER
  5
1FD
100
AcDbSymbolTableRecord
100
AcDbLayerTableRecord
  2
00_COMPONENTS
 70
0
 62
7
  6
CONTINUOUS
370
-3
390
F
  0
LAYER
  5
1FE
100
AcDbSymbolTableRecord
100
AcDbLayerTableRecord
  2
00_COMPONENTS_1
 70
0
 62
7
  6
CONTINUOUS
370
-3
390
F
  0
LAYER
  5
1FF
100
AcDbSymbolTableRecord
100
AcDbLayerTableRecord
  2
00_COMPONENTS_2
 70
0
 62
7
  6
CONTINUOUS
370
-3
390
F
  0
LAYER
  5
200
100
AcDbSymbolTableRecord
100
AcDbLayerTableRecord
  2
01_1_DEFAULT_DATUMS
 70
0
 62
7
  6
CONTINUOUS
370
-3
390
F
  0
LAYER
  5
201
100
AcDbSymbolTableRecord
100
AcDbLayerTableRecord
  2
01_PLANES
 70
0
 62
7
  6
CONTINUOUS
370
-3
390
F
  0
LAYER
  5
202
100
AcDbSymbolTableRecord
100
AcDbLayerTableRecord
  2
02_COORD_SYS
 70
0
 62
7
  6
CONTINUOUS
370
-3
390
F
  0
LAYER
  5
203
100
AcDbSymbolTableRecord
100
AcDbLayerTableRecord
  2
03_AXES
 70
0
 62
7
  6
CONTINUOUS
370
-3
390
F
  0
LAYER
  5
204
100
AcDbSymbolTableRecord
100
AcDbLayerTableRecord
  2
04_POINTS
 70
0
 62
7
  6
CONTINUOUS
370
-3
390
F
  0
LAYER
  5
205
100
AcDbSymbolTableRecord
100
AcDbLayerTableRecord
  2
05_CURVES
 70
0
 62
7
  6
CONTINUOUS
370
-3
390
F
  0
LAYER
  5
206
100
AcDbSymbolTableRecord
100
AcDbLayerTableRecord
  2
06_SURFS
 70
0
 62
7
  6
CONTINUOUS
370
-3
390
F
  0
LAYER
  5
207
100
AcDbSymbolTableRecord
100
AcDbLayerTableRecord
  2
07_COSMETICS
 70
0
 62
7
  6
CONTINUOUS
370
-3
390
F
  0
LAYER
  5
208
100
AcDbSymbolTableRecord
100
AcDbLayerTableRecord
  2
10_NOTES
 70
0
 62
7
  6
CONTINUOUS
370
-3
390
F
  0
LAYER
  5
209
100
AcDbSymbolTableRecord
100
AcDbLayerTableRecord
  2
11_NOTES_PUB
 70
0
 62
7
  6
CONTINUOUS
370
-3
390
F
  0
LAYER
  5
20A
100
AcDbSymbolTableRecord
100
AcDbLayerTableRecord
  2
13_REF_GTOL
 70
0
 62
7
  6
CONTINUOUS
370
-3
390
F
  0
LAYER
  5
20B
100
AcDbSymbolTableRecord
100
AcDbLayerTableRecord
  2
16_MISC
 70
0
 62
7
  6
CONTINUOUS
370
-3
390
F
  0
LAYER
  5
20C
100
AcDbSymbolTableRecord
100
AcDbLayerTableRecord
  2
17_NO_PRINT
 70
0
 62
7
  6
CONTINUOUS
370
-3
390
F
  0
LAYER
  5
20D
100
AcDbSymbolTableRecord
100
AcDbLayerTableRecord
  2
18_DATUM_CAMS_JOINTS
 70
0
 62
7
  6
CONTINUOUS
370
-3
390
F
  0
LAYER
  5
20E
100
AcDbSymbolTableRecord
100
AcDbLayerTableRecord
  2
19_DATUM_FUNCTIONAL
 70
0
 62
7
  6
CONTINUOUS
370
-3
390
F
  0
LAYER
  5
20F
100
AcDbSymbolTableRecord
100
AcDbLayerTableRecord
  2
20_DATUM_KINEMATIC_SCHEME
 70
0
 62
7
  6
CONTINUOUS
370
-3
390
F
  0
LAYER
  5
210
100
AcDbSymbolTableRecord
100
AcDbLayerTableRecord
  2
INTF_BLANK
 70
0
 62
7
  6
CONTINUOUS
370
-3
390
F
  0
LAYER
  5
211
100
AcDbSymbolTableRecord
100
AcDbLayerTableRecord
  2
SHELL1
 70
0
 62
7
  6
CONTINUOUS
370
-3
390
F
  0
LAYER
  5
212
100
AcDbSymbolTableRecord
100
AcDbLayerTableRecord
  2
SHELL2
 70
0
 62
7
  6
CONTINUOUS
370
-3
390
F
  0
LAYER
  5
213
100
AcDbSymbolTableRecord
100
AcDbLayerTableRecord
  2
SHELL3
 70
0
 62
7
  6
CONTINUOUS
370
-3
390
F
  0
LAYER
  5
214
100
AcDbSymbolTableRecord
100
AcDbLayerTableRecord
  2
SHELL980
 70
0
 62
7
  6
CONTINUOUS
370
-3
390
F
  0
LAYER
  5
215
100
AcDbSymbolTableRecord
100
AcDbLayerTableRecord
  2
_BLACK_HOLE
 70
0
 62
7
  6
CONTINUOUS
370
-3
390
F
  0
LAYER
  5
216
100
AcDbSymbolTableRecord
100
AcDbLayerTableRecord
  2
black
 70
0
 62
7
  6
CONTINUOUS
370
-3
390
F
  0
ENDTAB
  0
TABLE
  2
STYLE
  5
3
100
AcDbSymbolTable
 70
1
  0
STYLE
  5
11
100
AcDbSymbolTableRecord
100
AcDbTextStyleTableRecord
  2
STANDARD
 70
0
 40
0.0
 41
1.0
 50
0.0
 71
0
 42
0.2
  3
ARIAL.TTF
  4

  0
STYLE
  5
217
100
AcDbSymbolTableRecord
100
AcDbTextStyleTableRecord
  2
TEXTSTYLE_1
 70
0
 40
0.0
 41
0.8
 50
0.0
 71
0
 42
0.2
  3
gdt
  4

  0
ENDTAB
  0
TABLE
  2
VIEW
  5
6
100
AcDbSymbolTable
 70
0
  0
ENDTAB
  0
TABLE
  2
UCS
  5
7
100
AcDbSymbolTable
 70
0
  0
ENDTAB
  0
TABLE
  2
APPID
  5
9
100
AcDbSymbolTable
 70
1
  0
APPID
  5
218
100
AcDbSymbolTableRecord
100
AcDbRegAppTableRecord
  2
ACAD
 70
0
  0
ENDTAB
  0
TABLE
  2
BLOCK_RECORD
  5
1
100
AcDbSymbolTable
 70
0
  0
BLOCK_RECORD
  5
219
100
AcDbSymbolTableRecord
100
AcDbBlockTableRecord
  2
*Model_Space
  0
BLOCK_RECORD
  5
21A
100
AcDbSymbolTableRecord
100
AcDbBlockTableRecord
  2
*Paper_Space
  0
BLOCK_RECORD
  5
21B
100
AcDbSymbolTableRecord
100
AcDbBlockTableRecord
  2
_FILLED
  0
ENDTAB
  0
TABLE
  2
DIMSTYLE
  5
A
100
AcDbSymbolTable
 70
1
100
AcDbDimStyleTable
 71
0
  0
DIMSTYLE
105
21C
100
AcDbSymbolTableRecord
100
AcDbDimStyleTableRecord
  2
STANDARD
 70
0
  3

  4

 40
1.0
 41
0.9792118705
 42
1.0
 43
0.38
 44
1.0
 45
0.0
 46
0.0
 47
0.01
 48
0.01
140
1.3708966187
141
0.09
142
0.0
143
25.4
144
1.0
145
0.0
146
1.0
147
0.625
 71
1
 72
0
 73
0
 74
0
 75
0
 76
0
 77
1
 78
8
 79
2
170
0
171
1
172
0
173
0
174
0
175
0
176
0
177
0
178
0
270
2
179
2
271
2
272
2
273
2
274
2
275
0
280
0
281
0
282
0
283
1
284
8
285
0
286
0
287
3
288
0
340
11
278
46
341
21B
342
21B
343
21B
344
21B
  0
ENDTAB
  0
ENDSEC
  0
SECTION
  2
BLOCKS
  0
BLOCK
  5
20
100
AcDbEntity
  8
0
100
AcDbBlockBegin
  2
*Model_Space
 70
0
 10
0.0
 20
0.0
 30
0.0
  3
*Model_Space
  1

  0
ENDBLK
  5
21
100
AcDbEntity
  8
0
100
AcDbBlockEnd
  0
BLOCK
  5
1C
100
AcDbEntity
  8
0
100
AcDbBlockBegin
  2
*Paper_Space
 70
0
 10
0.0
 20
0.0
 30
0.0
  3
*Paper_Space
  1

  0
ENDBLK
  5
1D
100
AcDbEntity
  8
0
100
AcDbBlockEnd
  0
BLOCK
  5
21D
100
AcDbEntity
  8
0
100
AcDbBlockBegin
  2
_FILLED
 70
64
 10
0.0
 20
0.0
  3
_FILLED
  1

  0
SOLID
  5
21E
100
AcDbEntity
  8
0
  6
BYBLOCK
 62
0
100
AcDbTrace
 10
0.0
 20
0.0
 11
-1.0
 21
0.25
 12
-1.0
 22
-0.25
 13
-1.0
 23
-0.25
  0
ENDBLK
  5
21F
100
AcDbEntity
  8
0
  6
BYBLOCK
 62
0
100
AcDbBlockEnd
  0
ENDSEC
  0
SECTION
  2
ENTITIES
  0
LINE
  5
220
100
AcDbEntity
  8
00_COMPONENTS_1
100
AcDbLine
 62
7
  6
BYLAYER
 10
27.9806430503
 20
7.7601042553
 11
58.4348519421
 21
7.7601042553
  0
LINE
  5
221
100
AcDbEntity
  8
00_COMPONENTS_1
100
AcDbLine
 62
7
  6
BYLAYER
 10
58.7872945771
 20
11.3161042553
 11
45.8112474962
 21
11.3161042553
  0
LINE
  5
222
100
AcDbEntity
  8
00_COMPONENTS_1
100
AcDbLine
 62
7
  6
BYLAYER
 10
40.6042474962
 20
11.3161042553
 11
27.6282004154
 21
11.3161042553
  0
LINE
  5
223
100
AcDbEntity
  8
00_COMPONENTS_1
100
AcDbLine
 62
7
  6
BYLAYER
 10
26.6977474962
 20
15.7865042553
 11
26.9043157179
 21
15.7865042553
  0
LINE
  5
224
100
AcDbEntity
  8
00_COMPONENTS_1
100
AcDbLine
 62
7
  6
BYLAYER
 10
40.6042474962
 20
15.7865042553
 11
45.8112474962
 21
15.7865042553
  0
LINE
  5
225
100
AcDbEntity
  8
00_COMPONENTS_1
100
AcDbLine
 62
7
  6
BYLAYER
 10
59.5111792745
 20
15.7865042553
 11
59.7177474962
 21
15.7865042553
  0
LINE
  5
226
100
AcDbEntity
  8
00_COMPONENTS_1
100
AcDbLine
 62
7
  6
BYLAYER
 10
26.9043157179
 20
19.1901042553
 11
40.6042474962
 21
19.1901042553
  0
LINE
  5
227
100
AcDbEntity
  8
00_COMPONENTS_1
100
AcDbLine
 62
7
  6
BYLAYER
 10
45.8112474962
 20
19.1901042553
 11
59.5111792745
 21
19.1901042553
  0
LINE
  5
228
100
AcDbEntity
  8
00_COMPONENTS_1
100
AcDbLine
 62
7
  6
BYLAYER
 10
59.7177383659
 20
22.2635042553
 11
26.6977566266
 21
22.2635042553
  0
LINE
  5
229
100
AcDbEntity
  8
00_COMPONENTS_1
100
AcDbLine
 62
7
  6
BYLAYER
 10
27.2077474922
 20
22.5175042553
 11
59.2077475002
 21
22.5175042553
  0
LINE
  5
22A
100
AcDbEntity
  8
00_COMPONENTS_1
100
AcDbLine
 62
7
  6
BYLAYER
 10
27.4617474922
 20
22.2635042553
 11
27.2077474922
 21
22.5175042553
  0
LINE
  5
22B
100
AcDbEntity
  8
00_COMPONENTS_1
100
AcDbLine
 62
7
  6
BYLAYER
 10
59.2077475002
 20
27.9556986534
 11
27.2077474922
 21
27.9556986534
  0
LINE
  5
22C
100
AcDbEntity
  8
00_COMPONENTS_1
100
AcDbLine
 62
7
  6
BYLAYER
 10
26.8140474922
 20
28.6376070563
 11
25.7452474962
 21
29.2546790217
  0
LINE
  5
22D
100
AcDbEntity
  8
00_COMPONENTS_1
100
AcDbLine
 62
7
  6
BYLAYER
 10
14.6581474962
 20
52.8473042553
 11
14.6581474962
 21
81.7017042553
  0
LINE
  5
22E
100
AcDbEntity
  8
00_COMPONENTS_1
100
AcDbLine
 62
7
  6
BYLAYER
 10
26.8140474922
 20
28.6376070563
 11
59.6014475002
 21
28.6376070563
  0
LINE
  5
22F
100
AcDbEntity
  8
00_COMPONENTS_1
100
AcDbLine
 62
7
  6
BYLAYER
 10
19.3571474962
 20
81.7017042553
 11
19.3571474962
 21
52.8473042553
  0
LINE
  5
230
100
AcDbEntity
  8
00_COMPONENTS_1
100
AcDbLine
 62
7
  6
BYLAYER
 10
24.7927474962
 20
35.5477042553
 11
61.6227474962
 21
35.5477042553
  0
LINE
  5
231
100
AcDbEntity
  8
00_COMPONENTS_1
100
AcDbLine
 62
7
  6
BYLAYER
 10
22.9640107417
 20
52.8473042553
 11
22.9640107417
 21
49.5453042553
  0
LINE
  5
232
100
AcDbEntity
  8
00_COMPONENTS_1
100
AcDbLine
 62
7
  6
BYLAYER
 10
24.1577474962
 20
36.8177042553
 11
62.2577474962
 21
36.8177042553
  0
LINE
  5
233
100
AcDbEntity
  8
00_COMPONENTS_1
100
AcDbLine
 62
7
  6
BYLAYER
 10
62.2577474962
 20
38.3417042553
 11
24.1577474962
 21
38.3417042553
  0
LINE
  5
234
100
AcDbEntity
  8
00_COMPONENTS_1
100
AcDbLine
 62
7
  6
BYLAYER
 10
27.9804474962
 20
7.7601042553
 11
26.6977474962
 21
15.7865042553
  0
LINE
  5
235
100
AcDbEntity
  8
00_COMPONENTS_1
100
AcDbLine
 62
7
  6
BYLAYER
 10
23.3639974962
 20
44.6917042553
 11
23.3639974962
 21
46.2792042553
  0
LINE
  5
236
100
AcDbEntity
  8
00_COMPONENTS_1
100
AcDbLine
 62
7
  6
BYLAYER
 10
23.7077474962
 20
49.5453042553
 11
23.7077474962
 21
48.2792042553
  0
LINE
  5
237
100
AcDbEntity
  8
00_COMPONENTS_1
100
AcDbLine
 62
7
  6
BYLAYER
 10
23.7513896599
 20
52.8473042553
 11
23.7513896647
 21
49.5453042553
  0
LINE
  5
238
100
AcDbEntity
  8
00_COMPONENTS_1
100
AcDbLine
 62
7
  6
BYLAYER
 10
24.1577474962
 20
36.8177042553
 11
24.1577474962
 21
38.3417042553
  0
LINE
  5
239
100
AcDbEntity
  8
00_COMPONENTS_1
100
AcDbLine
 62
7
  6
BYLAYER
 10
24.7927474962
 20
35.5477042553
 11
24.7927474962
 21
36.8177042553
  0
LINE
  5
23A
100
AcDbEntity
  8
00_COMPONENTS_1
100
AcDbLine
 62
7
  6
BYLAYER
 10
25.2077474962
 20
48.2792042553
 11
25.2077474962
 21
46.2792042553
  0
LINE
  5
23B
100
AcDbEntity
  8
00_COMPONENTS_1
100
AcDbLine
 62
7
  6
BYLAYER
 10
25.4277474962
 20
49.5453042553
 11
25.4277474962
 21
52.8473042553
  0
LINE
  5
23C
100
AcDbEntity
  8
00_COMPONENTS_1
100
AcDbLine
 62
7
  6
BYLAYER
 10
25.7452474962
 20
29.2546790217
 11
25.7452474962
 21
35.5477042553
  0
LINE
  5
23D
100
AcDbEntity
  8
00_COMPONENTS_1
100
AcDbLine
 62
7
  6
BYLAYER
 10
26.2150842507
 20
52.8473042553
 11
26.2150842507
 21
49.5453042553
  0
LINE
  5
23E
100
AcDbEntity
  8
00_COMPONENTS_1
100
AcDbLine
 62
7
  6
BYLAYER
 10
26.6977474962
 20
15.7865042553
 11
26.6977474962
 21
22.2635042553
  0
LINE
  5
23F
100
AcDbEntity
  8
00_COMPONENTS_1
100
AcDbLine
 62
7
  6
BYLAYER
 10
26.9043157179
 20
19.1901042553
 11
26.9043157179
 21
15.7865042553
  0
LINE
  5
240
100
AcDbEntity
  8
00_COMPONENTS_1
100
AcDbLine
 62
7
  6
BYLAYER
 10
30.925085721
 20
11.3161042553
 11
29.7297241208
 21
19.1901042553
  0
LINE
  5
241
100
AcDbEntity
  8
00_COMPONENTS_1
100
AcDbLine
 62
7
  6
BYLAYER
 10
27.2077474922
 20
22.5175042553
 11
27.2077474922
 21
27.9556986534
  0
LINE
  5
242
100
AcDbEntity
  8
00_COMPONENTS_1
100
AcDbLine
 62
7
  6
BYLAYER
 10
28.2217474962
 20
38.3417042553
 11
28.2217474962
 21
44.6917042553
  0
LINE
  5
243
100
AcDbEntity
  8
00_COMPONENTS_1
100
AcDbLine
 62
7
  6
BYLAYER
 10
29.4663474962
 20
52.8473042553
 11
29.4663474962
 21
51.0439042553
  0
LINE
  5
244
100
AcDbEntity
  8
00_COMPONENTS_1
100
AcDbLine
 62
7
  6
BYLAYER
 10
29.5083439724
 20
11.3161042553
 11
29.5083439724
 21
19.1901042553
  0
LINE
  5
245
100
AcDbEntity
  8
00_COMPONENTS_1
100
AcDbLine
 62
7
  6
BYLAYER
 10
23.3639974962
 20
44.6917042553
 11
63.0514974962
 21
44.6917042553
  0
LINE
  5
246
100
AcDbEntity
  8
00_COMPONENTS_1
100
AcDbLine
 62
7
  6
BYLAYER
 10
63.0514974962
 20
46.2792042553
 11
23.3639974962
 21
46.2792042553
  0
LINE
  5
247
100
AcDbEntity
  8
00_COMPONENTS_1
100
AcDbLine
 62
7
  6
BYLAYER
 10
65.5597474962
 20
47.0053042553
 11
63.7309474962
 21
47.0053042553
  0
LINE
  5
248
100
AcDbEntity
  8
00_COMPONENTS_1
100
AcDbLine
 62
7
  6
BYLAYER
 10
30.9511474962
 20
49.5453042553
 11
30.9511474962
 21
51.8313042553
  0
LINE
  5
249
100
AcDbEntity
  8
00_COMPONENTS_1
100
AcDbLine
 62
7
  6
BYLAYER
 10
23.7080000033
 20
48.2792042553
 11
62.7074949892
 21
48.2792042553
  0
LINE
  5
24A
100
AcDbEntity
  8
00_COMPONENTS_1
100
AcDbLine
 62
7
  6
BYLAYER
 10
22.9640201373
 20
49.5453042553
 11
62.7074949892
 21
49.5453042553
  0
LINE
  5
24B
100
AcDbEntity
  8
00_COMPONENTS_1
100
AcDbLine
 62
7
  6
BYLAYER
 10
38.3819090207
 20
50.8153042553
 11
48.0335859717
 21
50.8153042553
  0
LINE
  5
24C
100
AcDbEntity
  8
00_COMPONENTS_1
100
AcDbLine
 62
7
  6
BYLAYER
 10
35.9687474962
 20
52.8473042553
 11
35.9687474962
 21
51.8313042553
  0
LINE
  5
24D
100
AcDbEntity
  8
00_COMPONENTS_1
100
AcDbLine
 62
7
  6
BYLAYER
 10
35.9745431633
 20
35.5477042553
 11
35.9745431633
 21
30.0853554611
  0
LINE
  5
24E
100
AcDbEntity
  8
00_COMPONENTS_1
100
AcDbLine
 62
7
  6
BYLAYER
 10
36.6037474962
 20
49.5453042553
 11
36.6037474962
 21
52.8473042553
  0
LINE
  5
24F
100
AcDbEntity
  8
00_COMPONENTS_1
100
AcDbLine
 62
7
  6
BYLAYER
 10
37.6692230664
 20
52.8473042553
 11
37.6692230664
 21
51.3233042553
  0
LINE
  5
250
100
AcDbEntity
  8
00_COMPONENTS_1
100
AcDbLine
 62
7
  6
BYLAYER
 10
38.1785474937
 20
51.3233042553
 11
38.1785474937
 21
49.5453042553
  0
LINE
  5
251
100
AcDbEntity
  8
00_COMPONENTS_1
100
AcDbLine
 62
7
  6
BYLAYER
 10
38.3817474962
 20
51.3233042553
 11
38.3817474962
 21
50.8153042553
  0
LINE
  5
252
100
AcDbEntity
  8
00_COMPONENTS
100
AcDbLine
 62
7
  6
BYLAYER
 10
60.6836423186
 20
103.2055948691
 11
60.574339693
 21
102.9932461094
  0
LINE
  5
253
100
AcDbEntity
  8
00_COMPONENTS_1
100
AcDbLine
 62
7
  6
BYLAYER
 10
26.2150842507
 20
51.0439042553
 11
29.4663474962
 21
51.0439042553
  0
LINE
  5
254
100
AcDbEntity
  8
00_COMPONENTS_1
100
AcDbLine
 62
7
  6
BYLAYER
 10
56.9491474962
 20
51.0439042553
 11
63.4513590339
 21
51.0439042553
  0
LINE
  5
255
100
AcDbEntity
  8
00_COMPONENTS_1
100
AcDbLine
 62
7
  6
BYLAYER
 10
42.2226989492
 20
51.3233042553
 11
37.6692230664
 21
51.3233042553
  0
LINE
  5
256
100
AcDbEntity
  8
00_COMPONENTS_1
100
AcDbLine
 62
7
  6
BYLAYER
 10
56.9491474962
 20
51.8313042553
 11
50.4467474962
 21
51.8313042553
  0
LINE
  5
257
100
AcDbEntity
  8
00_COMPONENTS_1
100
AcDbLine
 62
7
  6
BYLAYER
 10
35.9687474962
 20
51.8313042553
 11
29.4663474962
 21
51.8313042553
  0
LINE
  5
258
100
AcDbEntity
  8
00_COMPONENTS_1
100
AcDbLine
 62
7
  6
BYLAYER
 10
14.6581474962
 20
52.8473042553
 11
65.5597474962
 21
52.8473042553
  0
LINE
  5
259
100
AcDbEntity
  8
00_COMPONENTS_1
100
AcDbLine
 62
7
  6
BYLAYER
 10
65.5597474962
 20
54.3713042553
 11
54.7901474962
 21
54.3713042553
  0
LINE
  5
25A
100
AcDbEntity
  8
00_COMPONENTS_1
100
AcDbLine
 62
7
  6
BYLAYER
 10
68.7347474962
 20
54.3967042579
 11
57.3301474962
 21
54.3967042579
  0
LINE
  5
25B
100
AcDbEntity
  8
00_COMPONENTS
100
AcDbLine
 62
7
  6
BYLAYER
 10
39.9057474962
 20
81.7017042553
 11
39.9057474962
 21
106.3397042553
  0
LINE
  5
25C
100
AcDbEntity
  8
00_COMPONENTS_1
100
AcDbLine
 62
7
  6
BYLAYER
 10
40.6042474962
 20
11.3161042553
 11
40.6042474962
 21
19.1901042553
  0
LINE
  5
25D
100
AcDbEntity
  8
00_COMPONENTS
100
AcDbLine
 62
7
  6
BYLAYER
 10
60.6836423186
 20
94.3510623337
 11
60.574339693
 21
94.138713574
  0
LINE
  5
25E
100
AcDbEntity
  8
00_COMPONENTS_1
100
AcDbLine
 62
7
  6
BYLAYER
 10
57.3301474962
 20
57.4447042579
 11
68.7347474962
 21
57.4447042579
  0
LINE
  5
25F
100
AcDbEntity
  8
00_COMPONENTS_1
100
AcDbLine
 62
7
  6
BYLAYER
 10
42.2226989492
 20
51.3233042553
 11
42.2226989492
 21
52.8473042553
  0
LINE
  5
260
100
AcDbEntity
  8
00_COMPONENTS_1
100
AcDbLine
 62
7
  6
BYLAYER
 10
43.2077474962
 20
50.8153042553
 11
43.2077474962
 21
49.5453042553
  0
LINE
  5
261
100
AcDbEntity
  8
00_COMPONENTS_1
100
AcDbLine
 62
7
  6
BYLAYER
 10
45.8112474962
 20
19.1901042553
 11
45.8112474962
 21
11.3161042553
  0
LINE
  5
262
100
AcDbEntity
  8
00_COMPONENTS
100
AcDbLine
 62
7
  6
BYLAYER
 10
60.7360056509
 20
103.545901812
 11
60.6321474962
 21
103.2833428778
  0
LINE
  5
263
100
AcDbEntity
  8
00_COMPONENTS
100
AcDbLine
 62
7
  6
BYLAYER
 10
60.7360056509
 20
94.6913692767
 11
60.6321474962
 21
94.4288103424
  0
LINE
  5
264
100
AcDbEntity
  8
00_COMPONENTS
100
AcDbLine
 62
7
  6
BYLAYER
 10
65.3633251322
 20
101.2658595469
 11
66.0997001005
 21
102.6964593174
  0
LINE
  5
265
100
AcDbEntity
  8
00_COMPONENTS_1
100
AcDbLine
 62
7
  6
BYLAYER
 10
48.0337474962
 20
52.8473042553
 11
48.0337474962
 21
50.8153042553
  0
LINE
  5
266
100
AcDbEntity
  8
00_COMPONENTS_1
100
AcDbLine
 62
7
  6
BYLAYER
 10
48.2877474962
 20
49.5453042553
 11
48.2877474962
 21
52.8473042553
  0
LINE
  5
267
100
AcDbEntity
  8
00_COMPONENTS
100
AcDbLine
 62
7
  6
BYLAYER
 10
65.3633251321
 20
92.4113270115
 11
66.0997001005
 21
93.841926782
  0
LINE
  5
268
100
AcDbEntity
  8
00_COMPONENTS_1
100
AcDbLine
 62
7
  6
BYLAYER
 10
68.7347474962
 20
62.9057042557
 11
57.3301474962
 21
62.9057042557
  0
LINE
  5
269
100
AcDbEntity
  8
00_COMPONENTS_1
100
AcDbLine
 62
7
  6
BYLAYER
 10
57.3301474962
 20
63.7204676516
 11
68.7347474962
 21
63.7204676516
  0
LINE
  5
26A
100
AcDbEntity
  8
00_COMPONENTS_1
100
AcDbLine
 62
7
  6
BYLAYER
 10
57.3301474962
 20
65.1702310476
 11
68.7347474962
 21
65.1702310476
  0
LINE
  5
26B
100
AcDbEntity
  8
00_COMPONENTS_1
100
AcDbLine
 62
7
  6
BYLAYER
 10
68.7347474962
 20
65.6055121995
 11
57.3301474962
 21
65.6055121995
  0
LINE
  5
26C
100
AcDbEntity
  8
00_COMPONENTS_1
100
AcDbLine
 62
7
  6
BYLAYER
 10
50.4409518292
 20
35.5477042553
 11
50.4409518292
 21
30.0853554611
  0
LINE
  5
26D
100
AcDbEntity
  8
00_COMPONENTS_1
100
AcDbLine
 62
7
  6
BYLAYER
 10
50.4467474962
 20
52.8473042553
 11
50.4467474962
 21
51.8313042553
  0
LINE
  5
26E
100
AcDbEntity
  8
00_COMPONENTS
100
AcDbLine
 62
7
  6
BYLAYER
 10
53.1391474962
 20
81.7017042553
 11
53.1391474962
 21
106.3397042553
  0
LINE
  5
26F
100
AcDbEntity
  8
00_COMPONENTS
100
AcDbLine
 62
7
  6
BYLAYER
 10
53.1645474962
 20
81.7017042553
 11
53.1645474962
 21
106.3397042553
  0
LINE
  5
270
100
AcDbEntity
  8
00_COMPONENTS_1
100
AcDbLine
 62
7
  6
BYLAYER
 10
57.3301474962
 20
67.3403644623
 11
61.2537198725
 21
67.3403644623
  0
LINE
  5
271
100
AcDbEntity
  8
00_COMPONENTS_1
100
AcDbLine
 62
7
  6
BYLAYER
 10
63.05857512
 20
67.3403644623
 11
68.7347474962
 21
67.3403644623
  0
LINE
  5
272
100
AcDbEntity
  8
00_COMPONENTS_1
100
AcDbLine
 62
7
  6
BYLAYER
 10
68.7347474962
 20
68.2167474066
 11
65.0964168579
 21
68.2167474066
  0
LINE
  5
273
100
AcDbEntity
  8
00_COMPONENTS_1
100
AcDbLine
 62
7
  6
BYLAYER
 10
59.2158781345
 20
68.2167474066
 11
57.3301474962
 21
68.2167474066
  0
LINE
  5
274
100
AcDbEntity
  8
00_COMPONENTS_1
100
AcDbLine
 62
7
  6
BYLAYER
 10
57.3301474962
 20
69.8042474066
 11
59.4757685104
 21
69.8042474066
  0
LINE
  5
275
100
AcDbEntity
  8
00_COMPONENTS_1
100
AcDbLine
 62
7
  6
BYLAYER
 10
64.836526482
 20
69.8042474066
 11
68.7347474962
 21
69.8042474066
  0
LINE
  5
276
100
AcDbEntity
  8
00_COMPONENTS_1
100
AcDbLine
 62
7
  6
BYLAYER
 10
54.7901474962
 20
54.3713042553
 11
54.7901474962
 21
81.7017042553
  0
LINE
  5
277
100
AcDbEntity
  8
00_COMPONENTS
100
AcDbLine
 62
7
  6
BYLAYER
 10
55.7045474962
 20
106.3397042553
 11
55.7045474962
 21
91.3552528055
  0
LINE
  5
278
100
AcDbEntity
  8
00_COMPONENTS
100
AcDbLine
 62
7
  6
BYLAYER
 10
55.7045474962
 20
89.2506007955
 11
55.7045474962
 21
81.7017042553
  0
LINE
  5
279
100
AcDbEntity
  8
00_COMPONENTS_1
100
AcDbLine
 62
7
  6
BYLAYER
 10
56.9071510201
 20
19.1901042553
 11
56.9071510201
 21
11.3161042553
  0
LINE
  5
27A
100
AcDbEntity
  8
00_COMPONENTS_1
100
AcDbLine
 62
7
  6
BYLAYER
 10
56.9491474962
 20
51.0439042553
 11
56.9491474962
 21
52.8473042553
  0
LINE
  5
27B
100
AcDbEntity
  8
00_COMPONENTS_1
100
AcDbLine
 62
7
  6
BYLAYER
 10
57.0761474962
 20
81.7017042553
 11
57.0761474962
 21
54.3713042553
  0
LINE
  5
27C
100
AcDbEntity
  8
00_COMPONENTS_1
100
AcDbLine
 62
7
  6
BYLAYER
 10
57.3301474962
 20
54.3967042579
 11
57.3301474962
 21
70.9395069322
  0
LINE
  5
27D
100
AcDbEntity
  8
00_COMPONENTS_1
100
AcDbLine
 62
7
  6
BYLAYER
 10
68.7347474962
 20
70.7693644621
 11
57.3301474962
 21
70.7693644621
  0
LINE
  5
27E
100
AcDbEntity
  8
00_COMPONENTS_1
100
AcDbLine
 62
7
  6
BYLAYER
 10
57.3301474962
 20
70.9395121993
 11
68.7347474962
 21
70.9395121993
  0
LINE
  5
27F
100
AcDbEntity
  8
00_COMPONENTS_1
100
AcDbLine
 62
7
  6
BYLAYER
 10
58.1937474962
 20
44.6917042553
 11
58.1937474962
 21
38.3417042553
  0
LINE
  5
280
100
AcDbEntity
  8
00_COMPONENTS_1
100
AcDbLine
 62
7
  6
BYLAYER
 10
58.6763474962
 20
54.3713042553
 11
58.6763474962
 21
54.3967042579
  0
LINE
  5
281
100
AcDbEntity
  8
00_COMPONENTS_1
100
AcDbLine
 62
7
  6
BYLAYER
 10
58.6763474962
 20
70.9395121993
 11
58.6763474962
 21
81.7017042553
  0
LINE
  5
282
100
AcDbEntity
  8
00_COMPONENTS_1
100
AcDbLine
 62
7
  6
BYLAYER
 10
59.2077475002
 20
27.9556986534
 11
59.2077475002
 21
22.5175042553
  0
LINE
  5
283
100
AcDbEntity
  8
00_COMPONENTS_1
100
AcDbLine
 62
7
  6
BYLAYER
 10
59.4757685104
 20
68.0445644366
 11
59.4757685104
 21
69.8042474066
  0
LINE
  5
284
100
AcDbEntity
  8
00_COMPONENTS_1
100
AcDbLine
 62
7
  6
BYLAYER
 10
59.5111792745
 20
15.7865042553
 11
59.5111792745
 21
19.1901042553
  0
LINE
  5
285
100
AcDbEntity
  8
00_COMPONENTS_1
100
AcDbLine
 62
7
  6
BYLAYER
 10
59.7177474962
 20
15.7865042553
 11
59.7177474962
 21
22.2635042553
  0
LINE
  5
286
100
AcDbEntity
  8
00_COMPONENTS
100
AcDbLine
 62
7
  6
BYLAYER
 10
60.6321474962
 20
91.0014268005
 11
60.6321474962
 21
93.5369333231
  0
LINE
  5
287
100
AcDbEntity
  8
00_COMPONENTS
100
AcDbLine
 62
7
  6
BYLAYER
 10
60.6321474962
 20
94.4288103424
 11
60.6321474962
 21
97.7905004281
  0
LINE
  5
288
100
AcDbEntity
  8
00_COMPONENTS
100
AcDbLine
 62
7
  6
BYLAYER
 10
60.6321474962
 20
100.2690511175
 11
60.6321474962
 21
102.3914658584
  0
LINE
  5
289
100
AcDbEntity
  8
00_COMPONENTS
100
AcDbLine
 62
7
  6
BYLAYER
 10
60.6321474962
 20
103.2833428778
 11
60.6321474962
 21
106.3397042553
  0
LINE
  5
28A
100
AcDbEntity
  8
00_COMPONENTS_1
100
AcDbLine
 62
7
  6
BYLAYER
 10
60.6702474962
 20
35.5477042553
 11
60.6702474962
 21
29.2546790217
  0
LINE
  5
28B
100
AcDbEntity
  8
00_COMPONENTS_1
100
AcDbLine
 62
7
  6
BYLAYER
 10
61.2077474962
 20
48.2792042553
 11
61.2077474962
 21
46.2792042553
  0
LINE
  5
28C
100
AcDbEntity
  8
00_COMPONENTS_1
100
AcDbLine
 62
7
  6
BYLAYER
 10
61.6227474962
 20
36.8177042553
 11
61.6227474962
 21
35.5477042553
  0
LINE
  5
28D
100
AcDbEntity
  8
00_COMPONENTS_1
100
AcDbLine
 62
7
  6
BYLAYER
 10
62.2577474962
 20
38.3417042553
 11
62.2577474962
 21
36.8177042553
  0
LINE
  5
28E
100
AcDbEntity
  8
00_COMPONENTS_1
100
AcDbLine
 62
7
  6
BYLAYER
 10
62.7077474962
 20
49.5453042553
 11
62.7077474962
 21
48.2792042553
  0
LINE
  5
28F
100
AcDbEntity
  8
00_COMPONENTS_1
100
AcDbLine
 62
7
  6
BYLAYER
 10
63.0197474962
 20
52.8473042553
 11
63.0197474962
 21
54.3713042553
  0
LINE
  5
290
100
AcDbEntity
  8
00_COMPONENTS_1
100
AcDbLine
 62
7
  6
BYLAYER
 10
63.0514974962
 20
46.2792042553
 11
63.0514974962
 21
44.6917042553
  0
LINE
  5
291
100
AcDbEntity
  8
00_COMPONENTS
100
AcDbLine
 62
7
  6
BYLAYER
 10
63.4261474962
 20
106.3397042553
 11
63.4261474962
 21
108.1431042553
  0
LINE
  5
292
100
AcDbEntity
  8
00_COMPONENTS_1
100
AcDbLine
 62
7
  6
BYLAYER
 10
63.4515474962
 20
52.8473042553
 11
63.4515474962
 21
51.0439042553
  0
LINE
  5
293
100
AcDbEntity
  8
00_COMPONENTS_1
100
AcDbLine
 62
7
  6
BYLAYER
 10
63.7309474962
 20
52.8473042553
 11
63.7309474962
 21
47.0053042553
  0
LINE
  5
294
100
AcDbEntity
  8
00_COMPONENTS_1
100
AcDbLine
 62
7
  6
BYLAYER
 10
63.9595474962
 20
54.3713042553
 11
63.9595474962
 21
54.3967042579
  0
LINE
  5
295
100
AcDbEntity
  8
00_COMPONENTS_1
100
AcDbLine
 62
7
  6
BYLAYER
 10
63.9595474962
 20
70.9395121993
 11
63.9595474962
 21
81.7017042553
  0
LINE
  5
296
100
AcDbEntity
  8
00_COMPONENTS_1
100
AcDbLine
 62
7
  6
BYLAYER
 10
64.836526482
 20
69.8042474066
 11
64.836526482
 21
68.0445644366
  0
LINE
  5
297
100
AcDbEntity
  8
00_COMPONENTS_1
100
AcDbLine
 62
7
  6
BYLAYER
 10
55.4904092715
 20
11.3161042553
 11
56.6857708717
 21
19.1901042553
  0
LINE
  5
298
100
AcDbEntity
  8
00_COMPONENTS_1
100
AcDbLine
 62
7
  6
BYLAYER
 10
65.5597474962
 20
54.3713042553
 11
65.5597474962
 21
47.0053042553
  0
LINE
  5
299
100
AcDbEntity
  8
00_COMPONENTS
100
AcDbLine
 62
7
  6
BYLAYER
 10
66.8805474962
 20
106.3397042553
 11
66.8805474962
 21
108.1431042553
  0
LINE
  5
29A
100
AcDbEntity
  8
00_COMPONENTS
100
AcDbLine
 62
7
  6
BYLAYER
 10
67.1345474962
 20
101.2658595469
 11
67.1345474962
 21
99.8976927419
  0
LINE
  5
29B
100
AcDbEntity
  8
00_COMPONENTS
100
AcDbLine
 62
7
  6
BYLAYER
 10
67.1345474962
 20
92.4113270115
 11
67.1345474962
 21
91.0431602065
  0
LINE
  5
29C
100
AcDbEntity
  8
00_COMPONENTS
100
AcDbLine
 62
7
  6
BYLAYER
 10
68.4045474962
 20
81.8275249997
 11
68.4045474962
 21
106.3397042553
  0
LINE
  5
29D
100
AcDbEntity
  8
00_COMPONENTS_1
100
AcDbLine
 62
7
  6
BYLAYER
 10
68.7347474962
 20
54.3967042579
 11
68.7347474962
 21
70.9395069489
  0
LINE
  5
29E
100
AcDbEntity
  8
00_COMPONENTS_1
100
AcDbLine
 62
7
  6
BYLAYER
 10
58.4350474962
 20
7.7601042553
 11
59.7177474962
 21
15.7865042553
  0
LINE
  5
29F
100
AcDbEntity
  8
00_COMPONENTS
100
AcDbLine
 62
7
  6
BYLAYER
 10
55.7045474962
 20
81.7017042553
 11
55.4445350441
 21
81.7017042553
  0
LINE
  5
2A0
100
AcDbEntity
  8
00_COMPONENTS_1
100
AcDbLine
 62
7
  6
BYLAYER
 10
63.959343788
 20
81.7017042553
 11
14.6581474962
 21
81.7017042553
  0
LINE
  5
2A1
100
AcDbEntity
  8
00_COMPONENTS
100
AcDbLine
 62
7
  6
BYLAYER
 10
53.1391474962
 20
81.7271042553
 11
53.1645474962
 21
81.7271042553
  0
LINE
  5
2A2
100
AcDbEntity
  8
00_COMPONENTS
100
AcDbLine
 62
7
  6
BYLAYER
 10
55.7045474962
 20
81.8275249997
 11
68.4045474962
 21
81.8275249997
  0
LINE
  5
2A3
100
AcDbEntity
  8
00_COMPONENTS_1
100
AcDbLine
 62
7
  6
BYLAYER
 10
60.6702474962
 20
29.2546790217
 11
59.6014475002
 21
28.6376070563
  0
LINE
  5
2A4
100
AcDbEntity
  8
00_COMPONENTS
100
AcDbLine
 62
7
  6
BYLAYER
 10
55.7045474962
 20
89.2506007955
 11
53.1645474962
 21
89.2506007955
  0
LINE
  5
2A5
100
AcDbEntity
  8
00_COMPONENTS
100
AcDbLine
 62
7
  6
BYLAYER
 10
53.1645474962
 20
89.6044268005
 11
63.3461830967
 21
89.6044268005
  0
LINE
  5
2A6
100
AcDbEntity
  8
00_COMPONENTS
100
AcDbLine
 62
7
  6
BYLAYER
 10
53.1645474962
 20
91.0014268005
 11
60.6321474962
 21
91.0014268005
  0
LINE
  5
2A7
100
AcDbEntity
  8
00_COMPONENTS
100
AcDbLine
 62
7
  6
BYLAYER
 10
53.1645474962
 20
91.3552528055
 11
55.7045474962
 21
91.3552528055
  0
LINE
  5
2A8
100
AcDbEntity
  8
00_COMPONENTS
100
AcDbLine
 62
7
  6
BYLAYER
 10
65.3633251321
 20
92.4113270115
 11
67.1345474962
 21
92.4113270115
  0
LINE
  5
2A9
100
AcDbEntity
  8
00_COMPONENTS_1
100
AcDbLine
 62
7
  6
BYLAYER
 10
59.2077475002
 20
22.5175042553
 11
58.9537475002
 21
22.2635042553
  0
LINE
  5
2AA
100
AcDbEntity
  8
00_COMPONENTS
100
AcDbLine
 62
7
  6
BYLAYER
 10
68.4045474962
 20
88.3025766949
 11
63.3461830967
 21
89.6044268005
  0
LINE
  5
2AB
100
AcDbEntity
  8
00_COMPONENTS
100
AcDbLine
 62
7
  6
BYLAYER
 10
68.4045474962
 20
90.7163056141
 11
66.0997001005
 21
91.3094945559
  0
LINE
  5
2AC
100
AcDbEntity
  8
00_COMPONENTS
100
AcDbLine
 62
7
  6
BYLAYER
 10
63.3461830967
 20
89.6044268005
 11
60.6321474962
 21
91.0014268005
  0
LINE
  5
2AD
100
AcDbEntity
  8
00_COMPONENTS
100
AcDbLine
 62
7
  6
BYLAYER
 10
55.7045474962
 20
97.7905004281
 11
60.6321474962
 21
97.7905004281
  0
LINE
  5
2AE
100
AcDbEntity
  8
00_COMPONENTS
100
AcDbLine
 62
7
  6
BYLAYER
 10
55.7045474962
 20
100.2690511175
 11
60.6321474962
 21
100.2690511175
  0
LINE
  5
2AF
100
AcDbEntity
  8
00_COMPONENTS
100
AcDbLine
 62
7
  6
BYLAYER
 10
66.0997001005
 20
93.841926782
 11
68.4045474962
 21
93.2487378402
  0
LINE
  5
2B0
100
AcDbEntity
  8
00_COMPONENTS
100
AcDbLine
 62
7
  6
BYLAYER
 10
65.3633251321
 20
101.2658595469
 11
67.1345474962
 21
101.2658595469
  0
LINE
  5
2B1
100
AcDbEntity
  8
00_COMPONENTS
100
AcDbLine
 62
7
  6
BYLAYER
 10
68.4045474962
 20
95.7901503225
 11
60.6321474962
 21
97.7905004281
  0
LINE
  5
2B2
100
AcDbEntity
  8
00_COMPONENTS
100
AcDbLine
 62
7
  6
BYLAYER
 10
68.4045474962
 20
98.2687010119
 11
60.6321474962
 21
100.2690511175
  0
LINE
  5
2B3
100
AcDbEntity
  8
00_COMPONENTS
100
AcDbLine
 62
7
  6
BYLAYER
 10
53.1645474962
 20
106.3143042553
 11
53.1391474962
 21
106.3143042553
  0
LINE
  5
2B4
100
AcDbEntity
  8
00_COMPONENTS
100
AcDbLine
 62
7
  6
BYLAYER
 10
39.9057474962
 20
106.3397042553
 11
68.4045474962
 21
106.3397042553
  0
LINE
  5
2B5
100
AcDbEntity
  8
00_COMPONENTS
100
AcDbLine
 62
7
  6
BYLAYER
 10
68.4045474962
 20
99.5708381494
 11
66.0997001005
 21
100.1640270913
  0
LINE
  5
2B6
100
AcDbEntity
  8
00_COMPONENTS
100
AcDbLine
 62
7
  6
BYLAYER
 10
66.0997001005
 20
102.6964593174
 11
68.4045474962
 21
102.1032703756
  0
LINE
  5
2B7
100
AcDbEntity
  8
00_COMPONENTS
100
AcDbLine
 62
7
  6
BYLAYER
 10
66.8805474962
 20
108.1431042553
 11
63.4261474962
 21
108.1431042553
  0
ARC
  5
2B8
100
AcDbEntity
  8
00_COMPONENTS_1
100
AcDbCircle
 62
7
  6
BYLAYER
 10
26.4203474922
 20
27.9556986534
 40
0.7874
100
AcDbArc
 50
0.0
 51
60.0
  0
ARC
  5
2B9
100
AcDbEntity
  8
00_COMPONENTS_1
100
AcDbCircle
 62
7
  6
BYLAYER
 10
59.9951475002
 20
27.9556986534
 40
0.7874
100
AcDbArc
 50
120.0
 51
180.0
  0
SPLINE
  5
2BA
100
AcDbEntity
  8
00_COMPONENTS
100
AcDbSpline
 62
7
  6
BYLAYER
 70
0
 71
3
 72
14
 73
10
 74
0
 42
0.0000001
 43
0.0000001
 44
0.0000000001
 40
0.0
 40
0.0
 40
0.0
 40
0.0
 40
0.2805815934
 40
0.4161582185
 40
0.5462378553
 40
0.6696948191
 40
0.78608161
 40
0.8957563072
 40
1.0
 40
1.0
 40
1.0
 40
1.0
 10
62.9435474962
 20
101.2568792908
 30
0.0
 10
63.2298030655
 20
101.2568792908
 30
0.0
 10
63.6571187268
 20
101.2062848153
 30
0.0
 10
64.1890168998
 20
101.0360946843
 30
0.0
 10
64.5484320188
 20
100.8641808881
 30
0.0
 10
64.8619461904
 20
100.6512929082
 30
0.0
 10
65.120584463
 20
100.4030000645
 30
0.0
 10
65.3163998335
 20
100.1260886396
 30
0.0
 10
65.4023721802
 20
99.9231120312
 30
0.0
 10
65.4319414241
 20
99.8209535753
 30
0.0
  0
SPLINE
  5
2BB
100
AcDbEntity
  8
00_COMPONENTS
100
AcDbSpline
 62
7
  6
BYLAYER
 70
0
 71
3
 72
9
 73
5
 74
0
 42
0.0000001
 43
0.0000001
 44
0.0000000001
 40
0.0
 40
0.0
 40
0.0
 40
0.0
 40
0.24161918
 40
1.0
 40
1.0
 40
1.0
 40
1.0
 10
61.5355617319
 20
100.9556796375
 30
0.0
 10
61.640954912
 20
101.005308735
 30
0.0
 10
62.0897285101
 20
101.183477869
 30
0.0
 10
62.5779037286
 20
101.2568792908
 30
0.0
 10
62.9435474962
 20
101.2568792908
 30
0.0
  0
SPLINE
  5
2BC
100
AcDbEntity
  8
00_COMPONENTS
100
AcDbSpline
 62
7
  6
BYLAYER
 70
0
 71
3
 72
14
 73
10
 74
0
 42
0.0000001
 43
0.0000001
 44
0.0000000001
 40
0.0
 40
0.0
 40
0.0
 40
0.0
 40
0.2805815934
 40
0.4161582185
 40
0.5462378553
 40
0.6696948191
 40
0.78608161
 40
0.8957563072
 40
1.0
 40
1.0
 40
1.0
 40
1.0
 10
62.9435474962
 20
92.4023467554
 30
0.0
 10
63.2298030655
 20
92.4023467554
 30
0.0
 10
63.6571187268
 20
92.3517522799
 30
0.0
 10
64.1890168998
 20
92.1815621489
 30
0.0
 10
64.5484320188
 20
92.0096483527
 30
0.0
 10
64.8619461904
 20
91.7967603728
 30
0.0
 10
65.1205844629
 20
91.5484675291
 30
0.0
 10
65.3163998335
 20
91.2715561042
 30
0.0
 10
65.4023721802
 20
91.0685794958
 30
0.0
 10
65.4319414241
 20
90.9664210399
 30
0.0
  0
SPLINE
  5
2BD
100
AcDbEntity
  8
00_COMPONENTS
100
AcDbSpline
 62
7
  6
BYLAYER
 70
0
 71
3
 72
9
 73
5
 74
0
 42
0.0000001
 43
0.0000001
 44
0.0000000001
 40
0.0
 40
0.0
 40
0.0
 40
0.0
 40
0.24161918
 40
1.0
 40
1.0
 40
1.0
 40
1.0
 10
61.5355617319
 20
92.1011471021
 30
0.0
 10
61.640954912
 20
92.1507761996
 30
0.0
 10
62.0897285101
 20
92.3289453336
 30
0.0
 10
62.5779037286
 20
92.4023467554
 30
0.0
 10
62.9435474962
 20
92.4023467554
 30
0.0
  0
SPLINE
  5
2BE
100
AcDbEntity
  8
00_COMPONENTS
100
AcDbSpline
 62
7
  6
BYLAYER
 70
0
 71
3
 72
13
 73
9
 74
0
 42
0.0000001
 43
0.0000001
 44
0.0000000001
 40
0.0
 40
0.0
 40
0.0
 40
0.0
 40
0.2826505823
 40
0.5450026185
 40
0.6674178343
 40
0.7837247994
 40
0.8943579211
 40
1.0
 40
1.0
 40
1.0
 40
1.0
 10
63.5927444007
 20
99.8034431171
 30
0.0
 10
63.8322738819
 20
99.7417964156
 30
0.0
 10
64.3051854686
 20
99.6611215571
 30
0.0
 10
64.8937950358
 20
99.6748082881
 30
0.0
 10
65.3245886927
 20
99.7616921926
 30
0.0
 10
65.6150003978
 20
99.8601991285
 30
0.0
 10
65.8754974772
 20
99.9922080573
 30
0.0
 10
66.0297400333
 20
100.1036014826
 30
0.0
 10
66.0997001005
 20
100.1640270913
 30
0.0
  0
SPLINE
  5
2BF
100
AcDbEntity
  8
00_COMPONENTS
100
AcDbSpline
 62
7
  6
BYLAYER
 70
0
 71
3
 72
13
 73
9
 74
0
 42
0.0000001
 43
0.0000001
 44
0.0000000001
 40
0.0
 40
0.0
 40
0.0
 40
0.0
 40
0.2196670475
 40
0.3409552445
 40
0.4682876182
 40
0.5999787813
 40
0.7340116522
 40
1.0
 40
1.0
 40
1.0
 40
1.0
 10
60.6321474962
 20
102.3914658584
 30
0.0
 10
60.7046459018
 20
102.1002666958
 30
0.0
 10
60.911778805
 20
101.6700428746
 30
0.0
 10
61.305001257
 20
101.1647295294
 30
0.0
 10
61.6761643367
 20
100.7987929532
 30
0.0
 10
62.1025425822
 20
100.4703148358
 30
0.0
 10
62.7259616273
 20
100.0955919985
 30
0.0
 10
63.2408439574
 20
99.8940102635
 30
0.0
 10
63.5927444007
 20
99.8034431171
 30
0.0
  0
SPLINE
  5
2C0
100
AcDbEntity
  8
00_COMPONENTS
100
AcDbSpline
 62
7
  6
BYLAYER
 70
0
 71
3
 72
13
 73
9
 74
0
 42
0.0000001
 43
0.0000001
 44
0.0000000001
 40
0.0
 40
0.0
 40
0.0
 40
0.0
 40
0.2826505823
 40
0.5450026185
 40
0.6674178343
 40
0.7837247994
 40
0.8943579211
 40
1.0
 40
1.0
 40
1.0
 40
1.0
 10
63.5927444007
 20
90.9489105817
 30
0.0
 10
63.8322738819
 20
90.8872638802
 30
0.0
 10
64.3051854686
 20
90.8065890217
 30
0.0
 10
64.8937950358
 20
90.8202757528
 30
0.0
 10
65.3245886927
 20
90.9071596573
 30
0.0
 10
65.6150003978
 20
91.0056665931
 30
0.0
 10
65.8754974772
 20
91.1376755219
 30
0.0
 10
66.0297400333
 20
91.2490689473
 30
0.0
 10
66.0997001005
 20
91.3094945559
 30
0.0
  0
SPLINE
  5
2C1
100
AcDbEntity
  8
00_COMPONENTS
100
AcDbSpline
 62
7
  6
BYLAYER
 70
0
 71
3
 72
13
 73
9
 74
0
 42
0.0000001
 43
0.0000001
 44
0.0000000001
 40
0.0
 40
0.0
 40
0.0
 40
0.0
 40
0.2196670475
 40
0.3409552445
 40
0.4682876182
 40
0.5999787813
 40
0.7340116522
 40
1.0
 40
1.0
 40
1.0
 40
1.0
 10
60.6321474962
 20
93.5369333231
 30
0.0
 10
60.7046459018
 20
93.2457341604
 30
0.0
 10
60.911778805
 20
92.8155103392
 30
0.0
 10
61.305001257
 20
92.310196994
 30
0.0
 10
61.6761643367
 20
91.9442604178
 30
0.0
 10
62.1025425822
 20
91.6157823005
 30
0.0
 10
62.7259616273
 20
91.2410594632
 30
0.0
 10
63.2408439574
 20
91.0394777281
 30
0.0
 10
63.5927444007
 20
90.9489105817
 30
0.0
  0
SPLINE
  5
2C2
100
AcDbEntity
  8
00_COMPONENTS
100
AcDbSpline
 62
7
  6
BYLAYER
 70
0
 71
3
 72
14
 73
10
 74
0
 42
0.0000001
 43
0.0000001
 44
0.0000000001
 40
0.0
 40
0.0
 40
0.0
 40
0.0
 40
0.2918771273
 40
0.4278593018
 40
0.5558925859
 40
0.6758946094
 40
0.788645981
 40
0.8958219613
 40
1.0
 40
1.0
 40
1.0
 40
1.0
 10
63.5927444007
 20
95.492920179
 30
0.0
 10
63.292226788
 20
95.570263141
 30
0.0
 10
62.8367302692
 20
95.6383768067
 30
0.0
 10
62.2449169492
 20
95.6109894419
 30
0.0
 10
61.8423323536
 20
95.5338293335
 30
0.0
 10
61.4805148019
 20
95.4008389018
 30
0.0
 10
61.1681726308
 20
95.2143205105
 30
0.0
 10
60.9135932577
 20
94.9781901779
 30
0.0
 10
60.786592456
 20
94.7898994752
 30
0.0
 10
60.7359150709
 20
94.6914158949
 30
0.0
  0
SPLINE
  5
2C3
100
AcDbEntity
  8
00_COMPONENTS
100
AcDbSpline
 62
7
  6
BYLAYER
 70
0
 71
3
 72
11
 73
7
 74
0
 42
0.0000001
 43
0.0000001
 44
0.0000000001
 40
0.0
 40
0.0
 40
0.0
 40
0.0
 40
0.2380504118
 40
0.489313856
 40
0.7461184123
 40
1.0
 40
1.0
 40
1.0
 40
1.0
 10
66.0997001005
 20
93.841926782
 30
0.0
 10
65.9573392158
 20
94.0381637656
 30
0.0
 10
65.6217614966
 20
94.4113676251
 30
0.0
 10
65.0200697993
 20
94.8808936854
 30
0.0
 10
64.3363351444
 20
95.2546395787
 30
0.0
 10
63.8431441007
 20
95.4284758547
 30
0.0
 10
63.5927444007
 20
95.492920179
 30
0.0
  0
SPLINE
  5
2C4
100
AcDbEntity
  8
00_COMPONENTS
100
AcDbSpline
 62
7
  6
BYLAYER
 70
0
 71
3
 72
14
 73
10
 74
0
 42
0.0000001
 43
0.0000001
 44
0.0000000001
 40
0.0
 40
0.0
 40
0.0
 40
0.0
 40
0.2918771273
 40
0.4278593018
 40
0.5558925859
 40
0.6758946094
 40
0.788645981
 40
0.8958219613
 40
1.0
 40
1.0
 40
1.0
 40
1.0
 10
63.5927444007
 20
104.3474527144
 30
0.0
 10
63.292226788
 20
104.4247956764
 30
0.0
 10
62.8367302692
 20
104.4929093421
 30
0.0
 10
62.2449169492
 20
104.4655219773
 30
0.0
 10
61.8423323536
 20
104.3883618689
 30
0.0
 10
61.4805148019
 20
104.2553714371
 30
0.0
 10
61.1681726308
 20
104.0688530458
 30
0.0
 10
60.9135932577
 20
103.8327227132
 30
0.0
 10
60.786592456
 20
103.6444320106
 30
0.0
 10
60.7359150709
 20
103.5459484303
 30
0.0
  0
SPLINE
  5
2C5
100
AcDbEntity
  8
00_COMPONENTS
100
AcDbSpline
 62
7
  6
BYLAYER
 70
0
 71
3
 72
11
 73
7
 74
0
 42
0.0000001
 43
0.0000001
 44
0.0000000001
 40
0.0
 40
0.0
 40
0.0
 40
0.0
 40
0.2380504118
 40
0.489313856
 40
0.7461184123
 40
1.0
 40
1.0
 40
1.0
 40
1.0
 10
66.0997001005
 20
102.6964593174
 30
0.0
 10
65.9573392158
 20
102.892696301
 30
0.0
 10
65.6217614966
 20
103.2659001605
 30
0.0
 10
65.0200697993
 20
103.7354262208
 30
0.0
 10
64.3363351444
 20
104.1091721141
 30
0.0
 10
63.8431441007
 20
104.28300839
 30
0.0
 10
63.5927444007
 20
104.3474527144
 30
0.0
  0
SPLINE
  5
2C6
100
AcDbEntity
  8
00_COMPONENTS_1
100
AcDbSpline
 62
7
  6
BYLAYER
 70
0
 71
3
 72
8
 73
4
 74
0
 42
0.0000001
 43
0.0000001
 44
0.0000000001
 40
0.0
 40
0.0
 40
0.0
 40
0.0
 40
1.0
 40
1.0
 40
1.0
 40
1.0
 10
26.9043157179
 20
15.7865042553
 30
0.0
 10
27.1454749372
 20
14.2963489579
 30
0.0
 10
27.3867635386
 20
12.8062145915
 30
0.0
 10
27.6282004154
 20
11.3161042553
 30
0.0
  0
SPLINE
  5
2C7
100
AcDbEntity
  8
00_COMPONENTS_1
100
AcDbSpline
 62
7
  6
BYLAYER
 70
0
 71
3
 72
8
 73
4
 74
0
 42
0.0000001
 43
0.0000001
 44
0.0000000001
 40
0.0
 40
0.0
 40
0.0
 40
0.0
 40
1.0
 40
1.0
 40
1.0
 40
1.0
 10
58.7872945771
 20
11.3161042553
 30
0.0
 10
59.0287314538
 20
12.8062145915
 30
0.0
 10
59.2700200552
 20
14.2963489579
 30
0.0
 10
59.5111792745
 20
15.7865042553
 30
0.0
  0
SPLINE
  5
2C8
100
AcDbEntity
  8
00_COMPONENTS_1
100
AcDbSpline
 62
7
  6
BYLAYER
 70
0
 71
3
 72
13
 73
9
 74
0
 42
0.0000001
 43
0.0000001
 44
0.0000000001
 40
0.0
 40
0.0
 40
0.0
 40
0.0
 40
0.2514377003
 40
0.3759344879
 40
0.5
 40
0.6240655121
 40
0.7485622997
 40
1.0
 40
1.0
 40
1.0
 40
1.0
 10
25.7452474962
 20
30.0853554611
 30
0.0
 10
26.5770865162
 20
29.8254392787
 30
0.0
 10
27.8471301102
 20
29.5102443702
 30
0.0
 10
29.5679166364
 20
29.2916490481
 30
0.0
 10
30.8598953298
 20
29.2362448331
 30
0.0
 10
32.1518740231
 20
29.2916490481
 30
0.0
 10
33.8726605494
 20
29.5102443702
 30
0.0
 10
35.1427041434
 20
29.8254392787
 30
0.0
 10
35.9745431633
 20
30.0853554611
 30
0.0
  0
SPLINE
  5
2C9
100
AcDbEntity
  8
00_COMPONENTS_1
100
AcDbSpline
 62
7
  6
BYLAYER
 70
0
 71
3
 72
13
 73
9
 74
0
 42
0.0000001
 43
0.0000001
 44
0.0000000001
 40
0.0
 40
0.0
 40
0.0
 40
0.0
 40
0.2499631522
 40
0.3749814625
 40
0.5
 40
0.6250185375
 40
0.7500368478
 40
1.0
 40
1.0
 40
1.0
 40
1.0
 10
35.9745431633
 20
30.0853554611
 30
0.0
 10
37.161293795
 20
29.8231519488
 30
0.0
 10
38.9613688599
 20
29.5087406629
 30
0.0
 10
41.3838451798
 20
29.2914898073
 30
0.0
 10
43.2077474962
 20
29.2362923747
 30
0.0
 10
45.0316498127
 20
29.2914898073
 30
0.0
 10
47.4541261325
 20
29.5087406629
 30
0.0
 10
49.2542011975
 20
29.8231519488
 30
0.0
 10
50.4409518292
 20
30.0853554611
 30
0.0
  0
SPLINE
  5
2CA
100
AcDbEntity
  8
00_COMPONENTS_1
100
AcDbSpline
 62
7
  6
BYLAYER
 70
0
 71
3
 72
13
 73
9
 74
0
 42
0.0000001
 43
0.0000001
 44
0.0000000001
 40
0.0
 40
0.0
 40
0.0
 40
0.0
 40
0.2514377003
 40
0.3759344879
 40
0.5
 40
0.6240655121
 40
0.7485622997
 40
1.0
 40
1.0
 40
1.0
 40
1.0
 10
50.4409518292
 20
30.0853554611
 30
0.0
 10
51.2727908491
 20
29.8254392787
 30
0.0
 10
52.5428344431
 20
29.5102443702
 30
0.0
 10
54.2636209693
 20
29.2916490481
 30
0.0
 10
55.5555996627
 20
29.2362448331
 30
0.0
 10
56.8475783561
 20
29.2916490481
 30
0.0
 10
58.5683648823
 20
29.5102443702
 30
0.0
 10
59.8384084763
 20
29.8254392787
 30
0.0
 10
60.6702474962
 20
30.0853554611
 30
0.0
  0
SPLINE
  5
2CB
100
AcDbEntity
  8
00_COMPONENTS_1
100
AcDbSpline
 62
7
  6
BYLAYER
 70
0
 71
3
 72
9
 73
5
 74
0
 42
0.0000001
 43
0.0000001
 44
0.0000000001
 40
0.0
 40
0.0
 40
0.0
 40
0.0
 40
0.2468220982
 40
1.0
 40
1.0
 40
1.0
 40
1.0
 10
63.0585751214
 20
67.3403644625
 30
0.0
 10
62.9848459831
 20
67.329668261
 30
0.0
 10
62.685561188
 20
67.2906472059
 30
0.0
 10
62.3834872881
 20
67.2706030159
 30
0.0
 10
62.1561474962
 20
67.2706030159
 30
0.0
  0
SPLINE
  5
2CC
100
AcDbEntity
  8
00_COMPONENTS_1
100
AcDbSpline
 62
7
  6
BYLAYER
 70
0
 71
3
 72
9
 73
5
 74
0
 42
0.0000001
 43
0.0000001
 44
0.0000000001
 40
0.0
 40
0.0
 40
0.0
 40
0.0
 40
0.2523130281
 40
1.0
 40
1.0
 40
1.0
 40
1.0
 10
62.1561474962
 20
67.2706030159
 30
0.0
 10
62.0799834559
 20
67.2706030159
 30
0.0
 10
61.7781235566
 20
67.2774327608
 30
0.0
 10
61.477080869
 20
67.3079605269
 30
0.0
 10
61.2537198711
 20
67.3403644625
 30
0.0
  0
SPLINE
  5
2CD
100
AcDbEntity
  8
00_COMPONENTS_1
100
AcDbSpline
 62
7
  6
BYLAYER
 70
0
 71
3
 72
11
 73
7
 74
0
 42
0.0000001
 43
0.0000001
 44
0.0000000001
 40
0.0
 40
0.0
 40
0.0
 40
0.0
 40
0.2897042487
 40
0.5568703207
 40
0.7946958813
 40
1.0
 40
1.0
 40
1.0
 40
1.0
 10
63.05857512
 20
67.3403644623
 30
0.0
 10
63.2740441607
 20
67.3716234779
 30
0.0
 10
63.6854281962
 20
67.454394148
 30
0.0
 10
64.2532217841
 20
67.6457858046
 30
0.0
 10
64.7292620093
 20
67.8922429615
 30
0.0
 10
64.9917447811
 20
68.1033871441
 30
0.0
 10
65.0964168579
 20
68.2167474066
 30
0.0
  0
SPLINE
  5
2CE
100
AcDbEntity
  8
00_COMPONENTS_1
100
AcDbSpline
 62
7
  6
BYLAYER
 70
0
 71
3
 72
11
 73
7
 74
0
 42
0.0000001
 43
0.0000001
 44
0.0000000001
 40
0.0
 40
0.0
 40
0.0
 40
0.0
 40
0.2053041187
 40
0.4431296793
 40
0.7102957513
 40
1.0
 40
1.0
 40
1.0
 40
1.0
 10
59.2158781345
 20
68.2167474066
 30
0.0
 10
59.3205502114
 20
68.1033871441
 30
0.0
 10
59.5830329832
 20
67.8922429615
 30
0.0
 10
60.0590732084
 20
67.6457858046
 30
0.0
 10
60.6268667963
 20
67.454394148
 30
0.0
 10
61.0382508318
 20
67.3716234779
 30
0.0
 10
61.2537198725
 20
67.3403644623
 30
0.0
  0
SPLINE
  5
2CF
100
AcDbEntity
  8
00_COMPONENTS_1
100
AcDbSpline
 62
7
  6
BYLAYER
 70
0
 71
3
 72
12
 73
8
 74
0
 42
0.0000001
 43
0.0000001
 44
0.0000000001
 40
0.0
 40
0.0
 40
0.0
 40
0.0
 40
0.2783505186
 40
0.544473749
 40
0.7875607277
 40
0.897994421
 40
1.0
 40
1.0
 40
1.0
 40
1.0
 10
62.1561474962
 20
70.5147275317
 30
0.0
 10
61.8951362625
 20
70.5147275317
 30
0.0
 10
61.3839482528
 20
70.4841378238
 30
0.0
 10
60.6562088439
 20
70.3480992888
 30
0.0
 10
60.1030993688
 20
70.1608319071
 30
0.0
 10
59.7208634257
 20
69.9688804939
 30
0.0
 10
59.5527539712
 20
69.8610137611
 30
0.0
 10
59.4757685104
 20
69.8042474066
 30
0.0
  0
SPLINE
  5
2D0
100
AcDbEntity
  8
00_COMPONENTS_1
100
AcDbSpline
 62
7
  6
BYLAYER
 70
0
 71
3
 72
12
 73
8
 74
0
 42
0.0000001
 43
0.0000001
 44
0.0000000001
 40
0.0
 40
0.0
 40
0.0
 40
0.0
 40
0.102005579
 40
0.2124392723
 40
0.455526251
 40
0.7216494814
 40
1.0
 40
1.0
 40
1.0
 40
1.0
 10
64.836526482
 20
69.8042474066
 30
0.0
 10
64.7595410212
 20
69.8610137611
 30
0.0
 10
64.5914315668
 20
69.9688804939
 30
0.0
 10
64.2091956237
 20
70.1608319071
 30
0.0
 10
63.6560861486
 20
70.3480992888
 30
0.0
 10
62.9283467397
 20
70.4841378238
 30
0.0
 10
62.41715873
 20
70.5147275317
 30
0.0
 10
62.1561474962
 20
70.5147275317
 30
0.0
  0
ELLIPSE
  5
2D1
100
AcDbEntity
  8
00_COMPONENTS
100
AcDbEllipse
 62
7
  6
BYLAYER
 10
63.9849474962
 20
102.8374043681
 30
0.0
 11
3.4193096007
 21
0.0
 31
0.0
 40
0.6644630244
 41
2.9440347355
 42
3.3391505717
  0
ELLIPSE
  5
2D2
100
AcDbEntity
  8
00_COMPONENTS
100
AcDbEllipse
 62
7
  6
BYLAYER
 10
63.5227052987
 20
101.939378756
 30
0.0
 11
3.4193096007
 21
-0.0
 31
0.0
 40
0.6644630244
 41
2.5504474514
 42
2.6099721559
  0
ELLIPSE
  5
2D3
100
AcDbEntity
  8
00_COMPONENTS
100
AcDbEllipse
 62
7
  6
BYLAYER
 10
62.5242621521
 20
99.9996434338
 30
0.0
 11
3.4193096007
 21
-0.0
 31
0.0
 40
0.6644630244
 41
0.5911452022
 42
2.1032571002
  0
ELLIPSE
  5
2D4
100
AcDbEntity
  8
00_COMPONENTS
100
AcDbEllipse
 62
7
  6
BYLAYER
 10
63.9849474962
 20
93.9828718327
 30
0.0
 11
3.4193096007
 21
-0.0
 31
0.0
 40
0.6644630244
 41
2.9440347355
 42
3.3391505717
  0
ELLIPSE
  5
2D5
100
AcDbEntity
  8
00_COMPONENTS
100
AcDbEllipse
 62
7
  6
BYLAYER
 10
63.5227052987
 20
93.0848462206
 30
0.0
 11
3.4193096007
 21
-0.0
 31
0.0
 40
0.6644630244
 41
2.5504474514
 42
2.6099721559
  0
ELLIPSE
  5
2D6
100
AcDbEntity
  8
00_COMPONENTS
100
AcDbEllipse
 62
7
  6
BYLAYER
 10
62.5242621521
 20
91.1451108985
 30
0.0
 11
3.4193096007
 21
0.0
 31
0.0
 40
0.6644630244
 41
0.5911452022
 42
2.1032571002
  0
ENDSEC
  0
SECTION
  2
OBJECTS
  0
DICTIONARY
  5
C
100
AcDbDictionary
280
0
281
1
  3
ACAD_GROUP
350
D
  3
ACAD_MLINESTYLE
350
17
  3
ACAD_LAYOUT
350
1A
  3
ACAD_PLOTSETTINGS
350
19
  3
ACAD_PLOTSTYLENAME
350
E
  0
DICTIONARY
  5
D
102
{ACAD_REACTORS
330
C
102
}
100
AcDbDictionary
280
0
281
1
  0
ACDBDICTIONARYWDFLT
  5
E
102
{ACAD_REACTORS
330
C
102
}
100
AcDbDictionary
281
1
  3
Normal
350
F
100
AcDbDictionaryWithDefault
340
F
  0
DICTIONARY
  5
17
102
{ACAD_REACTORS
330
C
102
}
100
AcDbDictionary
280
0
281
1
  3
Standard
350
18
  0
DICTIONARY
  5
19
102
{ACAD_REACTORS
330
C
102
}
100
AcDbDictionary
281
1
  0
DICTIONARY
  5
1A
102
{ACAD_REACTORS
330
C
102
}
100
AcDbDictionary
281
1
  3
Model
350
2D7
  3
Layout1
350
2D8
  0
ACDBPLACEHOLDER
  5
F
102
{ACAD_REACTORS
330
E
102
}
  0
MLINESTYLE
  5
18
102
{ACAD_REACTORS
330
17
102
}
100
AcDbMlineStyle
  2
STANDARD
 70
0
  3

 62
256
 51
90.0
 52
90.0
 71
2
 49
0.5
 62
256
  6
BYLAYER
 49
-0.5
 62
256
  6
BYLAYER
  0
LAYOUT
  5
2D7
102
{ACAD_REACTORS
330
1A
102
}
100
AcDbPlotSettings
  1

  2
none_device
  4

  6

 40
0.0
 41
0.0
 42
0.0
 43
0.0
 44
210.0
 45
297.0
 46
0.0
 47
0.0
 48
0.0
 49
0.0
140
0.0
141
0.0
142
1.0
143
1.0
 70
1024
 72
1
 73
0
 74
0
  7

 75
0
147
1.0
148
0.0
149
0.0
100
AcDbLayout
  1
Model
 70
0
 71
0
 10
0.0
 20
0.0
 11
210.0
 21
297.0
 12
0.0
 22
0.0
 32
0.0
 14
0.0
 24
0.0
 34
0.0
 15
0.0
 25
0.0
 35
0.0
146
0.0
 13
0.0
 23
0.0
 33
0.0
 16
1.0
 26
0.0
 36
0.0
 17
0.0
 27
1.0
 37
0.0
 76
0
330
219
345
0
346
0
  0
LAYOUT
  5
2D8
102
{ACAD_REACTORS
330
1A
102
}
100
AcDbPlotSettings
  1

  2
none_device
  4

  6

 40
0.0
 41
0.0
 42
0.0
 43
0.0
 44
210.0
 45
297.0
 46
0.0
 47
0.0
 48
0.0
 49
0.0
140
0.0
141
0.0
142
1.0
143
1.0
 70
0
 72
1
 73
0
 74
0
  7

 75
0
147
1.0
148
0.0
149
0.0
100
AcDbLayout
  1
Layout1
 70
0
 71
1
 10
0.0
 20
0.0
 11
210.0
 21
297.0
 12
0.0
 22
0.0
 32
0.0
 14
0.0
 24
0.0
 34
0.0
 15
0.0
 25
0.0
 35
0.0
146
0.0
 13
0.0
 23
0.0
 33
0.0
 16
1.0
 26
0.0
 36
0.0
 17
0.0
 27
1.0
 37
0.0
 76
0
330
21A
345
0
346
0
  0
ENDSEC
  0
EOF
