999
DXF file: C:\Gen2D\CAD\METSECTSP5A2040U_3D-CAD\drw0001_2.dxf
999
Pro/ENGINEER 2019471 by Parametric Technology Corporation
  0
SECTION
  2
HEADER
  9
$ACADVER
  1
AC1024
  9
$DWGCODEPAGE
  3
ANSI_1252
  9
$EXTMAX
 10
131.5945159658
 20
186.1122440087
 30
0.0
  9
$EXTMIN
 10
0.0
 20
0.0
 30
0.0
  9
$LIMMIN
 10
0.0
 20
0.0
  9
$LIMMAX
 10
131.5945159658
 20
186.1122440087
  9
$VIEWCTR
 10
65.7972579829
 20
93.0561220044
  9
$VIEWSIZE
 40
186.1122440087
  9
$CLAYER
  8
0
  9
$LTSCALE
 40
12.1317610909
  9
$CELTYPE
  6
BYLAYER
  9
$DIMSCALE
 40
1.0
  9
$DIMASZ
 40
1.5666013805
  9
$DIMEXO
 40
1.0
  9
$DIMDLI
 40
8.3819440265
  9
$DIMEXE
 40
1.0
  9
$DIMCEN
 40
1.9851972694
  9
$DIMLFAC
 40
1.0
  9
$DIMBLK
  1
_FILLED
  9
$DIMALT
 70
0
  9
$DIMALTF
 40
0.0393700787
  9
$DIMTXT
 40
2.1932419328
  9
$DIMTOL
 70
1
  9
$DIMLIM
 70
0
  9
$DIMTFAC
 40
1.0
  9
$DIMTP
 40
0.01
  9
$DIMTM
 40
0.01
  9
$DIMGAP
 40
0.625
  9
$DIMDSEP
 70
46
  9
$AUNITS
 70
0
  9
$PDMODE
 70
3
  9
$PDSIZE
 40
0.3125
  9
$HANDSEED
  5
251
  9
$TILEMODE
 70
1
  9
$MEASUREMENT
 70
1
  9
$INSUNITS
 70
4
  0
ENDSEC
  0
SECTION
  2
CLASSES
  0
CLASS
  1
ACDBDICTIONARYWDFLT
  2
AcDbDictionaryWithDefault
  3
AutoCAD 2000
 90
0
 91
1
280
0
281
0
  0
CLASS
  1
ACDBPLACEHOLDER
  2
AcDbPlaceHolder
  3
AutoCAD 2000
 90
0
 91
1
280
0
281
0
  0
CLASS
  1
LAYOUT
  2
AcDbLayout
  3
AutoCAD 2000
 90
0
 91
0
280
0
281
0
  0
ENDSEC
  0
SECTION
  2
TABLES
  0
TABLE
  2
VPORT
  5
8
100
AcDbSymbolTable
 70
2
  0
VPORT
  5
1F4
100
AcDbSymbolTableRecord
100
AcDbViewportTableRecord
  2
*ACTIVE
 70
0
 10
0.0
 20
0.0
 11
1.0
 21
1.0
 12
65.7972579829
 22
93.0561220044
 13
0.0
 23
0.0
 14
1.0
 24
1.0
 15
0.0
 25
0.0
 16
0.0
 26
0.0
 36
1.0
 17
0.0
 27
0.0
 37
0.0
 40
186.1122440087
 41
0.7070707071
 42
50.0
 43
0.0
 44
0.0
 50
0.0
 51
0.0
 71
0
 72
100
 73
1
 74
1
 75
0
 76
0
 77
0
 78
0
  0
ENDTAB
  0
TABLE
  2
LTYPE
  5
5
100
AcDbSymbolTable
 70
6
  0
LTYPE
  5
14
100
AcDbSymbolTableRecord
100
AcDbLinetypeTableRecord
  2
BYBLOCK
 70
0
  3

 72
65
 73
0
 40
0.0
  0
LTYPE
  5
15
100
AcDbSymbolTableRecord
100
AcDbLinetypeTableRecord
  2
BYLAYER
 70
0
  3

 72
65
 73
0
 40
0.0
  0
LTYPE
  5
16
100
AcDbSymbolTableRecord
100
AcDbLinetypeTableRecord
  2
CONTINUOUS
 70
64
  3
Solid line
 72
65
 73
0
 40
0.0
  0
LTYPE
  5
1F5
100
AcDbSymbolTableRecord
100
AcDbLinetypeTableRecord
  2
CENTER
 70
64
  3
____ _ ____ _ ____ _ ____ _ ____ _ ____ _ ____
 72
65
 73
4
 40
0.6
 49
0.375
 74
0
 49
-0.075
 74
0
 49
0.075
 74
0
 49
-0.075
 74
0
  0
LTYPE
  5
1F6
100
AcDbSymbolTableRecord
100
AcDbLinetypeTableRecord
  2
HIDDEN
 70
64
  3
- - - - - - - - - - - - - - - - - - - -
 72
65
 73
2
 40
0.2
 49
0.1
 74
0
 49
-0.1
 74
0
  0
LTYPE
  5
1F7
100
AcDbSymbolTableRecord
100
AcDbLinetypeTableRecord
  2
PHANTOM
 70
64
  3
_____ _ _ _____ _ _ _____ _ _ _____
 72
65
 73
6
 40
0.8
 49
0.45
 74
0
 49
-0.05
 74
0
 49
0.1
 74
0
 49
-0.05
 74
0
 49
0.1
 74
0
 49
-0.05
 74
0
  0
LTYPE
  5
1F8
100
AcDbSymbolTableRecord
100
AcDbLinetypeTableRecord
  2
DOT
 70
64
  3
. . . . . . . . . . . . . . . . . . . .
 72
65
 73
2
 40
0.2
 49
0.1
 74
0
 49
-0.1
 74
0
  0
LTYPE
  5
1F9
100
AcDbSymbolTableRecord
100
AcDbLinetypeTableRecord
  2
DASHED
 70
64
  3
- - - - - - - - - - - - - - - - - - - -
 72
65
 73
2
 40
0.2
 49
0.1
 74
0
 49
-0.1
 74
0
  0
ENDTAB
  0
TABLE
  2
LAYER
  5
2
100
AcDbSymbolTable
 70
36
  0
LAYER
  5
10
100
AcDbSymbolTableRecord
100
AcDbLayerTableRecord
  2
0
 70
0
 62
7
  6
CONTINUOUS
370
-3
390
F
  0
LAYER
  5
1FA
100
AcDbSymbolTableRecord
100
AcDbLayerTableRecord
  2
DEFAULT_1
 70
0
 62
7
  6
CENTER
370
-3
390
F
  0
LAYER
  5
1FB
100
AcDbSymbolTableRecord
100
AcDbLayerTableRecord
  2
DEFAULT_2
 70
0
 62
8
  6
HIDDEN
370
-3
390
F
  0
LAYER
  5
1FC
100
AcDbSymbolTableRecord
100
AcDbLayerTableRecord
  2
DEFAULT_3
 70
0
 62
7
  6
PHANTOM
370
-3
390
F
  0
LAYER
  5
1FD
100
AcDbSymbolTableRecord
100
AcDbLayerTableRecord
  2
00_COMPONENTS
 70
0
 62
7
  6
CONTINUOUS
370
-3
390
F
  0
LAYER
  5
1FE
100
AcDbSymbolTableRecord
100
AcDbLayerTableRecord
  2
01_1_DEFAULT_DATUMS
 70
0
 62
7
  6
CONTINUOUS
370
-3
390
F
  0
LAYER
  5
1FF
100
AcDbSymbolTableRecord
100
AcDbLayerTableRecord
  2
01_PLANES
 70
0
 62
7
  6
CONTINUOUS
370
-3
390
F
  0
LAYER
  5
200
100
AcDbSymbolTableRecord
100
AcDbLayerTableRecord
  2
02_COORD_SYS
 70
0
 62
7
  6
CONTINUOUS
370
-3
390
F
  0
LAYER
  5
201
100
AcDbSymbolTableRecord
100
AcDbLayerTableRecord
  2
03_AXES
 70
0
 62
7
  6
CONTINUOUS
370
-3
390
F
  0
LAYER
  5
202
100
AcDbSymbolTableRecord
100
AcDbLayerTableRecord
  2
04_POINTS
 70
0
 62
7
  6
CONTINUOUS
370
-3
390
F
  0
LAYER
  5
203
100
AcDbSymbolTableRecord
100
AcDbLayerTableRecord
  2
05_CURVES
 70
0
 62
7
  6
CONTINUOUS
370
-3
390
F
  0
LAYER
  5
204
100
AcDbSymbolTableRecord
100
AcDbLayerTableRecord
  2
06_SURFS
 70
0
 62
7
  6
CONTINUOUS
370
-3
390
F
  0
LAYER
  5
205
100
AcDbSymbolTableRecord
100
AcDbLayerTableRecord
  2
07_COSMETICS
 70
0
 62
7
  6
CONTINUOUS
370
-3
390
F
  0
LAYER
  5
206
100
AcDbSymbolTableRecord
100
AcDbLayerTableRecord
  2
10_NOTES
 70
0
 62
7
  6
CONTINUOUS
370
-3
390
F
  0
LAYER
  5
207
100
AcDbSymbolTableRecord
100
AcDbLayerTableRecord
  2
11_NOTES_PUB
 70
0
 62
7
  6
CONTINUOUS
370
-3
390
F
  0
LAYER
  5
208
100
AcDbSymbolTableRecord
100
AcDbLayerTableRecord
  2
13_REF_GTOL
 70
0
 62
7
  6
CONTINUOUS
370
-3
390
F
  0
LAYER
  5
209
100
AcDbSymbolTableRecord
100
AcDbLayerTableRecord
  2
16_MISC
 70
0
 62
7
  6
CONTINUOUS
370
-3
390
F
  0
LAYER
  5
20A
100
AcDbSymbolTableRecord
100
AcDbLayerTableRecord
  2
17_NO_PRINT
 70
0
 62
7
  6
CONTINUOUS
370
-3
390
F
  0
LAYER
  5
20B
100
AcDbSymbolTableRecord
100
AcDbLayerTableRecord
  2
18_DATUM_CAMS_JOINTS
 70
0
 62
7
  6
CONTINUOUS
370
-3
390
F
  0
LAYER
  5
20C
100
AcDbSymbolTableRecord
100
AcDbLayerTableRecord
  2
19_DATUM_FUNCTIONAL
 70
0
 62
7
  6
CONTINUOUS
370
-3
390
F
  0
LAYER
  5
20D
100
AcDbSymbolTableRecord
100
AcDbLayerTableRecord
  2
20_DATUM_KINEMATIC_SCHEME
 70
0
 62
7
  6
CONTINUOUS
370
-3
390
F
  0
ENDTAB
  0
TABLE
  2
STYLE
  5
3
100
AcDbSymbolTable
 70
1
  0
STYLE
  5
11
100
AcDbSymbolTableRecord
100
AcDbTextStyleTableRecord
  2
STANDARD
 70
0
 40
0.0
 41
0.8
 50
0.0
 71
0
 42
0.2
  3
txt
  4

  0
STYLE
  5
20E
100
AcDbSymbolTableRecord
100
AcDbTextStyleTableRecord
  2
TEXTSTYLE_1
 70
0
 40
0.0
 41
0.8
 50
0.0
 71
0
 42
0.2
  3
gdt
  4

  0
ENDTAB
  0
TABLE
  2
VIEW
  5
6
100
AcDbSymbolTable
 70
0
  0
ENDTAB
  0
TABLE
  2
UCS
  5
7
100
AcDbSymbolTable
 70
0
  0
ENDTAB
  0
TABLE
  2
APPID
  5
9
100
AcDbSymbolTable
 70
1
  0
APPID
  5
20F
100
AcDbSymbolTableRecord
100
AcDbRegAppTableRecord
  2
ACAD
 70
0
  0
ENDTAB
  0
TABLE
  2
BLOCK_RECORD
  5
1
100
AcDbSymbolTable
 70
0
  0
BLOCK_RECORD
  5
210
100
AcDbSymbolTableRecord
100
AcDbBlockTableRecord
  2
*Model_Space
  0
BLOCK_RECORD
  5
211
100
AcDbSymbolTableRecord
100
AcDbBlockTableRecord
  2
*Paper_Space
  0
BLOCK_RECORD
  5
212
100
AcDbSymbolTableRecord
100
AcDbBlockTableRecord
  2
_FILLED
  0
ENDTAB
  0
TABLE
  2
DIMSTYLE
  5
A
100
AcDbSymbolTable
 70
1
100
AcDbDimStyleTable
 71
0
  0
DIMSTYLE
105
213
100
AcDbSymbolTableRecord
100
AcDbDimStyleTableRecord
  2
STANDARD
 70
0
  3

  4

 40
1.0
 41
1.5666013805
 42
1.0
 43
0.38
 44
1.0
 45
0.0
 46
0.0
 47
0.01
 48
0.01
140
2.1932419328
141
0.09
142
0.0
143
25.4
144
1.0
145
0.0
146
1.0
147
0.625
 71
1
 72
0
 73
0
 74
0
 75
0
 76
0
 77
1
 78
8
 79
2
170
0
171
1
172
0
173
0
174
0
175
0
176
0
177
0
178
0
270
2
179
2
271
2
272
2
273
2
274
2
275
0
280
0
281
0
282
0
283
1
284
8
285
0
286
0
287
3
288
0
340
11
278
46
341
212
342
212
343
212
344
212
  0
ENDTAB
  0
ENDSEC
  0
SECTION
  2
BLOCKS
  0
BLOCK
  5
20
100
AcDbEntity
  8
0
100
AcDbBlockBegin
  2
*Model_Space
 70
0
 10
0.0
 20
0.0
 30
0.0
  3
*Model_Space
  1

  0
ENDBLK
  5
21
100
AcDbEntity
  8
0
100
AcDbBlockEnd
  0
BLOCK
  5
1C
100
AcDbEntity
  8
0
100
AcDbBlockBegin
  2
*Paper_Space
 70
0
 10
0.0
 20
0.0
 30
0.0
  3
*Paper_Space
  1

  0
ENDBLK
  5
1D
100
AcDbEntity
  8
0
100
AcDbBlockEnd
  0
BLOCK
  5
214
100
AcDbEntity
  8
0
100
AcDbBlockBegin
  2
_FILLED
 70
64
 10
0.0
 20
0.0
  3
_FILLED
  1

  0
SOLID
  5
215
100
AcDbEntity
  8
0
  6
BYBLOCK
 62
0
100
AcDbTrace
 10
0.0
 20
0.0
 11
-1.0
 21
0.25
 12
-1.0
 22
-0.25
 13
-1.0
 23
-0.25
  0
ENDBLK
  5
216
100
AcDbEntity
  8
0
  6
BYBLOCK
 62
0
100
AcDbBlockEnd
  0
ENDSEC
  0
SECTION
  2
ENTITIES
  0
LINE
  5
217
100
AcDbEntity
  8
0
100
AcDbLine
 62
7
  6
CONTINUOUS
 10
25.9084550193
 20
155.4187312129
 11
31.2884550193
 21
161.4787312129
  0
LINE
  5
218
100
AcDbEntity
  8
0
100
AcDbLine
 62
7
  6
CONTINUOUS
 10
25.44845624
 20
157.1987357905
 11
31.43845624
 21
163.1887357905
  0
LINE
  5
219
100
AcDbEntity
  8
0
100
AcDbLine
 62
7
  6
CONTINUOUS
 10
59.1774591934
 20
22.2904994087
 11
62.2358503812
 21
22.2401095254
  0
LINE
  5
21A
100
AcDbEntity
  8
0
100
AcDbLine
 62
7
  6
CONTINUOUS
 10
73.7881496174
 20
23.3851786011
 11
73.8535101532
 21
23.3988081483
  0
LINE
  5
21B
100
AcDbEntity
  8
0
100
AcDbLine
 62
7
  6
CONTINUOUS
 10
21.2411805969
 20
136.0382671819
 11
18.60845624
 21
130.1587357905
  0
LINE
  5
21C
100
AcDbEntity
  8
0
100
AcDbLine
 62
7
  6
CONTINUOUS
 10
14.42845624
 20
153.2187357905
 11
14.42845624
 21
130.1587357905
  0
LINE
  5
21D
100
AcDbEntity
  8
0
100
AcDbLine
 62
7
  6
CONTINUOUS
 10
14.6584550193
 20
152.7787312129
 11
14.6584550193
 21
140.1387312129
  0
LINE
  5
21E
100
AcDbEntity
  8
0
100
AcDbLine
 62
7
  6
CONTINUOUS
 10
25.44845624
 20
157.1987357905
 11
25.44845624
 21
154.7087357905
  0
LINE
  5
21F
100
AcDbEntity
  8
0
100
AcDbLine
 62
7
  6
CONTINUOUS
 10
25.78845624
 20
154.1987357905
 11
25.78845624
 21
153.2187357905
  0
LINE
  5
220
100
AcDbEntity
  8
0
100
AcDbLine
 62
7
  6
CONTINUOUS
 10
25.9084550193
 20
155.4187312129
 11
25.9084550193
 21
152.7787312129
  0
LINE
  5
221
100
AcDbEntity
  8
0
100
AcDbLine
 62
7
  6
CONTINUOUS
 10
25.9084550193
 20
133.4237312129
 11
25.9084550193
 21
88.2887312129
  0
LINE
  5
222
100
AcDbEntity
  8
0
100
AcDbLine
 62
7
  6
CONTINUOUS
 10
33.4334550193
 20
80.7087312129
 11
25.8534550193
 21
88.2887312129
  0
LINE
  5
223
100
AcDbEntity
  8
0
100
AcDbLine
 62
7
  6
CONTINUOUS
 10
48.4484550193
 20
107.6787312129
 11
48.4484550193
 21
161.4787312129
  0
LINE
  5
224
100
AcDbEntity
  8
0
100
AcDbLine
 62
7
  6
CONTINUOUS
 10
118.7484550193
 20
140.1387312129
 11
107.9684550193
 21
133.4237312129
  0
LINE
  5
225
100
AcDbEntity
  8
0
100
AcDbLine
 62
7
  6
CONTINUOUS
 10
33.4334550193
 20
80.7087312129
 11
99.9734550193
 21
80.7087312129
  0
LWPOLYLINE
  5
226
100
AcDbEntity
  8
0
100
AcDbPolyline
 62
7
  6
CONTINUOUS
 90
9
 70
0
 10
59.2767195409
 20
80.7436229112
 10
59.7283676364
 20
77.2711304287
 10
62.1938901411
 20
71.2456763637
 10
66.086192744
 20
64.2386328623
 10
68.226661685
 20
59.8285411753
 10
71.1439318862
 20
50.6406213973
 10
72.2991078239
 20
40.8588022996
 10
71.6346950408
 20
29.7164732839
 10
70.6300718722
 20
24.1055137718
  0
LINE
  5
227
100
AcDbEntity
  8
0
100
AcDbLine
 62
7
  6
CONTINUOUS
 10
107.96845624
 20
154.7087357905
 11
107.62845624
 21
154.1987357905
  0
LINE
  5
228
100
AcDbEntity
  8
0
100
AcDbLine
 62
7
  6
CONTINUOUS
 10
107.5534550193
 20
88.2887312129
 11
107.4984550193
 21
88.2887312129
  0
LINE
  5
229
100
AcDbEntity
  8
0
100
AcDbLine
 62
7
  6
CONTINUOUS
 10
25.8534550193
 20
88.2887312129
 11
25.9084550193
 21
88.2887312129
  0
LINE
  5
22A
100
AcDbEntity
  8
0
100
AcDbLine
 62
7
  6
CONTINUOUS
 10
25.78845624
 20
154.1987357905
 11
25.44845624
 21
154.7087357905
  0
LINE
  5
22B
100
AcDbEntity
  8
0
100
AcDbLine
 62
7
  6
CONTINUOUS
 10
84.9684550193
 20
161.4787312129
 11
84.9684550193
 21
107.6787312129
  0
LINE
  5
22C
100
AcDbEntity
  8
0
100
AcDbLine
 62
7
  6
CONTINUOUS
 10
84.9684550193
 20
107.6787312129
 11
48.4484550193
 21
107.6787312129
  0
LINE
  5
22D
100
AcDbEntity
  8
0
100
AcDbLine
 62
7
  6
CONTINUOUS
 10
25.4384550193
 20
133.4237312129
 11
14.6584550193
 21
140.1387312129
  0
LWPOLYLINE
  5
22E
100
AcDbEntity
  8
0
100
AcDbPolyline
 62
7
  6
CONTINUOUS
 90
9
 70
0
 10
73.8535184052
 20
23.3988063394
 10
74.9233200807
 20
29.4073622801
 10
75.5870723431
 20
41.3284260586
 10
74.2540926843
 20
51.8604339698
 10
71.0113527747
 20
61.7013338175
 10
69.041249167
 20
65.7114537821
 10
65.3875030191
 20
72.2592357054
 10
62.9907241763
 20
77.8654028006
 10
62.6121535358
 20
80.7087312129
  0
LINE
  5
22F
100
AcDbEntity
  8
0
100
AcDbLine
 62
7
  6
CONTINUOUS
 10
73.792521516
 20
23.4096871313
 11
73.7881496174
 21
23.3851786011
  0
LINE
  5
230
100
AcDbEntity
  8
0
100
AcDbLine
 62
7
  6
CONTINUOUS
 10
73.7934706782
 20
23.4094622216
 11
73.7881496174
 21
23.3851786011
  0
LINE
  5
231
100
AcDbEntity
  8
0
100
AcDbLine
 62
7
  6
CONTINUOUS
 10
107.5534550193
 20
88.2887312129
 11
99.9734550193
 21
80.7087312129
  0
LINE
  5
232
100
AcDbEntity
  8
0
100
AcDbLine
 62
7
  6
CONTINUOUS
 10
107.4984550193
 20
88.2887312129
 11
107.4984550193
 21
133.4237312129
  0
LINE
  5
233
100
AcDbEntity
  8
0
100
AcDbLine
 62
7
  6
CONTINUOUS
 10
107.4984550193
 20
152.7787312129
 11
107.4984550193
 21
155.4187312129
  0
LINE
  5
234
100
AcDbEntity
  8
0
100
AcDbLine
 62
7
  6
CONTINUOUS
 10
107.62845624
 20
153.2187357905
 11
107.62845624
 21
154.1987357905
  0
LINE
  5
235
100
AcDbEntity
  8
0
100
AcDbLine
 62
7
  6
CONTINUOUS
 10
107.96845624
 20
154.7087357905
 11
107.96845624
 21
157.1987357905
  0
LINE
  5
236
100
AcDbEntity
  8
0
100
AcDbLine
 62
7
  6
CONTINUOUS
 10
14.42845624
 20
130.1587357905
 11
18.60845624
 21
130.1587357905
  0
LINE
  5
237
100
AcDbEntity
  8
0
100
AcDbLine
 62
7
  6
CONTINUOUS
 10
114.80845624
 20
130.1587357905
 11
118.98845624
 21
130.1587357905
  0
LINE
  5
238
100
AcDbEntity
  8
0
100
AcDbLine
 62
7
  6
CONTINUOUS
 10
107.9684550193
 20
133.4237312129
 11
107.4984550193
 21
133.4237312129
  0
LINE
  5
239
100
AcDbEntity
  8
0
100
AcDbLine
 62
7
  6
CONTINUOUS
 10
25.4384550193
 20
133.4237312129
 11
25.9084550193
 21
133.4237312129
  0
LINE
  5
23A
100
AcDbEntity
  8
0
100
AcDbLine
 62
7
  6
CONTINUOUS
 10
118.7484550193
 20
140.1387312129
 11
118.7484550193
 21
152.7787312129
  0
LINE
  5
23B
100
AcDbEntity
  8
0
100
AcDbLine
 62
7
  6
CONTINUOUS
 10
118.98845624
 20
130.1587357905
 11
118.98845624
 21
153.2187357905
  0
LINE
  5
23C
100
AcDbEntity
  8
0
100
AcDbLine
 62
7
  6
CONTINUOUS
 10
48.4484550193
 20
143.2187357905
 11
84.9684550193
 21
143.2187357905
  0
LINE
  5
23D
100
AcDbEntity
  8
0
100
AcDbLine
 62
7
  6
CONTINUOUS
 10
114.80845624
 20
130.1587357905
 11
112.1756503612
 21
136.0444470497
  0
LINE
  5
23E
100
AcDbEntity
  8
0
100
AcDbLine
 62
7
  6
CONTINUOUS
 10
118.7484550193
 20
152.7787312129
 11
107.4984550193
 21
152.7787312129
  0
LINE
  5
23F
100
AcDbEntity
  8
0
100
AcDbLine
 62
7
  6
CONTINUOUS
 10
25.9084550193
 20
152.7787312129
 11
14.6584550193
 21
152.7787312129
  0
LINE
  5
240
100
AcDbEntity
  8
0
100
AcDbLine
 62
7
  6
CONTINUOUS
 10
118.98845624
 20
153.2187357905
 11
107.62845624
 21
153.2187357905
  0
LINE
  5
241
100
AcDbEntity
  8
0
100
AcDbLine
 62
7
  6
CONTINUOUS
 10
25.78845624
 20
153.2187357905
 11
14.42845624
 21
153.2187357905
  0
LINE
  5
242
100
AcDbEntity
  8
0
100
AcDbLine
 62
7
  6
CONTINUOUS
 10
102.1284550193
 20
161.4787312129
 11
84.9684550193
 21
161.4787312129
  0
LINE
  5
243
100
AcDbEntity
  8
0
100
AcDbLine
 62
7
  6
CONTINUOUS
 10
48.4484550193
 20
161.4787312129
 11
31.2884550193
 21
161.4787312129
  0
LINE
  5
244
100
AcDbEntity
  8
0
100
AcDbLine
 62
7
  6
CONTINUOUS
 10
101.97845624
 20
163.1887357905
 11
31.43845624
 21
163.1887357905
  0
LINE
  5
245
100
AcDbEntity
  8
0
100
AcDbLine
 62
7
  6
CONTINUOUS
 10
101.97845624
 20
163.1887357905
 11
107.96845624
 21
157.1987357905
  0
LINE
  5
246
100
AcDbEntity
  8
0
100
AcDbLine
 62
7
  6
CONTINUOUS
 10
102.1284550193
 20
161.4787312129
 11
107.4984550193
 21
155.4187312129
  0
CIRCLE
  5
247
100
AcDbEntity
  8
0
100
AcDbCircle
 62
7
  6
CONTINUOUS
 10
114.7084550193
 20
141.6987312129
 40
1.495
  0
CIRCLE
  5
248
100
AcDbEntity
  8
0
100
AcDbCircle
 62
7
  6
CONTINUOUS
 10
18.6984550193
 20
141.6987312129
 40
1.495
  0
SPLINE
  5
249
100
AcDbEntity
  8
0
100
AcDbSpline
 62
7
  6
CONTINUOUS
 70
0
 71
3
 72
26
 73
22
 74
0
 42
0.0000001
 43
0.0000001
 44
0.0000000001
 40
0.0
 40
0.0
 40
0.0
 40
0.0
 40
0.0034634828
 40
0.0064527687
 40
0.0104443779
 40
0.0215198644
 40
0.0367340484
 40
0.0560363325
 40
0.0793489674
 40
0.1367641394
 40
0.2053207153
 40
0.2807040437
 40
0.3582739
 40
0.438867973
 40
0.5254611889
 40
0.6160632653
 40
0.7896830512
 40
0.8637192664
 40
0.9245088093
 40
0.9698576097
 40
1.0
 40
1.0
 40
1.0
 40
1.0
 10
70.6300718723
 20
24.1055137724
 30
0.0
 10
70.6292674624
 20
24.1018453737
 30
0.0
 10
70.6342283211
 20
24.094955221
 30
0.0
 10
70.6427735578
 20
24.0882176008
 30
0.0
 10
70.6594823989
 20
24.0775423699
 30
0.0
 10
70.6889572818
 20
24.0632672464
 30
0.0
 10
70.7346829375
 20
24.0442874527
 30
0.0
 10
70.793553825
 20
24.0227160805
 30
0.0
 10
70.8964123527
 20
23.9882359793
 30
0.0
 10
71.0514496341
 20
23.9416011912
 30
0.0
 10
71.261866012
 20
23.8832939725
 30
0.0
 10
71.4944078824
 20
23.8231269587
 30
0.0
 10
71.7403629146
 20
23.7627910634
 30
0.0
 10
71.99880032
 20
23.7023891247
 30
0.0
 10
72.2716406654
 20
23.6415765045
 30
0.0
 10
72.643808582
 20
23.5628673796
 30
0.0
 10
73.0038735558
 20
23.49265896
 30
0.0
 10
73.3336396044
 20
23.4368137323
 30
0.0
 10
73.526915254
 20
23.408005888
 30
0.0
 10
73.6736842826
 20
23.3909423318
 30
0.0
 10
73.7554653119
 20
23.3851786011
 30
0.0
 10
73.7881496174
 20
23.3851786011
 30
0.0
  0
SPLINE
  5
24A
100
AcDbEntity
  8
0
100
AcDbSpline
 62
7
  6
CONTINUOUS
 70
0
 71
3
 72
31
 73
27
 74
0
 42
0.0000001
 43
0.0000001
 44
0.0000000001
 40
0.0
 40
0.0
 40
0.0
 40
0.0
 40
0.0654736136
 40
0.1302522633
 40
0.1621450537
 40
0.1936605796
 40
0.2248913618
 40
0.2559330063
 40
0.3176404748
 40
0.3789151711
 40
0.4400290458
 40
0.5012088426
 40
0.5623660448
 40
0.6233457821
 40
0.6537438828
 40
0.6840437541
 40
0.7144055624
 40
0.7450052471
 40
0.7759397957
 40
0.8072089013
 40
0.8387931796
 40
0.8707127097
 40
0.9029159003
 40
0.935268731
 40
0.9676550975
 40
1.0
 40
1.0
 40
1.0
 40
1.0
 10
62.2358503812
 20
22.2401095254
 30
0.0
 10
62.2489418895
 20
23.0346927003
 30
0.0
 10
62.2049421298
 20
24.6165293485
 30
0.0
 10
62.0616962539
 20
26.5793178935
 30
0.0
 10
61.9438538963
 20
28.130733832
 30
0.0
 10
61.8663977159
 20
29.27683818
 30
0.0
 10
61.8079312623
 20
30.4137549057
 30
0.0
 10
61.7563350769
 20
31.9177410338
 30
0.0
 10
61.745611132
 20
33.787760341
 30
0.0
 10
61.834440989
 20
36.0213672827
 30
0.0
 10
62.0407614539
 20
38.2410404897
 30
0.0
 10
62.3751885776
 20
40.4437494179
 30
0.0
 10
62.8399840821
 20
42.621044547
 30
0.0
 10
63.3395192237
 20
44.4052571243
 30
0.0
 10
63.8079463251
 20
45.8061149029
 30
0.0
 10
64.1937724895
 20
46.8420850399
 30
0.0
 10
64.6173723945
 20
47.8658093268
 30
0.0
 10
65.0747107436
 20
48.8832705269
 30
0.0
 10
65.5592402081
 20
49.9002095242
 30
0.0
 10
66.064018791
 20
50.9205562333
 30
0.0
 10
66.5817369616
 20
51.947781621
 30
0.0
 10
67.1044360175
 20
52.9851905937
 30
0.0
 10
67.6236562883
 20
54.0347944119
 30
0.0
 10
68.1291544757
 20
55.0973815565
 30
0.0
 10
68.618622562
 20
56.1693283832
 30
0.0
 10
68.9341495755
 20
56.8889051479
 30
0.0
 10
69.0891611657
 20
57.249595216
 30
0.0
  0
SPLINE
  5
24B
100
AcDbEntity
  8
0
100
AcDbSpline
 62
7
  6
CONTINUOUS
 70
0
 71
3
 72
16
 73
12
 74
0
 42
0.0000001
 43
0.0000001
 44
0.0000000001
 40
0.0
 40
0.0
 40
0.0
 40
0.0
 40
0.2493137592
 40
0.3746398099
 40
0.5004242552
 40
0.6263377006
 40
0.7517741903
 40
0.8142685834
 40
0.8765181031
 40
0.9383211499
 40
1.0
 40
1.0
 40
1.0
 40
1.0
 10
70.9373336042
 20
61.9310282917
 30
0.0
 10
71.4795718194
 20
63.430411559
 30
0.0
 10
72.2299357768
 20
65.7086222319
 30
0.0
 10
73.0394234756
 20
68.805824409
 30
0.0
 10
73.5359940469
 20
71.1664933542
 30
0.0
 10
73.8999432998
 20
73.5519417876
 30
0.0
 10
74.1020045121
 20
75.549623996
 30
0.0
 10
74.21162264
 20
77.1459111333
 30
0.0
 10
74.2693151425
 20
78.3376041441
 30
0.0
 10
74.3073638944
 20
79.5248167067
 30
0.0
 10
74.3254963971
 20
80.3143154996
 30
0.0
 10
74.3325460271
 20
80.7087030131
 30
0.0
  0
SPLINE
  5
24C
100
AcDbEntity
  8
0
100
AcDbSpline
 62
7
  6
CONTINUOUS
 70
0
 71
3
 72
32
 73
28
 74
0
 42
0.0000001
 43
0.0000001
 44
0.0000000001
 40
0.0
 40
0.0
 40
0.0
 40
0.0
 40
0.0287081524
 40
0.0582684516
 40
0.1194792586
 40
0.1508881243
 40
0.1825080116
 40
0.2141802399
 40
0.2458389643
 40
0.3092105102
 40
0.3728802048
 40
0.4369598731
 40
0.5012935111
 40
0.5657483955
 40
0.5979927332
 40
0.6302581536
 40
0.6624266904
 40
0.694325479
 40
0.7258905595
 40
0.7571335869
 40
0.7880606134
 40
0.8186319677
 40
0.8489231988
 40
0.8790842821
 40
0.9092517612
 40
0.9394693459
 40
1.0
 40
1.0
 40
1.0
 40
1.0
 10
59.1774591934
 20
22.2904994087
 30
0.0
 10
59.183894557
 20
22.6810908935
 30
0.0
 10
59.1771997577
 20
23.4742309374
 30
0.0
 10
59.1069279096
 20
25.0987134381
 30
0.0
 10
58.9795386015
 20
26.756590767
 30
0.0
 10
58.8544045455
 20
28.4425173737
 30
0.0
 10
58.7772790418
 20
29.7289132007
 30
0.0
 10
58.7232799788
 20
31.0199052104
 30
0.0
 10
58.685572702
 20
32.7436807918
 30
0.0
 10
58.7104900271
 20
34.9039345517
 30
0.0
 10
58.878336573
 20
37.5006062696
 30
0.0
 10
59.2067990729
 20
40.0954240517
 30
0.0
 10
59.702853177
 20
42.674405453
 30
0.0
 10
60.2608820661
 20
44.7954016709
 30
0.0
 10
60.7974098682
 20
46.4665833479
 30
0.0
 10
61.2451792772
 20
47.7039295075
 30
0.0
 10
61.7386132329
 20
48.9186865194
 30
0.0
 10
62.2693712262
 20
50.1070468366
 30
0.0
 10
62.8235957748
 20
51.2705944542
 30
0.0
 10
63.3904363176
 20
52.4132436026
 30
0.0
 10
63.9591068962
 20
53.5398252981
 30
0.0
 10
64.5201139112
 20
54.6557725512
 30
0.0
 10
65.0643113698
 20
55.7684720826
 30
0.0
 10
65.5860891262
 20
56.8858143042
 30
0.0
 10
66.08888162
 20
58.0107200317
 30
0.0
 10
66.7359189321
 20
59.5235647562
 30
0.0
 10
67.1948659021
 20
60.6702274812
 30
0.0
 10
67.4898494709
 20
61.4392609921
 30
0.0
  0
SPLINE
  5
24D
100
AcDbEntity
  8
0
100
AcDbSpline
 62
7
  6
CONTINUOUS
 70
0
 71
3
 72
18
 73
14
 74
0
 42
0.0000001
 43
0.0000001
 44
0.0000000001
 40
0.0
 40
0.0
 40
0.0
 40
0.0
 40
0.1253941074
 40
0.2502131411
 40
0.3744273297
 40
0.4364121431
 40
0.4984153281
 40
0.6228231058
 40
0.7477191927
 40
0.8103514392
 40
0.873194267
 40
0.9365115788
 40
1.0
 40
1.0
 40
1.0
 40
1.0
 10
69.0212822306
 20
65.8088146378
 30
0.0
 10
69.2104995443
 20
66.4122350325
 30
0.0
 10
69.5694579462
 20
67.6222720993
 30
0.0
 10
70.041861701
 20
69.4509826529
 30
0.0
 10
70.3728983118
 20
70.9847321898
 30
0.0
 10
70.5954248444
 20
72.2166380984
 30
0.0
 10
70.7892238166
 20
73.4543760453
 30
0.0
 10
70.9808392442
 20
75.0131285415
 30
0.0
 10
71.1117954536
 20
76.5811960683
 30
0.0
 10
71.1845126749
 20
77.8418261811
 30
0.0
 10
71.224298637
 20
78.7931539419
 30
0.0
 10
71.2527810985
 20
79.74918317
 30
0.0
 10
71.2673152339
 20
80.3885355507
 30
0.0
 10
71.2732243289
 20
80.7086679611
 30
0.0
  0
SPLINE
  5
24E
100
AcDbEntity
  8
0
100
AcDbSpline
 62
7
  6
CONTINUOUS
 70
0
 71
3
 72
28
 73
24
 74
0
 42
0.0000001
 43
0.0000001
 44
0.0000000001
 40
0.0
 40
0.0
 40
0.0
 40
0.0
 40
0.0272663548
 40
0.0548745716
 40
0.1120639306
 40
0.1418250105
 40
0.1723088425
 40
0.2350492302
 40
0.2670862763
 40
0.2994394345
 40
0.3318715014
 40
0.3641674004
 40
0.4284476557
 40
0.4924212326
 40
0.5562007504
 40
0.619906146
 40
0.683575237
 40
0.7471438587
 40
0.8104880298
 40
0.8421012772
 40
0.8736994815
 40
0.9368596119
 40
1.0
 40
1.0
 40
1.0
 40
1.0
 10
62.338045525
 20
80.7024068648
 30
0.0
 10
62.400876613
 20
80.1605065842
 30
0.0
 10
62.5878145639
 20
79.0762359271
 30
0.0
 10
63.1801201166
 20
76.9110384128
 30
0.0
 10
64.0533814541
 20
74.7832697222
 30
0.0
 10
65.0994840858
 20
72.6795916614
 30
0.0
 10
66.2691854317
 20
70.5142044823
 30
0.0
 10
67.5235247788
 20
68.3444420009
 30
0.0
 10
68.7682533243
 20
66.1261784618
 30
0.0
 10
69.6784901902
 20
64.4158468729
 30
0.0
 10
70.5286936504
 20
62.668920149
 30
0.0
 10
71.5723476059
 20
60.3076949781
 30
0.0
 10
72.7110108667
 20
57.3008390045
 30
0.0
 10
73.811453453
 20
53.6164002479
 30
0.0
 10
74.6466601175
 20
49.8747156775
 30
0.0
 10
75.2181142963
 20
46.0900723212
 30
0.0
 10
75.5279760603
 20
42.2793316574
 30
0.0
 10
75.5832858949
 20
38.4643174278
 30
0.0
 10
75.453358201
 20
35.2937307319
 30
0.0
 10
75.2525389925
 20
32.7694257088
 30
0.0
 10
74.989702007
 20
30.2545161922
 30
0.0
 10
74.543937505
 20
27.1256003314
 30
0.0
 10
74.0636686038
 20
24.6435072277
 30
0.0
 10
73.7934706782
 20
23.4094622216
 30
0.0
  0
ENDSEC
  0
SECTION
  2
OBJECTS
  0
DICTIONARY
  5
C
100
AcDbDictionary
280
0
281
1
  3
ACAD_GROUP
350
D
  3
ACAD_MLINESTYLE
350
17
  3
ACAD_LAYOUT
350
1A
  3
ACAD_PLOTSETTINGS
350
19
  3
ACAD_PLOTSTYLENAME
350
E
  0
DICTIONARY
  5
D
102
{ACAD_REACTORS
330
C
102
}
100
AcDbDictionary
280
0
281
1
  0
ACDBDICTIONARYWDFLT
  5
E
102
{ACAD_REACTORS
330
C
102
}
100
AcDbDictionary
281
1
  3
Normal
350
F
100
AcDbDictionaryWithDefault
340
F
  0
DICTIONARY
  5
17
102
{ACAD_REACTORS
330
C
102
}
100
AcDbDictionary
280
0
281
1
  3
Standard
350
18
  0
DICTIONARY
  5
19
102
{ACAD_REACTORS
330
C
102
}
100
AcDbDictionary
281
1
  0
DICTIONARY
  5
1A
102
{ACAD_REACTORS
330
C
102
}
100
AcDbDictionary
281
1
  3
Model
350
24F
  3
Layout1
350
250
  0
ACDBPLACEHOLDER
  5
F
102
{ACAD_REACTORS
330
E
102
}
  0
MLINESTYLE
  5
18
102
{ACAD_REACTORS
330
17
102
}
100
AcDbMlineStyle
  2
STANDARD
 70
0
  3

 62
256
 51
90.0
 52
90.0
 71
2
 49
0.5
 62
256
  6
BYLAYER
 49
-0.5
 62
256
  6
BYLAYER
  0
LAYOUT
  5
24F
102
{ACAD_REACTORS
330
1A
102
}
100
AcDbPlotSettings
  1

  2
none_device
  4

  6

 40
0.0
 41
0.0
 42
0.0
 43
0.0
 44
210.0
 45
297.0
 46
0.0
 47
0.0
 48
0.0
 49
0.0
140
0.0
141
0.0
142
1.0
143
1.0
 70
1024
 72
1
 73
0
 74
0
  7

 75
0
147
1.0
148
0.0
149
0.0
100
AcDbLayout
  1
Model
 70
0
 71
0
 10
0.0
 20
0.0
 11
210.0
 21
297.0
 12
0.0
 22
0.0
 32
0.0
 14
0.0
 24
0.0
 34
0.0
 15
0.0
 25
0.0
 35
0.0
146
0.0
 13
0.0
 23
0.0
 33
0.0
 16
1.0
 26
0.0
 36
0.0
 17
0.0
 27
1.0
 37
0.0
 76
0
330
210
345
0
346
0
  0
LAYOUT
  5
250
102
{ACAD_REACTORS
330
1A
102
}
100
AcDbPlotSettings
  1

  2
none_device
  4

  6

 40
0.0
 41
0.0
 42
0.0
 43
0.0
 44
210.0
 45
297.0
 46
0.0
 47
0.0
 48
0.0
 49
0.0
140
0.0
141
0.0
142
1.0
143
1.0
 70
0
 72
1
 73
0
 74
0
  7

 75
0
147
1.0
148
0.0
149
0.0
100
AcDbLayout
  1
Layout1
 70
0
 71
1
 10
0.0
 20
0.0
 11
210.0
 21
297.0
 12
0.0
 22
0.0
 32
0.0
 14
0.0
 24
0.0
 34
0.0
 15
0.0
 25
0.0
 35
0.0
146
0.0
 13
0.0
 23
0.0
 33
0.0
 16
1.0
 26
0.0
 36
0.0
 17
0.0
 27
1.0
 37
0.0
 76
0
330
211
345
0
346
0
  0
ENDSEC
  0
EOF
