999
DXF file: C:\Users\sesa63760\Dev\_Creo\CAD\MCADID0005643_3D-CAD\mcadid0005643_3d-simplified_6.dxf
999
Pro/ENGINEER 2019471 by Parametric Technology Corporation
  0
SECTION
  2
HEADER
  9
$ACADVER
  1
AC1024
  9
$DWGCODEPAGE
  3
ANSI_1252
  9
$EXTMAX
 10
93.2551060056
 20
131.8893642079
 30
0.0
  9
$EXTMIN
 10
0.0
 20
0.0
 30
0.0
  9
$LIMMIN
 10
0.0
 20
0.0
  9
$LIMMAX
 10
93.2551060056
 20
131.8893642079
  9
$VIEWCTR
 10
46.6275530028
 20
65.944682104
  9
$VIEWSIZE
 40
131.8893642079
  9
$CLAYER
  8
0
  9
$LTSCALE
 40
8.5972326299
  9
$CELTYPE
  6
BYLAYER
  9
$DIMSCALE
 40
1.0
  9
$DIMASZ
 40
1.1101798334
  9
$DIMEXO
 40
1.0
  9
$DIMDLI
 40
5.9399061806
  9
$DIMEXE
 40
1.0
  9
$DIMCEN
 40
1.4068198849
  9
$DIMLFAC
 40
1.0
  9
$DIMBLK
  1
_FILLED
  9
$DIMALT
 70
0
  9
$DIMALTF
 40
0.0393700787
  9
$DIMTXT
 40
1.5542517668
  9
$DIMTOL
 70
1
  9
$DIMLIM
 70
0
  9
$DIMTFAC
 40
1.0
  9
$DIMTP
 40
0.01
  9
$DIMTM
 40
0.01
  9
$DIMGAP
 40
0.625
  9
$DIMDSEP
 70
46
  9
$AUNITS
 70
0
  9
$PDMODE
 70
3
  9
$PDSIZE
 40
0.3125
  9
$HANDSEED
  5
503
  9
$TILEMODE
 70
1
  9
$MEASUREMENT
 70
1
  9
$INSUNITS
 70
4
  0
ENDSEC
  0
SECTION
  2
CLASSES
  0
CLASS
  1
ACDBDICTIONARYWDFLT
  2
AcDbDictionaryWithDefault
  3
AutoCAD 2000
 90
0
 91
1
280
0
281
0
  0
CLASS
  1
ACDBPLACEHOLDER
  2
AcDbPlaceHolder
  3
AutoCAD 2000
 90
0
 91
1
280
0
281
0
  0
CLASS
  1
LAYOUT
  2
AcDbLayout
  3
AutoCAD 2000
 90
0
 91
0
280
0
281
0
  0
ENDSEC
  0
SECTION
  2
TABLES
  0
TABLE
  2
VPORT
  5
8
100
AcDbSymbolTable
 70
2
  0
VPORT
  5
1F4
100
AcDbSymbolTableRecord
100
AcDbViewportTableRecord
  2
*ACTIVE
 70
0
 10
0.0
 20
0.0
 11
1.0
 21
1.0
 12
46.6275530028
 22
65.944682104
 13
0.0
 23
0.0
 14
1.0
 24
1.0
 15
0.0
 25
0.0
 16
0.0
 26
0.0
 36
1.0
 17
0.0
 27
0.0
 37
0.0
 40
131.8893642079
 41
0.7070707071
 42
50.0
 43
0.0
 44
0.0
 50
0.0
 51
0.0
 71
0
 72
100
 73
1
 74
1
 75
0
 76
0
 77
0
 78
0
  0
ENDTAB
  0
TABLE
  2
LTYPE
  5
5
100
AcDbSymbolTable
 70
6
  0
LTYPE
  5
14
100
AcDbSymbolTableRecord
100
AcDbLinetypeTableRecord
  2
BYBLOCK
 70
0
  3

 72
65
 73
0
 40
0.0
  0
LTYPE
  5
15
100
AcDbSymbolTableRecord
100
AcDbLinetypeTableRecord
  2
BYLAYER
 70
0
  3

 72
65
 73
0
 40
0.0
  0
LTYPE
  5
16
100
AcDbSymbolTableRecord
100
AcDbLinetypeTableRecord
  2
CONTINUOUS
 70
64
  3
Solid line
 72
65
 73
0
 40
0.0
  0
LTYPE
  5
1F5
100
AcDbSymbolTableRecord
100
AcDbLinetypeTableRecord
  2
CENTER
 70
64
  3
____ _ ____ _ ____ _ ____ _ ____ _ ____ _ ____
 72
65
 73
4
 40
0.6
 49
0.375
 74
0
 49
-0.075
 74
0
 49
0.075
 74
0
 49
-0.075
 74
0
  0
LTYPE
  5
1F6
100
AcDbSymbolTableRecord
100
AcDbLinetypeTableRecord
  2
HIDDEN
 70
64
  3
- - - - - - - - - - - - - - - - - - - -
 72
65
 73
2
 40
0.2
 49
0.1
 74
0
 49
-0.1
 74
0
  0
LTYPE
  5
1F7
100
AcDbSymbolTableRecord
100
AcDbLinetypeTableRecord
  2
PHANTOM
 70
64
  3
_____ _ _ _____ _ _ _____ _ _ _____
 72
65
 73
6
 40
0.8
 49
0.45
 74
0
 49
-0.05
 74
0
 49
0.1
 74
0
 49
-0.05
 74
0
 49
0.1
 74
0
 49
-0.05
 74
0
  0
LTYPE
  5
1F8
100
AcDbSymbolTableRecord
100
AcDbLinetypeTableRecord
  2
DOT
 70
64
  3
. . . . . . . . . . . . . . . . . . . .
 72
65
 73
2
 40
0.2
 49
0.1
 74
0
 49
-0.1
 74
0
  0
LTYPE
  5
1F9
100
AcDbSymbolTableRecord
100
AcDbLinetypeTableRecord
  2
DASHED
 70
64
  3
- - - - - - - - - - - - - - - - - - - -
 72
65
 73
2
 40
0.2
 49
0.1
 74
0
 49
-0.1
 74
0
  0
ENDTAB
  0
TABLE
  2
LAYER
  5
2
100
AcDbSymbolTable
 70
36
  0
LAYER
  5
10
100
AcDbSymbolTableRecord
100
AcDbLayerTableRecord
  2
0
 70
0
 62
7
  6
CONTINUOUS
370
-3
390
F
  0
LAYER
  5
1FA
100
AcDbSymbolTableRecord
100
AcDbLayerTableRecord
  2
DEFAULT_1
 70
0
 62
7
  6
CENTER
370
-3
390
F
  0
LAYER
  5
1FB
100
AcDbSymbolTableRecord
100
AcDbLayerTableRecord
  2
DEFAULT_2
 70
0
 62
7
  6
HIDDEN
370
-3
390
F
  0
LAYER
  5
1FC
100
AcDbSymbolTableRecord
100
AcDbLayerTableRecord
  2
DEFAULT_3
 70
0
 62
7
  6
PHANTOM
370
-3
390
F
  0
LAYER
  5
1FD
100
AcDbSymbolTableRecord
100
AcDbLayerTableRecord
  2
00_COMPONENTS
 70
0
 62
7
  6
CONTINUOUS
370
-3
390
F
  0
LAYER
  5
1FE
100
AcDbSymbolTableRecord
100
AcDbLayerTableRecord
  2
00_COMPONENTS_1
 70
0
 62
7
  6
CONTINUOUS
370
-3
390
F
  0
LAYER
  5
1FF
100
AcDbSymbolTableRecord
100
AcDbLayerTableRecord
  2
00_COMPONENTS_2
 70
0
 62
7
  6
CONTINUOUS
370
-3
390
F
  0
LAYER
  5
200
100
AcDbSymbolTableRecord
100
AcDbLayerTableRecord
  2
00_COMPONENTS_3
 70
0
 62
7
  6
CONTINUOUS
370
-3
390
F
  0
LAYER
  5
201
100
AcDbSymbolTableRecord
100
AcDbLayerTableRecord
  2
00_COMPONENTS_4
 70
0
 62
7
  6
CONTINUOUS
370
-3
390
F
  0
LAYER
  5
202
100
AcDbSymbolTableRecord
100
AcDbLayerTableRecord
  2
01_1_DEFAULT_DATUMS
 70
0
 62
7
  6
CONTINUOUS
370
-3
390
F
  0
LAYER
  5
203
100
AcDbSymbolTableRecord
100
AcDbLayerTableRecord
  2
01_PLANES
 70
0
 62
7
  6
CONTINUOUS
370
-3
390
F
  0
LAYER
  5
204
100
AcDbSymbolTableRecord
100
AcDbLayerTableRecord
  2
02_COORD_SYS
 70
0
 62
7
  6
CONTINUOUS
370
-3
390
F
  0
LAYER
  5
205
100
AcDbSymbolTableRecord
100
AcDbLayerTableRecord
  2
03_AXES
 70
0
 62
7
  6
CONTINUOUS
370
-3
390
F
  0
LAYER
  5
206
100
AcDbSymbolTableRecord
100
AcDbLayerTableRecord
  2
03_AXES_1
 70
0
 62
7
  6
CONTINUOUS
370
-3
390
F
  0
LAYER
  5
207
100
AcDbSymbolTableRecord
100
AcDbLayerTableRecord
  2
04_POINTS
 70
0
 62
7
  6
CONTINUOUS
370
-3
390
F
  0
LAYER
  5
208
100
AcDbSymbolTableRecord
100
AcDbLayerTableRecord
  2
05_CURVES
 70
0
 62
7
  6
CONTINUOUS
370
-3
390
F
  0
LAYER
  5
209
100
AcDbSymbolTableRecord
100
AcDbLayerTableRecord
  2
06_SURFS
 70
0
 62
7
  6
CONTINUOUS
370
-3
390
F
  0
LAYER
  5
20A
100
AcDbSymbolTableRecord
100
AcDbLayerTableRecord
  2
07_COSMETICS
 70
0
 62
7
  6
CONTINUOUS
370
-3
390
F
  0
LAYER
  5
20B
100
AcDbSymbolTableRecord
100
AcDbLayerTableRecord
  2
10_NOTES
 70
0
 62
7
  6
CONTINUOUS
370
-3
390
F
  0
LAYER
  5
20C
100
AcDbSymbolTableRecord
100
AcDbLayerTableRecord
  2
11_NOTES_PUB
 70
0
 62
7
  6
CONTINUOUS
370
-3
390
F
  0
LAYER
  5
20D
100
AcDbSymbolTableRecord
100
AcDbLayerTableRecord
  2
13_REF_GTOL
 70
0
 62
7
  6
CONTINUOUS
370
-3
390
F
  0
LAYER
  5
20E
100
AcDbSymbolTableRecord
100
AcDbLayerTableRecord
  2
16_MISC
 70
0
 62
7
  6
CONTINUOUS
370
-3
390
F
  0
LAYER
  5
20F
100
AcDbSymbolTableRecord
100
AcDbLayerTableRecord
  2
17_NO_PRINT
 70
0
 62
7
  6
CONTINUOUS
370
-3
390
F
  0
LAYER
  5
210
100
AcDbSymbolTableRecord
100
AcDbLayerTableRecord
  2
18_DATUM_CAMS_JOINTS
 70
0
 62
7
  6
CONTINUOUS
370
-3
390
F
  0
LAYER
  5
211
100
AcDbSymbolTableRecord
100
AcDbLayerTableRecord
  2
19_DATUM_FUNCTIONAL
 70
0
 62
7
  6
CONTINUOUS
370
-3
390
F
  0
LAYER
  5
212
100
AcDbSymbolTableRecord
100
AcDbLayerTableRecord
  2
20_DATUM_KINEMATIC_SCHEME
 70
0
 62
7
  6
CONTINUOUS
370
-3
390
F
  0
LAYER
  5
213
100
AcDbSymbolTableRecord
100
AcDbLayerTableRecord
  2
AXE
 70
0
 62
7
  6
CONTINUOUS
370
-3
390
F
  0
LAYER
  5
214
100
AcDbSymbolTableRecord
100
AcDbLayerTableRecord
  2
INTFCLR_60057
 70
0
 62
7
  6
CONTINUOUS
370
-3
390
F
  0
LAYER
  5
215
100
AcDbSymbolTableRecord
100
AcDbLayerTableRecord
  2
INTFCLR_90054
 70
0
 62
7
  6
CONTINUOUS
370
-3
390
F
  0
LAYER
  5
216
100
AcDbSymbolTableRecord
100
AcDbLayerTableRecord
  2
INTF_BLANK
 70
0
 62
7
  6
CONTINUOUS
370
-3
390
F
  0
LAYER
  5
217
100
AcDbSymbolTableRecord
100
AcDbLayerTableRecord
  2
SHELL33
 70
0
 62
7
  6
CONTINUOUS
370
-3
390
F
  0
LAYER
  5
218
100
AcDbSymbolTableRecord
100
AcDbLayerTableRecord
  2
SHELL34
 70
0
 62
7
  6
CONTINUOUS
370
-3
390
F
  0
LAYER
  5
219
100
AcDbSymbolTableRecord
100
AcDbLayerTableRecord
  2
SHELL980
 70
0
 62
7
  6
CONTINUOUS
370
-3
390
F
  0
LAYER
  5
21A
100
AcDbSymbolTableRecord
100
AcDbLayerTableRecord
  2
SURF
 70
0
 62
7
  6
CONTINUOUS
370
-3
390
F
  0
LAYER
  5
21B
100
AcDbSymbolTableRecord
100
AcDbLayerTableRecord
  2
_BLACK_HOLE
 70
0
 62
7
  6
CONTINUOUS
370
-3
390
F
  0
LAYER
  5
21C
100
AcDbSymbolTableRecord
100
AcDbLayerTableRecord
  2
black
 70
0
 62
7
  6
CONTINUOUS
370
-3
390
F
  0
ENDTAB
  0
TABLE
  2
STYLE
  5
3
100
AcDbSymbolTable
 70
1
  0
STYLE
  5
11
100
AcDbSymbolTableRecord
100
AcDbTextStyleTableRecord
  2
STANDARD
 70
0
 40
0.0
 41
1.0
 50
0.0
 71
0
 42
0.2
  3
ARIAL.TTF
  4

  0
STYLE
  5
21D
100
AcDbSymbolTableRecord
100
AcDbTextStyleTableRecord
  2
TEXTSTYLE_1
 70
0
 40
0.0
 41
0.8
 50
0.0
 71
0
 42
0.2
  3
gdt
  4

  0
ENDTAB
  0
TABLE
  2
VIEW
  5
6
100
AcDbSymbolTable
 70
0
  0
ENDTAB
  0
TABLE
  2
UCS
  5
7
100
AcDbSymbolTable
 70
0
  0
ENDTAB
  0
TABLE
  2
APPID
  5
9
100
AcDbSymbolTable
 70
1
  0
APPID
  5
21E
100
AcDbSymbolTableRecord
100
AcDbRegAppTableRecord
  2
ACAD
 70
0
  0
ENDTAB
  0
TABLE
  2
BLOCK_RECORD
  5
1
100
AcDbSymbolTable
 70
0
  0
BLOCK_RECORD
  5
21F
100
AcDbSymbolTableRecord
100
AcDbBlockTableRecord
  2
*Model_Space
  0
BLOCK_RECORD
  5
220
100
AcDbSymbolTableRecord
100
AcDbBlockTableRecord
  2
*Paper_Space
  0
BLOCK_RECORD
  5
221
100
AcDbSymbolTableRecord
100
AcDbBlockTableRecord
  2
_FILLED
  0
ENDTAB
  0
TABLE
  2
DIMSTYLE
  5
A
100
AcDbSymbolTable
 70
1
100
AcDbDimStyleTable
 71
0
  0
DIMSTYLE
105
222
100
AcDbSymbolTableRecord
100
AcDbDimStyleTableRecord
  2
STANDARD
 70
0
  3

  4

 40
1.0
 41
1.1101798334
 42
1.0
 43
0.38
 44
1.0
 45
0.0
 46
0.0
 47
0.01
 48
0.01
140
1.5542517668
141
0.09
142
0.0
143
25.4
144
1.0
145
0.0
146
1.0
147
0.625
 71
1
 72
0
 73
0
 74
0
 75
0
 76
0
 77
1
 78
8
 79
2
170
0
171
1
172
0
173
0
174
0
175
0
176
0
177
0
178
0
270
2
179
2
271
2
272
2
273
2
274
2
275
0
280
0
281
0
282
0
283
1
284
8
285
0
286
0
287
3
288
0
340
11
278
46
341
221
342
221
343
221
344
221
  0
ENDTAB
  0
ENDSEC
  0
SECTION
  2
BLOCKS
  0
BLOCK
  5
20
100
AcDbEntity
  8
0
100
AcDbBlockBegin
  2
*Model_Space
 70
0
 10
0.0
 20
0.0
 30
0.0
  3
*Model_Space
  1

  0
ENDBLK
  5
21
100
AcDbEntity
  8
0
100
AcDbBlockEnd
  0
BLOCK
  5
1C
100
AcDbEntity
  8
0
100
AcDbBlockBegin
  2
*Paper_Space
 70
0
 10
0.0
 20
0.0
 30
0.0
  3
*Paper_Space
  1

  0
ENDBLK
  5
1D
100
AcDbEntity
  8
0
100
AcDbBlockEnd
  0
BLOCK
  5
223
100
AcDbEntity
  8
0
100
AcDbBlockBegin
  2
_FILLED
 70
64
 10
0.0
 20
0.0
  3
_FILLED
  1

  0
SOLID
  5
224
100
AcDbEntity
  8
0
  6
BYBLOCK
 62
0
100
AcDbTrace
 10
0.0
 20
0.0
 11
-1.0
 21
0.25
 12
-1.0
 22
-0.25
 13
-1.0
 23
-0.25
  0
ENDBLK
  5
225
100
AcDbEntity
  8
0
  6
BYBLOCK
 62
0
100
AcDbBlockEnd
  0
ENDSEC
  0
SECTION
  2
ENTITIES
  0
LINE
  5
226
100
AcDbEntity
  8
00_COMPONENTS_1
100
AcDbLine
 62
7
  6
BYLAYER
 10
28.0347094545
 20
-11.203387902
 11
66.8347094545
 21
-11.203387902
  0
LINE
  5
227
100
AcDbEntity
  8
0
100
AcDbLine
 62
7
  6
BYLAYER
 10
56.1330100371
 20
12.1711565103
 11
56.0967675249
 21
12.1658460291
  0
LINE
  5
228
100
AcDbEntity
  8
0
100
AcDbLine
 62
7
  6
BYLAYER
 10
59.7359643041
 20
12.1711565516
 11
59.6847094545
 21
12.1658460291
  0
LINE
  5
229
100
AcDbEntity
  8
0
100
AcDbLine
 62
7
  6
BYLAYER
 10
35.1334546049
 20
12.1711565516
 11
35.1847094545
 21
12.1658460291
  0
LINE
  5
22A
100
AcDbEntity
  8
0
100
AcDbLine
 62
7
  6
BYLAYER
 10
37.5998796029
 20
12.1658460291
 11
37.5587296872
 21
12.1711566313
  0
LINE
  5
22B
100
AcDbEntity
  8
0
100
AcDbLine
 62
7
  6
BYLAYER
 10
37.2721803545
 20
12.2155328053
 11
37.3676804179
 21
12.2005816332
  0
LINE
  5
22C
100
AcDbEntity
  8
0
100
AcDbLine
 62
7
  6
BYLAYER
 10
39.3484649856
 20
11.6774936273
 11
39.4599358457
 21
11.7043018465
  0
LWPOLYLINE
  5
22D
100
AcDbEntity
  8
0
100
AcDbPolyline
 62
7
  6
BYLAYER
 90
6
 70
0
 10
36.0471637146
 20
12.6997739985
 10
36.0868792362
 20
12.7018540412
 10
36.166918146
 20
12.7055213391
 10
36.4140840402
 20
12.6966606936
 10
36.7486862856
 20
12.6617629135
 10
36.9607005127
 20
12.6310189319
  0
LINE
  5
22E
100
AcDbEntity
  8
0
100
AcDbLine
 62
7
  6
BYLAYER
 10
54.3578515034
 20
11.7008322409
 11
57.225511212
 21
11.7008335243
  0
LINE
  5
22F
100
AcDbEntity
  8
0
100
AcDbLine
 62
7
  6
BYLAYER
 10
37.6441165116
 20
11.7007990097
 11
39.3513370376
 21
11.7008323574
  0
LINE
  5
230
100
AcDbEntity
  8
0
100
AcDbLine
 62
7
  6
BYLAYER
 10
54.5057676095
 20
11.9474814852
 11
57.4347094545
 21
11.9474814852
  0
LINE
  5
231
100
AcDbEntity
  8
0
100
AcDbLine
 62
7
  6
BYLAYER
 10
37.4347094545
 20
11.9474814852
 11
39.6350178407
 21
11.9474926006
  0
LINE
  5
232
100
AcDbEntity
  8
0
100
AcDbLine
 62
7
  6
BYLAYER
 10
59.6625860103
 20
12.1658460291
 11
56.0967675249
 21
12.1658460291
  0
LINE
  5
233
100
AcDbEntity
  8
0
100
AcDbLine
 62
7
  6
BYLAYER
 10
37.5998796029
 20
12.1658460291
 11
35.1933946154
 21
12.1658460291
  0
LINE
  5
234
100
AcDbEntity
  8
0
100
AcDbLine
 62
7
  6
BYLAYER
 10
37.5587302067
 20
12.171156552
 11
35.1334095932
 21
12.1711659915
  0
LINE
  5
235
100
AcDbEntity
  8
0
100
AcDbLine
 62
7
  6
BYLAYER
 10
59.7358961671
 20
12.171142279
 11
56.1330065598
 21
12.1711565072
  0
LINE
  5
236
100
AcDbEntity
  8
0
100
AcDbLine
 62
7
  6
BYLAYER
 10
39.1786154987
 20
12.2429677099
 11
37.7741163558
 21
12.2429677099
  0
LINE
  5
237
100
AcDbEntity
  8
0
100
AcDbLine
 62
7
  6
BYLAYER
 10
37.5684113851
 20
12.4158492478
 11
37.8498796029
 21
12.4158492478
  0
LINE
  5
238
100
AcDbEntity
  8
0
100
AcDbLine
 62
7
  6
BYLAYER
 10
29.1737882519
 20
13.7429704219
 11
65.6955692568
 21
13.7429508128
  0
LWPOLYLINE
  5
239
100
AcDbEntity
  8
0
100
AcDbPolyline
 62
7
  6
BYLAYER
 90
6
 70
0
 10
40.9460470515
 20
12.1397501027
 10
41.2163489239
 20
12.1111973589
 10
41.6224559387
 20
12.0499923167
 10
41.9387495006
 20
11.9818928422
 10
42.0540380678
 20
11.9492019429
 10
42.1899120357
 20
11.8958345216
  0
LINE
  5
23A
100
AcDbEntity
  8
0
100
AcDbLine
 62
7
  6
BYLAYER
 10
27.4498609697
 20
16.1243563474
 11
27.7337262413
 21
16.1243563481
  0
LINE
  5
23B
100
AcDbEntity
  8
0
100
AcDbLine
 62
7
  6
BYLAYER
 10
27.7891422064
 20
16.1243561724
 11
43.8875096317
 21
16.1243563481
  0
LINE
  5
23C
100
AcDbEntity
  8
0
100
AcDbLine
 62
7
  6
BYLAYER
 10
45.0302842773
 20
16.1243561694
 11
46.8567834753
 21
16.1243563482
  0
LINE
  5
23D
100
AcDbEntity
  8
0
100
AcDbLine
 62
7
  6
BYLAYER
 10
48.0126354338
 20
16.1243561643
 11
49.8391346317
 21
16.1243563481
  0
LINE
  5
23E
100
AcDbEntity
  8
0
100
AcDbLine
 62
7
  6
BYLAYER
 10
50.9819092773
 20
16.1243561694
 11
67.0802767027
 21
16.1243563481
  0
LINE
  5
23F
100
AcDbEntity
  8
0
100
AcDbLine
 62
7
  6
BYLAYER
 10
67.1356926677
 20
16.1243561676
 11
67.4195579394
 21
16.1243563474
  0
LINE
  5
240
100
AcDbEntity
  8
0
100
AcDbLine
 62
7
  6
BYLAYER
 10
67.4195579394
 20
17.096612098
 11
27.4498609697
 21
17.096612098
  0
LINE
  5
241
100
AcDbEntity
  8
0
100
AcDbLine
 62
7
  6
BYLAYER
 10
29.4039758404
 20
18.5909041451
 11
65.4654430686
 21
18.5909041451
  0
LINE
  5
242
100
AcDbEntity
  8
0
100
AcDbLine
 62
7
  6
BYLAYER
 10
62.8911315831
 20
18.8161272165
 11
31.9782873259
 21
18.8161272165
  0
LINE
  5
243
100
AcDbEntity
  8
0
100
AcDbLine
 62
7
  6
BYLAYER
 10
32.4347094545
 20
19.3142245655
 11
62.4347094545
 21
19.3142245655
  0
LINE
  5
244
100
AcDbEntity
  8
0
100
AcDbLine
 62
7
  6
BYLAYER
 10
28.0868398288
 20
14.4404995842
 11
28.0856980724
 21
14.4418015825
  0
LINE
  5
245
100
AcDbEntity
  8
0
100
AcDbLine
 62
7
  6
BYLAYER
 10
31.9782873259
 20
18.8161272165
 11
29.4039758404
 21
18.5909041451
  0
LINE
  5
246
100
AcDbEntity
  8
0
100
AcDbLine
 62
7
  6
BYLAYER
 10
62.8911315831
 20
18.8161272165
 11
65.4654430686
 21
18.5909041451
  0
LINE
  5
247
100
AcDbEntity
  8
0
100
AcDbLine
 62
7
  6
BYLAYER
 10
26.5808834495
 20
103.8510746552
 11
26.9347094545
 21
104.2049006602
  0
LINE
  5
248
100
AcDbEntity
  8
0
100
AcDbLine
 62
7
  6
BYLAYER
 10
28.2224142858
 20
14.6256072478
 11
28.2654390664
 21
14.5445616765
  0
LINE
  5
249
100
AcDbEntity
  8
0
100
AcDbLine
 62
7
  6
BYLAYER
 10
62.4347094545
 20
27.9305866942
 11
32.4347094545
 21
27.9305866942
  0
LINE
  5
24A
100
AcDbEntity
  8
0
100
AcDbLine
 62
7
  6
BYLAYER
 10
61.9345212137
 20
28.796612098
 11
32.9348976953
 21
28.796612098
  0
LINE
  5
24B
100
AcDbEntity
  8
0
100
AcDbLine
 62
7
  6
BYLAYER
 10
54.7980066555
 20
12.5926348617
 11
54.8039212995
 21
12.5867403064
  0
LINE
  5
24C
100
AcDbEntity
  8
00_COMPONENTS_1
100
AcDbLine
 62
7
  6
BYLAYER
 10
31.6887094505
 20
37.21841211
 11
31.4347094505
 21
37.47241211
  0
LINE
  5
24D
100
AcDbEntity
  8
0
100
AcDbLine
 62
7
  6
BYLAYER
 10
55.0486757201
 20
12.6415950977
 11
55.0432854545
 21
12.6473156639
  0
LINE
  5
24E
100
AcDbEntity
  8
00_COMPONENTS_1
100
AcDbLine
 62
7
  6
BYLAYER
 10
31.6887181607
 20
37.21841211
 11
63.1807007483
 21
37.21841211
  0
LINE
  5
24F
100
AcDbEntity
  8
00_COMPONENTS_1
100
AcDbLine
 62
7
  6
BYLAYER
 10
31.4347094505
 20
37.47241211
 11
63.4347094585
 21
37.47241211
  0
LINE
  5
250
100
AcDbEntity
  8
00_COMPONENTS_1
100
AcDbLine
 62
7
  6
BYLAYER
 10
31.0410094505
 20
43.592514911
 11
29.9722094545
 21
44.2095868764
  0
LINE
  5
251
100
AcDbEntity
  8
0
100
AcDbLine
 62
7
  6
BYLAYER
 10
50.4787131544
 20
12.9989993613
 11
50.4639640433
 21
13.0208439274
  0
LWPOLYLINE
  5
252
100
AcDbEntity
  8
0
100
AcDbPolyline
 62
7
  6
BYLAYER
 90
8
 70
0
 10
27.7891442893
 20
16.124356169
 10
27.7971485006
 20
15.9183268945
 10
27.8403214951
 20
15.6043517922
 10
27.9076650018
 20
15.33535336
 10
27.9881482399
 20
15.1053014277
 10
28.0730729623
 20
14.9106013088
 10
28.1543456245
 20
14.7498898728
 10
28.2224142858
 20
14.6256072478
  0
LINE
  5
253
100
AcDbEntity
  8
0
100
AcDbLine
 62
7
  6
BYLAYER
 10
26.4347094545
 20
68.55135211
 11
26.4347094545
 21
94.55135211
  0
LINE
  5
254
100
AcDbEntity
  8
0
100
AcDbLine
 62
7
  6
BYLAYER
 10
26.5808834495
 20
102.4540746552
 11
26.5808834495
 21
103.8510746552
  0
LINE
  5
255
100
AcDbEntity
  8
0
100
AcDbLine
 62
7
  6
BYLAYER
 10
26.9347094545
 20
94.55135211
 11
26.9347094545
 21
119.18935211
  0
LINE
  5
256
100
AcDbEntity
  8
00_COMPONENTS_1
100
AcDbLine
 62
7
  6
BYLAYER
 10
27.4347094545
 20
14.5737280751
 11
27.4347094545
 21
17.096612098
  0
LINE
  5
257
100
AcDbEntity
  8
0
100
AcDbLine
 62
7
  6
BYLAYER
 10
27.4498609697
 20
16.1243563474
 11
27.4498609697
 21
17.096612098
  0
LINE
  5
258
100
AcDbEntity
  8
0
100
AcDbLine
 62
7
  6
BYLAYER
 10
27.5592168995
 20
17.096612098
 11
27.5592168995
 21
16.1243563474
  0
LINE
  5
259
100
AcDbEntity
  8
00_COMPONENTS_1
100
AcDbLine
 62
7
  6
BYLAYER
 10
27.5909594545
 20
51.77261211
 11
27.5909594545
 21
53.29661211
  0
LINE
  5
25A
100
AcDbEntity
  8
0
100
AcDbLine
 62
7
  6
BYLAYER
 10
27.5909594545
 20
59.69741211
 11
27.5909594545
 21
61.28491211
  0
LINE
  5
25B
100
AcDbEntity
  8
00_COMPONENTS_1
100
AcDbLine
 62
7
  6
BYLAYER
 10
27.6609895212
 20
14.5738421863
 11
27.6609895212
 21
17.096612098
  0
LINE
  5
25C
100
AcDbEntity
  8
0
100
AcDbLine
 62
7
  6
BYLAYER
 10
27.7337262413
 20
17.096612098
 11
27.7337262413
 21
16.1243563481
  0
LINE
  5
25D
100
AcDbEntity
  8
0
100
AcDbLine
 62
7
  6
BYLAYER
 10
27.7891422064
 20
17.096612098
 11
27.7891422064
 21
16.1243561724
  0
LINE
  5
25E
100
AcDbEntity
  8
0
100
AcDbLine
 62
7
  6
BYLAYER
 10
27.7927223352
 20
16.1243563474
 11
27.7927223352
 21
17.096612098
  0
LINE
  5
25F
100
AcDbEntity
  8
0
100
AcDbLine
 62
7
  6
BYLAYER
 10
27.9347094545
 20
63.28491211
 11
27.9347094545
 21
64.55101211
  0
LINE
  5
260
100
AcDbEntity
  8
00_COMPONENTS_1
100
AcDbLine
 62
7
  6
BYLAYER
 10
63.4347094585
 20
42.910606508
 11
31.4347094505
 21
42.910606508
  0
LINE
  5
261
100
AcDbEntity
  8
00_COMPONENTS_1
100
AcDbLine
 62
7
  6
BYLAYER
 10
31.0410094505
 20
43.592514911
 11
63.8284094585
 21
43.592514911
  0
LINE
  5
262
100
AcDbEntity
  8
0
100
AcDbLine
 62
7
  6
BYLAYER
 10
28.5741094545
 20
68.55135211
 11
28.5741094545
 21
64.55101211
  0
LINE
  5
263
100
AcDbEntity
  8
00_COMPONENTS_1
100
AcDbLine
 62
7
  6
BYLAYER
 10
29.0197094545
 20
50.50261211
 11
29.0197094545
 21
51.77261211
  0
LINE
  5
264
100
AcDbEntity
  8
0
100
AcDbLine
 62
7
  6
BYLAYER
 10
29.4347094545
 20
61.28491211
 11
29.4347094545
 21
63.28491211
  0
LINE
  5
265
100
AcDbEntity
  8
00_COMPONENTS_1
100
AcDbLine
 62
7
  6
BYLAYER
 10
29.9722094545
 20
44.209478407
 11
29.9722094545
 21
50.50261211
  0
LINE
  5
266
100
AcDbEntity
  8
00_COMPONENTS_1
100
AcDbLine
 62
7
  6
BYLAYER
 10
31.4347094505
 20
37.47241211
 11
31.4347094505
 21
42.910606508
  0
LINE
  5
267
100
AcDbEntity
  8
0
100
AcDbLine
 62
7
  6
BYLAYER
 10
31.6591094545
 20
94.55135211
 11
31.6591094545
 21
119.18935211
  0
LINE
  5
268
100
AcDbEntity
  8
00_COMPONENTS_1
100
AcDbLine
 62
7
  6
BYLAYER
 10
29.0197094545
 20
50.50261211
 11
66.1037052704
 21
50.50261211
  0
LINE
  5
269
100
AcDbEntity
  8
0
100
AcDbLine
 62
7
  6
BYLAYER
 10
32.4347094545
 20
27.9305866942
 11
32.4347094545
 21
19.3142245655
  0
LINE
  5
26A
100
AcDbEntity
  8
0
100
AcDbLine
 62
7
  6
BYLAYER
 10
32.4487094545
 20
53.29661211
 11
32.4487094545
 21
59.69741211
  0
LINE
  5
26B
100
AcDbEntity
  8
00_COMPONENTS_1
100
AcDbLine
 62
7
  6
BYLAYER
 10
34.9347094546
 20
28.796612098
 11
34.9347094546
 21
37.21841211
  0
LINE
  5
26C
100
AcDbEntity
  8
0
100
AcDbLine
 62
7
  6
BYLAYER
 10
34.9447134577
 20
68.55135211
 11
34.9447134577
 21
94.55135211
  0
LINE
  5
26D
100
AcDbEntity
  8
0
100
AcDbLine
 62
7
  6
BYLAYER
 10
34.9738094545
 20
119.18935211
 11
34.9738094545
 21
94.55135211
  0
LINE
  5
26E
100
AcDbEntity
  8
0
100
AcDbLine
 62
7
  6
BYLAYER
 10
35.1781094545
 20
64.55101211
 11
35.1781094545
 21
68.55135211
  0
LINE
  5
26F
100
AcDbEntity
  8
0
100
AcDbLine
 62
7
  6
BYLAYER
 10
67.6745354595
 20
102.4540746552
 11
67.3207094545
 21
102.1002486502
  0
LINE
  5
270
100
AcDbEntity
  8
00_COMPONENTS_1
100
AcDbLine
 62
7
  6
BYLAYER
 10
27.5911050449
 20
51.77261211
 11
67.2783138641
 21
51.77261211
  0
LINE
  5
271
100
AcDbEntity
  8
00_COMPONENTS_1
100
AcDbLine
 62
7
  6
BYLAYER
 10
27.5911050449
 20
53.29661211
 11
67.2783138641
 21
53.29661211
  0
LINE
  5
272
100
AcDbEntity
  8
0
100
AcDbLine
 62
7
  6
BYLAYER
 10
37.4347094545
 20
12.1658460291
 11
37.4347094545
 21
11.9474814852
  0
LINE
  5
273
100
AcDbEntity
  8
0
100
AcDbLine
 62
7
  6
BYLAYER
 10
37.4347094545
 20
64.55101211
 11
37.4347094545
 21
68.55135211
  0
LINE
  5
274
100
AcDbEntity
  8
0
100
AcDbLine
 62
7
  6
BYLAYER
 10
37.568411385
 20
12.4158460291
 11
37.5684113851
 21
12.5418366133
  0
LINE
  5
275
100
AcDbEntity
  8
0
100
AcDbLine
 62
7
  6
BYLAYER
 10
37.8498796029
 20
12.5005330809
 11
37.8498796029
 21
12.4158492478
  0
LINE
  5
276
100
AcDbEntity
  8
0
100
AcDbLine
 62
7
  6
BYLAYER
 10
38.6460618545
 20
13.1236442696
 11
38.6460618545
 21
12.9794711849
  0
LINE
  5
277
100
AcDbEntity
  8
0
100
AcDbLine
 62
7
  6
BYLAYER
 10
39.1786154987
 20
12.2429677099
 11
39.1786154987
 21
11.9474814852
  0
LINE
  5
278
100
AcDbEntity
  8
0
100
AcDbLine
 62
7
  6
BYLAYER
 10
39.3328770545
 20
13.539785565
 11
39.3328770545
 21
13.3454774428
  0
LINE
  5
279
100
AcDbEntity
  8
0
100
AcDbLine
 62
7
  6
BYLAYER
 10
39.6350178407
 20
12.1671489146
 11
39.6350178407
 21
11.9474926006
  0
LINE
  5
27A
100
AcDbEntity
  8
0
100
AcDbLine
 62
7
  6
BYLAYER
 10
39.6996534545
 20
12.8939283443
 11
39.6996534545
 21
12.7670508074
  0
LINE
  5
27B
100
AcDbEntity
  8
0
100
AcDbLine
 62
7
  6
BYLAYER
 10
39.7639998545
 20
13.5007817201
 11
39.7639998545
 21
13.348919548
  0
LINE
  5
27C
100
AcDbEntity
  8
0
100
AcDbLine
 62
7
  6
BYLAYER
 10
40.0745574545
 20
13.130987581
 11
40.0745574545
 21
12.899490277
  0
LINE
  5
27D
100
AcDbEntity
  8
0
100
AcDbLine
 62
7
  6
BYLAYER
 10
37.2830429061
 20
12.5837124823
 11
37.2830333183
 21
12.4600408739
  0
LINE
  5
27E
100
AcDbEntity
  8
00_COMPONENTS_1
100
AcDbLine
 62
7
  6
BYLAYER
 10
40.2015051216
 20
50.50261211
 11
40.2015051216
 21
45.0402633157
  0
LINE
  5
27F
100
AcDbEntity
  8
00_COMPONENTS_1
100
AcDbLine
 62
7
  6
BYLAYER
 10
40.3647094545
 20
-11.203387902
 11
40.3647094545
 21
11.3540846514
  0
LINE
  5
280
100
AcDbEntity
  8
0
100
AcDbLine
 62
7
  6
BYLAYER
 10
40.6882218545
 20
13.1654831355
 11
40.6882218545
 21
13.3148266459
  0
LINE
  5
281
100
AcDbEntity
  8
00_COMPONENTS_1
100
AcDbLine
 62
7
  6
BYLAYER
 10
41.1253686546
 20
12.1208078595
 11
41.1253686546
 21
12.022383535
  0
LINE
  5
282
100
AcDbEntity
  8
0
100
AcDbLine
 62
7
  6
BYLAYER
 10
41.5754836121
 20
11.8899203795
 11
41.5754805356
 21
11.6110777362
  0
LINE
  5
283
100
AcDbEntity
  8
0
100
AcDbLine
 62
7
  6
BYLAYER
 10
41.6256510545
 20
12.9997762247
 11
41.6256510545
 21
12.7750087574
  0
LINE
  5
284
100
AcDbEntity
  8
00_COMPONENTS_1
100
AcDbLine
 62
7
  6
BYLAYER
 10
41.8784594545
 20
53.29661211
 11
41.8784594545
 21
51.77261211
  0
LINE
  5
285
100
AcDbEntity
  8
0
100
AcDbLine
 62
7
  6
BYLAYER
 10
42.1048638545
 20
12.6030518009
 11
42.1048638545
 21
12.4976056058
  0
LINE
  5
286
100
AcDbEntity
  8
0
100
AcDbLine
 62
7
  6
BYLAYER
 10
42.2369442545
 20
12.9654726574
 11
42.2369442545
 21
12.8540684937
  0
LINE
  5
287
100
AcDbEntity
  8
0
100
AcDbLine
 62
7
  6
BYLAYER
 10
42.3547094545
 20
86.55135211
 11
42.3547094545
 21
94.55135211
  0
LINE
  5
288
100
AcDbEntity
  8
0
100
AcDbLine
 62
7
  6
BYLAYER
 10
42.7415574545
 20
12.7784371836
 11
42.7415574545
 21
12.8926067738
  0
LINE
  5
289
100
AcDbEntity
  8
0
100
AcDbLine
 62
7
  6
BYLAYER
 10
42.7716990545
 20
12.4694946964
 11
42.7716990545
 21
12.569200645
  0
LINE
  5
28A
100
AcDbEntity
  8
0
100
AcDbLine
 62
7
  6
BYLAYER
 10
42.9897094545
 20
72.55135211
 11
42.9897094545
 21
68.55135211
  0
LINE
  5
28B
100
AcDbEntity
  8
0
100
AcDbLine
 62
7
  6
BYLAYER
 10
42.9897094545
 20
82.55135211
 11
42.9897094545
 21
86.55135211
  0
LINE
  5
28C
100
AcDbEntity
  8
0
100
AcDbLine
 62
7
  6
BYLAYER
 10
43.0273926545
 20
13.1399350903
 11
43.0273926545
 21
12.4297322686
  0
LINE
  5
28D
100
AcDbEntity
  8
0
100
AcDbLine
 62
7
  6
BYLAYER
 10
43.3504806545
 20
12.1321467662
 11
43.3504806545
 21
11.9579366903
  0
LINE
  5
28E
100
AcDbEntity
  8
0
100
AcDbLine
 62
7
  6
BYLAYER
 10
43.5198138545
 20
12.1206220119
 11
43.5198138545
 21
12.0055326714
  0
LINE
  5
28F
100
AcDbEntity
  8
0
100
AcDbLine
 62
7
  6
BYLAYER
 10
43.6210746545
 20
12.1106038448
 11
43.6210746545
 21
12.0708260081
  0
LINE
  5
290
100
AcDbEntity
  8
0
100
AcDbLine
 62
7
  6
BYLAYER
 10
43.6468134545
 20
12.3863367419
 11
43.6468134545
 21
13.0960063551
  0
LINE
  5
291
100
AcDbEntity
  8
0
100
AcDbLine
 62
7
  6
BYLAYER
 10
43.6674369659
 20
17.096612098
 11
43.6674369659
 21
16.1243563474
  0
LINE
  5
292
100
AcDbEntity
  8
0
100
AcDbLine
 62
7
  6
BYLAYER
 10
43.7562030545
 20
12.1971762315
 11
43.7562030545
 21
12.153089036
  0
LINE
  5
293
100
AcDbEntity
  8
0
100
AcDbLine
 62
7
  6
BYLAYER
 10
43.8710106545
 20
12.3140629516
 11
43.8710106545
 21
12.2416535891
  0
LINE
  5
294
100
AcDbEntity
  8
0
100
AcDbLine
 62
7
  6
BYLAYER
 10
43.8875096317
 20
17.096612098
 11
43.8875096317
 21
16.1243563481
  0
LINE
  5
295
100
AcDbEntity
  8
0
100
AcDbLine
 62
7
  6
BYLAYER
 10
43.8892094545
 20
119.18935211
 11
43.8892094545
 21
120.99275211
  0
LINE
  5
296
100
AcDbEntity
  8
0
100
AcDbLine
 62
7
  6
BYLAYER
 10
43.9966566545
 20
12.0476808212
 11
43.9966566545
 21
12.3379141441
  0
LINE
  5
297
100
AcDbEntity
  8
0
100
AcDbLine
 62
7
  6
BYLAYER
 10
27.590970414
 20
59.69741211
 11
67.278448495
 21
59.69741211
  0
LINE
  5
298
100
AcDbEntity
  8
0
100
AcDbLine
 62
7
  6
BYLAYER
 10
67.278448495
 20
61.28491211
 11
27.590970414
 21
61.28491211
  0
LINE
  5
299
100
AcDbEntity
  8
0
100
AcDbLine
 62
7
  6
BYLAYER
 10
61.9347094545
 20
28.796612098
 11
62.4347094545
 21
27.9305866942
  0
LINE
  5
29A
100
AcDbEntity
  8
0
100
AcDbLine
 62
7
  6
BYLAYER
 10
44.0610030545
 20
12.8192016222
 11
44.0610030545
 21
12.7197891182
  0
LINE
  5
29B
100
AcDbEntity
  8
0
100
AcDbLine
 62
7
  6
BYLAYER
 10
44.1134958545
 20
12.3507312623
 11
44.1134958545
 21
12.0577004239
  0
LINE
  5
29C
100
AcDbEntity
  8
0
100
AcDbLine
 62
7
  6
BYLAYER
 10
44.1327094545
 20
68.55135211
 11
44.1327094545
 21
64.55101211
  0
LINE
  5
29D
100
AcDbEntity
  8
0
100
AcDbLine
 62
7
  6
BYLAYER
 10
44.1341424431
 20
72.55135211
 11
44.1341424431
 21
82.55135211
  0
LINE
  5
29E
100
AcDbEntity
  8
0
100
AcDbLine
 62
7
  6
BYLAYER
 10
44.2696218545
 20
12.1782203542
 11
44.2696218545
 21
12.36195737
  0
LINE
  5
29F
100
AcDbEntity
  8
00_COMPONENTS_1
100
AcDbLine
 62
7
  6
BYLAYER
 10
44.3656157772
 20
51.77261211
 11
44.3656157772
 21
50.50261211
  0
LINE
  5
2A0
100
AcDbEntity
  8
0
100
AcDbLine
 62
7
  6
BYLAYER
 10
44.3813814545
 20
12.8117477071
 11
44.3813814545
 21
12.4373965645
  0
LINE
  5
2A1
100
AcDbEntity
  8
00_COMPONENTS_1
100
AcDbLine
 62
7
  6
BYLAYER
 10
44.4347094545
 20
14.5737280746
 11
44.4347094545
 21
17.096612098
  0
LINE
  5
2A2
100
AcDbEntity
  8
0
100
AcDbLine
 62
7
  6
BYLAYER
 10
45.0008022545
 20
12.4529551559
 11
45.0008022545
 21
12.6000973576
  0
LINE
  5
2A3
100
AcDbEntity
  8
0
100
AcDbLine
 62
7
  6
BYLAYER
 10
45.0143490545
 20
12.3772181979
 11
45.0143490545
 21
12.257889967
  0
LINE
  5
2A4
100
AcDbEntity
  8
0
100
AcDbLine
 62
7
  6
BYLAYER
 10
45.0302842773
 20
16.1243561694
 11
45.0302842773
 21
17.096612098
  0
LINE
  5
2A5
100
AcDbEntity
  8
0
100
AcDbLine
 62
7
  6
BYLAYER
 10
45.1592094545
 20
119.18935211
 11
45.1592094545
 21
120.99275211
  0
LINE
  5
2A6
100
AcDbEntity
  8
0
100
AcDbLine
 62
7
  6
BYLAYER
 10
45.1833438545
 20
12.1771718899
 11
45.1833438545
 21
11.9925961458
  0
LINE
  5
2A7
100
AcDbEntity
  8
0
100
AcDbLine
 62
7
  6
BYLAYER
 10
45.2065272996
 20
16.1243563474
 11
45.2065272996
 21
17.096612098
  0
LINE
  5
2A8
100
AcDbEntity
  8
0
100
AcDbLine
 62
7
  6
BYLAYER
 10
45.2551410545
 20
12.1771718899
 11
45.2551410545
 21
12.0364820498
  0
LINE
  5
2A9
100
AcDbEntity
  8
0
100
AcDbLine
 62
7
  6
BYLAYER
 10
45.2934102545
 20
12.7654282547
 11
45.2934102545
 21
12.4426642218
  0
LINE
  5
2AA
100
AcDbEntity
  8
0
100
AcDbLine
 62
7
  6
BYLAYER
 10
45.3100050545
 20
12.1721403003
 11
45.3100050545
 21
12.0796781845
  0
LINE
  5
2AB
100
AcDbEntity
  8
0
100
AcDbLine
 62
7
  6
BYLAYER
 10
45.3513222545
 20
11.9864293197
 11
45.3513222545
 21
11.919660485
  0
LINE
  5
2AC
100
AcDbEntity
  8
0
100
AcDbLine
 62
7
  6
BYLAYER
 10
45.3770610545
 20
12.1697665744
 11
45.3770610545
 21
12.1259690736
  0
LINE
  5
2AD
100
AcDbEntity
  8
0
100
AcDbLine
 62
7
  6
BYLAYER
 10
45.6137898545
 20
12.3334091142
 11
45.6137898545
 21
12.2362154966
  0
LINE
  5
2AE
100
AcDbEntity
  8
0
100
AcDbLine
 62
7
  6
BYLAYER
 10
45.8054742545
 20
12.0186788771
 11
45.8054742545
 21
12.0639542217
  0
LINE
  5
2AF
100
AcDbEntity
  8
0
100
AcDbLine
 62
7
  6
BYLAYER
 10
45.9128322545
 20
12.3594305546
 11
45.9128322545
 21
12.7459148788
  0
LINE
  5
2B0
100
AcDbEntity
  8
0
100
AcDbLine
 62
7
  6
BYLAYER
 10
45.9863226545
 20
12.1077987563
 11
45.9863226545
 21
12.2082746449
  0
LINE
  5
2B1
100
AcDbEntity
  8
0
100
AcDbLine
 62
7
  6
BYLAYER
 10
46.3449702545
 20
12.7327288877
 11
46.3449702545
 21
12.6423858088
  0
LINE
  5
2B2
100
AcDbEntity
  8
0
100
AcDbLine
 62
7
  6
BYLAYER
 10
46.6541730545
 20
12.7419148422
 11
46.6541730545
 21
12.2689009836
  0
LINE
  5
2B3
100
AcDbEntity
  8
0
100
AcDbLine
 62
7
  6
BYLAYER
 10
46.6545126545
 20
12.1945692773
 11
46.6545126545
 21
11.8620312569
  0
LINE
  5
2B4
100
AcDbEntity
  8
0
100
AcDbLine
 62
7
  6
BYLAYER
 10
46.6563579673
 20
17.096612098
 11
46.6563579673
 21
16.1243563474
  0
LINE
  5
2B5
100
AcDbEntity
  8
0
100
AcDbLine
 62
7
  6
BYLAYER
 10
46.8567834753
 20
17.096612098
 11
46.8567834753
 21
16.1243563482
  0
LINE
  5
2B6
100
AcDbEntity
  8
0
100
AcDbLine
 62
7
  6
BYLAYER
 10
46.8956430545
 20
11.8994391404
 11
46.8956430545
 21
12.191095179
  0
LINE
  5
2B7
100
AcDbEntity
  8
0
100
AcDbLine
 62
7
  6
BYLAYER
 10
47.2732566545
 20
12.5492097459
 11
47.2732566545
 21
12.2639276926
  0
LINE
  5
2B8
100
AcDbEntity
  8
00_COMPONENTS_1
100
AcDbLine
 62
7
  6
BYLAYER
 10
47.4347094545
 20
0.4966120968
 11
47.4347094545
 21
10.896612098
  0
LINE
  5
2B9
100
AcDbEntity
  8
00_COMPONENTS_1
100
AcDbLine
 62
7
  6
BYLAYER
 10
47.4347094545
 20
14.575163009
 11
47.4347094545
 21
17.096612098
  0
LINE
  5
2BA
100
AcDbEntity
  8
0
100
AcDbLine
 62
7
  6
BYLAYER
 10
47.4347196697
 20
14.5751630049
 11
47.4347159495
 21
14.4404597259
  0
LINE
  5
2BB
100
AcDbEntity
  8
0
100
AcDbLine
 62
7
  6
BYLAYER
 10
47.5902486545
 20
11.9971360844
 11
47.5902486545
 21
12.0401779191
  0
LINE
  5
2BC
100
AcDbEntity
  8
0
100
AcDbLine
 62
7
  6
BYLAYER
 10
47.6156478545
 20
12.1438517589
 11
47.6156478545
 21
12.1896614431
  0
LINE
  5
2BD
100
AcDbEntity
  8
0
100
AcDbLine
 62
7
  6
BYLAYER
 10
47.6369838545
 20
11.8572224738
 11
47.6369838545
 21
11.8973231647
  0
LINE
  5
2BE
100
AcDbEntity
  8
0
100
AcDbLine
 62
7
  6
BYLAYER
 10
27.9347094545
 20
63.28491211
 11
66.9347094545
 21
63.28491211
  0
LINE
  5
2BF
100
AcDbEntity
  8
0
100
AcDbLine
 62
7
  6
BYLAYER
 10
66.9347094545
 20
64.55101211
 11
27.9347094545
 21
64.55101211
  0
LINE
  5
2C0
100
AcDbEntity
  8
0
100
AcDbLine
 62
7
  6
BYLAYER
 10
50.2306154213
 20
13.0422980412
 11
50.2307429118
 21
12.8837268309
  0
LINE
  5
2C1
100
AcDbEntity
  8
0
100
AcDbLine
 62
7
  6
BYLAYER
 10
48.0126354338
 20
16.1243561643
 11
48.0126354338
 21
17.096612098
  0
LINE
  5
2C2
100
AcDbEntity
  8
0
100
AcDbLine
 62
7
  6
BYLAYER
 10
48.1602246545
 20
12.7158010645
 11
48.1602246545
 21
12.4652249604
  0
LINE
  5
2C3
100
AcDbEntity
  8
0
100
AcDbLine
 62
7
  6
BYLAYER
 10
48.1734318545
 20
12.5424805858
 11
48.1734318545
 21
12.7168057936
  0
LINE
  5
2C4
100
AcDbEntity
  8
0
100
AcDbLine
 62
7
  6
BYLAYER
 10
48.2035734545
 20
12.194416398
 11
48.2035734545
 21
11.8616987212
  0
LINE
  5
2C5
100
AcDbEntity
  8
0
100
AcDbLine
 62
7
  6
BYLAYER
 10
48.2130609417
 20
16.1243563474
 11
48.2130609417
 21
17.096612098
  0
LINE
  5
2C6
100
AcDbEntity
  8
0
100
AcDbLine
 62
7
  6
BYLAYER
 10
48.4243842545
 20
11.8649858795
 11
48.4243842545
 21
12.1977250754
  0
LINE
  5
2C7
100
AcDbEntity
  8
0
100
AcDbLine
 62
7
  6
BYLAYER
 10
48.6015066545
 20
12.7461250583
 11
48.6015066545
 21
12.6544732078
  0
LINE
  5
2C8
100
AcDbEntity
  8
0
100
AcDbLine
 62
7
  6
BYLAYER
 10
48.6617898545
 20
12.3558365811
 11
48.6617898545
 21
12.2677328055
  0
LINE
  5
2C9
100
AcDbEntity
  8
0
100
AcDbLine
 62
7
  6
BYLAYER
 10
49.0285650545
 20
12.7269147299
 11
49.0285650545
 21
12.5595741233
  0
LINE
  5
2CA
100
AcDbEntity
  8
0
100
AcDbLine
 62
7
  6
BYLAYER
 10
49.0962094545
 20
119.18935211
 11
49.0962094545
 21
120.99275211
  0
LINE
  5
2CB
100
AcDbEntity
  8
0
100
AcDbLine
 62
7
  6
BYLAYER
 10
49.2100902545
 20
12.0816803388
 11
49.2100902545
 21
11.9812880925
  0
LINE
  5
2CC
100
AcDbEntity
  8
0
100
AcDbLine
 62
7
  6
BYLAYER
 10
49.2144930545
 20
12.0095965427
 11
49.2144930545
 21
12.0828265428
  0
LINE
  5
2CD
100
AcDbEntity
  8
0
100
AcDbLine
 62
7
  6
BYLAYER
 10
49.5155682545
 20
12.111275762
 11
49.5155682545
 21
12.0736156734
  0
LINE
  5
2CE
100
AcDbEntity
  8
0
100
AcDbLine
 62
7
  6
BYLAYER
 10
49.5294534545
 20
11.9306164175
 11
49.5294534545
 21
11.890064091
  0
LINE
  5
2CF
100
AcDbEntity
  8
0
100
AcDbLine
 62
7
  6
BYLAYER
 10
49.5413070545
 20
12.3500632515
 11
49.5413070545
 21
12.4366074597
  0
LINE
  5
2D0
100
AcDbEntity
  8
0
100
AcDbLine
 62
7
  6
BYLAYER
 10
49.5758502545
 20
12.4999607282
 11
49.5758502545
 21
12.5124985788
  0
LINE
  5
2D1
100
AcDbEntity
  8
0
100
AcDbLine
 62
7
  6
BYLAYER
 10
49.662891605
 20
17.096612098
 11
49.662891605
 21
16.1243563474
  0
LINE
  5
2D2
100
AcDbEntity
  8
0
100
AcDbLine
 62
7
  6
BYLAYER
 10
49.7760030545
 20
12.1027833878
 11
49.7760030545
 21
12.0292478378
  0
LINE
  5
2D3
100
AcDbEntity
  8
0
100
AcDbLine
 62
7
  6
BYLAYER
 10
49.7900977063
 20
12.9337114582
 11
49.7900977063
 21
12.8830112948
  0
LINE
  5
2D4
100
AcDbEntity
  8
0
100
AcDbLine
 62
7
  6
BYLAYER
 10
49.8152886545
 20
12.774735494
 11
49.8152886545
 21
12.3109488119
  0
LINE
  5
2D5
100
AcDbEntity
  8
0
100
AcDbLine
 62
7
  6
BYLAYER
 10
49.8391346317
 20
17.096612098
 11
49.8391346317
 21
16.1243563481
  0
LINE
  5
2D6
100
AcDbEntity
  8
0
100
AcDbLine
 62
7
  6
BYLAYER
 10
49.9761546545
 20
11.9315959431
 11
49.9761546545
 21
11.9712687526
  0
LINE
  5
2D7
100
AcDbEntity
  8
0
100
AcDbLine
 62
7
  6
BYLAYER
 10
50.3662094545
 20
119.18935211
 11
50.3662094545
 21
120.99275211
  0
LINE
  5
2D8
100
AcDbEntity
  8
00_COMPONENTS_1
100
AcDbLine
 62
7
  6
BYLAYER
 10
50.4347094545
 20
37.21841211
 11
50.4347094545
 21
28.796612098
  0
LINE
  5
2D9
100
AcDbEntity
  8
00_COMPONENTS_1
100
AcDbLine
 62
7
  6
BYLAYER
 10
50.4347094545
 20
12.3393999034
 11
50.4347094545
 21
-11.203387902
  0
LINE
  5
2DA
100
AcDbEntity
  8
0
100
AcDbLine
 62
7
  6
BYLAYER
 10
50.4347094545
 20
12.3393999034
 11
50.4347094545
 21
12.8034137243
  0
LINE
  5
2DB
100
AcDbEntity
  8
00_COMPONENTS_1
100
AcDbLine
 62
7
  6
BYLAYER
 10
50.4347094545
 20
14.5737280754
 11
50.4347094545
 21
17.096612098
  0
LINE
  5
2DC
100
AcDbEntity
  8
00_COMPONENTS_1
100
AcDbLine
 62
7
  6
BYLAYER
 10
50.5038031318
 20
50.50261211
 11
50.5038031318
 21
51.77261211
  0
LINE
  5
2DD
100
AcDbEntity
  8
0
100
AcDbLine
 62
7
  6
BYLAYER
 10
50.735276466
 20
82.55135211
 11
50.735276466
 21
72.55135211
  0
LINE
  5
2DE
100
AcDbEntity
  8
0
100
AcDbLine
 62
7
  6
BYLAYER
 10
50.7367094545
 20
68.55135211
 11
50.7367094545
 21
64.55101211
  0
LINE
  5
2DF
100
AcDbEntity
  8
0
100
AcDbLine
 62
7
  6
BYLAYER
 10
50.7859062545
 20
12.1482804552
 11
50.7859062545
 21
12.0555776423
  0
LINE
  5
2E0
100
AcDbEntity
  8
0
100
AcDbLine
 62
7
  6
BYLAYER
 10
50.9819092773
 20
16.1243561694
 11
50.9819092773
 21
17.096612098
  0
LINE
  5
2E1
100
AcDbEntity
  8
0
100
AcDbLine
 62
7
  6
BYLAYER
 10
51.1272822545
 20
12.1897305304
 11
51.1272822545
 21
12.1501471387
  0
LINE
  5
2E2
100
AcDbEntity
  8
0
100
AcDbLine
 62
7
  6
BYLAYER
 10
51.1272822545
 20
12.0087034072
 11
51.1272822545
 21
11.968473096
  0
LINE
  5
2E3
100
AcDbEntity
  8
0
100
AcDbLine
 62
7
  6
BYLAYER
 10
51.2019819431
 20
16.1243563474
 11
51.2019819431
 21
17.096612098
  0
LINE
  5
2E4
100
AcDbEntity
  8
0
100
AcDbLine
 62
7
  6
BYLAYER
 10
51.3125334545
 20
12.8414369901
 11
51.3125334545
 21
12.611905388
  0
LINE
  5
2E5
100
AcDbEntity
  8
0
100
AcDbLine
 62
7
  6
BYLAYER
 10
51.4354698545
 20
12.195281206
 11
51.4354698545
 21
12.1482449785
  0
LINE
  5
2E6
100
AcDbEntity
  8
0
100
AcDbLine
 62
7
  6
BYLAYER
 10
51.4601922545
 20
12.0019079392
 11
51.4601922545
 21
12.0420114523
  0
LINE
  5
2E7
100
AcDbEntity
  8
0
100
AcDbLine
 62
7
  6
BYLAYER
 10
51.6075128691
 20
12.5084414176
 11
51.6075128691
 21
12.4033244529
  0
LINE
  5
2E8
100
AcDbEntity
  8
0
100
AcDbLine
 62
7
  6
BYLAYER
 10
51.8086806545
 20
12.8965978813
 11
51.8086806545
 21
12.7966053164
  0
LINE
  5
2E9
100
AcDbEntity
  8
0
100
AcDbLine
 62
7
  6
BYLAYER
 10
51.8797094545
 20
72.55135211
 11
51.8797094545
 21
68.55135211
  0
LINE
  5
2EA
100
AcDbEntity
  8
0
100
AcDbLine
 62
7
  6
BYLAYER
 10
51.8797094545
 20
82.55135211
 11
51.8797094545
 21
86.55135211
  0
LINE
  5
2EB
100
AcDbEntity
  8
0
100
AcDbLine
 62
7
  6
BYLAYER
 10
26.4347094545
 20
68.55135211
 11
68.4347094545
 21
68.55135211
  0
LINE
  5
2EC
100
AcDbEntity
  8
0
100
AcDbLine
 62
7
  6
BYLAYER
 10
52.1568294545
 20
13.1648204832
 11
52.1568294545
 21
12.4532082707
  0
LINE
  5
2ED
100
AcDbEntity
  8
0
100
AcDbLine
 62
7
  6
BYLAYER
 10
52.2201606545
 20
12.265970177
 11
52.2201606545
 21
12.1117716208
  0
LINE
  5
2EE
100
AcDbEntity
  8
0
100
AcDbLine
 62
7
  6
BYLAYER
 10
52.4402934545
 20
12.1332847157
 11
52.4402934545
 21
12.330726664
  0
LINE
  5
2EF
100
AcDbEntity
  8
0
100
AcDbLine
 62
7
  6
BYLAYER
 10
52.5147094545
 20
86.55135211
 11
52.5147094545
 21
94.55135211
  0
LINE
  5
2F0
100
AcDbEntity
  8
0
100
AcDbLine
 62
7
  6
BYLAYER
 10
52.5815178545
 20
12.1154715179
 11
52.5815178545
 21
12.0776438699
  0
LINE
  5
2F1
100
AcDbEntity
  8
0
100
AcDbLine
 62
7
  6
BYLAYER
 10
52.7759118545
 20
12.5065322459
 11
52.7759118545
 21
13.2188023505
  0
LINE
  5
2F2
100
AcDbEntity
  8
0
100
AcDbLine
 62
7
  6
BYLAYER
 10
52.7938614545
 20
12.3149161075
 11
52.7938614545
 21
12.2752583954
  0
LINE
  5
2F3
100
AcDbEntity
  8
0
100
AcDbLine
 62
7
  6
BYLAYER
 10
52.8504186545
 20
12.1153625845
 11
52.8504186545
 21
12.1534978434
  0
LINE
  5
2F4
100
AcDbEntity
  8
00_COMPONENTS_1
100
AcDbLine
 62
7
  6
BYLAYER
 10
52.9909594545
 20
51.77261211
 11
52.9909594545
 21
53.29661211
  0
LINE
  5
2F5
100
AcDbEntity
  8
0
100
AcDbLine
 62
7
  6
BYLAYER
 10
53.4166698545
 20
12.3752333971
 11
53.4166698545
 21
12.160521838
  0
LINE
  5
2F6
100
AcDbEntity
  8
0
100
AcDbLine
 62
7
  6
BYLAYER
 10
53.6368026545
 20
12.1833581497
 11
53.6368026545
 21
12.3981535267
  0
LINE
  5
2F7
100
AcDbEntity
  8
0
100
AcDbLine
 62
7
  6
BYLAYER
 10
53.6791362545
 20
13.04577218
 11
53.6791362545
 21
12.7953168537
  0
LINE
  5
2F8
100
AcDbEntity
  8
0
100
AcDbLine
 62
7
  6
BYLAYER
 10
53.6916666545
 20
12.8741952065
 11
53.6916666545
 21
13.0479780231
  0
LINE
  5
2F9
100
AcDbEntity
  8
00_COMPONENTS_1
100
AcDbLine
 62
7
  6
BYLAYER
 10
53.7447094545
 20
-11.203387902
 11
53.7447094545
 21
11.2691311136
  0
LINE
  5
2FA
100
AcDbEntity
  8
0
100
AcDbLine
 62
7
  6
BYLAYER
 10
53.9077362545
 20
12.4382223569
 11
53.9077362545
 21
12.3895269713
  0
LINE
  5
2FB
100
AcDbEntity
  8
0
100
AcDbLine
 62
7
  6
BYLAYER
 10
54.1143222545
 20
12.4459522546
 11
54.1143222545
 21
12.3905251917
  0
LINE
  5
2FC
100
AcDbEntity
  8
0
100
AcDbLine
 62
7
  6
BYLAYER
 10
54.1187250545
 20
13.115764497
 11
54.1187250545
 21
13.0275176376
  0
LINE
  5
2FD
100
AcDbEntity
  8
0
100
AcDbLine
 62
7
  6
BYLAYER
 10
54.1796850545
 20
12.7300612279
 11
54.1796850545
 21
12.6440883968
  0
LINE
  5
2FE
100
AcDbEntity
  8
0
100
AcDbLine
 62
7
  6
BYLAYER
 10
54.5057676095
 20
11.9658950742
 11
54.5057676095
 21
11.9474814296
  0
LINE
  5
2FF
100
AcDbEntity
  8
0
100
AcDbLine
 62
7
  6
BYLAYER
 10
54.5484930545
 20
13.1411532084
 11
54.5484930545
 21
12.9730032824
  0
LINE
  5
300
100
AcDbEntity
  8
00_COMPONENTS_1
100
AcDbLine
 62
7
  6
BYLAYER
 10
54.6679137875
 20
50.50261211
 11
54.6679137875
 21
45.0402633157
  0
LINE
  5
301
100
AcDbEntity
  8
0
100
AcDbLine
 62
7
  6
BYLAYER
 10
54.8157018545
 20
12.5351816283
 11
54.8157018545
 21
12.31988378
  0
LINE
  5
302
100
AcDbEntity
  8
0
100
AcDbLine
 62
7
  6
BYLAYER
 10
54.9576997816
 20
12.6473156639
 11
54.9576997816
 21
12.6006888881
  0
LINE
  5
303
100
AcDbEntity
  8
0
100
AcDbLine
 62
7
  6
BYLAYER
 10
55.0358346545
 20
12.348042133
 11
55.0358346545
 21
12.563443909
  0
LINE
  5
304
100
AcDbEntity
  8
0
100
AcDbLine
 62
7
  6
BYLAYER
 10
55.0605570545
 20
12.8106190905
 11
55.0605570545
 21
12.8978505238
  0
LINE
  5
305
100
AcDbEntity
  8
0
100
AcDbLine
 62
7
  6
BYLAYER
 10
55.0940850545
 20
12.9648648384
 11
55.0940850545
 21
12.9773931068
  0
LINE
  5
306
100
AcDbEntity
  8
00_COMPONENTS_1
100
AcDbLine
 62
7
  6
BYLAYER
 10
55.2128840476
 20
12.0927157043
 11
55.2128840476
 21
11.9474829199
  0
LINE
  5
307
100
AcDbEntity
  8
0
100
AcDbLine
 62
7
  6
BYLAYER
 10
55.4009178545
 20
13.2745725638
 11
55.4009178545
 21
12.8069485393
  0
LINE
  5
308
100
AcDbEntity
  8
0
100
AcDbLine
 62
7
  6
BYLAYER
 10
49.5758502545
 20
12.4999607282
 11
49.5766983987
 21
12.5124985788
  0
LINE
  5
309
100
AcDbEntity
  8
0
100
AcDbLine
 62
7
  6
BYLAYER
 10
32.9347094545
 20
28.796612098
 11
32.4347094545
 21
27.9305866942
  0
LINE
  5
30A
100
AcDbEntity
  8
0
100
AcDbLine
 62
7
  6
BYLAYER
 10
51.8794493725
 20
72.55135211
 11
42.9899692242
 21
72.55135211
  0
LINE
  5
30B
100
AcDbEntity
  8
0
100
AcDbLine
 62
7
  6
BYLAYER
 10
55.8405066545
 20
12.6579746761
 11
55.8405066545
 21
12.5627417546
  0
LINE
  5
30C
100
AcDbEntity
  8
0
100
AcDbLine
 62
7
  6
BYLAYER
 10
56.0206770545
 20
12.8953134142
 11
56.0206770545
 21
13.363655658
  0
LINE
  5
30D
100
AcDbEntity
  8
0
100
AcDbLine
 62
7
  6
BYLAYER
 10
56.1808662545
 20
12.7263235486
 11
56.1808662545
 21
12.6876181166
  0
LINE
  5
30E
100
AcDbEntity
  8
0
100
AcDbLine
 62
7
  6
BYLAYER
 10
56.1808662545
 20
12.5481196717
 11
56.1808662545
 21
12.5042718353
  0
LINE
  5
30F
100
AcDbEntity
  8
0
100
AcDbLine
 62
7
  6
BYLAYER
 10
56.4897306545
 20
12.7600579918
 11
56.4897306545
 21
12.7125651947
  0
LINE
  5
310
100
AcDbEntity
  8
0
100
AcDbLine
 62
7
  6
BYLAYER
 10
56.5154694545
 20
12.5671128069
 11
56.5154694545
 21
12.6076051863
  0
LINE
  5
311
100
AcDbEntity
  8
0
100
AcDbLine
 62
7
  6
BYLAYER
 10
56.5296930545
 20
13.4404001768
 11
56.5296930545
 21
13.305037252
  0
LINE
  5
312
100
AcDbEntity
  8
0
100
AcDbLine
 62
7
  6
BYLAYER
 10
56.8974858545
 20
13.4922458249
 11
56.8974858545
 21
13.3287616004
  0
LINE
  5
313
100
AcDbEntity
  8
0
100
AcDbLine
 62
7
  6
BYLAYER
 10
57.4347094545
 20
68.55135211
 11
57.4347094545
 21
64.55101211
  0
LINE
  5
314
100
AcDbEntity
  8
0
100
AcDbLine
 62
7
  6
BYLAYER
 10
57.4347094545
 20
12.1658460291
 11
57.4347094545
 21
11.9474814852
  0
LINE
  5
315
100
AcDbEntity
  8
0
100
AcDbLine
 62
7
  6
BYLAYER
 10
59.2943094545
 20
94.55135211
 11
59.2943094545
 21
119.18935211
  0
LINE
  5
316
100
AcDbEntity
  8
0
100
AcDbLine
 62
7
  6
BYLAYER
 10
59.6913094545
 20
64.55135211
 11
59.6913094545
 21
68.55135211
  0
LINE
  5
317
100
AcDbEntity
  8
0
100
AcDbLine
 62
7
  6
BYLAYER
 10
55.0940850545
 20
12.9648648384
 11
55.0945880094
 21
12.9773931068
  0
LINE
  5
318
100
AcDbEntity
  8
0
100
AcDbLine
 62
7
  6
BYLAYER
 10
26.9347094545
 20
102.1002486502
 11
26.5808834495
 21
102.4540746552
  0
LINE
  5
319
100
AcDbEntity
  8
0
100
AcDbLine
 62
7
  6
BYLAYER
 10
59.9247054513
 20
94.55135211
 11
59.9247054513
 21
68.55135211
  0
LINE
  5
31A
100
AcDbEntity
  8
00_COMPONENTS_1
100
AcDbLine
 62
7
  6
BYLAYER
 10
59.9347094545
 20
28.796612098
 11
59.9347094545
 21
37.21841211
  0
LINE
  5
31B
100
AcDbEntity
  8
0
100
AcDbLine
 62
7
  6
BYLAYER
 10
61.2755094545
 20
94.55135211
 11
61.2755094545
 21
99.02175211
  0
LINE
  5
31C
100
AcDbEntity
  8
0
100
AcDbLine
 62
7
  6
BYLAYER
 10
62.4207094545
 20
53.29661211
 11
62.4207094545
 21
59.69741211
  0
LINE
  5
31D
100
AcDbEntity
  8
0
100
AcDbLine
 62
7
  6
BYLAYER
 10
62.4347094545
 20
27.9305866942
 11
62.4347094545
 21
19.3142245655
  0
LINE
  5
31E
100
AcDbEntity
  8
0
100
AcDbLine
 62
7
  6
BYLAYER
 10
62.5963094545
 20
119.18935211
 11
62.5963094545
 21
99.02175211
  0
LINE
  5
31F
100
AcDbEntity
  8
00_COMPONENTS_1
100
AcDbLine
 62
7
  6
BYLAYER
 10
63.4347094585
 20
37.47241211
 11
63.4347094585
 21
42.910606508
  0
LINE
  5
320
100
AcDbEntity
  8
0
100
AcDbLine
 62
7
  6
BYLAYER
 10
63.9171094545
 20
99.02175211
 11
63.9171094545
 21
94.55135211
  0
LINE
  5
321
100
AcDbEntity
  8
00_COMPONENTS_1
100
AcDbLine
 62
7
  6
BYLAYER
 10
64.8972094545
 20
50.50261211
 11
64.8972094545
 21
44.209478407
  0
LINE
  5
322
100
AcDbEntity
  8
0
100
AcDbLine
 62
7
  6
BYLAYER
 10
65.4347094545
 20
63.28491211
 11
65.4347094545
 21
61.28491211
  0
LINE
  5
323
100
AcDbEntity
  8
0
100
AcDbLine
 62
7
  6
BYLAYER
 10
65.6189094545
 20
117.91935211
 11
65.6189094545
 21
100.29175211
  0
LINE
  5
324
100
AcDbEntity
  8
0
100
AcDbLine
 62
7
  6
BYLAYER
 10
65.6189094545
 20
99.02175211
 11
65.6189094545
 21
94.55135211
  0
LINE
  5
325
100
AcDbEntity
  8
00_COMPONENTS_1
100
AcDbLine
 62
7
  6
BYLAYER
 10
66.1037094545
 20
50.50261211
 11
66.1037094545
 21
51.77261211
  0
LINE
  5
326
100
AcDbEntity
  8
0
100
AcDbLine
 62
7
  6
BYLAYER
 10
66.2953094545
 20
68.55135211
 11
66.2953094545
 21
64.55135211
  0
LINE
  5
327
100
AcDbEntity
  8
0
100
AcDbLine
 62
7
  6
BYLAYER
 10
66.9347094545
 20
64.55101211
 11
66.9347094545
 21
63.28491211
  0
LINE
  5
328
100
AcDbEntity
  8
0
100
AcDbLine
 62
7
  6
BYLAYER
 10
67.0766965739
 20
17.096612098
 11
67.0766965739
 21
16.1243563474
  0
LINE
  5
329
100
AcDbEntity
  8
0
100
AcDbLine
 62
7
  6
BYLAYER
 10
67.0802767027
 20
16.1243563481
 11
67.0802767027
 21
17.096612098
  0
LINE
  5
32A
100
AcDbEntity
  8
0
100
AcDbLine
 62
7
  6
BYLAYER
 10
67.1356926677
 20
16.1243561676
 11
67.1356926677
 21
17.096612098
  0
LINE
  5
32B
100
AcDbEntity
  8
00_COMPONENTS_1
100
AcDbLine
 62
7
  6
BYLAYER
 10
67.2084293878
 20
14.5735724615
 11
67.2084293878
 21
17.096612098
  0
LINE
  5
32C
100
AcDbEntity
  8
00_COMPONENTS_1
100
AcDbLine
 62
7
  6
BYLAYER
 10
67.2784594545
 20
51.77261211
 11
67.2784594545
 21
53.29661211
  0
LINE
  5
32D
100
AcDbEntity
  8
0
100
AcDbLine
 62
7
  6
BYLAYER
 10
67.2784594545
 20
59.69741211
 11
67.2784594545
 21
61.28491211
  0
LINE
  5
32E
100
AcDbEntity
  8
0
100
AcDbLine
 62
7
  6
BYLAYER
 10
67.3102020089
 20
16.1243563474
 11
67.3102020089
 21
17.096612098
  0
LINE
  5
32F
100
AcDbEntity
  8
0
100
AcDbLine
 62
7
  6
BYLAYER
 10
67.3207094545
 20
94.55135211
 11
67.3207094545
 21
119.18935211
  0
LINE
  5
330
100
AcDbEntity
  8
0
100
AcDbLine
 62
7
  6
BYLAYER
 10
67.4195579394
 20
17.096612098
 11
67.4195579394
 21
16.1243563474
  0
LINE
  5
331
100
AcDbEntity
  8
00_COMPONENTS_1
100
AcDbLine
 62
7
  6
BYLAYER
 10
67.4347094545
 20
14.5737280751
 11
67.4347094545
 21
17.096612098
  0
LINE
  5
332
100
AcDbEntity
  8
0
100
AcDbLine
 62
7
  6
BYLAYER
 10
42.9899695365
 20
82.55135211
 11
51.8794496849
 21
82.55135211
  0
LINE
  5
333
100
AcDbEntity
  8
0
100
AcDbLine
 62
7
  6
BYLAYER
 10
67.6745354595
 20
103.8510746552
 11
67.6745354595
 21
102.4540746552
  0
LINE
  5
334
100
AcDbEntity
  8
0
100
AcDbLine
 62
7
  6
BYLAYER
 10
68.4347094545
 20
94.55135211
 11
68.4347094545
 21
68.55135211
  0
LINE
  5
335
100
AcDbEntity
  8
0
100
AcDbLine
 62
7
  6
BYLAYER
 10
45.9863226545
 20
12.1077987563
 11
46.0123125677
 21
12.1591053446
  0
LINE
  5
336
100
AcDbEntity
  8
0
100
AcDbLine
 62
7
  6
BYLAYER
 10
42.3547094545
 20
86.55135211
 11
43.0116798322
 21
86.55135211
  0
LINE
  5
337
100
AcDbEntity
  8
0
100
AcDbLine
 62
7
  6
BYLAYER
 10
51.8577390768
 20
86.55135211
 11
52.5147094545
 21
86.55135211
  0
LINE
  5
338
100
AcDbEntity
  8
0
100
AcDbLine
 62
7
  6
BYLAYER
 10
43.1625198545
 20
12.1454891891
 11
43.1282884226
 21
12.0908305171
  0
LINE
  5
339
100
AcDbEntity
  8
00_COMPONENTS_1
100
AcDbLine
 62
7
  6
BYLAYER
 10
63.8284094585
 20
43.592514911
 11
64.8972094545
 21
44.2095868764
  0
LINE
  5
33A
100
AcDbEntity
  8
0
100
AcDbLine
 62
7
  6
BYLAYER
 10
42.3547094545
 20
93.05135211
 11
52.5147094545
 21
93.05135211
  0
LINE
  5
33B
100
AcDbEntity
  8
00_COMPONENTS_1
100
AcDbLine
 62
7
  6
BYLAYER
 10
63.1807094585
 20
37.21841211
 11
63.4347094585
 21
37.47241211
  0
LINE
  5
33C
100
AcDbEntity
  8
0
100
AcDbLine
 62
7
  6
BYLAYER
 10
26.4347094545
 20
94.55135211
 11
68.4347094545
 21
94.55135211
  0
LINE
  5
33D
100
AcDbEntity
  8
0
100
AcDbLine
 62
7
  6
BYLAYER
 10
59.2943094545
 20
99.02175211
 11
65.6189094545
 21
99.02175211
  0
LINE
  5
33E
100
AcDbEntity
  8
0
100
AcDbLine
 62
7
  6
BYLAYER
 10
65.6189094545
 20
100.29175211
 11
59.2943094545
 21
100.29175211
  0
LWPOLYLINE
  5
33F
100
AcDbEntity
  8
0
100
AcDbPolyline
 62
7
  6
BYLAYER
 90
3
 70
0
 10
66.6018876819
 20
14.5400610936
 10
66.6052448761
 20
14.5472520651
 10
66.6425070515
 20
14.6174599831
  0
LWPOLYLINE
  5
340
100
AcDbEntity
  8
0
100
AcDbPolyline
 62
7
  6
BYLAYER
 90
9
 70
0
 10
66.6425070515
 20
14.6174599831
 10
66.7043765999
 20
14.7299874164
 10
66.7793514349
 20
14.875390246
 10
66.8191009907
 20
14.9594371248
 10
66.8986268935
 20
15.1500922919
 10
66.972729648
 20
15.3724244919
 10
67.0339998989
 20
15.6297772064
 10
67.0729612934
 20
15.9274148487
 10
67.0802747369
 20
16.1243563548
  0
LINE
  5
341
100
AcDbEntity
  8
0
100
AcDbLine
 62
7
  6
BYLAYER
 10
45.0929202545
 20
12.1697105359
 11
45.0675830297
 21
12.1510758112
  0
LINE
  5
342
100
AcDbEntity
  8
0
100
AcDbLine
 62
7
  6
BYLAYER
 10
67.3207094545
 20
104.2049006602
 11
67.6745354595
 21
103.8510746552
  0
LINE
  5
343
100
AcDbEntity
  8
0
100
AcDbLine
 62
7
  6
BYLAYER
 10
43.8140530206
 20
12.2118405499
 11
43.7856666545
 21
12.1971762315
  0
LINE
  5
344
100
AcDbEntity
  8
0
100
AcDbLine
 62
7
  6
BYLAYER
 10
39.4599358457
 20
11.7043018465
 11
39.4603445915
 21
11.7045112992
  0
LINE
  5
345
100
AcDbEntity
  8
0
100
AcDbLine
 62
7
  6
BYLAYER
 10
43.7005999993
 20
12.1246057476
 11
43.6728906545
 21
12.1106038448
  0
LINE
  5
346
100
AcDbEntity
  8
0
100
AcDbLine
 62
7
  6
BYLAYER
 10
66.7825891372
 20
14.4405098077
 11
66.7837124082
 21
14.4417919508
  0
LWPOLYLINE
  5
347
100
AcDbEntity
  8
0
100
AcDbPolyline
 62
7
  6
BYLAYER
 90
9
 70
0
 10
54.1383387616
 20
11.8524477709
 10
54.1395855156
 20
11.853185597
 10
54.2279774238
 20
11.8899978413
 10
54.4238772734
 20
11.9475614228
 10
54.7078008295
 20
12.0111263775
 10
55.0623458627
 20
12.0729854021
 10
55.4614132834
 20
12.1252892132
 10
55.8624453743
 20
12.1588077655
 10
56.0965923559
 20
12.1658509929
  0
LINE
  5
348
100
AcDbEntity
  8
0
100
AcDbLine
 62
7
  6
BYLAYER
 10
52.4402934545
 20
12.330726664
 11
52.3865652949
 21
12.3147355438
  0
LINE
  5
349
100
AcDbEntity
  8
0
100
AcDbLine
 62
7
  6
BYLAYER
 10
52.2201606545
 20
12.265970177
 11
52.1618956236
 21
12.2490208755
  0
LINE
  5
34A
100
AcDbEntity
  8
0
100
AcDbLine
 62
7
  6
BYLAYER
 10
59.2943094545
 20
117.91935211
 11
65.6189094545
 21
117.91935211
  0
LINE
  5
34B
100
AcDbEntity
  8
0
100
AcDbLine
 62
7
  6
BYLAYER
 10
26.9347094545
 20
119.18935211
 11
67.3207094545
 21
119.18935211
  0
LINE
  5
34C
100
AcDbEntity
  8
0
100
AcDbLine
 62
7
  6
BYLAYER
 10
50.3662094545
 20
120.99275211
 11
43.8892094545
 21
120.99275211
  0
ARC
  5
34D
100
AcDbEntity
  8
0
100
AcDbCircle
 62
7
  6
BYLAYER
 10
35.6304081633
 20
4.2732395468
 40
8.4663827621
100
AcDbArc
 50
80.9908233435
 51
81.8795341845
  0
ARC
  5
34E
100
AcDbEntity
  8
0
100
AcDbCircle
 62
7
  6
BYLAYER
 10
30.0259896891
 20
16.1413393428
 40
2.5793802443
100
AcDbArc
 50
217.854235174
 51
219.8039063172
  0
ARC
  5
34F
100
AcDbEntity
  8
0
100
AcDbCircle
 62
7
  6
BYLAYER
 10
30.0164198274
 20
16.1336205233
 40
2.5670874291
100
AcDbArc
 50
217.8336207413
 51
221.2271520186
  0
ARC
  5
350
100
AcDbEntity
  8
0
100
AcDbCircle
 62
7
  6
BYLAYER
 10
30.0143580798
 20
16.1318219004
 40
2.5643516468
100
AcDbArc
 50
220.2671457497
 51
221.227444834
  0
ARC
  5
351
100
AcDbEntity
  8
0
100
AcDbCircle
 62
7
  6
BYLAYER
 10
30.0105848975
 20
16.1286564035
 40
2.5594265349
100
AcDbArc
 50
219.8065484138
 51
220.2676697506
  0
ARC
  5
352
100
AcDbEntity
  8
0
100
AcDbCircle
 62
7
  6
BYLAYER
 10
29.9347094545
 20
16.1243563474
 40
2.5
100
AcDbArc
 50
222.3414263818
 51
252.2810681265
  0
ARC
  5
353
100
AcDbEntity
  8
0
100
AcDbCircle
 62
7
  6
BYLAYER
 10
29.5347094545
 20
17.096612098
 40
1.5
100
AcDbArc
 50
95.0
 51
180.0
  0
ARC
  5
354
100
AcDbEntity
  8
0
100
AcDbCircle
 62
7
  6
BYLAYER
 10
37.5998796029
 20
12.4158460291
 40
0.25
100
AcDbArc
 50
270.0000000014
 51
360.0
  0
ARC
  5
355
100
AcDbEntity
  8
0
100
AcDbCircle
 62
7
  6
BYLAYER
 10
37.6847094545
 20
11.9474814852
 40
0.25
100
AcDbArc
 50
180.0
 51
260.6084816021
  0
ARC
  5
356
100
AcDbEntity
  8
0
100
AcDbCircle
 62
7
  6
BYLAYER
 10
31.9347094545
 20
19.3142245655
 40
0.5
100
AcDbArc
 50
275.0
 51
360.0
  0
ARC
  5
357
100
AcDbEntity
  8
0
100
AcDbCircle
 62
7
  6
BYLAYER
 10
44.9036568308
 20
4.4521991728
 40
8.3095750218
100
AcDbArc
 50
91.1480603465
 51
93.6035431329
  0
ARC
  5
358
100
AcDbEntity
  8
0
100
AcDbCircle
 62
7
  6
BYLAYER
 10
44.819989648
 20
4.0834970459
 40
8.2961604668
100
AcDbArc
 50
88.6090051707
 51
88.7529504874
  0
ARC
  5
359
100
AcDbEntity
  8
0
100
AcDbCircle
 62
7
  6
BYLAYER
 10
44.8981959029
 20
4.199920776
 40
8.2536721852
100
AcDbArc
 50
89.2877034361
 51
93.5899985162
  0
ARC
  5
35A
100
AcDbEntity
  8
0
100
AcDbCircle
 62
7
  6
BYLAYER
 10
40.2407904985
 20
4.1544682192
 40
8.0201260053
100
AcDbArc
 50
80.8416443202
 51
84.9915393827
  0
ARC
  5
35B
100
AcDbEntity
  8
0
100
AcDbCircle
 62
7
  6
BYLAYER
 10
41.1343507631
 20
16.9514606148
 40
6.5037613039
100
AcDbArc
 50
312.6038460746
 51
313.5309197221
  0
ARC
  5
35C
100
AcDbEntity
  8
0
100
AcDbCircle
 62
7
  6
BYLAYER
 10
40.5067709463
 20
5.8057017772
 40
6.3476076057
100
AcDbArc
 50
79.1117394951
 51
80.8395989527
  0
ARC
  5
35D
100
AcDbEntity
  8
0
100
AcDbCircle
 62
7
  6
BYLAYER
 10
40.3877167766
 20
17.0450009813
 40
6.2253305701
100
AcDbArc
 50
307.3550296389
 51
308.5770199101
  0
ARC
  5
35E
100
AcDbEntity
  8
0
100
AcDbCircle
 62
7
  6
BYLAYER
 10
40.4997472973
 20
16.8984459482
 40
6.0408605236
100
AcDbArc
 50
306.7423427822
 51
307.3538015181
  0
ARC
  5
35F
100
AcDbEntity
  8
0
100
AcDbCircle
 62
7
  6
BYLAYER
 10
38.7831551593
 20
7.2827993282
 40
5.9899998443
100
AcDbArc
 50
76.625657885
 51
77.0637345623
  0
ARC
  5
360
100
AcDbEntity
  8
0
100
AcDbCircle
 62
7
  6
BYLAYER
 10
44.9502266329
 20
6.9730051438
 40
5.4034714851
100
AcDbArc
 50
85.6743422315
 51
86.3884878385
  0
ARC
  5
361
100
AcDbEntity
  8
0
100
AcDbCircle
 62
7
  6
BYLAYER
 10
41.8419670903
 20
8.4816007845
 40
4.3899961121
100
AcDbArc
 50
78.1752858962
 51
80.4877847227
  0
ARC
  5
362
100
AcDbEntity
  8
0
100
AcDbCircle
 62
7
  6
BYLAYER
 10
41.8488736454
 20
8.5630842862
 40
4.3084967526
100
AcDbArc
 50
80.3992950211
 51
84.8323083448
  0
ARC
  5
363
100
AcDbEntity
  8
0
100
AcDbCircle
 62
7
  6
BYLAYER
 10
44.3139554561
 20
8.5346228786
 40
3.8172382787
100
AcDbArc
 50
99.8268787007
 51
102.2415350671
  0
ARC
  5
364
100
AcDbEntity
  8
0
100
AcDbCircle
 62
7
  6
BYLAYER
 10
44.2742933247
 20
8.7577938487
 40
3.5905726175
100
AcDbArc
 50
99.43865446
 51
99.811061448
  0
ARC
  5
365
100
AcDbEntity
  8
0
100
AcDbCircle
 62
7
  6
BYLAYER
 10
44.2687973687
 20
8.79114576
 40
3.5567709428
100
AcDbArc
 50
97.9114876713
 51
99.4394257559
  0
ARC
  5
366
100
AcDbEntity
  8
0
100
AcDbCircle
 62
7
  6
BYLAYER
 10
46.5018815344
 20
9.2251417259
 40
3.5171734051
100
AcDbArc
 50
87.3383973302
 51
89.1355665511
  0
ARC
  5
367
100
AcDbEntity
  8
0
100
AcDbCircle
 62
7
  6
BYLAYER
 10
44.0898003065
 20
9.345606931
 40
3.4804740962
100
AcDbArc
 50
85.314942597
 51
86.8877071637
  0
ARC
  5
368
100
AcDbEntity
  8
0
100
AcDbCircle
 62
7
  6
BYLAYER
 10
44.090462201
 20
9.352189004
 40
3.4738599552
100
AcDbArc
 50
84.8563086971
 51
85.3169559233
  0
ARC
  5
369
100
AcDbEntity
  8
0
100
AcDbCircle
 62
7
  6
BYLAYER
 10
44.3262451699
 20
10.2815928486
 40
2.4854708952
100
AcDbArc
 50
105.3947743798
 51
105.8643859632
  0
ARC
  5
36A
100
AcDbEntity
  8
0
100
AcDbCircle
 62
7
  6
BYLAYER
 10
38.6391776031
 20
13.3094276544
 40
1.8027958733
100
AcDbArc
 50
297.083147664
 51
298.7055425572
  0
ARC
  5
36B
100
AcDbEntity
  8
0
100
AcDbCircle
 62
7
  6
BYLAYER
 10
38.602392901
 20
13.0684457294
 40
1.559257405
100
AcDbArc
 50
297.0829589283
 51
298.7063716652
  0
ARC
  5
36C
100
AcDbEntity
  8
00_COMPONENTS_1
100
AcDbCircle
 62
7
  6
BYLAYER
 10
38.6448400226
 20
13.3608099834
 40
1.5551119086
100
AcDbArc
 50
297.0866759178
 51
298.7047305217
  0
ARC
  5
36D
100
AcDbEntity
  8
0
100
AcDbCircle
 62
7
  6
BYLAYER
 10
39.8578948395
 20
13.0825545714
 40
1.5387082434
100
AcDbArc
 50
253.7044129686
 51
254.7773332589
  0
ARC
  5
36E
100
AcDbEntity
  8
0
100
AcDbCircle
 62
7
  6
BYLAYER
 10
46.2290373767
 20
11.4440637933
 40
1.2711224503
100
AcDbArc
 50
103.9708817045
 51
104.4041801545
  0
ARC
  5
36F
100
AcDbEntity
  8
0
100
AcDbCircle
 62
7
  6
BYLAYER
 10
45.693208573
 20
11.9455211539
 40
0.7541339346
100
AcDbArc
 50
73.0686092641
 51
74.2517862434
  0
ARC
  5
370
100
AcDbEntity
  8
0
100
AcDbCircle
 62
7
  6
BYLAYER
 10
44.020231627
 20
12.4546322524
 40
0.4076337163
100
AcDbArc
 50
266.6845221902
 51
272.1694736643
  0
ARC
  5
371
100
AcDbEntity
  8
0
100
AcDbCircle
 62
7
  6
BYLAYER
 10
39.7582451658
 20
12.4295354133
 40
0.3515090971
100
AcDbArc
 50
247.7216859161
 51
248.6382683052
  0
ARC
  5
372
100
AcDbEntity
  8
0
100
AcDbCircle
 62
7
  6
BYLAYER
 10
39.3850178407
 20
11.9474814852
 40
0.25
100
AcDbArc
 50
298.3249245055
 51
360.0
  0
ARC
  5
373
100
AcDbEntity
  8
0
100
AcDbCircle
 62
7
  6
BYLAYER
 10
39.3485327754
 20
11.9242741592
 40
0.246773844
100
AcDbArc
 50
261.5554413919
 51
269.9842459549
  0
ARC
  5
374
100
AcDbEntity
  8
0
100
AcDbCircle
 62
7
  6
BYLAYER
 10
42.3645698459
 20
12.0231885172
 40
0.2465537383
100
AcDbArc
 50
210.2339180727
 51
214.9084299017
  0
ARC
  5
375
100
AcDbEntity
  8
0
100
AcDbCircle
 62
7
  6
BYLAYER
 10
46.2973209251
 20
30.1224241878
 40
19.3784868292
100
AcDbArc
 50
293.7899961228
 51
294.1680865964
  0
ARC
  5
376
100
AcDbEntity
  8
0
100
AcDbCircle
 62
7
  6
BYLAYER
 10
41.2315146634
 20
24.2871946216
 40
11.6215451753
100
AcDbArc
 50
262.0564839926
 51
262.4256761423
  0
ARC
  5
377
100
AcDbEntity
  8
0
100
AcDbCircle
 62
7
  6
BYLAYER
 10
39.6769768813
 20
20.1850150118
 40
8.9825892693
100
AcDbArc
 50
297.4236431624
 51
297.8337095393
  0
ARC
  5
378
100
AcDbEntity
  8
0
100
AcDbCircle
 62
7
  6
BYLAYER
 10
42.7696668322
 20
20.9804291911
 40
8.5109347374
100
AcDbArc
 50
268.4180952241
 51
270.0136809608
  0
ARC
  5
379
100
AcDbEntity
  8
0
100
AcDbCircle
 62
7
  6
BYLAYER
 10
39.8530141536
 20
19.7041037198
 40
8.5001591956
100
AcDbArc
 50
296.9137479684
 51
297.3348580953
  0
ARC
  5
37A
100
AcDbEntity
  8
0
100
AcDbCircle
 62
7
  6
BYLAYER
 10
44.4467439347
 20
19.8044596902
 40
7.9404326889
100
AcDbArc
 50
267.4896089192
 51
267.6736220139
  0
ARC
  5
37B
100
AcDbEntity
  8
0
100
AcDbCircle
 62
7
  6
BYLAYER
 10
41.3508536243
 20
18.3432109851
 40
7.4174315097
100
AcDbArc
 50
301.1102813789
 51
301.7602806986
  0
ARC
  5
37C
100
AcDbEntity
  8
0
100
AcDbCircle
 62
7
  6
BYLAYER
 10
42.7318567013
 20
19.7223347139
 40
7.2522766042
100
AcDbArc
 50
266.6694662474
 51
268.4423086502
  0
ARC
  5
37D
100
AcDbEntity
  8
0
100
AcDbCircle
 62
7
  6
BYLAYER
 10
41.2359345273
 20
18.0530037262
 40
7.2303989301
100
AcDbArc
 50
304.2957064027
 51
304.941398645
  0
ARC
  5
37E
100
AcDbEntity
  8
0
100
AcDbCircle
 62
7
  6
BYLAYER
 10
41.0142410192
 20
17.6872411139
 40
6.8613925491
100
AcDbArc
 50
304.444918677
 51
306.2099832194
  0
ARC
  5
37F
100
AcDbEntity
  8
0
100
AcDbCircle
 62
7
  6
BYLAYER
 10
42.6929740898
 20
19.0413248998
 40
6.5701581333
100
AcDbArc
 50
265.7729200431
 51
266.6629515936
  0
ARC
  5
380
100
AcDbEntity
  8
0
100
AcDbCircle
 62
7
  6
BYLAYER
 10
40.1914777834
 20
17.2784820274
 40
6.2355285191
100
AcDbArc
 50
302.2605126522
 51
303.3676311327
  0
ARC
  5
381
100
AcDbEntity
  8
0
100
AcDbCircle
 62
7
  6
BYLAYER
 10
42.6564119898
 20
18.5490336525
 40
6.0765110673
100
AcDbArc
 50
264.7922526586
 51
265.7745802518
  0
ARC
  5
382
100
AcDbEntity
  8
0
100
AcDbCircle
 62
7
  6
BYLAYER
 10
44.5642284882
 20
17.7371350518
 40
5.8715498334
100
AcDbArc
 50
273.3185219544
 51
273.8887265977
  0
ARC
  5
383
100
AcDbEntity
  8
0
100
AcDbCircle
 62
7
  6
BYLAYER
 10
38.417751078
 20
18.2181758026
 40
5.8688714573
100
AcDbArc
 50
255.9882137861
 51
258.8520289978
  0
ARC
  5
384
100
AcDbEntity
  8
0
100
AcDbCircle
 62
7
  6
BYLAYER
 10
38.3663441355
 20
18.0117402493
 40
5.6561314754
100
AcDbArc
 50
255.2787500881
 51
255.9871490767
  0
ARC
  5
385
100
AcDbEntity
  8
0
100
AcDbCircle
 62
7
  6
BYLAYER
 10
40.6152816825
 20
18.8735122504
 40
5.6030728278
100
AcDbArc
 50
256.2162451584
 51
256.7542222238
  0
ARC
  5
386
100
AcDbEntity
  8
0
100
AcDbCircle
 62
7
  6
BYLAYER
 10
44.5855594388
 20
17.3528878974
 40
5.4869256241
100
AcDbArc
 50
276.4387283934
 51
278.0224649848
  0
ARC
  5
387
100
AcDbEntity
  8
0
100
AcDbCircle
 62
7
  6
BYLAYER
 10
44.5947360392
 20
17.2976972485
 40
5.4310548192
100
AcDbArc
 50
273.8820266662
 51
276.4078220743
  0
ARC
  5
388
100
AcDbEntity
  8
0
100
AcDbCircle
 62
7
  6
BYLAYER
 10
40.5072723496
 20
18.4384867849
 40
5.4199355883
100
AcDbArc
 50
265.3100338454
 51
265.4737263357
  0
ARC
  5
389
100
AcDbEntity
  8
0
100
AcDbCircle
 62
7
  6
BYLAYER
 10
40.4850672932
 20
18.0551925223
 40
5.0799297596
100
AcDbArc
 50
255.8733870197
 51
256.2810784845
  0
ARC
  5
38A
100
AcDbEntity
  8
0
100
AcDbCircle
 62
7
  6
BYLAYER
 10
40.4855408458
 20
18.3429879944
 40
5.0569148872
100
AcDbArc
 50
255.9162095853
 51
256.2117452837
  0
ARC
  5
38B
100
AcDbEntity
  8
0
100
AcDbCircle
 62
7
  6
BYLAYER
 10
42.412202867
 20
17.3500077109
 40
4.5500953953
100
AcDbArc
 50
260.0048078694
 51
260.2177945828
  0
ARC
  5
38C
100
AcDbEntity
  8
0
100
AcDbCircle
 62
7
  6
BYLAYER
 10
42.3748640528
 20
17.1391877196
 40
4.3359944345
100
AcDbArc
 50
259.5109836091
 51
260.0071997642
  0
ARC
  5
38D
100
AcDbEntity
  8
0
100
AcDbCircle
 62
7
  6
BYLAYER
 10
46.365724327
 20
69.9877275997
 40
58.483493681
100
AcDbArc
 50
261.1495385194
 51
261.3389154166
  0
ARC
  5
38E
100
AcDbEntity
  8
0
100
AcDbCircle
 62
7
  6
BYLAYER
 10
46.3394278493
 20
69.9961509137
 40
58.2445039503
100
AcDbArc
 50
261.0548274638
 51
261.3389038104
  0
ARC
  5
38F
100
AcDbEntity
  8
00_COMPONENTS_1
100
AcDbCircle
 62
7
  6
BYLAYER
 10
46.3711225084
 20
69.9926221884
 40
58.1914304052
100
AcDbArc
 50
261.0547259507
 51
261.3389155147
  0
ARC
  5
390
100
AcDbEntity
  8
0
100
AcDbCircle
 62
7
  6
BYLAYER
 10
46.0560260019
 20
70.0043242826
 40
58.0897726066
100
AcDbArc
 50
260.9919241587
 51
264.9531691981
  0
ARC
  5
391
100
AcDbEntity
  8
0
100
AcDbCircle
 62
7
  6
BYLAYER
 10
46.0502483842
 20
70.0005175513
 40
58.0817061984
100
AcDbArc
 50
260.9919236595
 51
264.9533345935
  0
ARC
  5
392
100
AcDbEntity
  8
00_COMPONENTS_1
100
AcDbCircle
 62
7
  6
BYLAYER
 10
46.055688097
 20
69.9930311046
 40
57.7792469218
100
AcDbArc
 50
260.9917123573
 51
264.9538263525
  0
ARC
  5
393
100
AcDbEntity
  8
0
100
AcDbCircle
 62
7
  6
BYLAYER
 10
43.6578896028
 20
41.7399357592
 40
30.6925428574
100
AcDbArc
 50
286.19870943
 51
286.522435032
  0
ARC
  5
394
100
AcDbEntity
  8
0
100
AcDbCircle
 62
7
  6
BYLAYER
 10
43.6819296287
 20
41.6567916863
 40
30.6059929971
100
AcDbArc
 50
285.8202901823
 51
286.0853396247
  0
ARC
  5
395
100
AcDbEntity
  8
00_COMPONENTS_1
100
AcDbCircle
 62
7
  6
BYLAYER
 10
30.6473094505
 20
42.910606508
 40
0.7874
100
AcDbArc
 50
0.0
 51
60.0
  0
ARC
  5
396
100
AcDbEntity
  8
0
100
AcDbCircle
 62
7
  6
BYLAYER
 10
56.3677888962
 20
3.9089615289
 40
8.2691690431
100
AcDbArc
 50
94.1787377816
 51
96.6921773027
  0
ARC
  5
397
100
AcDbEntity
  8
0
100
AcDbCircle
 62
7
  6
BYLAYER
 10
56.1053757955
 20
4.8706341093
 40
7.2794002726
100
AcDbArc
 50
100.7521988008
 51
101.758455059
  0
ARC
  5
398
100
AcDbEntity
  8
0
100
AcDbCircle
 62
7
  6
BYLAYER
 10
54.6351822925
 20
8.2612341492
 40
4.8865460893
100
AcDbArc
 50
96.5622960078
 51
100.9968485258
  0
ARC
  5
399
100
AcDbEntity
  8
0
100
AcDbCircle
 62
7
  6
BYLAYER
 10
47.4404335864
 20
8.0082363101
 40
4.8135702263
100
AcDbArc
 50
108.2067732591
 51
108.5029256135
  0
ARC
  5
39A
100
AcDbEntity
  8
0
100
AcDbCircle
 62
7
  6
BYLAYER
 10
54.5077661682
 20
8.9447648217
 40
4.1912647289
100
AcDbArc
 50
101.0694435851
 51
101.4257909044
  0
ARC
  5
39B
100
AcDbEntity
  8
0
100
AcDbCircle
 62
7
  6
BYLAYER
 10
56.1404087223
 20
8.0073020334
 40
4.1638895552
100
AcDbArc
 50
90.5060347239
 51
91.984926447
  0
ARC
  5
39C
100
AcDbEntity
  8
0
100
AcDbCircle
 62
7
  6
BYLAYER
 10
51.941253111
 20
8.7927249598
 40
4.105829038
100
AcDbArc
 50
94.1694377383
 51
98.8339620582
  0
ARC
  5
39D
100
AcDbEntity
  8
0
100
AcDbCircle
 62
7
  6
BYLAYER
 10
54.4737774897
 20
9.1128449482
 40
4.0197824883
100
AcDbArc
 50
101.4255249257
 51
101.8147113758
  0
ARC
  5
39E
100
AcDbEntity
  8
0
100
AcDbCircle
 62
7
  6
BYLAYER
 10
48.5670217407
 20
8.8825303614
 40
3.8606240101
100
AcDbArc
 50
96.1168320392
 51
96.453811577
  0
ARC
  5
39F
100
AcDbEntity
  8
0
100
AcDbCircle
 62
7
  6
BYLAYER
 10
54.4383098334
 20
9.2824224224
 40
3.8465356287
100
AcDbArc
 50
101.8147750542
 51
102.190715213
  0
ARC
  5
3A0
100
AcDbEntity
  8
0
100
AcDbCircle
 62
7
  6
BYLAYER
 10
51.8694353892
 20
9.2643553927
 40
3.628764443
100
AcDbArc
 50
98.8570657342
 51
99.5363561899
  0
ARC
  5
3A1
100
AcDbEntity
  8
0
100
AcDbCircle
 62
7
  6
BYLAYER
 10
56.1333626239
 20
8.7007260054
 40
3.4704305201
100
AcDbArc
 50
90.0058785136
 51
90.4908193476
  0
ARC
  5
3A2
100
AcDbEntity
  8
0
100
AcDbCircle
 62
7
  6
BYLAYER
 10
48.7481554156
 20
9.7100433872
 40
3.0330933244
100
AcDbArc
 50
83.6866282278
 51
84.4698925409
  0
ARC
  5
3A3
100
AcDbEntity
  8
0
100
AcDbCircle
 62
7
  6
BYLAYER
 10
54.5522083339
 20
10.1924650235
 40
2.9520778504
100
AcDbArc
 50
89.0088835557
 51
90.124076562
  0
ARC
  5
3A4
100
AcDbEntity
  8
0
100
AcDbCircle
 62
7
  6
BYLAYER
 10
51.2534069882
 20
9.3854065574
 40
2.7688306248
100
AcDbArc
 50
86.2298288013
 51
88.3721673757
  0
ARC
  5
3A5
100
AcDbEntity
  8
0
100
AcDbCircle
 62
7
  6
BYLAYER
 10
51.2612648999
 20
9.7323992157
 40
2.4217556074
100
AcDbArc
 50
88.3247940916
 51
90.7845678655
  0
ARC
  5
3A6
100
AcDbEntity
  8
0
100
AcDbCircle
 62
7
  6
BYLAYER
 10
54.910261524
 20
9.7361155222
 40
2.2671110635
100
AcDbArc
 50
107.1402648012
 51
107.577947716
  0
ARC
  5
3A7
100
AcDbEntity
  8
0
100
AcDbCircle
 62
7
  6
BYLAYER
 10
51.9781586273
 20
10.5360991542
 40
2.2668504346
100
AcDbArc
 50
91.2845395219
 51
94.2876413136
  0
ARC
  5
3A8
100
AcDbEntity
  8
0
100
AcDbCircle
 62
7
  6
BYLAYER
 10
51.2540519124
 20
10.1157082619
 40
2.0383846765
100
AcDbArc
 50
90.7293709966
 51
93.565596213
  0
ARC
  5
3A9
100
AcDbEntity
  8
0
100
AcDbCircle
 62
7
  6
BYLAYER
 10
51.963333675
 20
10.7771243081
 40
2.0253940604
100
AcDbArc
 50
94.3791964671
 51
98.8483441645
  0
ARC
  5
3AA
100
AcDbEntity
  8
0
100
AcDbCircle
 62
7
  6
BYLAYER
 10
49.4444678657
 20
10.6805583958
 40
1.4218649337
100
AcDbArc
 50
98.9495062337
 51
100.8511518667
  0
ARC
  5
3AB
100
AcDbEntity
  8
0
100
AcDbCircle
 62
7
  6
BYLAYER
 10
54.2204679896
 20
11.059543544
 40
1.4130773704
100
AcDbArc
 50
113.5933242175
 51
114.3962963093
  0
ARC
  5
3AC
100
AcDbEntity
  8
0
100
AcDbCircle
 62
7
  6
BYLAYER
 10
54.2724308695
 20
11.7417385459
 40
1.2950027805
100
AcDbArc
 50
98.0385863427
 51
107.4185170206
  0
ARC
  5
3AD
100
AcDbEntity
  8
0
100
AcDbCircle
 62
7
  6
BYLAYER
 10
48.6295162685
 20
11.4111999982
 40
1.2436267851
100
AcDbArc
 50
92.9980248873
 51
102.1303579743
  0
ARC
  5
3AE
100
AcDbEntity
  8
0
100
AcDbCircle
 62
7
  6
BYLAYER
 10
54.2557072376
 20
11.8352612082
 40
1.2000997924
100
AcDbArc
 50
91.3015235477
 51
96.5541582763
  0
ARC
  5
3AF
100
AcDbEntity
  8
0
100
AcDbCircle
 62
7
  6
BYLAYER
 10
54.2509170714
 20
11.8844978617
 40
1.1506384912
100
AcDbArc
 50
96.5970378808
 51
97.9719137704
  0
ARC
  5
3B0
100
AcDbEntity
  8
0
100
AcDbCircle
 62
7
  6
BYLAYER
 10
48.6247614584
 20
11.5066412234
 40
1.1480675286
100
AcDbArc
 50
91.1606401265
 51
93.0101730653
  0
ARC
  5
3B1
100
AcDbEntity
  8
0
100
AcDbCircle
 62
7
  6
BYLAYER
 10
49.5554293787
 20
10.9702372267
 40
1.104098232
100
AcDbArc
 50
92.0689921869
 51
96.5779591464
  0
ARC
  5
3B2
100
AcDbEntity
  8
0
100
AcDbCircle
 62
7
  6
BYLAYER
 10
51.1950955906
 20
11.0718396721
 40
1.0804377081
100
AcDbArc
 50
93.5985170629
 51
94.1702447823
  0
ARC
  5
3B3
100
AcDbEntity
  8
0
100
AcDbCircle
 62
7
  6
BYLAYER
 10
49.5461758825
 20
11.1746008962
 40
0.8995356561
100
AcDbArc
 50
87.3733865789
 51
91.9499243445
  0
ARC
  5
3B4
100
AcDbEntity
  8
0
100
AcDbCircle
 62
7
  6
BYLAYER
 10
54.003401631
 20
11.5284524953
 40
0.8663723895
100
AcDbArc
 50
96.3395630334
 51
101.3067999007
  0
ARC
  5
3B5
100
AcDbEntity
  8
0
100
AcDbCircle
 62
7
  6
BYLAYER
 10
48.2793913055
 20
22.4335015303
 40
12.5366599557
100
AcDbArc
 50
313.4271295888
 51
314.5088550355
  0
ARC
  5
3B6
100
AcDbEntity
  8
0
100
AcDbCircle
 62
7
  6
BYLAYER
 10
53.2419582868
 20
20.7597562276
 40
8.1696631406
100
AcDbArc
 50
276.5910265488
 51
277.7297808563
  0
ARC
  5
3B7
100
AcDbEntity
  8
0
100
AcDbCircle
 62
7
  6
BYLAYER
 10
48.4951229148
 20
20.3076033582
 40
8.0415978743
100
AcDbArc
 50
271.1875744301
 51
272.2923494231
  0
ARC
  5
3B8
100
AcDbEntity
  8
0
100
AcDbCircle
 62
7
  6
BYLAYER
 10
53.3886016961
 20
19.6755250703
 40
7.0755602294
100
AcDbArc
 50
277.7339878404
 51
279.1140927912
  0
ARC
  5
3B9
100
AcDbEntity
  8
0
100
AcDbCircle
 62
7
  6
BYLAYER
 10
53.4363619217
 20
19.0144258654
 40
6.4135581968
100
AcDbArc
 50
274.1324810789
 51
276.6554640696
  0
ARC
  5
3BA
100
AcDbEntity
  8
0
100
AcDbCircle
 62
7
  6
BYLAYER
 10
55.399319672
 20
17.7393811783
 40
5.2931261928
100
AcDbArc
 50
278.4909456732
 51
279.8525647232
  0
ARC
  5
3BB
100
AcDbEntity
  8
0
100
AcDbCircle
 62
7
  6
BYLAYER
 10
50.8033217743
 20
17.1857038372
 40
5.2272791202
100
AcDbArc
 50
273.5531814127
 51
274.9126668941
  0
ARC
  5
3BC
100
AcDbEntity
  8
0
100
AcDbCircle
 62
7
  6
BYLAYER
 10
48.4473109817
 20
16.5893130561
 40
4.3215180396
100
AcDbArc
 50
265.8754331883
 51
267.0215061254
  0
ARC
  5
3BD
100
AcDbEntity
  8
0
100
AcDbCircle
 62
7
  6
BYLAYER
 10
48.4402654578
 20
16.7737762652
 40
4.1986780448
100
AcDbArc
 50
265.9643422623
 51
266.3522266729
  0
ARC
  5
3BE
100
AcDbEntity
  8
0
100
AcDbCircle
 62
7
  6
BYLAYER
 10
49.3795486086
 20
16.0847697183
 40
4.1973882054
100
AcDbArc
 50
272.8423123283
 51
274.2425561188
  0
ARC
  5
3BF
100
AcDbEntity
  8
0
100
AcDbCircle
 62
7
  6
BYLAYER
 10
55.5977282732
 20
16.5934192015
 40
4.1301152932
100
AcDbArc
 50
279.8609880745
 51
281.4362926052
  0
ARC
  5
3C0
100
AcDbEntity
  8
0
100
AcDbCircle
 62
7
  6
BYLAYER
 10
49.3828964642
 20
16.0144531088
 40
4.1269920912
100
AcDbArc
 50
272.0351051645
 51
272.8442987105
  0
ARC
  5
3C1
100
AcDbEntity
  8
0
100
AcDbCircle
 62
7
  6
BYLAYER
 10
50.9128250976
 20
15.9034083273
 40
3.9403167735
100
AcDbArc
 50
274.9230074608
 51
276.5453537454
  0
ARC
  5
3C2
100
AcDbEntity
  8
0
100
AcDbCircle
 62
7
  6
BYLAYER
 10
49.4043281871
 20
15.7645146672
 40
3.8761776831
100
AcDbArc
 50
274.2274855862
 51
276.4637844947
  0
ARC
  5
3C3
100
AcDbEntity
  8
0
100
AcDbCircle
 62
7
  6
BYLAYER
 10
51.3556181837
 20
15.9176100277
 40
3.5233015753
100
AcDbArc
 50
274.0997947778
 51
277.270441361
  0
ARC
  5
3C4
100
AcDbEntity
  8
0
100
AcDbCircle
 62
7
  6
BYLAYER
 10
51.3649885151
 20
15.8681722334
 40
3.4730767544
100
AcDbArc
 50
277.2203148829
 51
280.242022267
  0
ARC
  5
3C5
100
AcDbEntity
  8
0
100
AcDbCircle
 62
7
  6
BYLAYER
 10
49.4224552455
 20
15.3168368732
 40
3.3910778648
100
AcDbArc
 50
277.1403404555
 51
279.3974029147
  0
ARC
  5
3C6
100
AcDbEntity
  8
0
100
AcDbCircle
 62
7
  6
BYLAYER
 10
49.4454735424
 20
15.1279113687
 40
3.2007564281
100
AcDbArc
 50
274.7848710991
 51
277.1518627908
  0
ARC
  5
3C7
100
AcDbEntity
  8
0
100
AcDbCircle
 62
7
  6
BYLAYER
 10
49.4798161157
 20
14.7284702128
 40
2.7998428265
100
AcDbArc
 50
272.1598187903
 51
274.7663795754
  0
ARC
  5
3C8
100
AcDbEntity
  8
0
100
AcDbCircle
 62
7
  6
BYLAYER
 10
52.3357019206
 20
14.8019542713
 40
2.7354635627
100
AcDbArc
 50
276.9638578897
 51
278.8825192468
  0
ARC
  5
3C9
100
AcDbEntity
  8
0
100
AcDbCircle
 62
7
  6
BYLAYER
 10
52.3461534168
 20
14.7402442378
 40
2.6728799307
100
AcDbArc
 50
278.8654225611
 51
280.8745873242
  0
ARC
  5
3CA
100
AcDbEntity
  8
0
100
AcDbCircle
 62
7
  6
BYLAYER
 10
52.3604741126
 20
14.5923207928
 40
2.5243732613
100
AcDbArc
 50
275.0234702923
 51
276.9826327637
  0
ARC
  5
3CB
100
AcDbEntity
  8
0
100
AcDbCircle
 62
7
  6
BYLAYER
 10
49.4644139263
 20
13.831231885
 40
1.9423106317
100
AcDbArc
 50
265.9109578815
 51
270.065696885
  0
ARC
  5
3CC
100
AcDbEntity
  8
0
100
AcDbCircle
 62
7
  6
BYLAYER
 10
49.4646507075
 20
13.7270801446
 40
1.838158692
100
AcDbArc
 50
270.0620388162
 51
272.0203334222
  0
ARC
  5
3CD
100
AcDbEntity
  8
0
100
AcDbCircle
 62
7
  6
BYLAYER
 10
56.5190679977
 20
2.5133291562
 40
9.6729296399
100
AcDbArc
 50
96.6187765646
 51
98.7606403262
  0
ARC
  5
3CE
100
AcDbEntity
  8
0
100
AcDbCircle
 62
7
  6
BYLAYER
 10
56.3948297441
 20
3.3087534295
 40
8.8678631931
100
AcDbArc
 50
98.7500431169
 51
100.7068738238
  0
ARC
  5
3CF
100
AcDbEntity
  8
0
100
AcDbCircle
 62
7
  6
BYLAYER
 10
56.6324849557
 20
9.6255896816
 40
3.1355820768
100
AcDbArc
 50
98.5501123862
 51
101.9580845663
  0
ARC
  5
3D0
100
AcDbEntity
  8
0
100
AcDbCircle
 62
7
  6
BYLAYER
 10
56.5482188323
 20
9.9298541428
 40
2.7833256485
100
AcDbArc
 50
91.2040892244
 51
93.3479349445
  0
ARC
  5
3D1
100
AcDbEntity
  8
0
100
AcDbCircle
 62
7
  6
BYLAYER
 10
56.5261142961
 20
10.2747876964
 40
2.4376906605
100
AcDbArc
 50
93.3027376284
 51
95.7584414401
  0
ARC
  5
3D2
100
AcDbEntity
  8
0
100
AcDbCircle
 62
7
  6
BYLAYER
 10
56.4874070643
 20
10.6403291909
 40
2.0701109181
100
AcDbArc
 50
95.7076411425
 51
98.515642105
  0
ARC
  5
3D3
100
AcDbEntity
  8
0
100
AcDbCircle
 62
7
  6
BYLAYER
 10
56.5420456047
 20
12.4609146284
 40
0.815220293
100
AcDbArc
 50
120.9094273196
 51
124.5877298495
  0
ARC
  5
3D4
100
AcDbEntity
  8
0
100
AcDbCircle
 62
7
  6
BYLAYER
 10
57.1847094545
 20
11.9474814852
 40
0.25
100
AcDbArc
 50
279.3915183979
 51
360.0
  0
ARC
  5
3D5
100
AcDbEntity
  8
0
100
AcDbCircle
 62
7
  6
BYLAYER
 10
64.848122681
 20
16.1375682118
 40
2.5733601939
100
AcDbArc
 50
319.733010781
 51
322.146193805
  0
ARC
  5
3D6
100
AcDbEntity
  8
0
100
AcDbCircle
 62
7
  6
BYLAYER
 10
64.8550608298
 20
16.1318218999
 40
2.564351646
100
AcDbArc
 50
318.7725551659
 51
319.7328542505
  0
ARC
  5
3D7
100
AcDbEntity
  8
0
100
AcDbCircle
 62
7
  6
BYLAYER
 10
64.8809608441
 20
16.1095096784
 40
2.5301671751
100
AcDbArc
 50
318.766184551
 51
319.7385732838
  0
ARC
  5
3D8
100
AcDbEntity
  8
0
100
AcDbCircle
 62
7
  6
BYLAYER
 10
64.9347094545
 20
16.1243563474
 40
2.5
100
AcDbArc
 50
287.7189318735
 51
317.6585736182
  0
ARC
  5
3D9
100
AcDbEntity
  8
0
100
AcDbCircle
 62
7
  6
BYLAYER
 10
65.3347094545
 20
17.096612098
 40
1.5
100
AcDbArc
 50
0.0
 51
85.0
  0
ARC
  5
3DA
100
AcDbEntity
  8
0
100
AcDbCircle
 62
7
  6
BYLAYER
 10
62.9347094545
 20
19.3142245655
 40
0.5
100
AcDbArc
 50
180.0
 51
265.0
  0
ARC
  5
3DB
100
AcDbEntity
  8
0
100
AcDbCircle
 62
7
  6
BYLAYER
 10
47.4347094545
 20
70.896612098
 40
60.0
100
AcDbArc
 50
252.2810681268
 51
258.1692763329
  0
ARC
  5
3DC
100
AcDbEntity
  8
0
100
AcDbCircle
 62
7
  6
BYLAYER
 10
47.4347094545
 20
70.896612098
 40
60.0
100
AcDbArc
 50
281.8307236147
 51
287.7189318489
  0
ARC
  5
3DD
100
AcDbEntity
  8
0
100
AcDbCircle
 62
7
  6
BYLAYER
 10
47.4347094545
 20
70.896612098
 40
60.0
100
AcDbArc
 50
260.6084817293
 51
279.391518179
  0
ARC
  5
3DE
100
AcDbEntity
  8
00_COMPONENTS_1
100
AcDbCircle
 62
7
  6
BYLAYER
 10
47.4347094545
 20
70.896612098
 40
59.7
100
AcDbArc
 50
252.2808954037
 51
258.1692288516
  0
ARC
  5
3DF
100
AcDbEntity
  8
00_COMPONENTS_1
100
AcDbCircle
 62
7
  6
BYLAYER
 10
47.4347094545
 20
70.896612098
 40
59.7
100
AcDbArc
 50
281.8307426513
 51
287.7190422261
  0
ARC
  5
3E0
100
AcDbEntity
  8
00_COMPONENTS_1
100
AcDbCircle
 62
7
  6
BYLAYER
 10
47.4347094545
 20
70.896612098
 40
59.7
100
AcDbArc
 50
260.6086928699
 51
279.3914275239
  0
ARC
  5
3E1
100
AcDbEntity
  8
0
100
AcDbCircle
 62
7
  6
BYLAYER
 10
47.4347094545
 20
70.896612098
 40
59.0399199631
100
AcDbArc
 50
270.7461715313
 51
270.9604830947
  0
ARC
  5
3E2
100
AcDbEntity
  8
0
100
AcDbCircle
 62
7
  6
BYLAYER
 10
47.4347094545
 20
70.896612098
 40
59.0399199631
100
AcDbArc
 50
275.8152218424
 51
276.0299981052
  0
ARC
  5
3E3
100
AcDbEntity
  8
0
100
AcDbCircle
 62
7
  6
BYLAYER
 10
47.4347094545
 20
70.896612098
 40
59.0399199631
100
AcDbArc
 50
277.1817362645
 51
277.3971067388
  0
ARC
  5
3E4
100
AcDbEntity
  8
0
100
AcDbCircle
 62
7
  6
BYLAYER
 10
47.4347094545
 20
70.896612098
 40
59.0397361285
100
AcDbArc
 50
269.2428271548
 51
270.1962998627
  0
ARC
  5
3E5
100
AcDbEntity
  8
0
100
AcDbCircle
 62
7
  6
BYLAYER
 10
47.4347094545
 20
70.896612098
 40
59.0210610171
100
AcDbArc
 50
266.1967507941
 51
266.7659353044
  0
ARC
  5
3E6
100
AcDbEntity
  8
0
100
AcDbCircle
 62
7
  6
BYLAYER
 10
47.4347094545
 20
70.896612098
 40
58.9996356732
100
AcDbArc
 50
269.4764940665
 51
270.1964332829
  0
ARC
  5
3E7
100
AcDbEntity
  8
0
100
AcDbCircle
 62
7
  6
BYLAYER
 10
47.4347094545
 20
70.896612098
 40
58.9492741217
100
AcDbArc
 50
266.2907451178
 51
266.6564853697
  0
ARC
  5
3E8
100
AcDbEntity
  8
0
100
AcDbCircle
 62
7
  6
BYLAYER
 10
47.4347094545
 20
70.896612098
 40
58.9470248813
100
AcDbArc
 50
267.8111681026
 51
268.2693262924
  0
ARC
  5
3E9
100
AcDbEntity
  8
0
100
AcDbCircle
 62
7
  6
BYLAYER
 10
47.4347094545
 20
70.896612098
 40
58.9420679961
100
AcDbArc
 50
271.7260543783
 51
272.4900100056
  0
ARC
  5
3EA
100
AcDbEntity
  8
0
100
AcDbCircle
 62
7
  6
BYLAYER
 10
47.4347094545
 20
70.896612098
 40
58.9139052403
100
AcDbArc
 50
271.7311635614
 51
272.2775875562
  0
ARC
  5
3EB
100
AcDbEntity
  8
0
100
AcDbCircle
 62
7
  6
BYLAYER
 10
47.4347094545
 20
70.896612098
 40
58.9062479456
100
AcDbArc
 50
265.8409585258
 51
266.3385359085
  0
ARC
  5
3EC
100
AcDbEntity
  8
0
100
AcDbCircle
 62
7
  6
BYLAYER
 10
47.4347094545
 20
70.896612098
 40
58.9004705219
100
AcDbArc
 50
267.8793278393
 51
268.4149496964
  0
ARC
  5
3ED
100
AcDbEntity
  8
0
100
AcDbCircle
 62
7
  6
BYLAYER
 10
47.4347094545
 20
70.896612098
 40
58.8996813838
100
AcDbArc
 50
269.4756056386
 51
270.1513038756
  0
ARC
  5
3EE
100
AcDbEntity
  8
0
100
AcDbCircle
 62
7
  6
BYLAYER
 10
47.4347094545
 20
70.896612098
 40
58.8658102813
100
AcDbArc
 50
274.8779689549
 51
275.2234487783
  0
ARC
  5
3EF
100
AcDbEntity
  8
0
100
AcDbCircle
 62
7
  6
BYLAYER
 10
47.4347094545
 20
70.896612098
 40
58.8658102813
100
AcDbArc
 50
274.4731489981
 51
274.6629624561
  0
ARC
  5
3F0
100
AcDbEntity
  8
0
100
AcDbCircle
 62
7
  6
BYLAYER
 10
47.4347094545
 20
70.896612098
 40
58.8585840049
100
AcDbArc
 50
265.9103015622
 51
266.4168295794
  0
ARC
  5
3F1
100
AcDbEntity
  8
0
100
AcDbCircle
 62
7
  6
BYLAYER
 10
47.4347094545
 20
70.896612098
 40
58.8566396993
100
AcDbArc
 50
269.4752221398
 51
270.151414524
  0
ARC
  5
3F2
100
AcDbEntity
  8
0
100
AcDbCircle
 62
7
  6
BYLAYER
 10
47.4347094545
 20
70.896612098
 40
58.8552978394
100
AcDbArc
 50
267.9311454208
 51
268.5176233353
  0
ARC
  5
3F3
100
AcDbEntity
  8
0
100
AcDbCircle
 62
7
  6
BYLAYER
 10
47.4347094545
 20
70.896612098
 40
58.8263173696
100
AcDbArc
 50
274.8812517113
 51
275.226965286
  0
ARC
  5
3F4
100
AcDbEntity
  8
0
100
AcDbCircle
 62
7
  6
BYLAYER
 10
47.4347094545
 20
70.896612098
 40
58.8263173696
100
AcDbArc
 50
275.836410536
 51
276.0519751067
  0
ARC
  5
3F5
100
AcDbEntity
  8
0
100
AcDbCircle
 62
7
  6
BYLAYER
 10
47.4347094545
 20
70.896612098
 40
58.8263173696
100
AcDbArc
 50
277.2079518568
 51
277.4241172245
  0
ARC
  5
3F6
100
AcDbEntity
  8
0
100
AcDbCircle
 62
7
  6
BYLAYER
 10
47.4347094545
 20
70.896612098
 40
58.8127476352
100
AcDbArc
 50
266.0152653443
 51
266.4427928435
  0
ARC
  5
3F7
100
AcDbEntity
  8
0
100
AcDbCircle
 62
7
  6
BYLAYER
 10
47.4347094545
 20
70.896612098
 40
58.8066526716
100
AcDbArc
 50
267.9948078419
 51
268.5886827517
  0
ARC
  5
3F8
100
AcDbEntity
  8
0
100
AcDbCircle
 62
7
  6
BYLAYER
 10
47.4347094545
 20
70.896612098
 40
58.7631185933
100
AcDbArc
 50
266.1651389283
 51
266.5231547792
  0
ARC
  5
3F9
100
AcDbEntity
  8
0
100
AcDbCircle
 62
7
  6
BYLAYER
 10
47.4347094545
 20
70.896612098
 40
58.7629091963
100
AcDbArc
 50
267.7960459925
 51
268.1492627661
  0
ARC
  5
3FA
100
AcDbEntity
  8
0
100
AcDbCircle
 62
7
  6
BYLAYER
 10
47.4347094545
 20
70.896612098
 40
58.7530389526
100
AcDbArc
 50
269.4742967596
 51
270.1764508397
  0
ARC
  5
3FB
100
AcDbEntity
  8
0
100
AcDbCircle
 62
7
  6
BYLAYER
 10
47.4347094545
 20
70.896612098
 40
58.7350163808
100
AcDbArc
 50
270.7500452568
 51
270.9654695985
  0
ARC
  5
3FC
100
AcDbEntity
  8
0
100
AcDbCircle
 62
7
  6
BYLAYER
 10
47.4347094545
 20
70.896612098
 40
58.7348315919
100
AcDbArc
 50
269.2388962849
 51
269.4741397924
  0
ARC
  5
3FD
100
AcDbEntity
  8
0
100
AcDbCircle
 62
7
  6
BYLAYER
 10
47.4347094545
 20
70.896612098
 40
58.7072294858
100
AcDbArc
 50
270.7504002833
 51
270.9659266111
  0
ARC
  5
3FE
100
AcDbEntity
  8
0
100
AcDbCircle
 62
7
  6
BYLAYER
 10
47.4347094545
 20
70.896612098
 40
58.7072294858
100
AcDbArc
 50
269.2385384192
 51
270.1765885254
  0
ARC
  5
3FF
100
AcDbEntity
  8
0
100
AcDbCircle
 62
7
  6
BYLAYER
 10
47.4347094545
 20
70.896612098
 40
58.6886520345
100
AcDbArc
 50
267.6364123021
 51
268.2220113978
  0
ARC
  5
400
100
AcDbEntity
  8
0
100
AcDbCircle
 62
7
  6
BYLAYER
 10
47.4347094545
 20
70.896612098
 40
58.6340097554
100
AcDbArc
 50
272.3268857527
 51
272.9328102132
  0
ARC
  5
401
100
AcDbEntity
  8
0
100
AcDbCircle
 62
7
  6
BYLAYER
 10
47.4347094545
 20
70.896612098
 40
58.6338628116
100
AcDbArc
 50
274.6193592419
 51
275.2265563501
  0
ARC
  5
402
100
AcDbEntity
  8
0
100
AcDbCircle
 62
7
  6
BYLAYER
 10
47.4347094545
 20
70.896612098
 40
58.6333479227
100
AcDbArc
 50
277.8086303514
 51
278.4203790776
  0
ARC
  5
403
100
AcDbEntity
  8
0
100
AcDbCircle
 62
7
  6
BYLAYER
 10
47.4347094545
 20
70.896612098
 40
58.6329066957
100
AcDbArc
 50
269.2372412525
 51
269.842228942
  0
ARC
  5
404
100
AcDbEntity
  8
0
100
AcDbCircle
 62
7
  6
BYLAYER
 10
47.4347094545
 20
70.896612098
 40
58.6327594298
100
AcDbArc
 50
265.6891154081
 51
266.2958982593
  0
ARC
  5
405
100
AcDbEntity
  8
0
100
AcDbCircle
 62
7
  6
BYLAYER
 10
47.4347094545
 20
70.896612098
 40
58.4358911554
100
AcDbArc
 50
270.7113783351
 51
272.0998361742
  0
ARC
  5
406
100
AcDbEntity
  8
0
100
AcDbCircle
 62
7
  6
BYLAYER
 10
47.4347094545
 20
70.896612098
 40
58.4358911554
100
AcDbArc
 50
276.1343076485
 51
277.5316092207
  0
ARC
  5
407
100
AcDbEntity
  8
0
100
AcDbCircle
 62
7
  6
BYLAYER
 10
47.4347094545
 20
70.896612098
 40
58.3588071787
100
AcDbArc
 50
276.1548147238
 51
277.0016163727
  0
ARC
  5
408
100
AcDbEntity
  8
0
100
AcDbCircle
 62
7
  6
BYLAYER
 10
47.4347094545
 20
70.896612098
 40
58.3588071787
100
AcDbArc
 50
270.725285663
 51
271.5650175205
  0
ARC
  5
409
100
AcDbEntity
  8
0
100
AcDbCircle
 62
7
  6
BYLAYER
 10
47.4347094545
 20
70.896612098
 40
58.3269843212
100
AcDbArc
 50
272.3391409593
 51
272.9482617376
  0
ARC
  5
40A
100
AcDbEntity
  8
0
100
AcDbCircle
 62
7
  6
BYLAYER
 10
47.4347094545
 20
70.896612098
 40
58.3268366039
100
AcDbArc
 50
274.6437282948
 51
275.2541455564
  0
ARC
  5
40B
100
AcDbEntity
  8
0
100
AcDbCircle
 62
7
  6
BYLAYER
 10
47.4347094545
 20
70.896612098
 40
58.3263190046
100
AcDbArc
 50
277.8499933185
 51
278.4650283069
  0
ARC
  5
40C
100
AcDbEntity
  8
0
100
AcDbCircle
 62
7
  6
BYLAYER
 10
47.4347094545
 20
70.896612098
 40
58.3258754549
100
AcDbArc
 50
269.2332258012
 51
269.8281908999
  0
ARC
  5
40D
100
AcDbEntity
  8
0
100
AcDbCircle
 62
7
  6
BYLAYER
 10
47.4347094545
 20
70.896612098
 40
58.3257274138
100
AcDbArc
 50
265.6663792546
 51
266.2763720997
  0
ARC
  5
40E
100
AcDbEntity
  8
0
100
AcDbCircle
 62
7
  6
BYLAYER
 10
47.4347094545
 20
70.896612098
 40
58.1706085346
100
AcDbArc
 50
272.3454326106
 51
272.9561943646
  0
ARC
  5
40F
100
AcDbEntity
  8
0
100
AcDbCircle
 62
7
  6
BYLAYER
 10
47.4347094545
 20
70.896612098
 40
58.1706085346
100
AcDbArc
 50
267.8904272404
 51
268.5008392897
  0
ARC
  5
410
100
AcDbEntity
  8
0
100
AcDbCircle
 62
7
  6
BYLAYER
 10
47.4347094545
 20
70.896612098
 40
58.1700946909
100
AcDbArc
 50
277.8712090798
 51
278.487929932
  0
ARC
  5
411
100
AcDbEntity
  8
0
100
AcDbCircle
 62
7
  6
BYLAYER
 10
47.4347094545
 20
70.896612098
 40
57.9245904633
100
AcDbArc
 50
274.6760473074
 51
275.2907356532
  0
ARC
  5
412
100
AcDbEntity
  8
0
100
AcDbCircle
 62
7
  6
BYLAYER
 10
47.4347094545
 20
70.896612098
 40
57.9245904633
100
AcDbArc
 50
265.636310286
 51
266.2505486418
  0
ARC
  5
413
100
AcDbEntity
  8
00_COMPONENTS_1
100
AcDbCircle
 62
7
  6
BYLAYER
 10
64.2221094585
 20
42.910606508
 40
0.7874
100
AcDbArc
 50
120.0
 51
180.0
  0
SPLINE
  5
414
100
AcDbEntity
  8
0
100
AcDbSpline
 62
7
  6
BYLAYER
 70
0
 71
3
 72
10
 73
6
 74
0
 42
0.0000001
 43
0.0000001
 44
0.0000000001
 40
0.0
 40
0.0
 40
0.0
 40
0.0
 40
0.2754570668
 40
0.5489375985
 40
1.0
 40
1.0
 40
1.0
 40
1.0
 10
67.4195579394
 20
16.1243563474
 30
0.0
 10
67.419558496
 20
15.9599842232
 30
0.0
 10
67.3872201555
 20
15.6313957803
 30
0.0
 10
67.2148436466
 20
15.0572775172
 30
0.0
 10
66.985732955
 20
14.6797275924
 30
0.0
 10
66.8117613587
 20
14.4743471928
 30
0.0
  0
SPLINE
  5
415
100
AcDbEntity
  8
0
100
AcDbSpline
 62
7
  6
BYLAYER
 70
0
 71
3
 72
9
 73
5
 74
0
 42
0.0000001
 43
0.0000001
 44
0.0000000001
 40
0.0
 40
0.0
 40
0.0
 40
0.0
 40
0.240279797
 40
1.0
 40
1.0
 40
1.0
 40
1.0
 10
51.4354698545
 20
12.195281206
 30
0.0
 10
51.4095907888
 20
12.1958204031
 30
0.0
 10
51.3018770971
 20
12.1972305896
 30
0.0
 10
51.1940643059
 20
12.1948474995
 30
0.0
 10
51.1123818545
 20
12.1897305304
 30
0.0
  0
SPLINE
  5
416
100
AcDbEntity
  8
0
100
AcDbSpline
 62
7
  6
BYLAYER
 70
0
 71
3
 72
9
 73
5
 74
0
 42
0.0000001
 43
0.0000001
 44
0.0000000001
 40
0.0
 40
0.0
 40
0.0
 40
0.0
 40
0.5186480558
 40
1.0
 40
1.0
 40
1.0
 40
1.0
 10
51.1123818545
 20
12.1897305304
 30
0.0
 10
51.059252647
 20
12.1864022695
 30
0.0
 10
50.9569840332
 20
12.1772344754
 30
0.0
 10
50.8552460884
 20
12.1630780651
 30
0.0
 10
50.8066321986
 20
12.1542703187
 30
0.0
  0
SPLINE
  5
417
100
AcDbEntity
  8
0
100
AcDbSpline
 62
7
  6
BYLAYER
 70
0
 71
3
 72
12
 73
8
 74
0
 42
0.0000001
 43
0.0000001
 44
0.0000000001
 40
0.0
 40
0.0
 40
0.0
 40
0.0
 40
0.4141548286
 40
0.7044259774
 40
0.8066550741
 40
0.886378998
 40
1.0
 40
1.0
 40
1.0
 40
1.0
 10
50.8066321986
 20
12.1542703187
 30
0.0
 10
50.7683426704
 20
12.147333115
 30
0.0
 10
50.703536996
 20
12.1336135139
 30
0.0
 10
50.6315471961
 20
12.1084187391
 30
0.0
 10
50.5932258603
 20
12.0854635289
 30
0.0
 10
50.572206548
 20
12.0675994582
 30
0.0
 10
50.5623870545
 20
12.0500044483
 30
0.0
 10
50.5623870545
 20
12.0393289209
 30
0.0
  0
SPLINE
  5
418
100
AcDbEntity
  8
0
100
AcDbSpline
 62
7
  6
BYLAYER
 70
0
 71
3
 72
9
 73
5
 74
0
 42
0.0000001
 43
0.0000001
 44
0.0000000001
 40
0.0
 40
0.0
 40
0.0
 40
0.0
 40
0.2402213844
 40
1.0
 40
1.0
 40
1.0
 40
1.0
 10
51.4601922545
 20
12.0420114523
 30
0.0
 10
51.4366096972
 20
12.0384184726
 30
0.0
 10
51.338338368
 20
12.02418328
 30
0.0
 10
51.2394952685
 20
12.0134721422
 30
0.0
 10
51.1641978545
 20
12.0087034072
 30
0.0
  0
SPLINE
  5
419
100
AcDbEntity
  8
0
100
AcDbSpline
 62
7
  6
BYLAYER
 70
0
 71
3
 72
14
 73
10
 74
0
 42
0.0000001
 43
0.0000001
 44
0.0000000001
 40
0.0
 40
0.0
 40
0.0
 40
0.0
 40
0.3573266092
 40
0.6587974286
 40
0.7826793017
 40
0.8843014032
 40
0.9250973302
 40
0.9581438527
 40
1.0
 40
1.0
 40
1.0
 40
1.0
 10
51.1641978545
 20
12.0087034072
 30
0.0
 10
51.1179837797
 20
12.0057765779
 30
0.0
 10
51.0324734571
 20
12.0048183164
 30
0.0
 10
50.9311632007
 20
12.0114838669
 30
0.0
 10
50.8635111054
 20
12.0215404084
 30
0.0
 10
50.8298859239
 20
12.0289248943
 30
0.0
 10
50.8081195992
 20
12.036467616
 30
0.0
 10
50.7950691738
 20
12.0424729822
 30
0.0
 10
50.7859062545
 20
12.0501534213
 30
0.0
 10
50.7859062545
 20
12.0555776423
 30
0.0
  0
SPLINE
  5
41A
100
AcDbEntity
  8
0
100
AcDbSpline
 62
7
  6
BYLAYER
 70
0
 71
3
 72
9
 73
5
 74
0
 42
0.0000001
 43
0.0000001
 44
0.0000000001
 40
0.0
 40
0.0
 40
0.0
 40
0.0
 40
0.233367625
 40
1.0
 40
1.0
 40
1.0
 40
1.0
 10
52.8504186545
 20
12.1534978434
 30
0.0
 10
52.8310562366
 20
12.1494757175
 30
0.0
 10
52.7478918726
 20
12.1332322302
 30
0.0
 10
52.6638436074
 20
12.121157342
 30
0.0
 10
52.5991278545
 20
12.1154715179
 30
0.0
  0
SPLINE
  5
41B
100
AcDbEntity
  8
0
100
AcDbSpline
 62
7
  6
BYLAYER
 70
0
 71
3
 72
9
 73
5
 74
0
 42
0.0000001
 43
0.0000001
 44
0.0000000001
 40
0.0
 40
0.0
 40
0.0
 40
0.0
 40
0.2171416238
 40
1.0
 40
1.0
 40
1.0
 40
1.0
 10
54.2311626545
 20
12.4424946856
 30
0.0
 10
54.2119077445
 20
12.4439134694
 30
0.0
 10
54.1231217003
 20
12.4485923212
 30
0.0
 10
54.0338093348
 20
12.4459496238
 30
0.0
 10
53.9646318545
 20
12.4382223569
 30
0.0
  0
SPLINE
  5
41C
100
AcDbEntity
  8
0
100
AcDbSpline
 62
7
  6
BYLAYER
 70
0
 71
3
 72
9
 73
5
 74
0
 42
0.0000001
 43
0.0000001
 44
0.0000000001
 40
0.0
 40
0.0
 40
0.0
 40
0.0
 40
0.5824211498
 40
1.0
 40
1.0
 40
1.0
 40
1.0
 10
53.9646318545
 20
12.4382223569
 30
0.0
 10
53.902566298
 20
12.4312895066
 30
0.0
 10
53.7970120005
 20
12.4088861461
 30
0.0
 10
53.6959346339
 20
12.3724064427
 30
0.0
 10
53.6548947087
 20
12.3545008864
 30
0.0
  0
SPLINE
  5
41D
100
AcDbEntity
  8
0
100
AcDbSpline
 62
7
  6
BYLAYER
 70
0
 71
3
 72
9
 73
5
 74
0
 42
0.0000001
 43
0.0000001
 44
0.0000000001
 40
0.0
 40
0.0
 40
0.0
 40
0.0
 40
0.2404689111
 40
1.0
 40
1.0
 40
1.0
 40
1.0
 10
56.4897306545
 20
12.7600579918
 30
0.0
 10
56.463719618
 20
12.7583218049
 30
0.0
 10
56.3556124634
 20
12.7503045268
 30
0.0
 10
56.2477317912
 20
12.7385461501
 30
0.0
 10
56.1663042545
 20
12.7263235486
 30
0.0
  0
SPLINE
  5
41E
100
AcDbEntity
  8
0
100
AcDbSpline
 62
7
  6
BYLAYER
 70
0
 71
3
 72
9
 73
5
 74
0
 42
0.0000001
 43
0.0000001
 44
0.0000000001
 40
0.0
 40
0.0
 40
0.0
 40
0.0
 40
0.2658488956
 40
1.0
 40
1.0
 40
1.0
 40
1.0
 10
55.9828047057
 20
12.6931278693
 30
0.0
 10
55.9671541068
 20
12.6898043346
 30
0.0
 10
55.9083975363
 20
12.6767994222
 30
0.0
 10
55.8500263033
 20
12.661859627
 30
0.0
 10
55.8077853519
 20
12.6489027909
 30
0.0
  0
SPLINE
  5
41F
100
AcDbEntity
  8
0
100
AcDbSpline
 62
7
  6
BYLAYER
 70
0
 71
3
 72
12
 73
8
 74
0
 42
0.0000001
 43
0.0000001
 44
0.0000000001
 40
0.0
 40
0.0
 40
0.0
 40
0.0
 40
0.4023715131
 40
0.6872606481
 40
0.7918631981
 40
0.8760429454
 40
1.0
 40
1.0
 40
1.0
 40
1.0
 10
55.8077853519
 20
12.6489027909
 30
0.0
 10
55.7773902773
 20
12.639579516
 30
0.0
 10
55.7260073346
 20
12.62175175
 30
0.0
 10
55.6698326043
 20
12.5933815857
 30
0.0
 10
55.640009068
 20
12.5704194094
 30
0.0
 10
55.6230383624
 20
12.552638285
 30
0.0
 10
55.6152930545
 20
12.5365494285
 30
0.0
 10
55.6152930545
 20
12.526755133
 30
0.0
  0
SPLINE
  5
420
100
AcDbEntity
  8
0
100
AcDbSpline
 62
7
  6
BYLAYER
 70
0
 71
3
 72
9
 73
5
 74
0
 42
0.0000001
 43
0.0000001
 44
0.0000000001
 40
0.0
 40
0.0
 40
0.0
 40
0.0
 40
0.2408219917
 40
1.0
 40
1.0
 40
1.0
 40
1.0
 10
56.5154694545
 20
12.6076051863
 30
0.0
 10
56.4917907044
 20
12.6019449926
 30
0.0
 10
56.3933204938
 20
12.5790889042
 30
0.0
 10
56.2940141626
 20
12.5595442577
 30
0.0
 10
56.2181202545
 20
12.5481196717
 30
0.0
  0
SPLINE
  5
421
100
AcDbEntity
  8
0
100
AcDbSpline
 62
7
  6
BYLAYER
 70
0
 71
3
 72
14
 73
10
 74
0
 42
0.0000001
 43
0.0000001
 44
0.0000000001
 40
0.0
 40
0.0
 40
0.0
 40
0.0
 40
0.3592901907
 40
0.6620857989
 40
0.7859563131
 40
0.8869197239
 40
0.9271153439
 40
0.9594032486
 40
1.0
 40
1.0
 40
1.0
 40
1.0
 10
56.2181202545
 20
12.5481196717
 30
0.0
 10
56.172397818
 20
12.541236907
 30
0.0
 10
56.0874663654
 20
12.5328842291
 30
0.0
 10
55.986232308
 20
12.5307774257
 30
0.0
 10
55.9183664754
 20
12.535083848
 30
0.0
 10
55.8846334479
 20
12.5395892567
 30
0.0
 10
55.8627683627
 20
12.5453880258
 30
0.0
 10
55.8496998127
 20
12.5502019012
 30
0.0
 10
55.8405066545
 20
12.5575172995
 30
0.0
 10
55.8405066545
 20
12.5627417546
 30
0.0
  0
SPLINE
  5
422
100
AcDbEntity
  8
0
100
AcDbSpline
 62
7
  6
BYLAYER
 70
0
 71
3
 72
13
 73
9
 74
0
 42
0.0000001
 43
0.0000001
 44
0.0000000001
 40
0.0
 40
0.0
 40
0.0
 40
0.0
 40
0.0768395549
 40
0.1900001855
 40
0.3208966778
 40
0.4581275577
 40
0.7362539332
 40
1.0
 40
1.0
 40
1.0
 40
1.0
 10
55.0432854545
 20
12.6473156639
 30
0.0
 10
55.0395747641
 20
12.6489538432
 30
0.0
 10
55.0293374793
 20
12.6499633618
 30
0.0
 10
55.0125166534
 20
12.6502712168
 30
0.0
 10
54.9923670655
 20
12.6490775607
 30
0.0
 10
54.9636649199
 20
12.6464511176
 30
0.0
 10
54.9281328725
 20
12.6415676884
 30
0.0
 10
54.8999769975
 20
12.6363021794
 30
0.0
 10
54.8864826545
 20
12.632875405
 30
0.0
  0
SPLINE
  5
423
100
AcDbEntity
  8
0
100
AcDbSpline
 62
7
  6
BYLAYER
 70
0
 71
3
 72
12
 73
8
 74
0
 42
0.0000001
 43
0.0000001
 44
0.0000000001
 40
0.0
 40
0.0
 40
0.0
 40
0.0
 40
0.3533488267
 40
0.6467165416
 40
0.8700872317
 40
0.9479202274
 40
1.0
 40
1.0
 40
1.0
 40
1.0
 10
54.8864826545
 20
12.632875405
 30
0.0
 10
54.8751363562
 20
12.6300207313
 30
0.0
 10
54.8545220061
 20
12.6240629678
 30
0.0
 10
54.8275502161
 20
12.6140795846
 30
0.0
 10
54.8096648216
 20
12.6053262696
 30
0.0
 10
54.800375138
 20
12.5983932272
 30
0.0
 10
54.7978950776
 20
12.5943496121
 30
0.0
 10
54.7979296362
 20
12.5926255205
 30
0.0
  0
SPLINE
  5
424
100
AcDbEntity
  8
0
100
AcDbSpline
 62
7
  6
BYLAYER
 70
0
 71
3
 72
9
 73
5
 74
0
 42
0.0000001
 43
0.0000001
 44
0.0000000001
 40
0.0
 40
0.0
 40
0.0
 40
0.0
 40
0.4672800554
 40
1.0
 40
1.0
 40
1.0
 40
1.0
 10
57.0678342545
 20
13.4930813289
 30
0.0
 10
57.0038655736
 20
13.4942949939
 30
0.0
 10
56.8669070877
 20
13.4951425405
 30
0.0
 10
56.7300658938
 20
13.4832467831
 30
0.0
 10
56.6580486545
 20
13.471679692
 30
0.0
  0
SPLINE
  5
425
100
AcDbEntity
  8
0
100
AcDbSpline
 62
7
  6
BYLAYER
 70
0
 71
3
 72
9
 73
5
 74
0
 42
0.0000001
 43
0.0000001
 44
0.0000000001
 40
0.0
 40
0.0
 40
0.0
 40
0.0
 40
0.5872837826
 40
1.0
 40
1.0
 40
1.0
 40
1.0
 10
56.6580486545
 20
13.471679692
 30
0.0
 10
56.5375053132
 20
13.4523185525
 30
0.0
 10
56.3358345205
 20
13.3943850169
 30
0.0
 10
56.1480334513
 20
13.3028846775
 30
0.0
 10
56.0752875198
 20
13.2573946891
 30
0.0
  0
SPLINE
  5
426
100
AcDbEntity
  8
0
100
AcDbSpline
 62
7
  6
BYLAYER
 70
0
 71
3
 72
9
 73
5
 74
0
 42
0.0000001
 43
0.0000001
 44
0.0000000001
 40
0.0
 40
0.0
 40
0.0
 40
0.0
 40
0.2561984407
 40
1.0
 40
1.0
 40
1.0
 40
1.0
 10
56.0752875198
 20
13.2573946891
 30
0.0
 10
56.070567485
 20
13.2544431243
 30
0.0
 10
56.0522114948
 20
13.2428145175
 30
0.0
 10
56.0340945135
 20
13.2308133676
 30
0.0
 10
56.0206770545
 20
13.2218032909
 30
0.0
  0
SPLINE
  5
427
100
AcDbEntity
  8
0
100
AcDbSpline
 62
7
  6
BYLAYER
 70
0
 71
3
 72
9
 73
5
 74
0
 42
0.0000001
 43
0.0000001
 44
0.0000000001
 40
0.0
 40
0.0
 40
0.0
 40
0.0
 40
0.4782167734
 40
1.0
 40
1.0
 40
1.0
 40
1.0
 10
55.0605570545
 20
12.8978505238
 30
0.0
 10
54.9863203637
 20
12.8759888395
 30
0.0
 10
54.8304538761
 20
12.8322492352
 30
0.0
 10
54.6720998042
 20
12.798253355
 30
0.0
 10
54.5890655575
 20
12.7829151153
 30
0.0
  0
SPLINE
  5
428
100
AcDbEntity
  8
0
100
AcDbSpline
 62
7
  6
BYLAYER
 70
0
 71
3
 72
9
 73
5
 74
0
 42
0.0000001
 43
0.0000001
 44
0.0000000001
 40
0.0
 40
0.0
 40
0.0
 40
0.0
 40
0.2465042796
 40
1.0
 40
1.0
 40
1.0
 40
1.0
 10
54.5890655575
 20
12.7829151153
 30
0.0
 10
54.5678378354
 20
12.7789938911
 30
0.0
 10
54.4816067346
 20
12.7637276602
 30
0.0
 10
54.3949027909
 20
12.7510812063
 30
0.0
 10
54.3293766545
 20
12.7433124141
 30
0.0
  0
SPLINE
  5
429
100
AcDbEntity
  8
0
100
AcDbSpline
 62
7
  6
BYLAYER
 70
0
 71
3
 72
15
 73
11
 74
0
 42
0.0000001
 43
0.0000001
 44
0.0000000001
 40
0.0
 40
0.0
 40
0.0
 40
0.0
 40
0.3522952459
 40
0.5193880147
 40
0.6702091082
 40
0.7935820113
 40
0.8869900502
 40
0.9235064457
 40
0.9539487927
 40
1.0
 40
1.0
 40
1.0
 40
1.0
 10
54.3293766545
 20
12.7433124141
 30
0.0
 10
54.250970017
 20
12.734016507
 30
0.0
 10
54.1349632086
 20
12.7231343971
 30
0.0
 10
53.9848142006
 20
12.7178878513
 30
0.0
 10
53.8858335491
 20
12.7199080086
 30
0.0
 10
53.8038523386
 20
12.7294793014
 30
0.0
 10
53.748550667
 20
12.743446221
 30
0.0
 10
53.7155240854
 20
12.7581071015
 30
0.0
 10
53.6941837262
 20
12.7714206602
 30
0.0
 10
53.6818467694
 20
12.7853582208
 30
0.0
 10
53.6791362545
 20
12.7953168537
 30
0.0
  0
SPLINE
  5
42A
100
AcDbEntity
  8
0
100
AcDbSpline
 62
7
  6
BYLAYER
 70
0
 71
3
 72
14
 73
10
 74
0
 42
0.0000001
 43
0.0000001
 44
0.0000000001
 40
0.0
 40
0.0
 40
0.0
 40
0.0
 40
0.1988234428
 40
0.3814233116
 40
0.5420528425
 40
0.6777769543
 40
0.7893790049
 40
0.8784633054
 40
1.0
 40
1.0
 40
1.0
 40
1.0
 10
53.6260507394
 20
13.0422191598
 30
0.0
 10
53.5819742242
 20
13.0326958506
 30
0.0
 10
53.4977272724
 20
13.0129094426
 30
0.0
 10
53.3793881594
 20
12.9794797629
 30
0.0
 10
53.2766904315
 20
12.9436102544
 30
0.0
 10
53.1921966794
 20
12.9060200876
 30
0.0
 10
53.1255467486
 20
12.8674903524
 30
0.0
 10
53.0687989779
 20
12.8236510132
 30
0.0
 10
53.0366850545
 20
12.7798527939
 30
0.0
 10
53.0366850545
 20
12.7522880017
 30
0.0
  0
SPLINE
  5
42B
100
AcDbEntity
  8
0
100
AcDbSpline
 62
7
  6
BYLAYER
 70
0
 71
3
 72
9
 73
5
 74
0
 42
0.0000001
 43
0.0000001
 44
0.0000000001
 40
0.0
 40
0.0
 40
0.0
 40
0.0
 40
0.4867383222
 40
1.0
 40
1.0
 40
1.0
 40
1.0
 10
52.1568294545
 20
12.8960672256
 30
0.0
 10
52.0734450029
 20
12.8994447551
 30
0.0
 10
51.9019078447
 20
12.9012653214
 30
0.0
 10
51.7305035681
 20
12.894054418
 30
0.0
 10
51.6427338545
 20
12.8876875168
 30
0.0
  0
SPLINE
  5
42C
100
AcDbEntity
  8
0
100
AcDbSpline
 62
7
  6
BYLAYER
 70
0
 71
3
 72
15
 73
11
 74
0
 42
0.0000001
 43
0.0000001
 44
0.0000000001
 40
0.0
 40
0.0
 40
0.0
 40
0.0
 40
0.2038159674
 40
0.3898657946
 40
0.5521282429
 40
0.6864993433
 40
0.7944706877
 40
0.8792745352
 40
0.9456865909
 40
1.0
 40
1.0
 40
1.0
 40
1.0
 10
51.268245626
 20
12.8429727586
 30
0.0
 10
51.2235049102
 20
12.8354532796
 30
0.0
 10
51.1381800821
 20
12.8194326377
 30
0.0
 10
51.0186049011
 20
12.7908005264
 30
0.0
 10
50.9158019972
 20
12.7591818041
 30
0.0
 10
50.8324425248
 20
12.7246599147
 30
0.0
 10
50.768754429
 20
12.6888633872
 30
0.0
 10
50.7235740097
 20
12.6524248164
 30
0.0
 10
50.6952301012
 20
12.6157361768
 30
0.0
 10
50.6876934496
 20
12.5888108925
 30
0.0
 10
50.6876934545
 20
12.5767210546
 30
0.0
  0
SPLINE
  5
42D
100
AcDbEntity
  8
0
100
AcDbSpline
 62
7
  6
BYLAYER
 70
0
 71
3
 72
13
 73
9
 74
0
 42
0.0000001
 43
0.0000001
 44
0.0000000001
 40
0.0
 40
0.0
 40
0.0
 40
0.0
 40
0.3492893359
 40
0.6379991165
 40
0.758152366
 40
0.8595613434
 40
0.9397851943
 40
1.0
 40
1.0
 40
1.0
 40
1.0
 10
50.0201814545
 20
13.0207892998
 30
0.0
 10
49.9880896229
 20
13.0142655998
 30
0.0
 10
49.9300090213
 20
12.9996012712
 30
0.0
 10
49.8628522929
 20
12.975757746
 30
0.0
 10
49.8197465582
 20
12.9549031436
 30
0.0
 10
49.7957011137
 20
12.9397694538
 30
0.0
 10
49.7786350902
 20
12.9247766459
 30
0.0
 10
49.7724675855
 20
12.9120092243
 30
0.0
 10
49.7724684745
 20
12.9063636863
 30
0.0
  0
SPLINE
  5
42E
100
AcDbEntity
  8
0
100
AcDbSpline
 62
7
  6
BYLAYER
 70
0
 71
3
 72
11
 73
7
 74
0
 42
0.0000001
 43
0.0000001
 44
0.0000000001
 40
0.0
 40
0.0
 40
0.0
 40
0.0
 40
0.2275549395
 40
0.4709681878
 40
0.730299326
 40
1.0
 40
1.0
 40
1.0
 40
1.0
 10
49.5413070545
 20
12.4366074597
 30
0.0
 10
49.4865957637
 20
12.4257882247
 30
0.0
 10
49.3731700594
 20
12.4042568873
 30
0.0
 10
49.1959314795
 20
12.3788166157
 30
0.0
 10
49.0074599929
 20
12.3603480761
 30
0.0
 10
48.8779005447
 20
12.3537707881
 30
0.0
 10
48.8118186545
 20
12.3522163784
 30
0.0
  0
SPLINE
  5
42F
100
AcDbEntity
  8
0
100
AcDbSpline
 62
7
  6
BYLAYER
 70
0
 71
3
 72
14
 73
10
 74
0
 42
0.0000001
 43
0.0000001
 44
0.0000000001
 40
0.0
 40
0.0
 40
0.0
 40
0.0
 40
0.3498056422
 40
0.5157426376
 40
0.6657917332
 40
0.7893847758
 40
0.8839177534
 40
0.9524458926
 40
1.0
 40
1.0
 40
1.0
 40
1.0
 10
48.8118186545
 20
12.3522163784
 30
0.0
 10
48.7325869872
 20
12.3503526533
 30
0.0
 10
48.6156291877
 20
12.3504950685
 30
0.0
 10
48.4650087362
 20
12.359416695
 30
0.0
 10
48.3659936754
 20
12.3710111804
 30
0.0
 10
48.2842152259
 20
12.3880597993
 30
0.0
 10
48.222611211
 20
12.4098027866
 30
0.0
 10
48.1810902251
 20
12.4333611986
 30
0.0
 10
48.1630434736
 20
12.4548261611
 30
0.0
 10
48.1602246545
 20
12.4652249604
 30
0.0
  0
SPLINE
  5
430
100
AcDbEntity
  8
0
100
AcDbSpline
 62
7
  6
BYLAYER
 70
0
 71
3
 72
9
 73
5
 74
0
 42
0.0000001
 43
0.0000001
 44
0.0000000001
 40
0.0
 40
0.0
 40
0.0
 40
0.0
 40
0.2547765135
 40
1.0
 40
1.0
 40
1.0
 40
1.0
 10
48.5588346545
 20
12.7461250583
 30
0.0
 10
48.5245288744
 20
12.7454618825
 30
0.0
 10
48.3899142805
 20
12.7413723053
 30
0.0
 10
48.2554402587
 20
12.7318707461
 30
0.0
 10
48.1556484019
 20
12.7211746173
 30
0.0
  0
SPLINE
  5
431
100
AcDbEntity
  8
0
100
AcDbSpline
 62
7
  6
BYLAYER
 70
0
 71
3
 72
15
 73
11
 74
0
 42
0.0000001
 43
0.0000001
 44
0.0000000001
 40
0.0
 40
0.0
 40
0.0
 40
0.0
 40
0.2009980461
 40
0.3855355148
 40
0.5470863049
 40
0.6827815175
 40
0.7929922038
 40
0.8797969305
 40
0.9467644616
 40
1.0
 40
1.0
 40
1.0
 40
1.0
 10
48.1330790352
 20
12.7186887882
 30
0.0
 10
48.0873080026
 20
12.7135103821
 30
0.0
 10
47.9996814374
 20
12.7019862143
 30
0.0
 10
47.8761799471
 20
12.6800692544
 30
0.0
 10
47.7688121187
 20
12.6538596622
 30
0.0
 10
47.6802257879
 20
12.623924452
 30
0.0
 10
47.610837909
 20
12.5917746444
 30
0.0
 10
47.5603800811
 20
12.5578499511
 30
0.0
 10
47.5274203527
 20
12.5228107157
 30
0.0
 10
47.5181118545
 20
12.4953068879
 30
0.0
 10
47.5181118545
 20
12.4831068164
 30
0.0
  0
SPLINE
  5
432
100
AcDbEntity
  8
0
100
AcDbSpline
 62
7
  6
BYLAYER
 70
0
 71
3
 72
11
 73
7
 74
0
 42
0.0000001
 43
0.0000001
 44
0.0000000001
 40
0.0
 40
0.0
 40
0.0
 40
0.0
 40
0.1177579441
 40
0.2812149865
 40
0.5621774573
 40
1.0
 40
1.0
 40
1.0
 40
1.0
 10
49.9954590545
 20
12.010196507
 30
0.0
 10
49.9954590545
 20
12.0198853021
 30
0.0
 10
49.9883124068
 20
12.0435206724
 30
0.0
 10
49.949969987
 20
12.0729058256
 30
0.0
 10
49.8798042667
 20
12.0934850415
 30
0.0
 10
49.8210859624
 20
12.1014823318
 30
0.0
 10
49.7852224338
 20
12.1048662159
 30
0.0
  0
SPLINE
  5
433
100
AcDbEntity
  8
0
100
AcDbSpline
 62
7
  6
BYLAYER
 70
0
 71
3
 72
9
 73
5
 74
0
 42
0.0000001
 43
0.0000001
 44
0.0000000001
 40
0.0
 40
0.0
 40
0.0
 40
0.0
 40
0.4788239374
 40
1.0
 40
1.0
 40
1.0
 40
1.0
 10
49.7852224338
 20
12.1048662159
 30
0.0
 10
49.74148093
 20
12.1089934221
 30
0.0
 10
49.649740807
 20
12.1133511395
 30
0.0
 10
49.5579411941
 20
12.1129630824
 30
0.0
 10
49.5101490545
 20
12.111275762
 30
0.0
  0
SPLINE
  5
434
100
AcDbEntity
  8
0
100
AcDbSpline
 62
7
  6
BYLAYER
 70
0
 71
3
 72
9
 73
5
 74
0
 42
0.0000001
 43
0.0000001
 44
0.0000000001
 40
0.0
 40
0.0
 40
0.0
 40
0.0
 40
0.5201263329
 40
1.0
 40
1.0
 40
1.0
 40
1.0
 10
49.5101490545
 20
12.111275762
 30
0.0
 10
49.4602164749
 20
12.1095128725
 30
0.0
 10
49.3643073667
 20
12.1033778641
 30
0.0
 10
49.2688101076
 20
12.0923008083
 30
0.0
 10
49.223276909
 20
12.0851132898
 30
0.0
  0
SPLINE
  5
435
100
AcDbEntity
  8
0
100
AcDbSpline
 62
7
  6
BYLAYER
 70
0
 71
3
 72
12
 73
8
 74
0
 42
0.0000001
 43
0.0000001
 44
0.0000000001
 40
0.0
 40
0.0
 40
0.0
 40
0.0
 40
0.4026326719
 40
0.6894815071
 40
0.7943758889
 40
0.8781723329
 40
1.0
 40
1.0
 40
1.0
 40
1.0
 10
49.1767901399
 20
12.0769997747
 30
0.0
 10
49.1480780832
 20
12.0714591131
 30
0.0
 10
49.0992060051
 20
12.0602411038
 30
0.0
 10
49.0448124947
 20
12.0400405884
 30
0.0
 10
49.0151540203
 20
12.0219107804
 30
0.0
 10
48.9981045991
 20
12.007406129
 30
0.0
 10
48.9899574545
 20
11.9929603231
 30
0.0
 10
48.9899574545
 20
11.9841124155
 30
0.0
  0
SPLINE
  5
436
100
AcDbEntity
  8
0
100
AcDbSpline
 62
7
  6
BYLAYER
 70
0
 71
3
 72
9
 73
5
 74
0
 42
0.0000001
 43
0.0000001
 44
0.0000000001
 40
0.0
 40
0.0
 40
0.0
 40
0.0
 40
0.271912369
 40
1.0
 40
1.0
 40
1.0
 40
1.0
 10
49.5853338545
 20
11.9306164175
 30
0.0
 10
49.5655234512
 20
11.9298938869
 30
0.0
 10
49.4926190677
 20
11.9289006431
 30
0.0
 10
49.4196268906
 20
11.9329808734
 30
0.0
 10
49.3669072698
 20
11.9391617042
 30
0.0
  0
SPLINE
  5
437
100
AcDbEntity
  8
0
100
AcDbSpline
 62
7
  6
BYLAYER
 70
0
 71
3
 72
12
 73
8
 74
0
 42
0.0000001
 43
0.0000001
 44
0.0000000001
 40
0.0
 40
0.0
 40
0.0
 40
0.0
 40
0.3385187933
 40
0.6255216564
 40
0.8506597691
 40
0.9355824531
 40
1.0
 40
1.0
 40
1.0
 40
1.0
 10
49.3669072698
 20
11.9391617042
 30
0.0
 10
49.3485125502
 20
11.941318295
 30
0.0
 10
49.3145856691
 20
11.9460619327
 30
0.0
 10
49.2690011412
 20
11.9553763626
 30
0.0
 10
49.2375119708
 20
11.9647226021
 30
0.0
 10
49.2190675509
 20
11.973651014
 30
0.0
 10
49.2123680843
 20
11.978598756
 30
0.0
 10
49.2100902545
 20
11.9812880924
 30
0.0
  0
SPLINE
  5
438
100
AcDbEntity
  8
0
100
AcDbSpline
 62
7
  6
BYLAYER
 70
0
 71
3
 72
9
 73
5
 74
0
 42
0.0000001
 43
0.0000001
 44
0.0000000001
 40
0.0
 40
0.0
 40
0.0
 40
0.0
 40
0.2412506753
 40
1.0
 40
1.0
 40
1.0
 40
1.0
 10
40.6882218545
 20
13.3148266459
 30
0.0
 10
40.6094258323
 20
13.3331860612
 30
0.0
 10
40.2821673863
 20
13.4063807928
 30
0.0
 10
39.9518303977
 20
13.4667966245
 30
0.0
 10
39.6996534545
 20
13.5007817201
 30
0.0
  0
SPLINE
  5
439
100
AcDbEntity
  8
0
100
AcDbSpline
 62
7
  6
BYLAYER
 70
0
 71
3
 72
9
 73
5
 74
0
 42
0.0000001
 43
0.0000001
 44
0.0000000001
 40
0.0
 40
0.0
 40
0.0
 40
0.0
 40
0.2511667642
 40
1.0
 40
1.0
 40
1.0
 40
1.0
 10
39.6996534545
 20
13.5007817201
 30
0.0
 10
39.6702354295
 20
13.504746295
 30
0.0
 10
39.5530496278
 20
13.5200625491
 30
0.0
 10
39.4355677953
 20
13.5332544917
 30
0.0
 10
39.347418244
 20
13.5411263433
 30
0.0
  0
SPLINE
  5
43A
100
AcDbEntity
  8
0
100
AcDbSpline
 62
7
  6
BYLAYER
 70
0
 71
3
 72
15
 73
11
 74
0
 42
0.0000001
 43
0.0000001
 44
0.0000000001
 40
0.0
 40
0.0
 40
0.0
 40
0.0
 40
0.1853713423
 40
0.3631219691
 40
0.5273834322
 40
0.6711613551
 40
0.7909848324
 40
0.841614775
 40
0.8858849629
 40
1.0
 40
1.0
 40
1.0
 40
1.0
 10
39.347418244
 20
13.5411263433
 30
0.0
 10
39.2984604495
 20
13.545498328
 30
0.0
 10
39.2024417037
 20
13.5528458656
 30
0.0
 10
39.062671999
 20
13.5585462645
 30
0.0
 10
38.933821064
 20
13.5575580959
 30
0.0
 10
38.8205040763
 20
13.5483378137
 30
0.0
 10
38.7385482049
 20
13.5341066812
 30
0.0
 10
38.6832114301
 20
13.5182088635
 30
0.0
 10
38.6332890974
 20
13.4996007757
 30
0.0
 10
38.5864566545
 20
13.4692739987
 30
0.0
 10
38.5864566545
 20
13.4390155305
 30
0.0
  0
SPLINE
  5
43B
100
AcDbEntity
  8
0
100
AcDbSpline
 62
7
  6
BYLAYER
 70
0
 71
3
 72
11
 73
7
 74
0
 42
0.0000001
 43
0.0000001
 44
0.0000000001
 40
0.0
 40
0.0
 40
0.0
 40
0.0
 40
0.2678957288
 40
0.5255877101
 40
0.7686966092
 40
1.0
 40
1.0
 40
1.0
 40
1.0
 10
39.6434346545
 20
12.8939283443
 30
0.0
 10
39.5527501569
 20
12.90610964
 30
0.0
 10
39.375533976
 20
12.9353827221
 30
0.0
 10
39.1187538741
 20
12.9905000652
 30
0.0
 10
38.8767787686
 20
13.0538165041
 30
0.0
 10
38.7215637889
 20
13.1003932195
 30
0.0
 10
38.6460618545
 20
13.1236442696
 30
0.0
  0
SPLINE
  5
43C
100
AcDbEntity
  8
0
100
AcDbSpline
 62
7
  6
BYLAYER
 70
0
 71
3
 72
9
 73
5
 74
0
 42
0.0000001
 43
0.0000001
 44
0.0000000001
 40
0.0
 40
0.0
 40
0.0
 40
0.0
 40
0.2432457321
 40
1.0
 40
1.0
 40
1.0
 40
1.0
 10
42.7716990545
 20
12.569200645
 30
0.0
 10
42.7265851527
 20
12.5689702487
 30
0.0
 10
42.5411542222
 20
12.5685414494
 30
0.0
 10
42.3554037151
 20
12.5728239906
 30
0.0
 10
42.2156082545
 20
12.5853362645
 30
0.0
  0
SPLINE
  5
43D
100
AcDbEntity
  8
0
100
AcDbSpline
 62
7
  6
BYLAYER
 70
0
 71
3
 72
15
 73
11
 74
0
 42
0.0000001
 43
0.0000001
 44
0.0000000001
 40
0.0
 40
0.0
 40
0.0
 40
0.0
 40
0.3634193148
 40
0.531527519
 40
0.6791201939
 40
0.7990652061
 40
0.8887716121
 40
0.9239235401
 40
0.9536284696
 40
1.0
 40
1.0
 40
1.0
 40
1.0
 10
42.2156082545
 20
12.5853362645
 30
0.0
 10
42.1381845111
 20
12.5922660109
 30
0.0
 10
42.0252384839
 20
12.6066373501
 30
0.0
 10
41.8826132127
 20
12.634463458
 30
0.0
 10
41.7924765464
 20
12.6585141945
 30
0.0
 10
41.7206902997
 20
12.6850885582
 30
0.0
 10
41.6744397883
 20
12.7103656357
 30
0.0
 10
41.6488196096
 20
12.7315259105
 30
0.0
 10
41.63290285
 20
12.7490672291
 30
0.0
 10
41.6256510545
 20
12.7650901609
 30
0.0
 10
41.6256510545
 20
12.7750087574
 30
0.0
  0
SPLINE
  5
43E
100
AcDbEntity
  8
0
100
AcDbSpline
 62
7
  6
BYLAYER
 70
0
 71
3
 72
9
 73
5
 74
0
 42
0.0000001
 43
0.0000001
 44
0.0000000001
 40
0.0
 40
0.0
 40
0.0
 40
0.0
 40
0.2431663029
 40
1.0
 40
1.0
 40
1.0
 40
1.0
 10
42.7415574545
 20
12.8926067738
 30
0.0
 10
42.688175439
 20
12.9019410526
 30
0.0
 10
42.4683156527
 20
12.9383670157
 30
0.0
 10
42.2470761617
 20
12.9668295157
 30
0.0
 10
42.0791250545
 20
12.9823606899
 30
0.0
  0
SPLINE
  5
43F
100
AcDbEntity
  8
0
100
AcDbSpline
 62
7
  6
BYLAYER
 70
0
 71
3
 72
9
 73
5
 74
0
 42
0.0000001
 43
0.0000001
 44
0.0000000001
 40
0.0
 40
0.0
 40
0.0
 40
0.0
 40
0.2546861535
 40
1.0
 40
1.0
 40
1.0
 40
1.0
 10
42.0791250545
 20
12.9823606899
 30
0.0
 10
42.0397048046
 20
12.986006053
 30
0.0
 10
41.8847915832
 20
12.9987566748
 30
0.0
 10
41.7293432653
 20
13.0056744917
 30
0.0
 10
41.6134929211
 20
13.006227144
 30
0.0
  0
SPLINE
  5
440
100
AcDbEntity
  8
0
100
AcDbSpline
 62
7
  6
BYLAYER
 70
0
 71
3
 72
16
 73
12
 74
0
 42
0.0000001
 43
0.0000001
 44
0.0000000001
 40
0.0
 40
0.0
 40
0.0
 40
0.0
 40
0.1998570143
 40
0.384371276
 40
0.5470209014
 40
0.6839157027
 40
0.7952506958
 40
0.8823054097
 40
0.917690541
 40
0.9483733129
 40
1.0
 40
1.0
 40
1.0
 40
1.0
 10
41.6134929211
 20
13.006227144
 30
0.0
 10
41.5667640047
 20
13.0064500596
 30
0.0
 10
41.47687321
 20
13.0053469499
 30
0.0
 10
41.349121572
 20
12.998154857
 30
0.0
 10
41.2366086263
 20
12.9850599728
 30
0.0
 10
41.1423105717
 20
12.9658600459
 30
0.0
 10
41.0674642917
 20
12.942083727
 30
0.0
 10
41.0180404087
 20
12.9177472339
 30
0.0
 10
40.9896856717
 20
12.8955956132
 30
0.0
 10
40.9711154323
 20
12.8752667356
 30
0.0
 10
40.9635570545
 20
12.8559471274
 30
0.0
 10
40.9635570545
 20
12.8438760645
 30
0.0
  0
SPLINE
  5
441
100
AcDbEntity
  8
0
100
AcDbSpline
 62
7
  6
BYLAYER
 70
0
 71
3
 72
10
 73
6
 74
0
 42
0.0000001
 43
0.0000001
 44
0.0000000001
 40
0.0
 40
0.0
 40
0.0
 40
0.0
 40
0.5532107204
 40
0.7930929727
 40
1.0
 40
1.0
 40
1.0
 40
1.0
 10
44.2787658545
 20
12.8209474835
 30
0.0
 10
44.1618298078
 20
12.8273020137
 30
0.0
 10
43.9932946417
 20
12.8247249454
 30
0.0
 10
43.7827597951
 20
12.8022675903
 30
0.0
 10
43.6894559431
 20
12.7858812643
 30
0.0
 10
43.6468134545
 20
12.775878687
 30
0.0
  0
SPLINE
  5
442
100
AcDbEntity
  8
0
100
AcDbSpline
 62
7
  6
BYLAYER
 70
0
 71
3
 72
14
 73
10
 74
0
 42
0.0000001
 43
0.0000001
 44
0.0000000001
 40
0.0
 40
0.0
 40
0.0
 40
0.0
 40
0.1114525002
 40
0.1963372149
 40
0.3070892856
 40
0.4474492707
 40
0.6156576218
 40
0.8025334123
 40
1.0
 40
1.0
 40
1.0
 40
1.0
 10
45.0008022545
 20
12.6000973576
 30
0.0
 10
45.0008022545
 20
12.6246814944
 30
0.0
 10
44.9696316489
 20
12.6639180876
 30
0.0
 10
44.9138181469
 20
12.6998559099
 30
0.0
 10
44.8455753622
 20
12.7307031206
 30
0.0
 10
44.7571525118
 20
12.7577858969
 30
0.0
 10
44.6501018621
 20
12.7805307286
 30
0.0
 10
44.529599842
 20
12.7989715271
 30
0.0
 10
44.4452886344
 20
12.8081544009
 30
0.0
 10
44.4019069784
 20
12.8120596864
 30
0.0
  0
SPLINE
  5
443
100
AcDbEntity
  8
0
100
AcDbSpline
 62
7
  6
BYLAYER
 70
0
 71
3
 72
9
 73
5
 74
0
 42
0.0000001
 43
0.0000001
 44
0.0000000001
 40
0.0
 40
0.0
 40
0.0
 40
0.0
 40
0.228779727
 40
1.0
 40
1.0
 40
1.0
 40
1.0
 10
45.7885410545
 20
12.3006155573
 30
0.0
 10
45.7748470814
 20
12.3039865929
 30
0.0
 10
45.7147408205
 20
12.3177075267
 30
0.0
 10
45.6538868639
 20
12.3279733611
 30
0.0
 10
45.6068266647
 20
12.3347158163
 30
0.0
  0
SPLINE
  5
444
100
AcDbEntity
  8
0
100
AcDbSpline
 62
7
  6
BYLAYER
 70
0
 71
3
 72
9
 73
5
 74
0
 42
0.0000001
 43
0.0000001
 44
0.0000000001
 40
0.0
 40
0.0
 40
0.0
 40
0.0
 40
0.2402893449
 40
1.0
 40
1.0
 40
1.0
 40
1.0
 10
45.6068266647
 20
12.3347158163
 30
0.0
 10
45.5869683767
 20
12.3375609725
 30
0.0
 10
45.50419356
 20
12.3484828223
 30
0.0
 10
45.4210297448
 20
12.3562929247
 30
0.0
 10
45.3577849356
 20
12.3610846088
 30
0.0
  0
SPLINE
  5
445
100
AcDbEntity
  8
0
100
AcDbSpline
 62
7
  6
BYLAYER
 70
0
 71
3
 72
9
 73
5
 74
0
 42
0.0000001
 43
0.0000001
 44
0.0000000001
 40
0.0
 40
0.0
 40
0.0
 40
0.0
 40
0.249384478
 40
1.0
 40
1.0
 40
1.0
 40
1.0
 10
45.2905969587
 20
12.3657458322
 30
0.0
 10
45.2682409352
 20
12.3671596134
 30
0.0
 10
45.1785630068
 20
12.3723021056
 30
0.0
 10
45.0887827262
 20
12.3755758731
 30
0.0
 10
45.0213793987
 20
12.3772127789
 30
0.0
  0
SPLINE
  5
446
100
AcDbEntity
  8
0
100
AcDbSpline
 62
7
  6
BYLAYER
 70
0
 71
3
 72
9
 73
5
 74
0
 42
0.0000001
 43
0.0000001
 44
0.0000000001
 40
0.0
 40
0.0
 40
0.0
 40
0.0
 40
0.5109617568
 40
1.0
 40
1.0
 40
1.0
 40
1.0
 10
45.0005423195
 20
12.3776925599
 30
0.0
 10
44.8946471261
 20
12.3799980659
 30
0.0
 10
44.6873078842
 20
12.3806277276
 30
0.0
 10
44.4800516376
 20
12.3747821041
 30
0.0
 10
44.3787886996
 20
12.3700033694
 30
0.0
  0
SPLINE
  5
447
100
AcDbEntity
  8
0
100
AcDbSpline
 62
7
  6
BYLAYER
 70
0
 71
3
 72
9
 73
5
 74
0
 42
0.0000001
 43
0.0000001
 44
0.0000000001
 40
0.0
 40
0.0
 40
0.0
 40
0.0
 40
0.5298685272
 40
1.0
 40
1.0
 40
1.0
 40
1.0
 10
44.3787886996
 20
12.3700033694
 30
0.0
 10
44.272520566
 20
12.3649884326
 30
0.0
 10
44.0721030735
 20
12.3513740355
 30
0.0
 10
43.8727047886
 20
12.3272091318
 30
0.0
 10
43.7792322545
 20
12.3140629516
 30
0.0
  0
SPLINE
  5
448
100
AcDbEntity
  8
0
100
AcDbSpline
 62
7
  6
BYLAYER
 70
0
 71
3
 72
9
 73
5
 74
0
 42
0.0000001
 43
0.0000001
 44
0.0000000001
 40
0.0
 40
0.0
 40
0.0
 40
0.0
 40
0.529919059
 40
1.0
 40
1.0
 40
1.0
 40
1.0
 10
43.3477710545
 20
12.2260383926
 30
0.0
 10
43.327949331
 20
12.2200792043
 30
0.0
 10
43.2906062395
 20
12.2086701185
 30
0.0
 10
43.2537943786
 20
12.1953853867
 30
0.0
 10
43.2370266545
 20
12.1879043096
 30
0.0
  0
SPLINE
  5
449
100
AcDbEntity
  8
0
100
AcDbSpline
 62
7
  6
BYLAYER
 70
0
 71
3
 72
15
 73
11
 74
0
 42
0.0000001
 43
0.0000001
 44
0.0000000001
 40
0.0
 40
0.0
 40
0.0
 40
0.0
 40
0.049531339
 40
0.1127029784
 40
0.1966703545
 40
0.3064086324
 40
0.4458822169
 40
0.6141547107
 40
0.8018310048
 40
1.0
 40
1.0
 40
1.0
 40
1.0
 10
47.2732566545
 20
12.5492097459
 30
0.0
 10
47.2732566545
 20
12.5602124817
 30
0.0
 10
47.2643194007
 20
12.5851497212
 30
0.0
 10
47.2330832985
 20
12.6165914087
 30
0.0
 10
47.184229758
 20
12.64671814
 30
0.0
 10
47.115430502
 20
12.6746757146
 30
0.0
 10
47.0257237688
 20
12.6988779451
 30
0.0
 10
46.9171332136
 20
12.7174166391
 30
0.0
 10
46.7947384297
 20
12.7308868458
 30
0.0
 10
46.7091816648
 20
12.7364748567
 30
0.0
 10
46.6652086013
 20
12.7385208729
 30
0.0
  0
SPLINE
  5
44A
100
AcDbEntity
  8
0
100
AcDbSpline
 62
7
  6
BYLAYER
 70
0
 71
3
 72
11
 73
7
 74
0
 42
0.0000001
 43
0.0000001
 44
0.0000000001
 40
0.0
 40
0.0
 40
0.0
 40
0.0
 40
0.2193274692
 40
0.4741269781
 40
0.736409707
 40
1.0
 40
1.0
 40
1.0
 40
1.0
 10
27.9889464286
 20
14.5590445532
 30
0.0
 10
27.9134252681
 20
14.6562804049
 30
0.0
 10
27.7650659733
 20
14.8784936693
 30
0.0
 10
27.5905797479
 20
15.255364302
 30
0.0
 10
27.4759764342
 20
15.6805392348
 30
0.0
 10
27.4498604432
 20
15.9763906614
 30
0.0
 10
27.4498609697
 20
16.1243563474
 30
0.0
  0
SPLINE
  5
44B
100
AcDbEntity
  8
0
100
AcDbSpline
 62
7
  6
BYLAYER
 70
0
 71
3
 72
15
 73
11
 74
0
 42
0.0000001
 43
0.0000001
 44
0.0000000001
 40
0.0
 40
0.0
 40
0.0
 40
0.0
 40
0.0580988999
 40
0.125619545
 40
0.2092725624
 40
0.3143044632
 40
0.4448109839
 40
0.603125925
 40
0.7899124427
 40
1.0
 40
1.0
 40
1.0
 40
1.0
 10
49.5769545715
 20
12.5125076462
 30
0.0
 10
49.576973136
 20
12.5235221392
 30
0.0
 10
49.5711703848
 20
12.5475137071
 30
0.0
 10
49.5474563064
 20
12.5801101021
 30
0.0
 10
49.5096106942
 20
12.6111184847
 30
0.0
 10
49.4563052645
 20
12.6402811448
 30
0.0
 10
49.3865221361
 20
12.667271845
 30
0.0
 10
49.2994378715
 20
12.6911376373
 30
0.0
 10
49.1959106334
 20
12.7105641775
 30
0.0
 10
49.1212802313
 20
12.7203580236
 30
0.0
 10
49.0816934058
 20
12.7247419664
 30
0.0
  0
SPLINE
  5
44C
100
AcDbEntity
  8
0
100
AcDbSpline
 62
7
  6
BYLAYER
 70
0
 71
3
 72
9
 73
5
 74
0
 42
0.0000001
 43
0.0000001
 44
0.0000000001
 40
0.0
 40
0.0
 40
0.0
 40
0.0
 40
0.4868106866
 40
1.0
 40
1.0
 40
1.0
 40
1.0
 10
49.0404509625
 20
12.7290197746
 30
0.0
 10
48.9625838245
 20
12.7365669824
 30
0.0
 10
48.8020674312
 20
12.7463550632
 30
0.0
 10
48.6412904154
 20
12.7477190363
 30
0.0
 10
48.5588346545
 20
12.7461250583
 30
0.0
  0
SPLINE
  5
44D
100
AcDbEntity
  8
0
100
AcDbSpline
 62
7
  6
BYLAYER
 70
0
 71
3
 72
15
 73
11
 74
0
 42
0.0000001
 43
0.0000001
 44
0.0000000001
 40
0.0
 40
0.0
 40
0.0
 40
0.0
 40
0.0585312208
 40
0.1247840754
 40
0.2065510972
 40
0.3099107031
 40
0.4395640616
 40
0.5982575878
 40
0.7868825087
 40
1.0
 40
1.0
 40
1.0
 40
1.0
 10
55.0951637311
 20
12.9774653653
 30
0.0
 10
55.0951815621
 20
12.9882539228
 30
0.0
 10
55.0897178161
 20
13.0115118023
 30
0.0
 10
55.0661367483
 20
13.0423625747
 30
0.0
 10
55.0284727458
 20
13.0700508682
 30
0.0
 10
54.9754952876
 20
13.0943894703
 30
0.0
 10
54.9061177616
 20
13.1149853038
 30
0.0
 10
54.8194964606
 20
13.1308119898
 30
0.0
 10
54.716574899
 20
13.140597615
 30
0.0
 10
54.6425477727
 20
13.1434173943
 30
0.0
 10
54.6032715538
 20
13.1441012108
 30
0.0
  0
SPLINE
  5
44E
100
AcDbEntity
  8
0
100
AcDbSpline
 62
7
  6
BYLAYER
 70
0
 71
3
 72
9
 73
5
 74
0
 42
0.0000001
 43
0.0000001
 44
0.0000000001
 40
0.0
 40
0.0
 40
0.0
 40
0.0
 40
0.4875467637
 40
1.0
 40
1.0
 40
1.0
 40
1.0
 10
54.5458154828
 20
13.1445359519
 30
0.0
 10
54.469410417
 20
13.1443944322
 30
0.0
 10
54.3126984371
 20
13.1386605679
 30
0.0
 10
54.1565140395
 20
13.1249357074
 30
0.0
 10
54.0767310545
 20
13.115764497
 30
0.0
  0
SPLINE
  5
44F
100
AcDbEntity
  8
0
100
AcDbSpline
 62
7
  6
BYLAYER
 70
0
 71
3
 72
11
 73
7
 74
0
 42
0.0000001
 43
0.0000001
 44
0.0000000001
 40
0.0
 40
0.0
 40
0.0
 40
0.0
 40
0.166404877
 40
0.3712589361
 40
0.6415799418
 40
1.0
 40
1.0
 40
1.0
 40
1.0
 10
46.012552096
 20
12.1590998835
 30
0.0
 10
46.012530332
 20
12.1682928049
 30
0.0
 10
46.0068664182
 20
12.1889175076
 30
0.0
 10
45.9838673995
 20
12.2167075311
 30
0.0
 10
45.9462516396
 20
12.2437860389
 30
0.0
 10
45.9147389722
 20
12.2587719375
 30
0.0
 10
45.8964318262
 20
12.2663162721
 30
0.0
  0
SPLINE
  5
450
100
AcDbEntity
  8
0
100
AcDbSpline
 62
7
  6
BYLAYER
 70
0
 71
3
 72
9
 73
5
 74
0
 42
0.0000001
 43
0.0000001
 44
0.0000000001
 40
0.0
 40
0.0
 40
0.0
 40
0.0
 40
0.2203575536
 40
1.0
 40
1.0
 40
1.0
 40
1.0
 10
45.8964318262
 20
12.2663162721
 30
0.0
 10
45.888739375
 20
12.2694863144
 30
0.0
 10
45.8534876474
 20
12.2830396447
 30
0.0
 10
45.8171200775
 20
12.2935605678
 30
0.0
 10
45.7885410545
 20
12.3006155573
 30
0.0
  0
SPLINE
  5
451
100
AcDbEntity
  8
0
100
AcDbSpline
 62
7
  6
BYLAYER
 70
0
 71
3
 72
18
 73
14
 74
0
 42
0.0000001
 43
0.0000001
 44
0.0000000001
 40
0.0
 40
0.0
 40
0.0
 40
0.0
 40
0.0212391713
 40
0.0358651475
 40
0.0539203265
 40
0.1000599432
 40
0.1567090349
 40
0.219974816
 40
0.2871060914
 40
0.4272171867
 40
0.5706980718
 40
0.7150352179
 40
1.0
 40
1.0
 40
1.0
 40
1.0
 10
39.3328770545
 20
13.3454774428
 30
0.0
 10
39.3328770545
 20
13.3395727703
 30
0.0
 10
39.3376939953
 20
13.3297852992
 30
0.0
 10
39.3485109731
 20
13.319503229
 30
0.0
 10
39.3665330692
 20
13.3068422532
 30
0.0
 10
39.3969711364
 20
13.2923173067
 30
0.0
 10
39.4403039164
 20
13.2763519078
 30
0.0
 10
39.4900676284
 20
13.26118432
 30
0.0
 10
39.5627165188
 20
13.2417261716
 30
0.0
 10
39.6577056338
 20
13.2196343502
 30
0.0
 10
39.7740704508
 20
13.1948834592
 30
0.0
 10
39.9300559429
 20
13.1628719708
 30
0.0
 10
40.0469080836
 20
13.1385121857
 30
0.0
 10
40.1241187396
 20
13.1207711345
 30
0.0
  0
SPLINE
  5
452
100
AcDbEntity
  8
0
100
AcDbSpline
 62
7
  6
BYLAYER
 70
0
 71
3
 72
15
 73
11
 74
0
 42
0.0000001
 43
0.0000001
 44
0.0000000001
 40
0.0
 40
0.0
 40
0.0
 40
0.0
 40
0.3484547929
 40
0.5065483399
 40
0.6496623051
 40
0.7737748362
 40
0.8745358284
 40
0.9151204574
 40
0.949051274
 40
1.0
 40
1.0
 40
1.0
 40
1.0
 10
40.1687155431
 20
13.1103477457
 30
0.0
 10
40.2510569169
 20
13.0907637923
 30
0.0
 10
40.3702203559
 20
13.0597695396
 30
0.0
 10
40.5207333899
 20
13.0122689831
 30
0.0
 10
40.6178130348
 20
12.9767748723
 30
0.0
 10
40.6996547521
 20
12.9406762056
 30
0.0
 10
40.7560509089
 20
12.9090072934
 30
0.0
 10
40.7897443478
 20
12.882631407
 30
0.0
 10
40.8108621933
 20
12.8609554246
 30
0.0
 10
40.8209790545
 20
12.8408798167
 30
0.0
 10
40.8209790545
 20
12.8285045789
 30
0.0
  0
SPLINE
  5
453
100
AcDbEntity
  8
0
100
AcDbSpline
 62
7
  6
BYLAYER
 70
0
 71
3
 72
15
 73
11
 74
0
 42
0.0000001
 43
0.0000001
 44
0.0000000001
 40
0.0
 40
0.0
 40
0.0
 40
0.0
 40
0.3198018759
 40
0.6211021387
 40
0.7545288688
 40
0.8148471864
 40
0.8694811877
 40
0.9168931558
 40
0.9551941965
 40
1.0
 40
1.0
 40
1.0
 40
1.0
 10
39.6434346545
 20
12.8939283443
 30
0.0
 10
39.6898601917
 20
12.8876921826
 30
0.0
 10
39.7800518747
 20
12.875583927
 30
0.0
 10
39.890594714
 20
12.8694971291
 30
0.0
 10
39.9630980235
 20
12.8708545941
 30
0.0
 10
39.9994437648
 20
12.8734528561
 30
0.0
 10
40.0229574794
 20
12.8761373136
 30
0.0
 10
40.0435582176
 20
12.8800643208
 30
0.0
 10
40.0608344304
 20
12.8848048658
 30
0.0
 10
40.0745574545
 20
12.8929274135
 30
0.0
 10
40.0745574545
 20
12.899490277
 30
0.0
  0
SPLINE
  5
454
100
AcDbEntity
  8
0
100
AcDbSpline
 62
7
  6
BYLAYER
 70
0
 71
3
 72
9
 73
5
 74
0
 42
0.0000001
 43
0.0000001
 44
0.0000000001
 40
0.0
 40
0.0
 40
0.0
 40
0.0
 40
0.5746582173
 40
1.0
 40
1.0
 40
1.0
 40
1.0
 10
45.1748778545
 20
12.1771718899
 30
0.0
 10
45.1590857605
 20
12.1777796524
 30
0.0
 10
45.1315907341
 20
12.1767746906
 30
0.0
 10
45.1041027906
 20
12.1731427612
 30
0.0
 10
45.0929202545
 20
12.1697105359
 30
0.0
  0
SPLINE
  5
455
100
AcDbEntity
  8
0
100
AcDbSpline
 62
7
  6
BYLAYER
 70
0
 71
3
 72
15
 73
11
 74
0
 42
0.0000001
 43
0.0000001
 44
0.0000000001
 40
0.0
 40
0.0
 40
0.0
 40
0.0
 40
0.3171083328
 40
0.4680522326
 40
0.6100562995
 40
0.740159391
 40
0.8536728594
 40
0.9431724094
 40
0.9760552443
 40
1.0
 40
1.0
 40
1.0
 40
1.0
 10
44.1050298545
 20
11.9695480497
 30
0.0
 10
44.189377226
 20
11.9647819931
 30
0.0
 10
44.3140846316
 20
11.9605287797
 30
0.0
 10
44.4766243381
 20
11.9627971803
 30
0.0
 10
44.5892199495
 20
11.9680245181
 30
0.0
 10
44.6916652598
 20
11.9765711354
 30
0.0
 10
44.7795479763
 20
11.9885672086
 30
0.0
 10
44.8413123659
 20
12.0018964709
 30
0.0
 10
44.8776251718
 20
12.016036924
 30
0.0
 10
44.8907336156
 20
12.024240211
 30
0.0
 10
44.8951386545
 20
12.028854307
 30
0.0
  0
SPLINE
  5
456
100
AcDbEntity
  8
0
100
AcDbSpline
 62
7
  6
BYLAYER
 70
0
 71
3
 72
10
 73
6
 74
0
 42
0.0000001
 43
0.0000001
 44
0.0000000001
 40
0.0
 40
0.0
 40
0.0
 40
0.0
 40
0.2115383171
 40
0.4528188882
 40
1.0
 40
1.0
 40
1.0
 40
1.0
 10
45.9221518721
 20
12.6775845961
 30
0.0
 10
45.9657620258
 20
12.6884358642
 30
0.0
 10
46.0602559422
 20
12.7071011478
 30
0.0
 10
46.2708518943
 20
12.7353393055
 30
0.0
 10
46.4387121619
 20
12.7436731979
 30
0.0
 10
46.5549438545
 20
12.7419148422
 30
0.0
  0
SPLINE
  5
457
100
AcDbEntity
  8
0
100
AcDbSpline
 62
7
  6
BYLAYER
 70
0
 71
3
 72
12
 73
8
 74
0
 42
0.0000001
 43
0.0000001
 44
0.0000000001
 40
0.0
 40
0.0
 40
0.0
 40
0.0
 40
0.0414128756
 40
0.111831181
 40
0.3293964963
 40
0.6304700748
 40
1.0
 40
1.0
 40
1.0
 40
1.0
 10
52.4402934545
 20
12.1332847157
 30
0.0
 10
52.4402934545
 20
12.131029809
 30
0.0
 10
52.4456490665
 20
12.1261513909
 30
0.0
 10
52.4620829715
 20
12.1206008695
 30
0.0
 10
52.4943538101
 20
12.115102867
 30
0.0
 10
52.5424410749
 20
12.1125544439
 30
0.0
 10
52.5790843778
 20
12.1137105296
 30
0.0
 10
52.5991278545
 20
12.1154715179
 30
0.0
  0
SPLINE
  5
458
100
AcDbEntity
  8
0
100
AcDbSpline
 62
7
  6
BYLAYER
 70
0
 71
3
 72
17
 73
13
 74
0
 42
0.0000001
 43
0.0000001
 44
0.0000000001
 40
0.0
 40
0.0
 40
0.0
 40
0.0
 40
0.0473373701
 40
0.0732467768
 40
0.1039406675
 40
0.1414286929
 40
0.1865678625
 40
0.3004041866
 40
0.4418898207
 40
0.6075298531
 40
0.7956876255
 40
1.0
 40
1.0
 40
1.0
 40
1.0
 10
51.3125334545
 20
12.611905388
 30
0.0
 10
51.3125334545
 20
12.6037488151
 30
0.0
 10
51.3138976206
 20
12.5907471776
 30
0.0
 10
51.3230430725
 20
12.5750236617
 30
0.0
 10
51.3350045303
 20
12.5638299748
 30
0.0
 10
51.3516698384
 20
12.5535066802
 30
0.0
 10
51.3826862082
 20
12.5397516229
 30
0.0
 10
51.4328783895
 20
12.5261920896
 30
0.0
 10
51.504395123
 20
12.5139034134
 30
0.0
 10
51.5894205612
 20
12.5056526872
 30
0.0
 10
51.6856004198
 20
12.5027097375
 30
0.0
 10
51.7532528037
 20
12.5051772648
 30
0.0
 10
51.7883598545
 20
12.5077949548
 30
0.0
  0
SPLINE
  5
459
100
AcDbEntity
  8
0
100
AcDbSpline
 62
7
  6
BYLAYER
 70
0
 71
3
 72
9
 73
5
 74
0
 42
0.0000001
 43
0.0000001
 44
0.0000000001
 40
0.0
 40
0.0
 40
0.0
 40
0.0
 40
0.4631221372
 40
1.0
 40
1.0
 40
1.0
 40
1.0
 10
52.1568294545
 20
12.5731857702
 30
0.0
 10
52.1012318812
 20
12.5572365468
 30
0.0
 10
51.9792538356
 20
12.5295207545
 30
0.0
 10
51.8552257198
 20
12.5127806801
 30
0.0
 10
51.7883598545
 20
12.5077949548
 30
0.0
  0
SPLINE
  5
45A
100
AcDbEntity
  8
0
100
AcDbSpline
 62
7
  6
BYLAYER
 70
0
 71
3
 72
14
 73
10
 74
0
 42
0.0000001
 43
0.0000001
 44
0.0000000001
 40
0.0
 40
0.0
 40
0.0
 40
0.0
 40
0.2633500527
 40
0.5418925248
 40
0.6790019954
 40
0.808875379
 40
0.9214651618
 40
0.9660359497
 40
1.0
 40
1.0
 40
1.0
 40
1.0
 10
50.0201814545
 20
13.0207892998
 30
0.0
 10
50.058708211
 20
13.0286777087
 30
0.0
 10
50.1392484528
 20
13.0383866169
 30
0.0
 10
50.2405091268
 20
13.0440888648
 30
0.0
 10
50.3220158842
 20
13.044080449
 30
0.0
 10
50.3786176104
 20
13.0412060811
 30
0.0
 10
50.4213088819
 20
13.0358479726
 30
0.0
 10
50.4488917938
 20
13.0284436718
 30
0.0
 10
50.4597463064
 20
13.0236607257
 30
0.0
 10
50.4639640433
 20
13.0208439274
 30
0.0
  0
SPLINE
  5
45B
100
AcDbEntity
  8
0
100
AcDbSpline
 62
7
  6
BYLAYER
 70
0
 71
3
 72
17
 73
13
 74
0
 42
0.0000001
 43
0.0000001
 44
0.0000000001
 40
0.0
 40
0.0
 40
0.0
 40
0.0
 40
0.0226111609
 40
0.0468582906
 40
0.0745319286
 40
0.1069972989
 40
0.190474196
 40
0.3037796228
 40
0.4481045941
 40
0.6176053265
 40
0.8040083843
 40
1.0
 40
1.0
 40
1.0
 40
1.0
 10
50.6876934545
 20
12.5767210546
 30
0.0
 10
50.6876934575
 20
12.5693204343
 30
0.0
 10
50.6902488226
 20
12.5538772397
 30
0.0
 10
50.7016491879
 20
12.5319560115
 30
0.0
 10
50.7202099033
 20
12.5112061418
 30
0.0
 10
50.7578343541
 20
12.4826726228
 30
0.0
 10
50.8271099184
 20
12.451849859
 30
0.0
 10
50.9355018342
 20
12.4242050205
 30
0.0
 10
51.0742217629
 20
12.4050497265
 30
0.0
 10
51.2377095636
 20
12.3947648639
 30
0.0
 10
51.4184190549
 20
12.3932772446
 30
0.0
 10
51.5435273171
 20
12.398759844
 30
0.0
 10
51.6075126545
 20
12.4033244437
 30
0.0
  0
SPLINE
  5
45C
100
AcDbEntity
  8
0
100
AcDbSpline
 62
7
  6
BYLAYER
 70
0
 71
3
 72
9
 73
5
 74
0
 42
0.0000001
 43
0.0000001
 44
0.0000000001
 40
0.0
 40
0.0
 40
0.0
 40
0.0
 40
0.2621956923
 40
1.0
 40
1.0
 40
1.0
 40
1.0
 10
51.9825242349
 20
12.4504373436
 30
0.0
 10
51.9978590161
 20
12.4532248926
 30
0.0
 10
52.056262273
 20
12.464295674
 30
0.0
 10
52.1143441935
 20
12.4771447153
 30
0.0
 10
52.1568294545
 20
12.4880332441
 30
0.0
  0
SPLINE
  5
45D
100
AcDbEntity
  8
0
100
AcDbSpline
 62
7
  6
BYLAYER
 70
0
 71
3
 72
12
 73
8
 74
0
 42
0.0000001
 43
0.0000001
 44
0.0000000001
 40
0.0
 40
0.0
 40
0.0
 40
0.0
 40
0.0775593396
 40
0.1778806489
 40
0.4256778414
 40
0.7063797246
 40
1.0
 40
1.0
 40
1.0
 40
1.0
 10
49.7900977063
 20
12.8830112948
 30
0.0
 10
49.7949590723
 20
12.8802267752
 30
0.0
 10
49.8070584319
 20
12.8755742986
 30
0.0
 10
49.8369884757
 20
12.8684623739
 30
0.0
 10
49.8822689461
 20
12.8634119533
 30
0.0
 10
49.9415977973
 20
12.8609029433
 30
0.0
 10
49.9831040473
 20
12.8611636037
 30
0.0
 10
50.0043066743
 20
12.8616888465
 30
0.0
  0
SPLINE
  5
45E
100
AcDbEntity
  8
0
100
AcDbSpline
 62
7
  6
BYLAYER
 70
0
 71
3
 72
9
 73
5
 74
0
 42
0.0000001
 43
0.0000001
 44
0.0000000001
 40
0.0
 40
0.0
 40
0.0
 40
0.0
 40
0.5145539908
 40
1.0
 40
1.0
 40
1.0
 40
1.0
 10
50.0043066743
 20
12.8616888465
 30
0.0
 10
50.0433453485
 20
12.8626559334
 30
0.0
 10
50.1191272395
 20
12.8671656159
 30
0.0
 10
50.1946218743
 20
12.8764401803
 30
0.0
 10
50.2307366658
 20
12.8837219345
 30
0.0
  0
SPLINE
  5
45F
100
AcDbEntity
  8
0
100
AcDbSpline
 62
7
  6
BYLAYER
 70
0
 71
3
 72
13
 73
9
 74
0
 42
0.0000001
 43
0.0000001
 44
0.0000000001
 40
0.0
 40
0.0
 40
0.0
 40
0.0
 40
0.3481621525
 40
0.636448959
 40
0.7566894578
 40
0.8583665827
 40
0.939073238
 40
1.0
 40
1.0
 40
1.0
 40
1.0
 10
50.2307366658
 20
12.8837219345
 30
0.0
 10
50.2628248233
 20
12.8901976281
 30
0.0
 10
50.3209531191
 20
12.9047775572
 30
0.0
 10
50.3881616412
 20
12.9286915923
 30
0.0
 10
50.431321939
 20
12.9497377847
 30
0.0
 10
50.4554288099
 20
12.9650726544
 30
0.0
 10
50.472542787
 20
12.9803345548
 30
0.0
 10
50.4786828235
 20
12.9932694502
 30
0.0
 10
50.4786840544
 20
12.9989979346
 30
0.0
  0
SPLINE
  5
460
100
AcDbEntity
  8
0
100
AcDbSpline
 62
7
  6
BYLAYER
 70
0
 71
3
 72
15
 73
11
 74
0
 42
0.0000001
 43
0.0000001
 44
0.0000000001
 40
0.0
 40
0.0
 40
0.0
 40
0.0
 40
0.0524585673
 40
0.1195585989
 40
0.2073357384
 40
0.3183320157
 40
0.4544653316
 40
0.6160250465
 40
0.8000899507
 40
1.0
 40
1.0
 40
1.0
 40
1.0
 10
47.5181118545
 20
12.4831068164
 30
0.0
 10
47.5181118545
 20
12.4712278693
 30
0.0
 10
47.528433587
 20
12.4443171734
 30
0.0
 10
47.563257422
 20
12.4118536019
 30
0.0
 10
47.6154052532
 20
12.3812292658
 30
0.0
 10
47.6859575972
 20
12.3528590786
 30
0.0
 10
47.7750965329
 20
12.3275337512
 30
0.0
 10
47.8822018146
 20
12.3063094571
 30
0.0
 10
48.0047052186
 20
12.2899681202
 30
0.0
 10
48.0913345194
 20
12.282250028
 30
0.0
 10
48.136485312
 20
12.2789875963
 30
0.0
  0
SPLINE
  5
461
100
AcDbEntity
  8
0
100
AcDbSpline
 62
7
  6
BYLAYER
 70
0
 71
3
 72
9
 73
5
 74
0
 42
0.0000001
 43
0.0000001
 44
0.0000000001
 40
0.0
 40
0.0
 40
0.0
 40
0.0
 40
0.2453097418
 40
1.0
 40
1.0
 40
1.0
 40
1.0
 10
48.222760089
 20
12.273632917
 30
0.0
 10
48.2586181306
 20
12.2717527971
 30
0.0
 10
48.4048784489
 20
12.2657589285
 30
0.0
 10
48.5513459977
 20
12.2654212571
 30
0.0
 10
48.6617898545
 20
12.2677328055
 30
0.0
  0
SPLINE
  5
462
100
AcDbEntity
  8
0
100
AcDbSpline
 62
7
  6
BYLAYER
 70
0
 71
3
 72
9
 73
5
 74
0
 42
0.0000001
 43
0.0000001
 44
0.0000000001
 40
0.0
 40
0.0
 40
0.0
 40
0.0
 40
0.2660973956
 40
1.0
 40
1.0
 40
1.0
 40
1.0
 10
48.816773738
 20
12.2724408134
 30
0.0
 10
48.8813873837
 20
12.2750402632
 30
0.0
 10
49.1239992585
 20
12.2878798456
 30
0.0
 10
49.3664043843
 20
12.3151663442
 30
0.0
 10
49.5413070545
 20
12.3500632515
 30
0.0
  0
SPLINE
  5
463
100
AcDbEntity
  8
0
100
AcDbSpline
 62
7
  6
BYLAYER
 70
0
 71
3
 72
12
 73
8
 74
0
 42
0.0000001
 43
0.0000001
 44
0.0000000001
 40
0.0
 40
0.0
 40
0.0
 40
0.0
 40
0.1250892569
 40
0.2218765496
 40
0.3403608378
 40
0.6353165266
 40
1.0
 40
1.0
 40
1.0
 40
1.0
 10
48.9899574545
 20
11.9841124155
 30
0.0
 10
48.9899574545
 20
11.974542887
 30
0.0
 10
49.005641518
 20
11.9609844203
 30
0.0
 10
49.0278857886
 20
11.9496132364
 30
0.0
 10
49.0647351314
 20
11.9352981855
 30
0.0
 10
49.1222417489
 20
11.9204608704
 30
0.0
 10
49.1720316603
 20
11.9115676479
 30
0.0
 10
49.1996298694
 20
11.9074828243
 30
0.0
  0
SPLINE
  5
464
100
AcDbEntity
  8
0
100
AcDbSpline
 62
7
  6
BYLAYER
 70
0
 71
3
 72
9
 73
5
 74
0
 42
0.0000001
 43
0.0000001
 44
0.0000000001
 40
0.0
 40
0.0
 40
0.0
 40
0.0
 40
0.2325448496
 40
1.0
 40
1.0
 40
1.0
 40
1.0
 10
49.1996298694
 20
11.9074828243
 30
0.0
 10
49.2093707155
 20
11.9060410771
 30
0.0
 10
49.2513229663
 20
11.9002793776
 30
0.0
 10
49.2934998106
 20
11.8961868494
 30
0.0
 10
49.325914201
 20
11.8938655242
 30
0.0
  0
SPLINE
  5
465
100
AcDbEntity
  8
0
100
AcDbSpline
 62
7
  6
BYLAYER
 70
0
 71
3
 72
9
 73
5
 74
0
 42
0.0000001
 43
0.0000001
 44
0.0000000001
 40
0.0
 40
0.0
 40
0.0
 40
0.0
 40
0.2593142283
 40
1.0
 40
1.0
 40
1.0
 40
1.0
 10
49.8406895661
 20
11.9129770291
 30
0.0
 10
49.8524330877
 20
11.9143198917
 30
0.0
 10
49.897691822
 20
11.9197357346
 30
0.0
 10
49.942839429
 20
11.9261221792
 30
0.0
 10
49.9761546545
 20
11.9315959431
 30
0.0
  0
SPLINE
  5
466
100
AcDbEntity
  8
0
100
AcDbSpline
 62
7
  6
BYLAYER
 70
0
 71
3
 72
15
 73
11
 74
0
 42
0.0000001
 43
0.0000001
 44
0.0000000001
 40
0.0
 40
0.0
 40
0.0
 40
0.0
 40
0.0244637959
 40
0.0565214397
 40
0.1414777901
 40
0.2497365847
 40
0.3763237344
 40
0.5180722063
 40
0.6718595236
 40
1.0
 40
1.0
 40
1.0
 40
1.0
 10
44.2696218545
 20
12.1782203542
 30
0.0
 10
44.2737611134
 20
12.1827987564
 30
0.0
 10
44.2855433333
 20
12.1912544785
 30
0.0
 10
44.3178707326
 20
12.2064512248
 30
0.0
 10
44.3728731797
 20
12.2219626943
 30
0.0
 10
44.4521642459
 20
12.2368053668
 30
0.0
 10
44.5465005985
 20
12.2486953298
 30
0.0
 10
44.6526862553
 20
12.2571609093
 30
0.0
 10
44.809950274
 20
12.2634745797
 30
0.0
 10
44.9316307499
 20
12.2613042315
 30
0.0
 10
45.0143490545
 20
12.257889967
 30
0.0
  0
SPLINE
  5
467
100
AcDbEntity
  8
0
100
AcDbSpline
 62
7
  6
BYLAYER
 70
0
 71
3
 72
9
 73
5
 74
0
 42
0.0000001
 43
0.0000001
 44
0.0000000001
 40
0.0
 40
0.0
 40
0.0
 40
0.0
 40
0.2088409301
 40
1.0
 40
1.0
 40
1.0
 40
1.0
 10
44.1134958545
 20
12.0577004239
 30
0.0
 10
44.1081707696
 20
12.0564464818
 30
0.0
 10
44.0825433101
 20
12.051010924
 30
0.0
 10
44.0563730026
 20
12.0480716984
 30
0.0
 10
44.035662769
 20
12.0472907169
 30
0.0
  0
SPLINE
  5
468
100
AcDbEntity
  8
0
100
AcDbSpline
 62
7
  6
BYLAYER
 70
0
 71
3
 72
27
 73
23
 74
0
 42
0.0000001
 43
0.0000001
 44
0.0000000001
 40
0.0
 40
0.0
 40
0.0
 40
0.0
 40
0.0649221326
 40
0.1294381183
 40
0.1931048469
 40
0.2554224812
 40
0.3158404622
 40
0.3452492572
 40
0.3741599184
 40
0.4028124328
 40
0.4317248165
 40
0.4616622963
 40
0.4930725615
 40
0.5253974401
 40
0.557576142
 40
0.5891030026
 40
0.620095237
 40
0.681495844
 40
0.7435172583
 40
0.8065500585
 40
0.8704946826
 40
1.0
 40
1.0
 40
1.0
 40
1.0
 10
45.0302842773
 20
16.1243563496
 30
0.0
 10
45.0301997781
 20
16.0462049945
 30
0.0
 10
45.0296131572
 20
15.8903888041
 30
0.0
 10
45.0256074858
 20
15.6579629322
 30
0.0
 10
45.0159607736
 20
15.4287879064
 30
0.0
 10
44.9956364875
 20
15.2052367924
 30
0.0
 10
44.962441755
 20
15.0244983043
 30
0.0
 10
44.9183402807
 20
14.8882746738
 30
0.0
 10
44.8739439858
 20
14.7930717378
 30
0.0
 10
44.8144488775
 20
14.7068529589
 30
0.0
 10
44.7358136125
 20
14.635057848
 30
0.0
 10
44.6368957041
 20
14.5862522779
 30
0.0
 10
44.5235588734
 20
14.569328881
 30
0.0
 10
44.4078201773
 20
14.5871143787
 30
0.0
 10
44.301441683
 20
14.6355523783
 30
0.0
 10
44.2110772061
 20
14.7065187312
 30
0.0
 10
44.1136257027
 20
14.8204493391
 30
0.0
 10
44.0276552185
 20
14.9877026335
 30
0.0
 10
43.9639972161
 20
15.2035610782
 30
0.0
 10
43.9249172123
 20
15.4280294246
 30
0.0
 10
43.8940707011
 20
15.7353840615
 30
0.0
 10
43.8880908339
 20
15.9684626459
 30
0.0
 10
43.8875096317
 20
16.1243563484
 30
0.0
  0
SPLINE
  5
469
100
AcDbEntity
  8
0
100
AcDbSpline
 62
7
  6
BYLAYER
 70
0
 71
3
 72
12
 73
8
 74
0
 42
0.0000001
 43
0.0000001
 44
0.0000000001
 40
0.0
 40
0.0
 40
0.0
 40
0.0
 40
0.259350572
 40
0.5181750882
 40
0.7725171815
 40
0.8928582684
 40
1.0
 40
1.0
 40
1.0
 40
1.0
 10
27.5592169101
 20
16.1243563474
 30
0.0
 10
27.5592098008
 20
15.9762773707
 30
0.0
 10
27.5860768143
 20
15.6796884561
 30
0.0
 10
27.7058548294
 20
15.2527699858
 30
0.0
 10
27.8680862243
 20
14.9266343722
 30
0.0
 10
28.0260671332
 20
14.7009954684
 30
0.0
 10
28.1109972945
 20
14.6023118031
 30
0.0
 10
28.1537441513
 20
14.5585518938
 30
0.0
  0
SPLINE
  5
46A
100
AcDbEntity
  8
0
100
AcDbSpline
 62
7
  6
BYLAYER
 70
0
 71
3
 72
9
 73
5
 74
0
 42
0.0000001
 43
0.0000001
 44
0.0000000001
 40
0.0
 40
0.0
 40
0.0
 40
0.0
 40
0.2634593297
 40
1.0
 40
1.0
 40
1.0
 40
1.0
 10
28.1537441513
 20
14.5585518938
 30
0.0
 10
28.1578466295
 20
14.5543521915
 30
0.0
 10
28.1735201329
 20
14.5385118884
 30
0.0
 10
28.1895966981
 20
14.5230671767
 30
0.0
 10
28.2017069523
 20
14.5119887763
 30
0.0
  0
SPLINE
  5
46B
100
AcDbEntity
  8
0
100
AcDbSpline
 62
7
  6
BYLAYER
 70
0
 71
3
 72
11
 73
7
 74
0
 42
0.0000001
 43
0.0000001
 44
0.0000000001
 40
0.0
 40
0.0
 40
0.0
 40
0.0
 40
0.3915957191
 40
0.6949604686
 40
0.8968022345
 40
1.0
 40
1.0
 40
1.0
 40
1.0
 10
28.2017069523
 20
14.5119887763
 30
0.0
 10
28.2144608082
 20
14.5003216123
 30
0.0
 10
28.2374117646
 20
14.4802247396
 30
0.0
 10
28.2698501583
 20
14.456319466
 30
0.0
 10
28.2917391259
 20
14.4431121445
 30
0.0
 10
28.3070811591
 20
14.439256945
 30
0.0
 10
28.310860665
 20
14.4417996784
 30
0.0
  0
SPLINE
  5
46C
100
AcDbEntity
  8
0
100
AcDbSpline
 62
7
  6
BYLAYER
 70
0
 71
3
 72
25
 73
21
 74
0
 42
0.0000001
 43
0.0000001
 44
0.0000000001
 40
0.0
 40
0.0
 40
0.0
 40
0.0
 40
0.0662920757
 40
0.1318958151
 40
0.1962096928
 40
0.2588635747
 40
0.32001942
 40
0.3809364023
 40
0.4440737638
 40
0.5097372059
 40
0.5419084182
 40
0.5724500751
 40
0.6013928829
 40
0.6293709826
 40
0.6850557723
 40
0.7432515193
 40
0.8045138266
 40
0.86827916
 40
0.9337236092
 40
1.0
 40
1.0
 40
1.0
 40
1.0
 10
43.6674369659
 20
16.1243563474
 30
0.0
 10
43.6674101734
 20
16.0332846837
 30
0.0
 10
43.6713698576
 20
15.8520580905
 30
0.0
 10
43.690428814
 20
15.58304732
 30
0.0
 10
43.7270774121
 20
15.320746792
 30
0.0
 10
43.7891102691
 20
15.0691720074
 30
0.0
 10
43.8884582239
 20
14.83396473
 30
0.0
 10
44.0429034103
 20
14.6272354469
 30
0.0
 10
44.2636493109
 20
14.4782629542
 30
0.0
 10
44.4865597593
 20
14.4310622045
 30
0.0
 10
44.6631523998
 20
14.4494510495
 30
0.0
 10
44.7835081384
 20
14.4902046407
 30
0.0
 10
44.8862436669
 20
14.5545241918
 30
0.0
 10
44.9969394813
 20
14.6642059465
 30
0.0
 10
45.0916582656
 20
14.8387295195
 30
0.0
 10
45.1528692432
 20
15.072425539
 30
0.0
 10
45.1848299749
 20
15.3224930249
 30
0.0
 10
45.1996614209
 20
15.5838301394
 30
0.0
 10
45.2055349456
 20
15.8523470224
 30
0.0
 10
45.2065546839
 20
16.0333062318
 30
0.0
 10
45.2065272014
 20
16.1243563474
 30
0.0
  0
SPLINE
  5
46D
100
AcDbEntity
  8
0
100
AcDbSpline
 62
7
  6
BYLAYER
 70
0
 71
3
 72
16
 73
12
 74
0
 42
0.0000001
 43
0.0000001
 44
0.0000000001
 40
0.0
 40
0.0
 40
0.0
 40
0.0
 40
0.0659362508
 40
0.1300927047
 40
0.1915829976
 40
0.2510517473
 40
0.3674722162
 40
0.4863631832
 40
0.6097418633
 40
0.7372831111
 40
1.0
 40
1.0
 40
1.0
 40
1.0
 10
47.4347094545
 20
14.4404505479
 30
0.0
 10
47.3893090395
 20
14.4398422861
 30
0.0
 10
47.2993793339
 20
14.449894495
 30
0.0
 10
47.173172709
 20
14.4910396457
 30
0.0
 10
47.0617785967
 20
14.5549297316
 30
0.0
 10
46.9385913907
 20
14.6638684091
 30
0.0
 10
46.8257609515
 20
14.8367962177
 30
0.0
 10
46.7447264309
 20
15.0714885357
 30
0.0
 10
46.6974202364
 20
15.3222536636
 30
0.0
 10
46.6624100949
 20
15.6744459321
 30
0.0
 10
46.6567068974
 20
15.9434466978
 30
0.0
 10
46.6563579673
 20
16.1243563474
 30
0.0
  0
SPLINE
  5
46E
100
AcDbEntity
  8
0
100
AcDbSpline
 62
7
  6
BYLAYER
 70
0
 71
3
 72
14
 73
10
 74
0
 42
0.0000001
 43
0.0000001
 44
0.0000000001
 40
0.0
 40
0.0
 40
0.0
 40
0.0
 40
0.061002141
 40
0.1251960012
 40
0.2030835234
 40
0.3058183028
 40
0.4397385597
 40
0.603402631
 40
1.0
 40
1.0
 40
1.0
 40
1.0
 10
46.6541730545
 20
12.5420543014
 30
0.0
 10
46.6541730545
 20
12.5460101416
 30
0.0
 10
46.654020774
 20
12.5541592083
 30
0.0
 10
46.6500955331
 20
12.5670396505
 30
0.0
 10
46.6395364887
 20
12.5793746099
 30
0.0
 10
46.6224825324
 20
12.5907977258
 30
0.0
 10
46.5986557
 20
12.6013166326
 30
0.0
 10
46.5558303189
 20
12.6152864283
 30
0.0
 10
46.520249211
 20
12.6231201373
 30
0.0
 10
46.4949314651
 20
12.6276419129
 30
0.0
  0
SPLINE
  5
46F
100
AcDbEntity
  8
0
100
AcDbSpline
 62
7
  6
BYLAYER
 70
0
 71
3
 72
9
 73
5
 74
0
 42
0.0000001
 43
0.0000001
 44
0.0000000001
 40
0.0
 40
0.0
 40
0.0
 40
0.0
 40
0.230933667
 40
1.0
 40
1.0
 40
1.0
 40
1.0
 10
46.4949314651
 20
12.6276419129
 30
0.0
 10
46.4835066614
 20
12.6296823947
 30
0.0
 10
46.4338683175
 20
12.6375449245
 30
0.0
 10
46.3836129824
 20
12.6416629343
 30
0.0
 10
46.3449702545
 20
12.6423858088
 30
0.0
  0
SPLINE
  5
470
100
AcDbEntity
  8
0
100
AcDbSpline
 62
7
  6
BYLAYER
 70
0
 71
3
 72
9
 73
5
 74
0
 42
0.0000001
 43
0.0000001
 44
0.0000000001
 40
0.0
 40
0.0
 40
0.0
 40
0.0
 40
0.2792755217
 40
1.0
 40
1.0
 40
1.0
 40
1.0
 10
46.3449702545
 20
12.6423858088
 30
0.0
 10
46.319090456
 20
12.6428699322
 30
0.0
 10
46.2263817923
 20
12.6413526035
 30
0.0
 10
46.1339000681
 20
12.6298857176
 30
0.0
 10
46.0684693204
 20
12.6164324067
 30
0.0
  0
SPLINE
  5
471
100
AcDbEntity
  8
0
100
AcDbSpline
 62
7
  6
BYLAYER
 70
0
 71
3
 72
9
 73
5
 74
0
 42
0.0000001
 43
0.0000001
 44
0.0000000001
 40
0.0
 40
0.0
 40
0.0
 40
0.0
 40
0.2746223305
 40
1.0
 40
1.0
 40
1.0
 40
1.0
 10
46.0684693204
 20
12.6164324067
 30
0.0
 10
46.0562037423
 20
12.6139104634
 30
0.0
 10
46.0116737058
 20
12.6040583339
 30
0.0
 10
45.9678750035
 20
12.5911246332
 30
0.0
 10
45.9364469609
 20
12.5808157304
 30
0.0
  0
SPLINE
  5
472
100
AcDbEntity
  8
0
100
AcDbSpline
 62
7
  6
BYLAYER
 70
0
 71
3
 72
9
 73
5
 74
0
 42
0.0000001
 43
0.0000001
 44
0.0000000001
 40
0.0
 40
0.0
 40
0.0
 40
0.0
 40
0.459117892
 40
1.0
 40
1.0
 40
1.0
 40
1.0
 10
45.9128322545
 20
12.3594305546
 30
0.0
 10
45.8753695409
 20
12.3707870116
 30
0.0
 10
45.7919615291
 20
12.3893709147
 30
0.0
 10
45.7076979397
 20
12.4024409023
 30
0.0
 10
45.6619908763
 20
12.4085816596
 30
0.0
  0
SPLINE
  5
473
100
AcDbEntity
  8
0
100
AcDbSpline
 62
7
  6
BYLAYER
 70
0
 71
3
 72
9
 73
5
 74
0
 42
0.0000001
 43
0.0000001
 44
0.0000000001
 40
0.0
 40
0.0
 40
0.0
 40
0.0
 40
0.2409382065
 40
1.0
 40
1.0
 40
1.0
 40
1.0
 10
45.6619908763
 20
12.4085816596
 30
0.0
 10
45.6325236247
 20
12.4125405934
 30
0.0
 10
45.510001865
 20
12.4273282823
 30
0.0
 10
45.3869148787
 20
12.437118308
 30
0.0
 10
45.2934102545
 20
12.4426642218
 30
0.0
  0
SPLINE
  5
474
100
AcDbEntity
  8
0
100
AcDbSpline
 62
7
  6
BYLAYER
 70
0
 71
3
 72
9
 73
5
 74
0
 42
0.0000001
 43
0.0000001
 44
0.0000000001
 40
0.0
 40
0.0
 40
0.0
 40
0.0
 40
0.2296583256
 40
1.0
 40
1.0
 40
1.0
 40
1.0
 10
45.8978883993
 20
12.6713476896
 30
0.0
 10
45.8887876465
 20
12.6739169284
 30
0.0
 10
45.8489667008
 20
12.6844190131
 30
0.0
 10
45.8085842589
 20
12.6926792586
 30
0.0
 10
45.777374724
 20
12.6983456724
 30
0.0
  0
SPLINE
  5
475
100
AcDbEntity
  8
0
100
AcDbSpline
 62
7
  6
BYLAYER
 70
0
 71
3
 72
9
 73
5
 74
0
 42
0.0000001
 43
0.0000001
 44
0.0000000001
 40
0.0
 40
0.0
 40
0.0
 40
0.0
 40
0.4800433851
 40
1.0
 40
1.0
 40
1.0
 40
1.0
 10
45.777374724
 20
12.6983456724
 30
0.0
 10
45.7007055746
 20
12.7122657495
 30
0.0
 10
45.5395013885
 20
12.7328209273
 30
0.0
 10
45.3776620663
 20
12.7456168387
 30
0.0
 10
45.2934102545
 20
12.7506404205
 30
0.0
  0
SPLINE
  5
476
100
AcDbEntity
  8
0
100
AcDbSpline
 62
7
  6
BYLAYER
 70
0
 71
3
 72
13
 73
9
 74
0
 42
0.0000001
 43
0.0000001
 44
0.0000000001
 40
0.0
 40
0.0
 40
0.0
 40
0.0
 40
0.0702457125
 40
0.1196792451
 40
0.1784924023
 40
0.2677639234
 40
0.5576786319
 40
1.0
 40
1.0
 40
1.0
 40
1.0
 10
39.3122917955
 20
11.6801636202
 30
0.0
 10
39.3089355508
 20
11.6784447769
 30
0.0
 10
39.3030483063
 20
11.6751482687
 30
0.0
 10
39.2995371377
 20
11.6650434733
 30
0.0
 10
39.3060994644
 20
11.655512326
 30
0.0
 10
39.3248860162
 20
11.6417391165
 30
0.0
 10
39.366095972
 20
11.62427248
 30
0.0
 10
39.4033559557
 20
11.6123282844
 30
0.0
 10
39.4261444112
 20
11.6056609985
 30
0.0
  0
SPLINE
  5
477
100
AcDbEntity
  8
0
100
AcDbSpline
 62
7
  6
BYLAYER
 70
0
 71
3
 72
20
 73
16
 74
0
 42
0.0000001
 43
0.0000001
 44
0.0000000001
 40
0.0
 40
0.0
 40
0.0
 40
0.0
 40
0.1029648473
 40
0.2405547405
 40
0.3999791412
 40
0.5662914398
 40
0.6470250466
 40
0.7234820366
 40
0.7937828407
 40
0.85616336
 40
0.9090467128
 40
0.9511395226
 40
0.9815790474
 40
0.9922822204
 40
1.0
 40
1.0
 40
1.0
 40
1.0
 10
39.4538747888
 20
11.5978354543
 30
0.0
 10
39.5322472093
 20
11.5764579066
 30
0.0
 10
39.718039355
 20
11.5367413309
 30
0.0
 10
40.0290579838
 20
11.4833500994
 30
0.0
 10
40.391144883
 20
11.4326718936
 30
0.0
 10
40.7098015719
 20
11.3963167787
 30
0.0
 10
40.9639299809
 20
11.3725126525
 30
0.0
 10
41.1428645606
 20
11.3584122389
 30
0.0
 10
41.3075633631
 20
11.3482052056
 30
0.0
 10
41.4538470289
 20
11.3421570139
 30
0.0
 10
41.5780248747
 20
11.3402912674
 30
0.0
 10
41.6769222173
 20
11.3427437135
 30
0.0
 10
41.7425416914
 20
11.3482000743
 30
0.0
 10
41.7803527267
 20
11.3557111154
 30
0.0
 10
41.794283418
 20
11.3602602987
 30
0.0
 10
41.7997098262
 20
11.363022678
 30
0.0
  0
SPLINE
  5
478
100
AcDbEntity
  8
0
100
AcDbSpline
 62
7
  6
BYLAYER
 70
0
 71
3
 72
9
 73
5
 74
0
 42
0.0000001
 43
0.0000001
 44
0.0000000001
 40
0.0
 40
0.0
 40
0.0
 40
0.0
 40
0.229161467
 40
1.0
 40
1.0
 40
1.0
 40
1.0
 10
41.7997098262
 20
11.363022678
 30
0.0
 10
41.8462804315
 20
11.3867036224
 30
0.0
 10
42.0442184885
 20
11.5004897296
 30
0.0
 10
42.2193189577
 20
11.6508891974
 30
0.0
 10
42.3426787545
 20
11.7760574982
 30
0.0
  0
SPLINE
  5
479
100
AcDbEntity
  8
0
100
AcDbSpline
 62
7
  6
BYLAYER
 70
0
 71
3
 72
14
 73
10
 74
0
 42
0.0000001
 43
0.0000001
 44
0.0000000001
 40
0.0
 40
0.0
 40
0.0
 40
0.0
 40
0.0625171071
 40
0.1204670568
 40
0.1942536958
 40
0.2946397466
 40
0.425183563
 40
0.5867611164
 40
1.0
 40
1.0
 40
1.0
 40
1.0
 10
42.3426787545
 20
11.7760574982
 30
0.0
 10
42.3475020627
 20
11.7809561603
 30
0.0
 10
42.3555892613
 20
11.7926593704
 30
0.0
 10
42.3530242983
 20
11.815360149
 30
0.0
 10
42.3369553697
 20
11.8360469835
 30
0.0
 10
42.3105860143
 20
11.8568457712
 30
0.0
 10
42.2730237336
 20
11.8783792033
 30
0.0
 10
42.2024136426
 20
11.9105882747
 30
0.0
 10
42.1424318552
 20
11.9310278576
 30
0.0
 10
42.099024929
 20
11.9444735836
 30
0.0
  0
SPLINE
  5
47A
100
AcDbEntity
  8
0
100
AcDbSpline
 62
7
  6
BYLAYER
 70
0
 71
3
 72
9
 73
5
 74
0
 42
0.0000001
 43
0.0000001
 44
0.0000000001
 40
0.0
 40
0.0
 40
0.0
 40
0.0
 40
0.4575406176
 40
1.0
 40
1.0
 40
1.0
 40
1.0
 10
42.099024929
 20
11.9444735836
 30
0.0
 10
42.0400839302
 20
11.9627311426
 30
0.0
 10
41.9095996176
 20
11.9972391981
 30
0.0
 10
41.7776329196
 20
12.0251982754
 30
0.0
 10
41.705797478
 20
12.0390361732
 30
0.0
  0
SPLINE
  5
47B
100
AcDbEntity
  8
0
100
AcDbSpline
 62
7
  6
BYLAYER
 70
0
 71
3
 72
9
 73
5
 74
0
 42
0.0000001
 43
0.0000001
 44
0.0000000001
 40
0.0
 40
0.0
 40
0.0
 40
0.0
 40
0.257735675
 40
1.0
 40
1.0
 40
1.0
 40
1.0
 10
36.8263258352
 20
12.6547321344
 30
0.0
 10
36.8020430551
 20
12.6581945089
 30
0.0
 10
36.7077677955
 20
12.6712039375
 30
0.0
 10
36.6132520861
 20
12.6825042391
 30
0.0
 10
36.5429786604
 20
12.6896949685
 30
0.0
  0
SPLINE
  5
47C
100
AcDbEntity
  8
0
100
AcDbSpline
 62
7
  6
BYLAYER
 70
0
 71
3
 72
9
 73
5
 74
0
 42
0.0000001
 43
0.0000001
 44
0.0000000001
 40
0.0
 40
0.0
 40
0.0
 40
0.0
 40
0.2760133703
 40
1.0
 40
1.0
 40
1.0
 40
1.0
 10
36.5429786604
 20
12.6896949685
 30
0.0
 10
36.5093889079
 20
12.6931320404
 30
0.0
 10
36.3876015424
 20
12.7045494412
 30
0.0
 10
36.2653514364
 20
12.711991758
 30
0.0
 10
36.1767919631
 20
12.713100022
 30
0.0
  0
SPLINE
  5
47D
100
AcDbEntity
  8
0
100
AcDbSpline
 62
7
  6
BYLAYER
 70
0
 71
3
 72
9
 73
5
 74
0
 42
0.0000001
 43
0.0000001
 44
0.0000000001
 40
0.0
 40
0.0
 40
0.0
 40
0.0
 40
0.2660884383
 40
1.0
 40
1.0
 40
1.0
 40
1.0
 10
36.1767919631
 20
12.713100022
 30
0.0
 10
36.167629651
 20
12.7132146824
 30
0.0
 10
36.1331948678
 20
12.7134567956
 30
0.0
 10
36.098749674
 20
12.712917546
 30
0.0
 10
36.073497275
 20
12.7118972898
 30
0.0
  0
SPLINE
  5
47E
100
AcDbEntity
  8
0
100
AcDbSpline
 62
7
  6
BYLAYER
 70
0
 71
3
 72
9
 73
5
 74
0
 42
0.0000001
 43
0.0000001
 44
0.0000000001
 40
0.0
 40
0.0
 40
0.0
 40
0.0
 40
0.2618538298
 40
1.0
 40
1.0
 40
1.0
 40
1.0
 10
36.073497275
 20
12.7118972898
 30
0.0
 10
36.0689000996
 20
12.7117115531
 30
0.0
 10
36.0513473548
 20
12.7109211538
 30
0.0
 10
36.0338084788
 20
12.7097971881
 30
0.0
 10
36.0208831063
 20
12.708726254
 30
0.0
  0
SPLINE
  5
47F
100
AcDbEntity
  8
0
100
AcDbSpline
 62
7
  6
BYLAYER
 70
0
 71
3
 72
23
 73
19
 74
0
 42
0.0000001
 43
0.0000001
 44
0.0000000001
 40
0.0
 40
0.0
 40
0.0
 40
0.0
 40
0.0452600445
 40
0.0777059619
 40
0.0894375626
 40
0.0986670791
 40
0.1063586887
 40
0.114077342
 40
0.1233443067
 40
0.1350667039
 40
0.1671956043
 40
0.2115075126
 40
0.2676576034
 40
0.334812111
 40
0.411872794
 40
0.5903669034
 40
0.7910903617
 40
1.0
 40
1.0
 40
1.0
 40
1.0
 10
36.0208831063
 20
12.708726254
 30
0.0
 10
35.9955833985
 20
12.7066300422
 30
0.0
 10
35.952317824
 20
12.7015004307
 30
0.0
 10
35.9031715802
 20
12.6892650906
 30
0.0
 10
35.876461737
 20
12.6753635778
 30
0.0
 10
35.8642125225
 20
12.6645416322
 30
0.0
 10
35.8581794142
 20
12.6514898381
 30
0.0
 10
35.8596142198
 20
12.6371758991
 30
0.0
 10
35.8674745863
 20
12.6228331679
 30
0.0
 10
35.887658067
 20
12.6007107044
 30
0.0
 10
35.9288277102
 20
12.5725150763
 30
0.0
 10
35.994903625
 20
12.5383933031
 30
0.0
 10
36.0817069065
 20
12.5019994777
 30
0.0
 10
36.1875013828
 20
12.4640191742
 30
0.0
 10
36.3601766854
 20
12.4095950364
 30
0.0
 10
36.6077515295
 20
12.3442323996
 30
0.0
 10
36.9301423652
 20
12.2739887789
 30
0.0
 10
37.1564273542
 20
12.2337491301
 30
0.0
 10
37.2721803545
 20
12.2155328053
 30
0.0
  0
SPLINE
  5
480
100
AcDbEntity
  8
0
100
AcDbSpline
 62
7
  6
BYLAYER
 70
0
 71
3
 72
11
 73
7
 74
0
 42
0.0000001
 43
0.0000001
 44
0.0000000001
 40
0.0
 40
0.0
 40
0.0
 40
0.0
 40
0.2590787166
 40
0.5166240348
 40
0.7682825232
 40
1.0
 40
1.0
 40
1.0
 40
1.0
 10
67.0766965739
 20
16.1243563474
 30
0.0
 10
67.07669137
 20
15.9968261064
 30
0.0
 10
67.0582869282
 20
15.7421437056
 30
0.0
 10
66.9777077818
 20
15.3714703513
 30
0.0
 10
66.8534074394
 20
15.0275200707
 30
0.0
 10
66.7469394262
 20
14.814270879
 30
0.0
 10
66.6920789526
 20
14.7142687617
 30
0.0
  0
SPLINE
  5
481
100
AcDbEntity
  8
0
100
AcDbSpline
 62
7
  6
BYLAYER
 70
0
 71
3
 72
22
 73
18
 74
0
 42
0.0000001
 43
0.0000001
 44
0.0000000001
 40
0.0
 40
0.0
 40
0.0
 40
0.0
 40
0.2139394705
 40
0.4002408373
 40
0.4800383994
 40
0.5489762709
 40
0.6056264184
 40
0.6489922084
 40
0.6785296203
 40
0.6963396902
 40
0.7138938426
 40
0.7268509927
 40
0.7433346203
 40
0.7872677682
 40
0.8454976779
 40
0.9168875755
 40
1.0
 40
1.0
 40
1.0
 40
1.0
 10
66.6920789526
 20
14.7142687617
 30
0.0
 10
66.6769802379
 20
14.6867461514
 30
0.0
 10
66.6482245086
 20
14.6355371432
 30
0.0
 10
66.6132594122
 20
14.5743872359
 30
0.0
 10
66.5893718948
 20
14.5314232107
 30
0.0
 10
66.5753085181
 20
14.5047519534
 30
0.0
 10
66.5645106288
 20
14.4824624764
 30
0.0
 10
66.557765332
 20
14.4645424085
 30
0.0
 10
66.5543049492
 20
14.4519118159
 30
0.0
 10
66.5565899855
 20
14.4411540374
 30
0.0
 10
66.564859911
 20
14.4400699701
 30
0.0
 10
66.571401992
 20
14.4417767597
 30
0.0
 10
66.5815052718
 20
14.4457421435
 30
0.0
 10
66.5965575941
 20
14.4545477974
 30
0.0
 10
66.6173949097
 20
14.4692255872
 30
0.0
 10
66.6417361447
 20
14.4887907578
 30
0.0
 10
66.6587466156
 20
14.5037885288
 30
0.0
 10
66.6677444857
 20
14.5120205317
 30
0.0
  0
SPLINE
  5
482
100
AcDbEntity
  8
0
100
AcDbSpline
 62
7
  6
BYLAYER
 70
0
 71
3
 72
9
 73
5
 74
0
 42
0.0000001
 43
0.0000001
 44
0.0000000001
 40
0.0
 40
0.0
 40
0.0
 40
0.0
 40
0.2358058882
 40
1.0
 40
1.0
 40
1.0
 40
1.0
 10
66.6677444857
 20
14.5120205317
 30
0.0
 10
66.6716594648
 20
14.5156022814
 30
0.0
 10
66.6881393911
 20
14.5309255
 30
0.0
 10
66.7041543832
 20
14.5467459576
 30
0.0
 10
66.7161647369
 20
14.5590530037
 30
0.0
  0
SPLINE
  5
483
100
AcDbEntity
  8
0
100
AcDbSpline
 62
7
  6
BYLAYER
 70
0
 71
3
 72
12
 73
8
 74
0
 42
0.0000001
 43
0.0000001
 44
0.0000000001
 40
0.0
 40
0.0
 40
0.0
 40
0.0
 40
0.1072064828
 40
0.2275607647
 40
0.4818865361
 40
0.7406806974
 40
1.0
 40
1.0
 40
1.0
 40
1.0
 10
66.7161647369
 20
14.5590530037
 30
0.0
 10
66.7588985594
 20
14.6028424823
 30
0.0
 10
66.8437814976
 20
14.7015549114
 30
0.0
 10
67.0016434326
 20
14.9271826174
 30
0.0
 10
67.1637159178
 20
15.2532070215
 30
0.0
 10
67.2833707881
 20
15.6799232602
 30
0.0
 10
67.3102093489
 20
15.9763555004
 30
0.0
 10
67.3102019979
 20
16.1243563474
 30
0.0
  0
SPLINE
  5
484
100
AcDbEntity
  8
0
100
AcDbSpline
 62
7
  6
BYLAYER
 70
0
 71
3
 72
10
 73
6
 74
0
 42
0.0000001
 43
0.0000001
 44
0.0000000001
 40
0.0
 40
0.0
 40
0.0
 40
0.0
 40
0.4836598431
 40
0.7387451256
 40
1.0
 40
1.0
 40
1.0
 40
1.0
 10
38.6460618545
 20
12.9794711849
 30
0.0
 10
38.801928366
 20
12.9378289853
 30
0.0
 10
39.0412580913
 20
12.8785047513
 30
0.0
 10
39.3688119889
 20
12.8150044137
 30
0.0
 10
39.5391454478
 20
12.7892118743
 30
0.0
 10
39.6254543569
 20
12.7771606271
 30
0.0
  0
SPLINE
  5
485
100
AcDbEntity
  8
0
100
AcDbSpline
 62
7
  6
BYLAYER
 70
0
 71
3
 72
18
 73
14
 74
0
 42
0.0000001
 43
0.0000001
 44
0.0000000001
 40
0.0
 40
0.0
 40
0.0
 40
0.0
 40
0.1732518058
 40
0.3446490605
 40
0.5098644345
 40
0.6614721416
 40
0.7888606245
 40
0.8416821766
 40
0.8871738678
 40
0.925239732
 40
0.9559950847
 40
0.980119063
 40
1.0
 40
1.0
 40
1.0
 40
1.0
 10
39.6996534545
 20
12.7670508074
 30
0.0
 10
39.7660652569
 20
12.7582136685
 30
0.0
 10
39.8983786106
 20
12.742083714
 30
0.0
 10
40.0947052305
 20
12.7235998721
 30
0.0
 10
40.2832627803
 20
12.7128249284
 30
0.0
 10
40.4551291859
 20
12.7121949032
 30
0.0
 10
40.583346481
 20
12.7220256542
 30
0.0
 10
40.669342414
 20
12.73735522
 30
0.0
 10
40.7204642727
 20
12.7505400471
 30
0.0
 10
40.7620408685
 20
12.7659363773
 30
0.0
 10
40.7935347419
 20
12.7835948624
 30
0.0
 10
40.8150542047
 20
12.803726706
 30
0.0
 10
40.8209790545
 20
12.8208165392
 30
0.0
 10
40.8209790545
 20
12.8285045789
 30
0.0
  0
SPLINE
  5
486
100
AcDbEntity
  8
0
100
AcDbSpline
 62
7
  6
BYLAYER
 70
0
 71
3
 72
15
 73
11
 74
0
 42
0.0000001
 43
0.0000001
 44
0.0000000001
 40
0.0
 40
0.0
 40
0.0
 40
0.0
 40
0.0480364239
 40
0.0896923509
 40
0.140715466
 40
0.1985788235
 40
0.2613815507
 40
0.3969966953
 40
0.6919817566
 40
1.0
 40
1.0
 40
1.0
 40
1.0
 10
39.3328770545
 20
13.3454774428
 30
0.0
 10
39.3328770545
 20
13.3525085634
 30
0.0
 10
39.3481161841
 20
13.3609373018
 30
0.0
 10
39.3668261474
 20
13.3653206323
 30
0.0
 10
39.3890477134
 20
13.3688549189
 30
0.0
 10
39.4139572885
 20
13.3709820855
 30
0.0
 10
39.451488364
 20
13.3727347915
 30
0.0
 10
39.5237009627
 20
13.372696283
 30
0.0
 10
39.6317532253
 20
13.3661987426
 30
0.0
 10
39.7193102894
 20
13.354876358
 30
0.0
 10
39.7639998545
 20
13.348919548
 30
0.0
  0
SPLINE
  5
487
100
AcDbEntity
  8
0
100
AcDbSpline
 62
7
  6
BYLAYER
 70
0
 71
3
 72
9
 73
5
 74
0
 42
0.0000001
 43
0.0000001
 44
0.0000000001
 40
0.0
 40
0.0
 40
0.0
 40
0.0
 40
0.512692028
 40
1.0
 40
1.0
 40
1.0
 40
1.0
 10
39.7639998545
 20
13.348919548
 30
0.0
 10
39.9181250965
 20
13.3283757186
 30
0.0
 10
40.2167563109
 20
13.2736578416
 30
0.0
 10
40.5123951351
 20
13.2061214072
 30
0.0
 10
40.6563903769
 20
13.1728461759
 30
0.0
  0
LINE
  5
488
100
AcDbEntity
  8
0
100
AcDbLine
 62
7
  6
BYLAYER
 10
40.6563903769
 20
13.1728461759
 11
40.6882218545
 21
13.1654831355
  0
SPLINE
  5
489
100
AcDbEntity
  8
0
100
AcDbSpline
 62
7
  6
BYLAYER
 70
0
 71
3
 72
15
 73
11
 74
0
 42
0.0000001
 43
0.0000001
 44
0.0000000001
 40
0.0
 40
0.0
 40
0.0
 40
0.0
 40
0.1030532979
 40
0.1439376253
 40
0.1923075715
 40
0.3139659761
 40
0.4648018114
 40
0.635198634
 40
0.8158018416
 40
1.0
 40
1.0
 40
1.0
 40
1.0
 10
41.6256510545
 20
12.7750087574
 30
0.0
 10
41.6256510545
 20
12.7969713642
 30
0.0
 10
41.6576248402
 20
12.8206216503
 30
0.0
 10
41.6941454178
 20
12.8359076973
 30
0.0
 10
41.7375392098
 20
12.8493778531
 30
0.0
 10
41.8050005346
 20
12.8604812212
 30
0.0
 10
41.8993016985
 20
12.8672863589
 30
0.0
 10
42.0062860282
 20
12.8676353631
 30
0.0
 10
42.1202891503
 20
12.8632384796
 30
0.0
 10
42.1978446075
 20
12.8575699044
 30
0.0
 10
42.2369442545
 20
12.8540684937
 30
0.0
  0
SPLINE
  5
48A
100
AcDbEntity
  8
0
100
AcDbSpline
 62
7
  6
BYLAYER
 70
0
 71
3
 72
9
 73
5
 74
0
 42
0.0000001
 43
0.0000001
 44
0.0000000001
 40
0.0
 40
0.0
 40
0.0
 40
0.0
 40
0.5261694917
 40
1.0
 40
1.0
 40
1.0
 40
1.0
 10
56.5296930545
 20
13.305037252
 30
0.0
 10
56.5935870152
 20
13.3151275217
 30
0.0
 10
56.716305209
 20
13.3263896268
 30
0.0
 10
56.8392378062
 20
13.3281380683
 30
0.0
 10
56.8974858545
 20
13.3287616004
 30
0.0
  0
SPLINE
  5
48B
100
AcDbEntity
  8
0
100
AcDbSpline
 62
7
  6
BYLAYER
 70
0
 71
3
 72
14
 73
10
 74
0
 42
0.0000001
 43
0.0000001
 44
0.0000000001
 40
0.0
 40
0.0
 40
0.0
 40
0.0
 40
0.1200715019
 40
0.2100020138
 40
0.3227254141
 40
0.4594067108
 40
0.620522934
 40
0.8029484625
 40
1.0
 40
1.0
 40
1.0
 40
1.0
 10
40.9635570545
 20
12.8438760645
 30
0.0
 10
40.9635570545
 20
12.8155473275
 30
0.0
 10
41.0004611419
 20
12.7715896691
 30
0.0
 10
41.0614534502
 20
12.7292125071
 30
0.0
 10
41.133252383
 20
12.691938929
 30
0.0
 10
41.2231531207
 20
12.6561969972
 30
0.0
 10
41.3315736143
 20
12.6227223499
 30
0.0
 10
41.4554765122
 20
12.5923652887
 30
0.0
 10
41.5432852447
 20
12.5747357887
 30
0.0
 10
41.5890132661
 20
12.5663486973
 30
0.0
  0
SPLINE
  5
48C
100
AcDbEntity
  8
0
100
AcDbSpline
 62
7
  6
BYLAYER
 70
0
 71
3
 72
9
 73
5
 74
0
 42
0.0000001
 43
0.0000001
 44
0.0000000001
 40
0.0
 40
0.0
 40
0.0
 40
0.0
 40
0.2431470176
 40
1.0
 40
1.0
 40
1.0
 40
1.0
 10
41.5890132661
 20
12.5663486973
 30
0.0
 10
41.6305081122
 20
12.5587380232
 30
0.0
 10
41.8016392672
 20
12.5300406397
 30
0.0
 10
41.9740902215
 20
12.5095407963
 30
0.0
 10
42.1048638545
 20
12.4976056057
 30
0.0
  0
SPLINE
  5
48D
100
AcDbEntity
  8
0
100
AcDbSpline
 62
7
  6
BYLAYER
 70
0
 71
3
 72
16
 73
12
 74
0
 42
0.0000001
 43
0.0000001
 44
0.0000000001
 40
0.0
 40
0.0
 40
0.0
 40
0.0
 40
0.1291464267
 40
0.1906076425
 40
0.2500438778
 40
0.3665865927
 40
0.4855974997
 40
0.609142741
 40
0.7368995102
 40
0.8676748604
 40
1.0
 40
1.0
 40
1.0
 40
1.0
 10
47.4347094545
 20
14.4404505479
 30
0.0
 10
47.5235818848
 20
14.4404095778
 30
0.0
 10
47.6570549112
 20
14.4680759535
 30
0.0
 10
47.8068260536
 20
14.5545496625
 30
0.0
 10
47.9303043069
 20
14.6631373511
 30
0.0
 10
48.0432804702
 20
14.8360014025
 30
0.0
 10
48.1245034043
 20
15.0707497819
 30
0.0
 10
48.1719606983
 20
15.3216679699
 30
0.0
 10
48.1979919369
 20
15.5834871825
 30
0.0
 10
48.210570802
 20
15.852231347
 30
0.0
 10
48.2130895441
 20
16.0332964729
 30
0.0
 10
48.2130609417
 20
16.1243563474
 30
0.0
  0
SPLINE
  5
48E
100
AcDbEntity
  8
0
100
AcDbSpline
 62
7
  6
BYLAYER
 70
0
 71
3
 72
25
 73
21
 74
0
 42
0.0000001
 43
0.0000001
 44
0.0000000001
 40
0.0
 40
0.0
 40
0.0
 40
0.0
 40
0.0662763868
 40
0.1317206801
 40
0.1954860389
 40
0.2567484078
 40
0.3149443797
 40
0.3706294542
 40
0.3986075261
 40
0.4275495431
 40
0.4580913828
 40
0.4902638931
 40
0.5559263634
 40
0.6190644519
 40
0.6799810862
 40
0.7411365305
 40
0.8037903338
 40
0.8681041559
 40
0.9337079786
 40
1.0
 40
1.0
 40
1.0
 40
1.0
 10
49.6628916986
 20
16.1243563474
 30
0.0
 10
49.662865005
 20
16.0333061985
 30
0.0
 10
49.6638836783
 20
15.8523471341
 30
0.0
 10
49.6697602463
 20
15.5838303333
 30
0.0
 10
49.6845901458
 20
15.3224933727
 30
0.0
 10
49.7165469356
 20
15.0724242578
 30
0.0
 10
49.7777665227
 20
14.8387302179
 30
0.0
 10
49.872480116
 20
14.6642029078
 30
0.0
 10
49.9831789548
 20
14.5545242786
 30
0.0
 10
50.0859123415
 20
14.4902057078
 30
0.0
 10
50.2062646188
 20
14.4494351688
 30
0.0
 10
50.3828618372
 20
14.4310715113
 30
0.0
 10
50.6057713707
 20
14.478262425
 30
0.0
 10
50.8265169117
 20
14.6272377336
 30
0.0
 10
50.9809657834
 20
14.8339639098
 30
0.0
 10
51.0803064653
 20
15.0691736227
 30
0.0
 10
51.142342528
 20
15.3207463993
 30
0.0
 10
51.1789928409
 20
15.5830470255
 30
0.0
 10
51.1980487563
 20
15.8520580304
 30
0.0
 10
51.2020095292
 20
16.0332847199
 30
0.0
 10
51.2019819431
 20
16.1243563474
 30
0.0
  0
SPLINE
  5
48F
100
AcDbEntity
  8
0
100
AcDbSpline
 62
7
  6
BYLAYER
 70
0
 71
3
 72
15
 73
11
 74
0
 42
0.0000001
 43
0.0000001
 44
0.0000000001
 40
0.0
 40
0.0
 40
0.0
 40
0.0
 40
0.1370785089
 40
0.2728070147
 40
0.4057576719
 40
0.5342987589
 40
0.6573149818
 40
0.7742039898
 40
0.8869846037
 40
1.0
 40
1.0
 40
1.0
 40
1.0
 10
48.0126492384
 20
16.124356353
 30
0.0
 10
48.0126676678
 20
16.04184377
 30
0.0
 10
48.0110565003
 20
15.8776187522
 30
0.0
 10
48.0017292532
 20
15.6335253383
 30
0.0
 10
47.9836820827
 20
15.3949956281
 30
0.0
 10
47.9493396127
 20
15.1658006976
 30
0.0
 10
47.8913483474
 20
14.9509437707
 30
0.0
 10
47.7948190083
 20
14.7591159766
 30
0.0
 10
47.641131821
 20
14.6127173336
 30
0.0
 10
47.5027375763
 20
14.575182271
 30
0.0
 10
47.4347094645
 20
14.5752015904
 30
0.0
  0
SPLINE
  5
490
100
AcDbEntity
  8
0
100
AcDbSpline
 62
7
  6
BYLAYER
 70
0
 71
3
 72
15
 73
11
 74
0
 42
0.0000001
 43
0.0000001
 44
0.0000000001
 40
0.0
 40
0.0
 40
0.0
 40
0.0
 40
0.1130134624
 40
0.2258032228
 40
0.3426951884
 40
0.4657102519
 40
0.5942487629
 40
0.7271970973
 40
0.8629240466
 40
1.0
 40
1.0
 40
1.0
 40
1.0
 10
47.4347094115
 20
14.5752036211
 30
0.0
 10
47.3666826004
 20
14.5751720142
 30
0.0
 10
47.2282859403
 20
14.6127297738
 30
0.0
 10
47.0745919074
 20
14.7591229516
 30
0.0
 10
46.978065842
 20
14.9509620702
 30
0.0
 10
46.9200767741
 20
15.1658175654
 30
0.0
 10
46.885735432
 20
15.3950087917
 30
0.0
 10
46.8676896268
 20
15.6335341641
 30
0.0
 10
46.8583625753
 20
15.8776232449
 30
0.0
 10
46.8567513825
 20
16.0418454673
 30
0.0
 10
46.8567699224
 20
16.124356352
 30
0.0
  0
SPLINE
  5
491
100
AcDbEntity
  8
0
100
AcDbSpline
 62
7
  6
BYLAYER
 70
0
 71
3
 72
9
 73
5
 74
0
 42
0.0000001
 43
0.0000001
 44
0.0000000001
 40
0.0
 40
0.0
 40
0.0
 40
0.0
 40
0.2283882346
 40
1.0
 40
1.0
 40
1.0
 40
1.0
 10
43.3504806545
 20
11.9579366903
 30
0.0
 10
43.3642831906
 20
11.9545310314
 30
0.0
 10
43.4249465427
 20
11.9405466467
 30
0.0
 10
43.4863006996
 20
11.9297047031
 30
0.0
 10
43.533773837
 20
11.9224085764
 30
0.0
  0
SPLINE
  5
492
100
AcDbEntity
  8
0
100
AcDbSpline
 62
7
  6
BYLAYER
 70
0
 71
3
 72
9
 73
5
 74
0
 42
0.0000001
 43
0.0000001
 44
0.0000000001
 40
0.0
 40
0.0
 40
0.0
 40
0.0
 40
0.4887423718
 40
1.0
 40
1.0
 40
1.0
 40
1.0
 10
43.533773837
 20
11.9224085764
 30
0.0
 10
43.6251775484
 20
11.9083607782
 30
0.0
 10
43.8134166749
 20
11.8876242989
 30
0.0
 10
44.0023041864
 20
11.875885176
 30
0.0
 10
44.0989484362
 20
11.871647479
 30
0.0
  0
SPLINE
  5
493
100
AcDbEntity
  8
0
100
AcDbSpline
 62
7
  6
BYLAYER
 70
0
 71
3
 72
9
 73
5
 74
0
 42
0.0000001
 43
0.0000001
 44
0.0000000001
 40
0.0
 40
0.0
 40
0.0
 40
0.0
 40
0.5164287339
 40
1.0
 40
1.0
 40
1.0
 40
1.0
 10
44.1244274784
 20
11.8705714008
 30
0.0
 10
44.2585746011
 20
11.8651208632
 30
0.0
 10
44.5186103425
 20
11.8609313027
 30
0.0
 10
44.7786089897
 20
11.8681458128
 30
0.0
 10
44.9041134665
 20
11.8754308928
 30
0.0
  0
SPLINE
  5
494
100
AcDbEntity
  8
0
100
AcDbSpline
 62
7
  6
BYLAYER
 70
0
 71
3
 72
9
 73
5
 74
0
 42
0.0000001
 43
0.0000001
 44
0.0000000001
 40
0.0
 40
0.0
 40
0.0
 40
0.0
 40
0.2701996309
 40
1.0
 40
1.0
 40
1.0
 40
1.0
 10
45.3513222545
 20
11.919660485
 30
0.0
 10
45.3788314152
 20
11.9235377111
 30
0.0
 10
45.4804746528
 20
11.9390467398
 30
0.0
 10
45.5814186129
 20
11.9591610991
 30
0.0
 10
45.6544290545
 20
11.9764767956
 30
0.0
  0
SPLINE
  5
495
100
AcDbEntity
  8
0
100
AcDbSpline
 62
7
  6
BYLAYER
 70
0
 71
3
 72
9
 73
5
 74
0
 42
0.0000001
 43
0.0000001
 44
0.0000000001
 40
0.0
 40
0.0
 40
0.0
 40
0.0
 40
0.4933595328
 40
1.0
 40
1.0
 40
1.0
 40
1.0
 10
54.9576997816
 20
12.6006888881
 30
0.0
 10
54.9400733513
 20
12.5964495595
 30
0.0
 10
54.903787062
 20
12.5902956956
 30
0.0
 10
54.8672468727
 20
12.5861451728
 30
0.0
 10
54.8486654912
 20
12.584992703
 30
0.0
  0
SPLINE
  5
496
100
AcDbEntity
  8
0
100
AcDbSpline
 62
7
  6
BYLAYER
 70
0
 71
3
 72
10
 73
6
 74
0
 42
0.0000001
 43
0.0000001
 44
0.0000000001
 40
0.0
 40
0.0
 40
0.0
 40
0.0
 40
0.5873277254
 40
0.8266759914
 40
1.0
 40
1.0
 40
1.0
 40
1.0
 10
54.8486654912
 20
12.584992703
 30
0.0
 10
54.8398817481
 20
12.5844479105
 30
0.0
 10
54.8274613271
 20
12.5839024367
 30
0.0
 10
54.8125292861
 20
12.5848416946
 30
0.0
 10
54.8063566957
 20
12.5858381623
 30
0.0
 10
54.8039212995
 20
12.5867403064
 30
0.0
  0
SPLINE
  5
497
100
AcDbEntity
  8
0
100
AcDbSpline
 62
7
  6
BYLAYER
 70
0
 71
3
 72
9
 73
5
 74
0
 42
0.0000001
 43
0.0000001
 44
0.0000000001
 40
0.0
 40
0.0
 40
0.0
 40
0.0
 40
0.2693909825
 40
1.0
 40
1.0
 40
1.0
 40
1.0
 10
45.8054742545
 20
12.0186788771
 30
0.0
 10
45.8152360032
 20
12.0219947897
 30
0.0
 10
45.8513580758
 20
12.0345817722
 30
0.0
 10
45.8871816961
 20
12.0484356062
 30
0.0
 10
45.9121542545
 20
12.0610114005
 30
0.0
  0
SPLINE
  5
498
100
AcDbEntity
  8
0
100
AcDbSpline
 62
7
  6
BYLAYER
 70
0
 71
3
 72
9
 73
5
 74
0
 42
0.0000001
 43
0.0000001
 44
0.0000000001
 40
0.0
 40
0.0
 40
0.0
 40
0.0
 40
0.5373971027
 40
1.0
 40
1.0
 40
1.0
 40
1.0
 10
41.585509135
 20
12.8756485149
 30
0.0
 10
41.5187225056
 20
12.8880169316
 30
0.0
 10
41.3949619026
 20
12.9139203911
 30
0.0
 10
41.2732199742
 20
12.9487988955
 30
0.0
 10
41.218191352
 20
12.9685590914
 30
0.0
  0
SPLINE
  5
499
100
AcDbEntity
  8
0
100
AcDbSpline
 62
7
  6
BYLAYER
 70
0
 71
3
 72
9
 73
5
 74
0
 42
0.0000001
 43
0.0000001
 44
0.0000000001
 40
0.0
 40
0.0
 40
0.0
 40
0.0
 40
0.2377862521
 40
1.0
 40
1.0
 40
1.0
 40
1.0
 10
55.9961858592
 20
12.1686931462
 30
0.0
 10
55.9778626388
 20
12.1680745743
 30
0.0
 10
55.9008198674
 20
12.1650407487
 30
0.0
 10
55.8238443732
 20
12.1603953795
 30
0.0
 10
55.7652303176
 20
12.156147705
 30
0.0
  0
SPLINE
  5
49A
100
AcDbEntity
  8
0
100
AcDbSpline
 62
7
  6
BYLAYER
 70
0
 71
3
 72
9
 73
5
 74
0
 42
0.0000001
 43
0.0000001
 44
0.0000000001
 40
0.0
 40
0.0
 40
0.0
 40
0.0
 40
0.5422498875
 40
1.0
 40
1.0
 40
1.0
 40
1.0
 10
54.6219342914
 20
11.9972791568
 30
0.0
 10
54.5526510813
 20
11.9828308993
 30
0.0
 10
54.4252892393
 20
11.9541840764
 30
0.0
 10
54.2992072641
 20
11.9201460814
 30
0.0
 10
54.2421168259
 20
11.9025354346
 30
0.0
  0
SPLINE
  5
49B
100
AcDbEntity
  8
0
100
AcDbSpline
 62
7
  6
BYLAYER
 70
0
 71
3
 72
21
 73
17
 74
0
 42
0.0000001
 43
0.0000001
 44
0.0000000001
 40
0.0
 40
0.0
 40
0.0
 40
0.0
 40
0.0952608738
 40
0.1787054892
 40
0.2498303575
 40
0.3083414541
 40
0.3543167106
 40
0.3884544418
 40
0.4132560493
 40
0.4352309476
 40
0.4631614247
 40
0.5018995467
 40
0.5531835416
 40
0.6175107693
 40
0.7847767974
 40
1.0
 40
1.0
 40
1.0
 40
1.0
 10
54.2255871824
 20
11.8973683118
 30
0.0
 10
54.2055279727
 20
11.8910124483
 30
0.0
 10
54.1680631297
 20
11.8785500911
 30
0.0
 10
54.1163884457
 20
11.8591404774
 30
0.0
 10
54.0731998944
 20
11.8403465694
 30
0.0
 10
54.0387982127
 20
11.8223595336
 30
0.0
 10
54.0132755562
 20
11.8051866228
 30
0.0
 10
53.9965628991
 20
11.7890399322
 30
0.0
 10
53.9883494315
 20
11.7719968641
 30
0.0
 10
53.9933231601
 20
11.754885435
 30
0.0
 10
54.009112389
 20
11.7422254578
 30
0.0
 10
54.0328570415
 20
11.731457275
 30
0.0
 10
54.0658056355
 20
11.722203894
 30
0.0
 10
54.1272896332
 20
11.7109168637
 30
0.0
 10
54.2258295278
 20
11.7025921203
 30
0.0
 10
54.3103110763
 20
11.7008296034
 30
0.0
 10
54.3578515034
 20
11.7008322409
 30
0.0
  0
SPLINE
  5
49C
100
AcDbEntity
  8
0
100
AcDbSpline
 62
7
  6
BYLAYER
 70
0
 71
3
 72
9
 73
5
 74
0
 42
0.0000001
 43
0.0000001
 44
0.0000000001
 40
0.0
 40
0.0
 40
0.0
 40
0.0
 40
0.5425075307
 40
1.0
 40
1.0
 40
1.0
 40
1.0
 10
53.681406248
 20
12.9152381453
 30
0.0
 10
53.6094237295
 20
12.9131801073
 30
0.0
 10
53.4766392247
 20
12.9126267517
 30
0.0
 10
53.3439240932
 20
12.9227018681
 30
0.0
 10
53.2839285239
 20
12.9320994281
 30
0.0
  0
SPLINE
  5
49D
100
AcDbEntity
  8
0
100
AcDbSpline
 62
7
  6
BYLAYER
 70
0
 71
3
 72
27
 73
23
 74
0
 42
0.0000001
 43
0.0000001
 44
0.0000000001
 40
0.0
 40
0.0
 40
0.0
 40
0.0
 40
0.1295044494
 40
0.1934487118
 40
0.2564811065
 40
0.3185020621
 40
0.3799014298
 40
0.4108930068
 40
0.4424198714
 40
0.4745983262
 40
0.5069239646
 40
0.5383336634
 40
0.5682714205
 40
0.5971840368
 40
0.6258367567
 40
0.6547479646
 40
0.6841576195
 40
0.7445759409
 40
0.8068939768
 40
0.8705610083
 40
0.9350775316
 40
1.0
 40
1.0
 40
1.0
 40
1.0
 10
50.9819092773
 20
16.1243563495
 30
0.0
 10
50.9813389484
 20
15.9684636496
 30
0.0
 10
50.9753416863
 20
15.7353869948
 30
0.0
 10
50.9445041789
 20
15.4280334171
 30
0.0
 10
50.9054212624
 20
15.2035676577
 30
0.0
 10
50.8417714346
 20
14.9877075978
 30
0.0
 10
50.7557900172
 20
14.820466254
 30
0.0
 10
50.6583561875
 20
14.706522484
 30
0.0
 10
50.5679850809
 20
14.6355667366
 30
0.0
 10
50.461615186
 20
14.5871107367
 30
0.0
 10
50.3458733024
 20
14.5693287767
 30
0.0
 10
50.232539327
 20
14.5862560044
 30
0.0
 10
50.1336116827
 20
14.6350439323
 30
0.0
 10
50.0549828965
 20
14.7068481276
 30
0.0
 10
49.9954747619
 20
14.7930581926
 30
0.0
 10
49.9510801693
 20
14.888265228
 30
0.0
 10
49.9069807521
 20
15.024491231
 30
0.0
 10
49.8737826138
 20
15.2052310992
 30
0.0
 10
49.8534589298
 20
15.4287835846
 30
0.0
 10
49.8438099478
 20
15.6579599958
 30
0.0
 10
49.8398069738
 20
15.8903873676
 30
0.0
 10
49.8392207418
 20
16.0462045898
 30
0.0
 10
49.8391346317
 20
16.1243563484
 30
0.0
  0
SPLINE
  5
49E
100
AcDbEntity
  8
0
100
AcDbSpline
 62
7
  6
BYLAYER
 70
0
 71
3
 72
12
 73
8
 74
0
 42
0.0000001
 43
0.0000001
 44
0.0000000001
 40
0.0
 40
0.0
 40
0.0
 40
0.0
 40
0.3554619426
 40
0.6455832725
 40
0.8641309965
 40
0.9428142536
 40
1.0
 40
1.0
 40
1.0
 40
1.0
 10
54.2284482698
 20
13.0350513817
 30
0.0
 10
54.2679367758
 20
13.0359891132
 30
0.0
 10
54.3398593269
 20
13.0344008743
 30
0.0
 10
54.4351239588
 20
13.0229199298
 30
0.0
 10
54.4992338239
 20
13.0072567571
 30
0.0
 10
54.5344863998
 20
12.9898955667
 30
0.0
 10
54.5460466445
 20
12.9788680878
 30
0.0
 10
54.5484930545
 20
12.9730032824
 30
0.0
  0
SPLINE
  5
49F
100
AcDbEntity
  8
0
100
AcDbSpline
 62
7
  6
BYLAYER
 70
0
 71
3
 72
17
 73
13
 74
0
 42
0.0000001
 43
0.0000001
 44
0.0000000001
 40
0.0
 40
0.0
 40
0.0
 40
0.0
 40
0.0226603059
 40
0.0474797892
 40
0.0765168875
 40
0.1109040004
 40
0.198075458
 40
0.3126686135
 40
0.4560935351
 40
0.6238595992
 40
0.8075998904
 40
1.0
 40
1.0
 40
1.0
 40
1.0
 10
53.0366850545
 20
12.7522880017
 30
0.0
 10
53.0366850545
 20
12.7454064172
 30
0.0
 10
53.0397241058
 20
12.7308638087
 30
0.0
 10
53.0525597879
 20
12.7110628789
 30
0.0
 10
53.0725233869
 20
12.6928876322
 30
0.0
 10
53.1114758444
 20
12.668601859
 30
0.0
 10
53.1791918468
 20
12.6433205453
 30
0.0
 10
53.281876939
 20
12.6213866453
 30
0.0
 10
53.4106901609
 20
12.6079638158
 30
0.0
 10
53.5610051801
 20
12.6035076318
 30
0.0
 10
53.7261970038
 20
12.6068541509
 30
0.0
 10
53.8402628324
 20
12.6133534334
 30
0.0
 10
53.8985414206
 20
12.6175423387
 30
0.0
  0
SPLINE
  5
4A0
100
AcDbEntity
  8
0
100
AcDbSpline
 62
7
  6
BYLAYER
 70
0
 71
3
 72
12
 73
8
 74
0
 42
0.0000001
 43
0.0000001
 44
0.0000000001
 40
0.0
 40
0.0
 40
0.0
 40
0.0
 40
0.0677160408
 40
0.1540426528
 40
0.3785381552
 40
0.6628935617
 40
1.0
 40
1.0
 40
1.0
 40
1.0
 10
53.6916666545
 20
12.8741952065
 30
0.0
 10
53.6934511627
 20
12.8788912781
 30
0.0
 10
53.7002891834
 20
12.8884132669
 30
0.0
 10
53.7214294285
 20
12.906951539
 30
0.0
 10
53.7599287112
 20
12.9292546186
 30
0.0
 10
53.8173228286
 20
12.9546235616
 30
0.0
 10
53.8609191879
 20
12.9698431836
 30
0.0
 10
53.8847728609
 20
12.9773572047
 30
0.0
  0
SPLINE
  5
4A1
100
AcDbEntity
  8
0
100
AcDbSpline
 62
7
  6
BYLAYER
 70
0
 71
3
 72
13
 73
9
 74
0
 42
0.0000001
 43
0.0000001
 44
0.0000000001
 40
0.0
 40
0.0
 40
0.0
 40
0.0
 40
0.1366694462
 40
0.2163426406
 40
0.3178087973
 40
0.4483107695
 40
0.607550185
 40
1.0
 40
1.0
 40
1.0
 40
1.0
 10
44.3813814545
 20
12.5977126022
 30
0.0
 10
44.3813814548
 20
12.6055208049
 30
0.0
 10
44.380639065
 20
12.6183223711
 30
0.0
 10
44.3711671615
 20
12.6342588384
 30
0.0
 10
44.3576363132
 20
12.6461169502
 30
0.0
 10
44.3383516529
 20
12.6575403931
 30
0.0
 10
44.3027279215
 20
12.6734756687
 30
0.0
 10
44.2725893349
 20
12.6830424787
 30
0.0
 10
44.2509670619
 20
12.6889753459
 30
0.0
  0
SPLINE
  5
4A2
100
AcDbEntity
  8
0
100
AcDbSpline
 62
7
  6
BYLAYER
 70
0
 71
3
 72
9
 73
5
 74
0
 42
0.0000001
 43
0.0000001
 44
0.0000000001
 40
0.0
 40
0.0
 40
0.0
 40
0.0
 40
0.2310787712
 40
1.0
 40
1.0
 40
1.0
 40
1.0
 10
44.2509670619
 20
12.6889753459
 30
0.0
 10
44.2437332476
 20
12.6909602093
 30
0.0
 10
44.21230112
 20
12.6990802181
 30
0.0
 10
44.1804145687
 20
12.7054193806
 30
0.0
 10
44.1557691425
 20
12.7093721845
 30
0.0
  0
SPLINE
  5
4A3
100
AcDbEntity
  8
0
100
AcDbSpline
 62
7
  6
BYLAYER
 70
0
 71
3
 72
9
 73
5
 74
0
 42
0.0000001
 43
0.0000001
 44
0.0000000001
 40
0.0
 40
0.0
 40
0.0
 40
0.0
 40
0.241230886
 40
1.0
 40
1.0
 40
1.0
 40
1.0
 10
44.1557691425
 20
12.7093721845
 30
0.0
 10
44.1481980913
 20
12.710586482
 30
0.0
 10
44.116755753
 20
12.7152515578
 30
0.0
 10
44.0850809844
 20
12.7183928256
 30
0.0
 10
44.0610030545
 20
12.7197891182
 30
0.0
  0
SPLINE
  5
4A4
100
AcDbEntity
  8
0
100
AcDbSpline
 62
7
  6
BYLAYER
 70
0
 71
3
 72
9
 73
5
 74
0
 42
0.0000001
 43
0.0000001
 44
0.0000000001
 40
0.0
 40
0.0
 40
0.0
 40
0.0
 40
0.5493130057
 40
1.0
 40
1.0
 40
1.0
 40
1.0
 10
51.3022794709
 20
12.7024266594
 30
0.0
 10
51.2287278556
 20
12.7035430747
 30
0.0
 10
51.0948969513
 20
12.709870365
 30
0.0
 10
50.9617510785
 20
12.727913422
 30
0.0
 10
50.9029315016
 20
12.7414307126
 30
0.0
  0
SPLINE
  5
4A5
100
AcDbEntity
  8
0
100
AcDbSpline
 62
7
  6
BYLAYER
 70
0
 71
3
 72
9
 73
5
 74
0
 42
0.0000001
 43
0.0000001
 44
0.0000000001
 40
0.0
 40
0.0
 40
0.0
 40
0.0
 40
0.2660476188
 40
1.0
 40
1.0
 40
1.0
 40
1.0
 10
54.5093770331
 20
12.6892946702
 30
0.0
 10
54.558808871
 20
12.6972521467
 30
0.0
 10
54.7442346255
 20
12.7292909485
 30
0.0
 10
54.9281116056
 20
12.7714197809
 30
0.0
 10
55.0605570545
 20
12.8106190905
 30
0.0
  0
SPLINE
  5
4A6
100
AcDbEntity
  8
0
100
AcDbSpline
 62
7
  6
BYLAYER
 70
0
 71
3
 72
12
 73
8
 74
0
 42
0.0000001
 43
0.0000001
 44
0.0000000001
 40
0.0
 40
0.0
 40
0.0
 40
0.0
 40
0.0675005423
 40
0.1400877599
 40
0.4405245162
 40
0.6833968009
 40
1.0
 40
1.0
 40
1.0
 40
1.0
 10
51.3125334545
 20
12.611905388
 30
0.0
 10
51.3125334545
 20
12.6175948873
 30
0.0
 10
51.3137831379
 20
12.6294516815
 30
0.0
 10
51.3266873432
 20
12.664709719
 30
0.0
 10
51.3696191687
 20
12.7000444134
 30
0.0
 10
51.4356533393
 20
12.7287469177
 30
0.0
 10
51.4810365289
 20
12.7425136343
 30
0.0
 10
51.5068595587
 20
12.7492448397
 30
0.0
  0
SPLINE
  5
4A7
100
AcDbEntity
  8
0
100
AcDbSpline
 62
7
  6
BYLAYER
 70
0
 71
3
 72
9
 73
5
 74
0
 42
0.0000001
 43
0.0000001
 44
0.0000000001
 40
0.0
 40
0.0
 40
0.0
 40
0.0
 40
0.2327999809
 40
1.0
 40
1.0
 40
1.0
 40
1.0
 10
51.5068595587
 20
12.7492448397
 30
0.0
 10
51.5179633537
 20
12.7521392299
 30
0.0
 10
51.5658760244
 20
12.7637427552
 30
0.0
 10
51.6144220687
 20
12.7726013251
 30
0.0
 10
51.6517883422
 20
12.7784140436
 30
0.0
  0
SPLINE
  5
4A8
100
AcDbEntity
  8
0
100
AcDbSpline
 62
7
  6
BYLAYER
 70
0
 71
3
 72
9
 73
5
 74
0
 42
0.0000001
 43
0.0000001
 44
0.0000000001
 40
0.0
 40
0.0
 40
0.0
 40
0.0
 40
0.265603238
 40
1.0
 40
1.0
 40
1.0
 40
1.0
 10
51.9273413582
 20
12.8023799175
 30
0.0
 10
51.9476688953
 20
12.8028476771
 30
0.0
 10
52.0242140881
 20
12.8035903494
 30
0.0
 10
52.1008572306
 20
12.8006938924
 30
0.0
 10
52.1568294545
 20
12.7954128221
 30
0.0
  0
SPLINE
  5
4A9
100
AcDbEntity
  8
0
100
AcDbSpline
 62
7
  6
BYLAYER
 70
0
 71
3
 72
9
 73
5
 74
0
 42
0.0000001
 43
0.0000001
 44
0.0000000001
 40
0.0
 40
0.0
 40
0.0
 40
0.0
 40
0.2637128385
 40
1.0
 40
1.0
 40
1.0
 40
1.0
 10
44.0610030545
 20
12.7197891182
 30
0.0
 10
44.0454065109
 20
12.7206935705
 30
0.0
 10
43.9861935388
 20
12.7228401817
 30
0.0
 10
43.9268476936
 20
12.7206062971
 30
0.0
 10
43.8833960226
 20
12.7167920172
 30
0.0
  0
SPLINE
  5
4AA
100
AcDbEntity
  8
0
100
AcDbSpline
 62
7
  6
BYLAYER
 70
0
 71
3
 72
9
 73
5
 74
0
 42
0.0000001
 43
0.0000001
 44
0.0000000001
 40
0.0
 40
0.0
 40
0.0
 40
0.0
 40
0.5483659736
 40
1.0
 40
1.0
 40
1.0
 40
1.0
 10
43.8833960226
 20
12.7167920172
 30
0.0
 10
43.8432149852
 20
12.7132648405
 30
0.0
 10
43.7701337341
 20
12.7036614566
 30
0.0
 10
43.6984639948
 20
12.6866889139
 30
0.0
 10
43.6664317181
 20
12.6778841038
 30
0.0
  0
SPLINE
  5
4AB
100
AcDbEntity
  8
0
100
AcDbSpline
 62
7
  6
BYLAYER
 70
0
 71
3
 72
11
 73
7
 74
0
 42
0.0000001
 43
0.0000001
 44
0.0000000001
 40
0.0
 40
0.0
 40
0.0
 40
0.0
 40
0.2688569547
 40
0.5279036585
 40
0.7712268573
 40
1.0
 40
1.0
 40
1.0
 40
1.0
 10
39.1786154916
 20
11.9474814852
 30
0.0
 10
39.1786154916
 20
11.9184646656
 30
0.0
 10
39.1868291641
 20
11.8611251302
 30
0.0
 10
39.222875736
 20
11.7846414365
 30
0.0
 10
39.2789464223
 20
11.7268442921
 30
0.0
 10
39.3271276495
 20
11.7056823449
 30
0.0
 10
39.3513373336
 20
11.7008323609
 30
0.0
  0
SPLINE
  5
4AC
100
AcDbEntity
  8
0
100
AcDbSpline
 62
7
  6
BYLAYER
 70
0
 71
3
 72
11
 73
7
 74
0
 42
0.0000001
 43
0.0000001
 44
0.0000000001
 40
0.0
 40
0.0
 40
0.0
 40
0.0
 40
0.2619989194
 40
0.5312602526
 40
0.7817581765
 40
1.0
 40
1.0
 40
1.0
 40
1.0
 10
54.5057934831
 20
11.9474814847
 30
0.0
 10
54.5057930796
 20
11.9206912818
 30
0.0
 10
54.4991744038
 20
11.8663031809
 30
0.0
 10
54.4715726734
 20
11.7900538592
 30
0.0
 10
54.4229292779
 20
11.7305757526
 30
0.0
 10
54.3795755604
 20
11.705922054
 30
0.0
 10
54.3578452924
 20
11.7008431739
 30
0.0
  0
SPLINE
  5
4AD
100
AcDbEntity
  8
0
100
AcDbSpline
 62
7
  6
BYLAYER
 70
0
 71
3
 72
9
 73
5
 74
0
 42
0.0000001
 43
0.0000001
 44
0.0000000001
 40
0.0
 40
0.0
 40
0.0
 40
0.0
 40
0.5415635717
 40
1.0
 40
1.0
 40
1.0
 40
1.0
 10
48.1447738791
 20
12.5855090757
 30
0.0
 10
48.0751451265
 20
12.5904237201
 30
0.0
 10
47.9467794148
 20
12.6026139467
 30
0.0
 10
47.8195193066
 20
12.6249483582
 30
0.0
 10
47.7622426179
 20
12.6394653467
 30
0.0
  0
SPLINE
  5
4AE
100
AcDbEntity
  8
0
100
AcDbSpline
 62
7
  6
BYLAYER
 70
0
 71
3
 72
12
 73
8
 74
0
 42
0.0000001
 43
0.0000001
 44
0.0000000001
 40
0.0
 40
0.0
 40
0.0
 40
0.0
 40
0.0587767364
 40
0.1391121445
 40
0.3589862751
 40
0.6477273791
 40
1.0
 40
1.0
 40
1.0
 40
1.0
 10
49.0285650545
 20
12.5595741233
 30
0.0
 10
49.0261151038
 20
12.5657195777
 30
0.0
 10
49.0147379059
 20
12.5775809915
 30
0.0
 10
48.9800447827
 20
12.5981000272
 30
0.0
 10
48.9166608994
 20
12.6197053919
 30
0.0
 10
48.8220217398
 20
12.6402387771
 30
0.0
 10
48.7501742708
 20
12.6487201354
 30
0.0
 10
48.7106245158
 20
12.6515543356
 30
0.0
  0
SPLINE
  5
4AF
100
AcDbEntity
  8
0
100
AcDbSpline
 62
7
  6
BYLAYER
 70
0
 71
3
 72
9
 73
5
 74
0
 42
0.0000001
 43
0.0000001
 44
0.0000000001
 40
0.0
 40
0.0
 40
0.0
 40
0.0
 40
0.2427186792
 40
1.0
 40
1.0
 40
1.0
 40
1.0
 10
48.7106245158
 20
12.6515543356
 30
0.0
 10
48.7018139822
 20
12.6521857128
 30
0.0
 10
48.6654888492
 20
12.6544032246
 30
0.0
 10
48.6290604483
 20
12.6550252083
 30
0.0
 10
48.6015066545
 20
12.6544732078
 30
0.0
  0
SPLINE
  5
4B0
100
AcDbEntity
  8
0
100
AcDbSpline
 62
7
  6
BYLAYER
 70
0
 71
3
 72
9
 73
5
 74
0
 42
0.0000001
 43
0.0000001
 44
0.0000000001
 40
0.0
 40
0.0
 40
0.0
 40
0.0
 40
0.3058213574
 40
1.0
 40
1.0
 40
1.0
 40
1.0
 10
36.9561832366
 20
12.6351847132
 30
0.0
 10
36.9564792111
 20
12.6346208282
 30
0.0
 10
36.9575109667
 20
12.6328506394
 30
0.0
 10
36.9592700764
 20
12.6312480386
 30
0.0
 10
36.960697464
 20
12.6310195737
 30
0.0
  0
SPLINE
  5
4B1
100
AcDbEntity
  8
0
100
AcDbSpline
 62
7
  6
BYLAYER
 70
0
 71
3
 72
12
 73
8
 74
0
 42
0.0000001
 43
0.0000001
 44
0.0000000001
 40
0.0
 40
0.0
 40
0.0
 40
0.0
 40
0.0660325094
 40
0.1504493031
 40
0.3728848854
 40
0.6584167549
 40
1.0
 40
1.0
 40
1.0
 40
1.0
 10
48.1734318545
 20
12.5424805858
 30
0.0
 10
48.1751487246
 20
12.5469254203
 30
0.0
 10
48.1819450171
 20
12.5558240521
 30
0.0
 10
48.2032329098
 20
12.5723639832
 30
0.0
 10
48.242132442
 20
12.5909925245
 30
0.0
 10
48.3001157975
 20
12.6108480008
 30
0.0
 10
48.3440937559
 20
12.6218460551
 30
0.0
 10
48.3681847535
 20
12.6270591265
 30
0.0
  0
SPLINE
  5
4B2
100
AcDbEntity
  8
0
100
AcDbSpline
 62
7
  6
BYLAYER
 70
0
 71
3
 72
14
 73
10
 74
0
 42
0.0000001
 43
0.0000001
 44
0.0000000001
 40
0.0
 40
0.0
 40
0.0
 40
0.0
 40
0.3263383352
 40
0.4891855642
 40
0.6399764527
 40
0.7707271674
 40
0.8766697737
 40
0.9540211159
 40
1.0
 40
1.0
 40
1.0
 40
1.0
 10
37.2830525687
 20
12.4600374508
 30
0.0
 10
37.2789506017
 20
12.4335572297
 30
0.0
 10
37.2736313975
 20
12.3937251981
 30
0.0
 10
37.2683755888
 20
12.3414413479
 30
0.0
 10
37.2657569129
 20
12.3050240791
 30
0.0
 10
37.2648428583
 20
12.2732502706
 30
0.0
 10
37.2654223133
 20
12.2473429405
 30
0.0
 10
37.267549706
 20
12.2288493475
 30
0.0
 10
37.2699471668
 20
12.2185853859
 30
0.0
 10
37.272181063
 20
12.2155418304
 30
0.0
  0
SPLINE
  5
4B3
100
AcDbEntity
  8
0
100
AcDbSpline
 62
7
  6
BYLAYER
 70
0
 71
3
 72
9
 73
5
 74
0
 42
0.0000001
 43
0.0000001
 44
0.0000000001
 40
0.0
 40
0.0
 40
0.0
 40
0.0
 40
0.2442438213
 40
1.0
 40
1.0
 40
1.0
 40
1.0
 10
42.3426793617
 20
11.7760648388
 30
0.0
 10
42.3254729161
 20
11.7778602632
 30
0.0
 10
42.2562369842
 20
11.7936916696
 30
0.0
 10
42.1930270672
 20
11.8382054565
 30
0.0
 10
42.1623790918
 20
11.8820940635
 30
0.0
  0
SPLINE
  5
4B4
100
AcDbEntity
  8
0
100
AcDbSpline
 62
7
  6
BYLAYER
 70
0
 71
3
 72
14
 73
10
 74
0
 42
0.0000001
 43
0.0000001
 44
0.0000000001
 40
0.0
 40
0.0
 40
0.0
 40
0.0
 40
0.0517531129
 40
0.115970943
 40
0.1998587369
 40
0.3065460095
 40
0.4389857399
 40
0.5996832049
 40
1.0
 40
1.0
 40
1.0
 40
1.0
 10
50.5623870545
 20
12.0393289209
 30
0.0
 10
50.5623870545
 20
12.0350825357
 30
0.0
 10
50.5655979184
 20
12.0255352623
 30
0.0
 10
50.577504242
 20
12.0138262777
 30
0.0
 10
50.5955297687
 20
12.0030502676
 30
0.0
 10
50.6201722126
 20
11.9930798635
 30
0.0
 10
50.6517945338
 20
11.9841748787
 30
0.0
 10
50.7076966047
 20
11.9733409599
 30
0.0
 10
50.753597409
 20
11.9687591921
 30
0.0
 10
50.7863650446
 20
11.9664870133
 30
0.0
  0
SPLINE
  5
4B5
100
AcDbEntity
  8
0
100
AcDbSpline
 62
7
  6
BYLAYER
 70
0
 71
3
 72
9
 73
5
 74
0
 42
0.0000001
 43
0.0000001
 44
0.0000000001
 40
0.0
 40
0.0
 40
0.0
 40
0.0
 40
0.4780829588
 40
1.0
 40
1.0
 40
1.0
 40
1.0
 10
50.7863650446
 20
11.9664870133
 30
0.0
 10
50.8405903388
 20
11.962726914
 30
0.0
 10
50.9543966445
 20
11.96073884
 30
0.0
 10
51.0680592041
 20
11.9647620434
 30
0.0
 10
51.1272822545
 20
11.968473096
 30
0.0
  0
SPLINE
  5
4B6
100
AcDbEntity
  8
0
100
AcDbSpline
 62
7
  6
BYLAYER
 70
0
 71
3
 72
11
 73
7
 74
0
 42
0.0000001
 43
0.0000001
 44
0.0000000001
 40
0.0
 40
0.0
 40
0.0
 40
0.0
 40
0.234971377
 40
0.4885856725
 40
0.7490177658
 40
1.0
 40
1.0
 40
1.0
 40
1.0
 10
41.575463095
 20
11.6110793272
 30
0.0
 10
41.5757278351
 20
11.5826265734
 30
0.0
 10
41.5873634283
 20
11.5233822748
 30
0.0
 10
41.6333040024
 20
11.4427002478
 30
0.0
 10
41.7091337067
 20
11.3858018769
 30
0.0
 10
41.7694846219
 20
11.3662109713
 30
0.0
 10
41.7997107548
 20
11.3630321456
 30
0.0
  0
SPLINE
  5
4B7
100
AcDbEntity
  8
0
100
AcDbSpline
 62
7
  6
BYLAYER
 70
0
 71
3
 72
9
 73
5
 74
0
 42
0.0000001
 43
0.0000001
 44
0.0000000001
 40
0.0
 40
0.0
 40
0.0
 40
0.0
 40
0.2687514841
 40
1.0
 40
1.0
 40
1.0
 40
1.0
 10
49.4289493992
 20
12.0670670771
 30
0.0
 10
49.4203361942
 20
12.0660851871
 30
0.0
 10
49.3883296382
 20
12.0620751021
 30
0.0
 10
49.3564808477
 20
12.0567612765
 30
0.0
 10
49.3333749421
 20
12.0520189909
 30
0.0
  0
SPLINE
  5
4B8
100
AcDbEntity
  8
0
100
AcDbSpline
 62
7
  6
BYLAYER
 70
0
 71
3
 72
11
 73
7
 74
0
 42
0.0000001
 43
0.0000001
 44
0.0000000001
 40
0.0
 40
0.0
 40
0.0
 40
0.0
 40
0.3333174496
 40
0.6172181739
 40
0.8435821236
 40
1.0
 40
1.0
 40
1.0
 40
1.0
 10
49.3333749421
 20
12.0520189909
 30
0.0
 10
49.3195208731
 20
12.0491755642
 30
0.0
 10
49.2940051508
 20
12.0433289358
 30
0.0
 10
49.2595254149
 20
12.0332754985
 30
0.0
 10
49.2333885611
 20
12.0229229685
 30
0.0
 10
49.2188536326
 20
12.0145999237
 30
0.0
 10
49.2144930545
 20
12.0095965427
 30
0.0
  0
SPLINE
  5
4B9
100
AcDbEntity
  8
0
100
AcDbSpline
 62
7
  6
BYLAYER
 70
0
 71
3
 72
9
 73
5
 74
0
 42
0.0000001
 43
0.0000001
 44
0.0000000001
 40
0.0
 40
0.0
 40
0.0
 40
0.0
 40
0.388244846
 40
1.0
 40
1.0
 40
1.0
 40
1.0
 10
49.7760030545
 20
12.0292478378
 30
0.0
 10
49.7751044663
 20
12.0331467545
 30
0.0
 10
49.7663381686
 20
12.0405938061
 30
0.0
 10
49.7571760454
 20
12.0445368352
 30
0.0
 10
49.7512930625
 20
12.0468035254
 30
0.0
  0
SPLINE
  5
4BA
100
AcDbEntity
  8
0
100
AcDbSpline
 62
7
  6
BYLAYER
 70
0
 71
3
 72
10
 73
6
 74
0
 42
0.0000001
 43
0.0000001
 44
0.0000000001
 40
0.0
 40
0.0
 40
0.0
 40
0.0
 40
0.1840432917
 40
0.4141074235
 40
1.0
 40
1.0
 40
1.0
 40
1.0
 10
49.7512930625
 20
12.0468035254
 30
0.0
 10
49.7417627325
 20
12.0504755242
 30
0.0
 10
49.7195898182
 20
12.0567925294
 30
0.0
 10
49.6651179434
 20
12.0674646943
 30
0.0
 10
49.6198785192
 20
12.0717094613
 30
0.0
 10
49.5873989002
 20
12.0731914923
 30
0.0
  0
SPLINE
  5
4BB
100
AcDbEntity
  8
0
100
AcDbSpline
 62
7
  6
BYLAYER
 70
0
 71
3
 72
9
 73
5
 74
0
 42
0.0000001
 43
0.0000001
 44
0.0000000001
 40
0.0
 40
0.0
 40
0.0
 40
0.0
 40
0.2556026941
 40
1.0
 40
1.0
 40
1.0
 40
1.0
 10
51.3619804751
 20
11.9887747911
 30
0.0
 10
51.3703666797
 20
11.9897479017
 30
0.0
 10
51.4031607834
 20
11.9936846317
 30
0.0
 10
51.4358917636
 20
11.9981640567
 30
0.0
 10
51.4601922545
 20
12.0019079392
 30
0.0
  0
SPLINE
  5
4BC
100
AcDbEntity
  8
0
100
AcDbSpline
 62
7
  6
BYLAYER
 70
0
 71
3
 72
9
 73
5
 74
0
 42
0.0000001
 43
0.0000001
 44
0.0000000001
 40
0.0
 40
0.0
 40
0.0
 40
0.0
 40
0.2425143027
 40
1.0
 40
1.0
 40
1.0
 40
1.0
 10
39.3901377666
 20
11.6980851214
 30
0.0
 10
39.3869923927
 20
11.6981333924
 30
0.0
 10
39.3740237658
 20
11.6983002511
 30
0.0
 10
39.3610565257
 20
11.6993914839
 30
0.0
 10
39.3513371226
 20
11.7008324031
 30
0.0
  0
SPLINE
  5
4BD
100
AcDbEntity
  8
0
100
AcDbSpline
 62
7
  6
BYLAYER
 70
0
 71
3
 72
9
 73
5
 74
0
 42
0.0000001
 43
0.0000001
 44
0.0000000001
 40
0.0
 40
0.0
 40
0.0
 40
0.0
 40
0.2615764283
 40
1.0
 40
1.0
 40
1.0
 40
1.0
 10
54.5057836765
 20
11.9474878558
 30
0.0
 10
54.4993515788
 20
11.9474876806
 30
0.0
 10
54.4747621493
 20
11.9475997074
 30
0.0
 10
54.4501733711
 20
11.9481726558
 30
0.0
 10
54.4320313044
 20
11.9489247056
 30
0.0
  0
SPLINE
  5
4BE
100
AcDbEntity
  8
0
100
AcDbSpline
 62
7
  6
BYLAYER
 70
0
 71
3
 72
14
 73
10
 74
0
 42
0.0000001
 43
0.0000001
 44
0.0000000001
 40
0.0
 40
0.0
 40
0.0
 40
0.0
 40
0.128209361
 40
0.256393102
 40
0.3845387134
 40
0.5125024241
 40
0.765801299
 40
0.8880039961
 40
1.0
 40
1.0
 40
1.0
 40
1.0
 10
67.1356926677
 20
16.1243563496
 30
0.0
 10
67.1351254935
 20
16.0602430159
 30
0.0
 10
67.1314194279
 20
15.9320041902
 30
0.0
 10
67.11325766
 20
15.7404098763
 30
0.0
 10
67.0819058681
 20
15.5506392001
 30
0.0
 10
67.0236838653
 20
15.3025154795
 30
0.0
 10
66.9396237128
 20
15.0638453261
 30
0.0
 10
66.8300965008
 20
14.8457849752
 30
0.0
 10
66.7678759984
 20
14.746237221
 30
0.0
 10
66.7352583471
 20
14.700707482
 30
0.0
  0
SPLINE
  5
4BF
100
AcDbEntity
  8
0
100
AcDbSpline
 62
7
  6
BYLAYER
 70
0
 71
3
 72
11
 73
7
 74
0
 42
0.0000001
 43
0.0000001
 44
0.0000000001
 40
0.0
 40
0.0
 40
0.0
 40
0.0
 40
0.3425280639
 40
0.6349728851
 40
0.8595048527
 40
1.0
 40
1.0
 40
1.0
 40
1.0
 10
66.7352583471
 20
14.700707482
 30
0.0
 10
66.7239485919
 20
14.6849206249
 30
0.0
 10
66.702306708
 20
14.6561689519
 30
0.0
 10
66.6708187103
 20
14.6187832884
 30
0.0
 10
66.6446053605
 20
14.5925773934
 30
0.0
 10
66.6280854181
 20
14.579301686
 30
0.0
 10
66.6206717038
 20
14.5763885676
 30
0.0
  0
SPLINE
  5
4C0
100
AcDbEntity
  8
0
100
AcDbSpline
 62
7
  6
BYLAYER
 70
0
 71
3
 72
9
 73
5
 74
0
 42
0.0000001
 43
0.0000001
 44
0.0000000001
 40
0.0
 40
0.0
 40
0.0
 40
0.0
 40
0.2424561394
 40
1.0
 40
1.0
 40
1.0
 40
1.0
 10
56.0206770545
 20
13.0885562741
 30
0.0
 10
56.0253447301
 20
13.0921615967
 30
0.0
 10
56.0445899862
 20
13.1070372322
 30
0.0
 10
56.0641004116
 20
13.1215908007
 30
0.0
 10
56.0792715768
 20
13.1320512205
 30
0.0
  0
SPLINE
  5
4C1
100
AcDbEntity
  8
0
100
AcDbSpline
 62
7
  6
BYLAYER
 70
0
 71
3
 72
9
 73
5
 74
0
 42
0.0000001
 43
0.0000001
 44
0.0000000001
 40
0.0
 40
0.0
 40
0.0
 40
0.0
 40
0.2274130692
 40
1.0
 40
1.0
 40
1.0
 40
1.0
 10
56.1232812642
 20
13.1603576592
 30
0.0
 10
56.1316552299
 20
13.1653738888
 30
0.0
 10
56.1688665518
 20
13.1867792313
 30
0.0
 10
56.2074780672
 20
13.2057243821
 30
0.0
 10
56.2378294099
 20
13.2190863381
 30
0.0
  0
SPLINE
  5
4C2
100
AcDbEntity
  8
0
100
AcDbSpline
 62
7
  6
BYLAYER
 70
0
 71
3
 72
9
 73
5
 74
0
 42
0.0000001
 43
0.0000001
 44
0.0000000001
 40
0.0
 40
0.0
 40
0.0
 40
0.0
 40
0.210294123
 40
1.0
 40
1.0
 40
1.0
 40
1.0
 10
56.2378294099
 20
13.2190863381
 30
0.0
 10
56.2573758614
 20
13.2276915199
 30
0.0
 10
56.351414961
 20
13.2660415644
 30
0.0
 10
56.4504747891
 20
13.2925269356
 30
0.0
 10
56.5296930545
 20
13.305037252
 30
0.0
  0
SPLINE
  5
4C3
100
AcDbEntity
  8
0
100
AcDbSpline
 62
7
  6
BYLAYER
 70
0
 71
3
 72
11
 73
7
 74
0
 42
0.0000001
 43
0.0000001
 44
0.0000000001
 40
0.0
 40
0.0
 40
0.0
 40
0.0
 40
0.1418773652
 40
0.3662115468
 40
0.657935575
 40
1.0
 40
1.0
 40
1.0
 40
1.0
 10
28.2485349749
 20
14.5764680727
 30
0.0
 10
28.2413861547
 20
14.5793475952
 30
0.0
 10
28.2254736622
 20
14.5920100473
 30
0.0
 10
28.2002258308
 20
14.617053928
 30
0.0
 10
28.1699466537
 20
14.6526679118
 30
0.0
 10
28.1491061454
 20
14.680058025
 30
0.0
 10
28.1382009268
 20
14.6951027605
 30
0.0
  0
SPLINE
  5
4C4
100
AcDbEntity
  8
0
100
AcDbSpline
 62
7
  6
BYLAYER
 70
0
 71
3
 72
14
 73
10
 74
0
 42
0.0000001
 43
0.0000001
 44
0.0000000001
 40
0.0
 40
0.0
 40
0.0
 40
0.0
 40
0.1114152604
 40
0.2335172282
 40
0.4869795681
 40
0.6150685006
 40
0.7433444836
 40
0.8716590456
 40
1.0
 40
1.0
 40
1.0
 40
1.0
 10
28.1382009268
 20
14.6951027605
 30
0.0
 10
28.1053507498
 20
14.7404225508
 30
0.0
 10
28.0426075392
 20
14.8398843021
 30
0.0
 10
27.9319996729
 20
15.0583672868
 30
0.0
 10
27.8470044032
 20
15.2980627617
 30
0.0
 10
27.7881256439
 20
15.5474523299
 30
0.0
 10
27.7564094394
 20
15.7382578461
 30
0.0
 10
27.738056797
 20
15.9309227515
 30
0.0
 10
27.7343082412
 20
16.0598823947
 30
0.0
 10
27.7337262413
 20
16.1243563484
 30
0.0
  0
SPLINE
  5
4C5
100
AcDbEntity
  8
0
100
AcDbSpline
 62
7
  6
BYLAYER
 70
0
 71
3
 72
11
 73
7
 74
0
 42
0.0000001
 43
0.0000001
 44
0.0000000001
 40
0.0
 40
0.0
 40
0.0
 40
0.0
 40
0.1359680722
 40
0.3524572177
 40
0.6437532169
 40
1.0
 40
1.0
 40
1.0
 40
1.0
 10
50.7859062545
 20
12.0555776423
 30
0.0
 10
50.7859062545
 20
12.0604749308
 30
0.0
 10
50.795206482
 20
12.0715289366
 30
0.0
 10
50.814765342
 20
12.08281944
 30
0.0
 10
50.8435612055
 20
12.0954737014
 30
0.0
 10
50.8656351504
 20
12.1028345616
 30
0.0
 10
50.8779000932
 20
12.1066045368
 30
0.0
  0
SPLINE
  5
4C6
100
AcDbEntity
  8
0
100
AcDbSpline
 62
7
  6
BYLAYER
 70
0
 71
3
 72
9
 73
5
 74
0
 42
0.0000001
 43
0.0000001
 44
0.0000000001
 40
0.0
 40
0.0
 40
0.0
 40
0.0
 40
0.441715468
 40
1.0
 40
1.0
 40
1.0
 40
1.0
 10
50.8779000932
 20
12.1066045368
 30
0.0
 10
50.9120686933
 20
12.117107217
 30
0.0
 10
50.9910742024
 20
12.135433852
 30
0.0
 10
51.0714655925
 20
12.1461327621
 30
0.0
 10
51.1165258845
 20
12.1494167887
 30
0.0
  0
SPLINE
  5
4C7
100
AcDbEntity
  8
0
100
AcDbSpline
 62
7
  6
BYLAYER
 70
0
 71
3
 72
12
 73
8
 74
0
 42
0.0000001
 43
0.0000001
 44
0.0000000001
 40
0.0
 40
0.0
 40
0.0
 40
0.0
 40
0.1172328326
 40
0.2143898477
 40
0.3350433228
 40
0.635298288
 40
1.0
 40
1.0
 40
1.0
 40
1.0
 10
52.2201606545
 20
12.1117716208
 30
0.0
 10
52.2201606545
 20
12.105925928
 30
0.0
 10
52.2315174533
 20
12.0983424162
 30
0.0
 10
52.2463008393
 20
12.0928378251
 30
0.0
 10
52.2716427945
 20
12.0859429716
 30
0.0
 10
52.3101550504
 20
12.0798276201
 30
0.0
 10
52.3432517782
 20
12.0766807264
 30
0.0
 10
52.3613932006
 20
12.0754157688
 30
0.0
  0
SPLINE
  5
4C8
100
AcDbEntity
  8
0
100
AcDbSpline
 62
7
  6
BYLAYER
 70
0
 71
3
 72
9
 73
5
 74
0
 42
0.0000001
 43
0.0000001
 44
0.0000000001
 40
0.0
 40
0.0
 40
0.0
 40
0.0
 40
0.2315233703
 40
1.0
 40
1.0
 40
1.0
 40
1.0
 10
52.3613932006
 20
12.0754157688
 30
0.0
 10
52.3703488281
 20
12.0747913145
 30
0.0
 10
52.4090617853
 20
12.0725596987
 30
0.0
 10
52.4478680085
 20
12.072036335
 30
0.0
 10
52.4776626887
 20
12.0724715177
 30
0.0
  0
SPLINE
  5
4C9
100
AcDbEntity
  8
0
100
AcDbSpline
 62
7
  6
BYLAYER
 70
0
 71
3
 72
9
 73
5
 74
0
 42
0.0000001
 43
0.0000001
 44
0.0000000001
 40
0.0
 40
0.0
 40
0.0
 40
0.0
 40
0.2422643783
 40
1.0
 40
1.0
 40
1.0
 40
1.0
 10
52.4776626887
 20
12.0724715177
 30
0.0
 10
52.4860599635
 20
12.0725941688
 30
0.0
 10
52.5207162004
 20
12.0733858448
 30
0.0
 10
52.555350698
 20
12.0753541776
 30
0.0
 10
52.5815178545
 20
12.0776438699
 30
0.0
  0
SPLINE
  5
4CA
100
AcDbEntity
  8
0
100
AcDbSpline
 62
7
  6
BYLAYER
 70
0
 71
3
 72
14
 73
10
 74
0
 42
0.0000001
 43
0.0000001
 44
0.0000000001
 40
0.0
 40
0.0
 40
0.0
 40
0.0
 40
0.0440172829
 40
0.1138963785
 40
0.2092876001
 40
0.3287229938
 40
0.4702606434
 40
0.631306779
 40
1.0
 40
1.0
 40
1.0
 40
1.0
 10
41.5754820738
 20
11.88991979
 30
0.0
 10
41.5671257903
 20
11.8856510109
 30
0.0
 10
41.5430414824
 20
11.8801992398
 30
0.0
 10
41.4988780664
 20
11.8750716053
 30
0.0
 10
41.4381251814
 20
11.8724038431
 30
0.0
 10
41.3621796535
 20
11.8720516989
 30
0.0
 10
41.2722195573
 20
11.8742433726
 30
0.0
 10
41.1292651315
 20
11.8807592355
 30
0.0
 10
41.0166030558
 20
11.8888747028
 30
0.0
 10
40.9382803959
 20
11.8954370038
 30
0.0
  0
SPLINE
  5
4CB
100
AcDbEntity
  8
0
100
AcDbSpline
 62
7
  6
BYLAYER
 70
0
 71
3
 72
13
 73
9
 74
0
 42
0.0000001
 43
0.0000001
 44
0.0000000001
 40
0.0
 40
0.0
 40
0.0
 40
0.0
 40
0.2961901619
 40
0.5891011715
 40
0.7206028903
 40
0.8355770607
 40
0.9298520046
 40
1.0
 40
1.0
 40
1.0
 40
1.0
 10
40.9382803959
 20
11.8954370038
 30
0.0
 10
40.8100840112
 20
11.9061779983
 30
0.0
 10
40.5555144143
 20
11.9324339505
 30
0.0
 10
40.2452472147
 20
11.9740750475
 30
0.0
 10
40.014051327
 20
12.0120025242
 30
0.0
 10
39.8685756794
 20
12.0393697323
 30
0.0
 10
39.7500996368
 20
12.0656426476
 30
0.0
 10
39.6811067125
 20
12.084434201
 30
0.0
 10
39.6522443145
 20
12.0941933934
 30
0.0
  0
SPLINE
  5
4CC
100
AcDbEntity
  8
0
100
AcDbSpline
 62
7
  6
BYLAYER
 70
0
 71
3
 72
9
 73
5
 74
0
 42
0.0000001
 43
0.0000001
 44
0.0000000001
 40
0.0
 40
0.0
 40
0.0
 40
0.0
 40
0.2662475694
 40
1.0
 40
1.0
 40
1.0
 40
1.0
 10
39.6522443145
 20
12.0941933934
 30
0.0
 10
39.6502736308
 20
12.0948597373
 30
0.0
 10
39.6428842571
 20
12.0973983873
 30
0.0
 10
39.6355450347
 20
12.1000857761
 30
0.0
 10
39.6302062746
 20
12.1021752329
 30
0.0
  0
SPLINE
  5
4CD
100
AcDbEntity
  8
0
100
AcDbSpline
 62
7
  6
BYLAYER
 70
0
 71
3
 72
18
 73
14
 74
0
 42
0.0000001
 43
0.0000001
 44
0.0000000001
 40
0.0
 40
0.0
 40
0.0
 40
0.0
 40
0.0112053685
 40
0.0339298812
 40
0.0689371631
 40
0.1155632567
 40
0.1727326119
 40
0.2391036752
 40
0.3928714272
 40
0.562296702
 40
0.7309598629
 40
0.8820767603
 40
1.0
 40
1.0
 40
1.0
 40
1.0
 10
39.6350178407
 20
12.1671505155
 30
0.0
 10
39.6350178409
 20
12.1688905676
 30
0.0
 10
39.6301504436
 20
12.1728406506
 30
0.0
 10
39.6209699227
 20
12.1770114943
 30
0.0
 10
39.6053675235
 20
12.1825045042
 30
0.0
 10
39.5847269446
 20
12.1882743025
 30
0.0
 10
39.5590010223
 20
12.1945281411
 30
0.0
 10
39.5169068926
 20
12.2035326867
 30
0.0
 10
39.4573545741
 20
12.2143147085
 30
0.0
 10
39.3818195248
 20
12.2256638201
 30
0.0
 10
39.3063947292
 20
12.2348579598
 30
0.0
 10
39.2386927572
 20
12.2409255714
 30
0.0
 10
39.196927487
 20
12.2429677093
 30
0.0
 10
39.1786154987
 20
12.2429677095
 30
0.0
  0
SPLINE
  5
4CE
100
AcDbEntity
  8
0
100
AcDbSpline
 62
7
  6
BYLAYER
 70
0
 71
3
 72
9
 73
5
 74
0
 42
0.0000001
 43
0.0000001
 44
0.0000000001
 40
0.0
 40
0.0
 40
0.0
 40
0.0
 40
0.5331427643
 40
1.0
 40
1.0
 40
1.0
 40
1.0
 10
36.9290268496
 20
12.541279365
 30
0.0
 10
36.8443729753
 20
12.5635251902
 30
0.0
 10
36.6865460469
 20
12.6089693952
 30
0.0
 10
36.5313843302
 20
12.6630792015
 30
0.0
 10
36.4601817092
 20
12.6914472755
 30
0.0
  0
SPLINE
  5
4CF
100
AcDbEntity
  8
0
100
AcDbSpline
 62
7
  6
BYLAYER
 70
0
 71
3
 72
9
 73
5
 74
0
 42
0.0000001
 43
0.0000001
 44
0.0000000001
 40
0.0
 40
0.0
 40
0.0
 40
0.0
 40
0.4223730092
 40
1.0
 40
1.0
 40
1.0
 40
1.0
 10
49.7724684745
 20
12.9063636863
 30
0.0
 10
49.7724691466
 20
12.9020958541
 30
0.0
 10
49.7765229535
 20
12.8919713071
 30
0.0
 10
49.7850624601
 20
12.885962904
 30
0.0
 10
49.7900977063
 20
12.8830112948
 30
0.0
  0
SPLINE
  5
4D0
100
AcDbEntity
  8
0
100
AcDbSpline
 62
7
  6
BYLAYER
 70
0
 71
3
 72
9
 73
5
 74
0
 42
0.0000001
 43
0.0000001
 44
0.0000000001
 40
0.0
 40
0.0
 40
0.0
 40
0.0
 40
0.2424690026
 40
1.0
 40
1.0
 40
1.0
 40
1.0
 10
41.5754836121
 20
11.8899203795
 30
0.0
 10
41.5927427188
 20
11.8987380302
 30
0.0
 10
41.6632251778
 20
11.9364645151
 30
0.0
 10
41.7308665189
 20
11.9794206413
 30
0.0
 10
41.7804150789
 20
12.014225702
 30
0.0
  0
SPLINE
  5
4D1
100
AcDbEntity
  8
0
100
AcDbSpline
 62
7
  6
BYLAYER
 70
0
 71
3
 72
9
 73
5
 74
0
 42
0.0000001
 43
0.0000001
 44
0.0000000001
 40
0.0
 40
0.0
 40
0.0
 40
0.0
 40
0.269676869
 40
1.0
 40
1.0
 40
1.0
 40
1.0
 10
42.0414055447
 20
11.949156848
 30
0.0
 10
42.0037072851
 20
11.9135709342
 30
0.0
 10
41.8603228822
 20
11.7856455026
 30
0.0
 10
41.7006241223
 20
11.674712692
 30
0.0
 10
41.5754805356
 20
11.6110777362
 30
0.0
  0
SPLINE
  5
4D2
100
AcDbEntity
  8
0
100
AcDbSpline
 62
7
  6
BYLAYER
 70
0
 71
3
 72
22
 73
18
 74
0
 42
0.0000001
 43
0.0000001
 44
0.0000000001
 40
0.0
 40
0.0
 40
0.0
 40
0.0
 40
0.0083823194
 40
0.0199896302
 40
0.0531534094
 40
0.0992975274
 40
0.1571872649
 40
0.2251977439
 40
0.3013407661
 40
0.3833523033
 40
0.4688667138
 40
0.6404948198
 40
0.7971659403
 40
0.8643284778
 40
0.9213212613
 40
0.9668425594
 40
1.0
 40
1.0
 40
1.0
 40
1.0
 10
41.575461466
 20
11.6110817188
 30
0.0
 10
41.5707832237
 20
11.6081059134
 30
0.0
 10
41.5583325585
 20
11.6031809948
 30
0.0
 10
41.5240685388
 20
11.5952816336
 30
0.0
 10
41.4639292913
 20
11.5899574853
 30
0.0
 10
41.3732209067
 20
11.5884273245
 30
0.0
 10
41.2594182487
 20
11.5919028276
 30
0.0
 10
41.126033787
 20
11.6003045429
 30
0.0
 10
40.9770010323
 20
11.6134697168
 30
0.0
 10
40.8167737468
 20
11.6310105436
 30
0.0
 10
40.594259968
 20
11.6596195678
 30
0.0
 10
40.323736963
 20
11.7016457555
 30
0.0
 10
40.0667526469
 20
11.7509576498
 30
0.0
 10
39.8857942171
 20
11.7929532343
 30
0.0
 10
39.7773268898
 20
11.8219711748
 30
0.0
 10
39.6918555302
 20
11.8493045498
 30
0.0
 10
39.6433790971
 20
11.8686778317
 30
0.0
 10
39.6238831281
 20
11.8787237352
 30
0.0
  0
SPLINE
  5
4D3
100
AcDbEntity
  8
0
100
AcDbSpline
 62
7
  6
BYLAYER
 70
0
 71
3
 72
9
 73
5
 74
0
 42
0.0000001
 43
0.0000001
 44
0.0000000001
 40
0.0
 40
0.0
 40
0.0
 40
0.0
 40
0.2741689833
 40
1.0
 40
1.0
 40
1.0
 40
1.0
 10
39.6238831281
 20
11.8787237352
 30
0.0
 10
39.6220822565
 20
11.8796516902
 30
0.0
 10
39.6155511344
 20
11.8831061027
 30
0.0
 10
39.6091654214
 20
11.886851288
 30
0.0
 10
39.6047055487
 20
11.8898303333
 30
0.0
  0
SPLINE
  5
4D4
100
AcDbEntity
  8
0
100
AcDbSpline
 62
7
  6
BYLAYER
 70
0
 71
3
 72
11
 73
7
 74
0
 42
0.0000001
 43
0.0000001
 44
0.0000000001
 40
0.0
 40
0.0
 40
0.0
 40
0.0
 40
0.1296804701
 40
0.3417970158
 40
0.6346261942
 40
1.0
 40
1.0
 40
1.0
 40
1.0
 10
37.5587296872
 20
12.1711566313
 30
0.0
 10
37.5565828397
 20
12.1740670739
 30
0.0
 10
37.553963196
 20
12.1835868439
 30
0.0
 10
37.5517849898
 20
12.201006317
 30
0.0
 10
37.551042416
 20
12.2253663043
 30
0.0
 10
37.5514298961
 20
12.2437007964
 30
0.0
 10
37.5518303378
 20
12.2538826055
 30
0.0
  0
SPLINE
  5
4D5
100
AcDbEntity
  8
0
100
AcDbSpline
 62
7
  6
BYLAYER
 70
0
 71
3
 72
9
 73
5
 74
0
 42
0.0000001
 43
0.0000001
 44
0.0000000001
 40
0.0
 40
0.0
 40
0.0
 40
0.0
 40
0.2198364453
 40
1.0
 40
1.0
 40
1.0
 40
1.0
 10
37.5518303378
 20
12.2538826055
 30
0.0
 10
37.552299321
 20
12.2658071793
 30
0.0
 10
37.5555865309
 20
12.3200023386
 30
0.0
 10
37.5621325706
 20
12.3739629761
 30
0.0
 10
37.5684113851
 20
12.4158460291
 30
0.0
  0
SPLINE
  5
4D6
100
AcDbEntity
  8
0
100
AcDbSpline
 62
7
  6
BYLAYER
 70
0
 71
3
 72
9
 73
5
 74
0
 42
0.0000001
 43
0.0000001
 44
0.0000000001
 40
0.0
 40
0.0
 40
0.0
 40
0.0
 40
0.4435792357
 40
1.0
 40
1.0
 40
1.0
 40
1.0
 10
43.1283539116
 20
12.0908258638
 30
0.0
 10
43.1283572429
 20
12.0825414681
 30
0.0
 10
43.1337144805
 20
12.0637703018
 30
0.0
 10
43.1462473043
 20
12.0493786861
 30
0.0
 10
43.1538323042
 20
12.0422752795
 30
0.0
  0
SPLINE
  5
4D7
100
AcDbEntity
  8
0
100
AcDbSpline
 62
7
  6
BYLAYER
 70
0
 71
3
 72
10
 73
6
 74
0
 42
0.0000001
 43
0.0000001
 44
0.0000000001
 40
0.0
 40
0.0
 40
0.0
 40
0.0
 40
0.1669576668
 40
0.3838462558
 40
1.0
 40
1.0
 40
1.0
 40
1.0
 10
43.1538323042
 20
12.0422752795
 30
0.0
 10
43.162592167
 20
12.0340716054
 30
0.0
 10
43.1851619996
 20
12.0178228293
 30
0.0
 10
43.2496011722
 20
11.9856251744
 30
0.0
 10
43.3074832625
 20
11.9685637624
 30
0.0
 10
43.3504806545
 20
11.9579366903
 30
0.0
  0
SPLINE
  5
4D8
100
AcDbEntity
  8
0
100
AcDbSpline
 62
7
  6
BYLAYER
 70
0
 71
3
 72
11
 73
7
 74
0
 42
0.0000001
 43
0.0000001
 44
0.0000000001
 40
0.0
 40
0.0
 40
0.0
 40
0.0
 40
0.1417746554
 40
0.3578324923
 40
0.6451520553
 40
1.0
 40
1.0
 40
1.0
 40
1.0
 10
53.6368026545
 20
12.2926074693
 30
0.0
 10
53.6368026545
 20
12.2972974337
 30
0.0
 10
53.6446498857
 20
12.3079282273
 30
0.0
 10
53.661756721
 20
12.3199411303
 30
0.0
 10
53.6870682156
 20
12.3333823721
 30
0.0
 10
53.7066845723
 20
12.3414497391
 30
0.0
 10
53.7176670209
 20
12.3455944479
 30
0.0
  0
SPLINE
  5
4D9
100
AcDbEntity
  8
0
100
AcDbSpline
 62
7
  6
BYLAYER
 70
0
 71
3
 72
9
 73
5
 74
0
 42
0.0000001
 43
0.0000001
 44
0.0000000001
 40
0.0
 40
0.0
 40
0.0
 40
0.0
 40
0.2351074809
 40
1.0
 40
1.0
 40
1.0
 40
1.0
 10
53.7176670209
 20
12.3455944479
 30
0.0
 10
53.7205763972
 20
12.3466924287
 30
0.0
 10
53.7329910953
 20
12.3512561807
 30
0.0
 10
53.745559091
 20
12.3553994446
 30
0.0
 10
53.7552316139
 20
12.3583649447
 30
0.0
  0
SPLINE
  5
4DA
100
AcDbEntity
  8
0
100
AcDbSpline
 62
7
  6
BYLAYER
 70
0
 71
3
 72
9
 73
5
 74
0
 42
0.0000001
 43
0.0000001
 44
0.0000000001
 40
0.0
 40
0.0
 40
0.0
 40
0.0
 40
0.2277874731
 40
1.0
 40
1.0
 40
1.0
 40
1.0
 10
53.7552316139
 20
12.3583649447
 30
0.0
 10
53.7610936972
 20
12.3601622016
 30
0.0
 10
53.7869293549
 20
12.3677205521
 30
0.0
 10
53.8131559193
 20
12.373935283
 30
0.0
 10
53.8335384746
 20
12.3780098068
 30
0.0
  0
SPLINE
  5
4DB
100
AcDbEntity
  8
0
100
AcDbSpline
 62
7
  6
BYLAYER
 70
0
 71
3
 72
9
 73
5
 74
0
 42
0.0000001
 43
0.0000001
 44
0.0000000001
 40
0.0
 40
0.0
 40
0.0
 40
0.0
 40
0.2701642886
 40
1.0
 40
1.0
 40
1.0
 40
1.0
 10
53.9077362545
 20
12.3895269713
 30
0.0
 10
53.9202383227
 20
12.390910158
 30
0.0
 10
53.9666320924
 20
12.3949530244
 30
0.0
 10
54.0132906998
 20
12.3955160011
 30
0.0
 10
54.0472527478
 20
12.3944176291
 30
0.0
  0
SPLINE
  5
4DC
100
AcDbEntity
  8
0
100
AcDbSpline
 62
7
  6
BYLAYER
 70
0
 71
3
 72
9
 73
5
 74
0
 42
0.0000001
 43
0.0000001
 44
0.0000000001
 40
0.0
 40
0.0
 40
0.0
 40
0.0
 40
0.2625756078
 40
1.0
 40
1.0
 40
1.0
 40
1.0
 10
54.0472527478
 20
12.3944176291
 30
0.0
 10
54.0531301874
 20
12.3942275459
 30
0.0
 10
54.0755089056
 20
12.3933461251
 30
0.0
 10
54.0978618708
 20
12.3918670721
 30
0.0
 10
54.1143222545
 20
12.3905251917
 30
0.0
  0
SPLINE
  5
4DD
100
AcDbEntity
  8
0
100
AcDbSpline
 62
7
  6
BYLAYER
 70
0
 71
3
 72
16
 73
12
 74
0
 42
0.0000001
 43
0.0000001
 44
0.0000000001
 40
0.0
 40
0.0
 40
0.0
 40
0.0
 40
0.0467100726
 40
0.086435646
 40
0.1369626834
 40
0.195864273
 40
0.2605920468
 40
0.4003307513
 40
0.5471735896
 40
0.6971975016
 40
1.0
 40
1.0
 40
1.0
 40
1.0
 10
40.0745574545
 20
12.899490277
 30
0.0
 10
40.0745574545
 20
12.909096921
 30
0.0
 10
40.0595005251
 20
12.9240081042
 30
0.0
 10
40.0357043492
 20
12.9371681145
 30
0.0
 10
40.0071848942
 20
12.9494570823
 30
0.0
 10
39.9734299891
 20
12.9611480825
 30
0.0
 10
39.9215120251
 20
12.9767748753
 30
0.0
 10
39.8514999681
 20
12.9946287909
 30
0.0
 10
39.7639491219
 20
13.0146165109
 30
0.0
 10
39.6433637604
 20
13.0404944649
 30
0.0
 10
39.5521719315
 20
13.0594048729
 30
0.0
 10
39.4912710552
 20
13.0724195422
 30
0.0
  0
SPLINE
  5
4DE
100
AcDbEntity
  8
0
100
AcDbSpline
 62
7
  6
BYLAYER
 70
0
 71
3
 72
9
 73
5
 74
0
 42
0.0000001
 43
0.0000001
 44
0.0000000001
 40
0.0
 40
0.0
 40
0.0
 40
0.0
 40
0.2527786339
 40
1.0
 40
1.0
 40
1.0
 40
1.0
 10
39.4912710552
 20
13.0724195422
 30
0.0
 10
39.4734481998
 20
13.0762283309
 30
0.0
 10
39.402965464
 20
13.09140933
 30
0.0
 10
39.3326531984
 20
13.1074093744
 30
0.0
 10
39.280316332
 20
13.1201888259
 30
0.0
  0
SPLINE
  5
4DF
100
AcDbEntity
  8
0
100
AcDbSpline
 62
7
  6
BYLAYER
 70
0
 71
3
 72
10
 73
6
 74
0
 42
0.0000001
 43
0.0000001
 44
0.0000000001
 40
0.0
 40
0.0
 40
0.0
 40
0.0
 40
0.5432750931
 40
0.7856761912
 40
1.0
 40
1.0
 40
1.0
 40
1.0
 10
39.2452318202
 20
13.1288861614
 30
0.0
 10
39.1522408177
 20
13.1522947803
 30
0.0
 10
39.0185492798
 20
13.189840415
 30
0.0
 10
38.8522762229
 20
13.2492222461
 30
0.0
 10
38.7780979193
 20
13.2810636967
 30
0.0
 10
38.7441621509
 20
13.2977805363
 30
0.0
  0
SPLINE
  5
4E0
100
AcDbEntity
  8
0
100
AcDbSpline
 62
7
  6
BYLAYER
 70
0
 71
3
 72
11
 73
7
 74
0
 42
0.0000001
 43
0.0000001
 44
0.0000000001
 40
0.0
 40
0.0
 40
0.0
 40
0.0
 40
0.3432617084
 40
0.6245954341
 40
0.8397112834
 40
1.0
 40
1.0
 40
1.0
 40
1.0
 10
38.7441621509
 20
13.2977805363
 30
0.0
 10
38.7216634429
 20
13.308863453
 30
0.0
 10
38.6813577715
 20
13.3304299037
 30
0.0
 10
38.6309185387
 20
13.3657246115
 30
0.0
 10
38.5969794271
 20
13.4002222398
 30
0.0
 10
38.5864566545
 20
13.4273040764
 30
0.0
 10
38.5864566545
 20
13.4390155305
 30
0.0
  0
SPLINE
  5
4E1
100
AcDbEntity
  8
0
100
AcDbSpline
 62
7
  6
BYLAYER
 70
0
 71
3
 72
13
 73
9
 74
0
 42
0.0000001
 43
0.0000001
 44
0.0000000001
 40
0.0
 40
0.0
 40
0.0
 40
0.0
 40
0.1145815979
 40
0.2114320863
 40
0.3321376603
 40
0.4736103862
 40
0.6332655632
 40
1.0
 40
1.0
 40
1.0
 40
1.0
 10
55.6152930545
 20
12.526755133
 30
0.0
 10
55.6152930545
 20
12.5165686537
 30
0.0
 10
55.6365908886
 20
12.5041657412
 30
0.0
 10
55.6631422069
 20
12.4964839891
 30
0.0
 10
55.6950833303
 20
12.490086916
 30
0.0
 10
55.7321179321
 20
12.4855251272
 30
0.0
 10
55.7914134651
 20
12.4809266914
 30
0.0
 10
55.8382118619
 20
12.4800454577
 30
0.0
 10
55.8708146451
 20
12.4802203511
 30
0.0
  0
SPLINE
  5
4E2
100
AcDbEntity
  8
0
100
AcDbSpline
 62
7
  6
BYLAYER
 70
0
 71
3
 72
9
 73
5
 74
0
 42
0.0000001
 43
0.0000001
 44
0.0000000001
 40
0.0
 40
0.0
 40
0.0
 40
0.0
 40
0.234309128
 40
1.0
 40
1.0
 40
1.0
 40
1.0
 10
55.8708146451
 20
12.4802203511
 30
0.0
 10
55.8836531792
 20
12.4802892217
 30
0.0
 10
55.9384422519
 20
12.481147182
 30
0.0
 10
55.9931942022
 20
12.4841521126
 30
0.0
 10
56.0350107547
 20
12.4875603362
 30
0.0
  0
SPLINE
  5
4E3
100
AcDbEntity
  8
0
100
AcDbSpline
 62
7
  6
BYLAYER
 70
0
 71
3
 72
9
 73
5
 74
0
 42
0.0000001
 43
0.0000001
 44
0.0000000001
 40
0.0
 40
0.0
 40
0.0
 40
0.0
 40
0.2434575644
 40
1.0
 40
1.0
 40
1.0
 40
1.0
 10
56.0350107547
 20
12.4875603362
 30
0.0
 10
56.0468865553
 20
12.4885282635
 30
0.0
 10
56.0956342005
 20
12.4928811622
 30
0.0
 10
56.1442484061
 20
12.4987871186
 30
0.0
 10
56.1808662545
 20
12.5042718353
 30
0.0
  0
SPLINE
  5
4E4
100
AcDbEntity
  8
0
100
AcDbSpline
 62
7
  6
BYLAYER
 70
0
 71
3
 72
9
 73
5
 74
0
 42
0.0000001
 43
0.0000001
 44
0.0000000001
 40
0.0
 40
0.0
 40
0.0
 40
0.0
 40
0.4775335583
 40
1.0
 40
1.0
 40
1.0
 40
1.0
 10
40.4712116296
 20
13.0243919158
 30
0.0
 10
40.4088746632
 20
13.0216798093
 30
0.0
 10
40.2780690586
 20
13.0222364948
 30
0.0
 10
40.147605567
 20
13.0300677617
 30
0.0
 10
40.0795514346
 20
13.0354546177
 30
0.0
  0
SPLINE
  5
4E5
100
AcDbEntity
  8
0
100
AcDbSpline
 62
7
  6
BYLAYER
 70
0
 71
3
 72
9
 73
5
 74
0
 42
0.0000001
 43
0.0000001
 44
0.0000000001
 40
0.0
 40
0.0
 40
0.0
 40
0.0
 40
0.2551375694
 40
1.0
 40
1.0
 40
1.0
 40
1.0
 10
56.4166402207
 20
12.5453041393
 30
0.0
 10
56.4250748774
 20
12.5470202298
 30
0.0
 10
56.458108463
 20
12.5538708496
 30
0.0
 10
56.4910358826
 20
12.5612415437
 30
0.0
 10
56.5154694545
 20
12.5671128069
 30
0.0
  0
SPLINE
  5
4E6
100
AcDbEntity
  8
0
100
AcDbSpline
 62
7
  6
BYLAYER
 70
0
 71
3
 72
8
 73
4
 74
0
 42
0.0000001
 43
0.0000001
 44
0.0000000001
 40
0.0
 40
0.0
 40
0.0
 40
0.0
 40
1.0
 40
1.0
 40
1.0
 40
1.0
 10
39.5036245312
 20
11.7274108551
 30
0.0
 10
39.4836701102
 20
11.7166492199
 30
0.0
 10
39.4620187239
 20
11.7085472159
 30
0.0
 10
39.4398635765
 20
11.7037366906
 30
0.0
  0
SPLINE
  5
4E7
100
AcDbEntity
  8
0
100
AcDbSpline
 62
7
  6
BYLAYER
 70
0
 71
3
 72
9
 73
5
 74
0
 42
0.0000001
 43
0.0000001
 44
0.0000000001
 40
0.0
 40
0.0
 40
0.0
 40
0.0
 40
0.2411069199
 40
1.0
 40
1.0
 40
1.0
 40
1.0
 10
39.4398635765
 20
11.7037366906
 30
0.0
 10
39.4359299791
 20
11.7028825924
 30
0.0
 10
39.4194957859
 20
11.6998685373
 30
0.0
 10
39.4027898204
 20
11.6987524199
 30
0.0
 10
39.3901377666
 20
11.6980851214
 30
0.0
  0
SPLINE
  5
4E8
100
AcDbEntity
  8
0
100
AcDbSpline
 62
7
  6
BYLAYER
 70
0
 71
3
 72
9
 73
5
 74
0
 42
0.0000001
 43
0.0000001
 44
0.0000000001
 40
0.0
 40
0.0
 40
0.0
 40
0.0
 40
0.5231039133
 40
1.0
 40
1.0
 40
1.0
 40
1.0
 10
39.2549880675
 20
13.4380794289
 30
0.0
 10
39.1888939479
 20
13.4546633141
 30
0.0
 10
39.0631814042
 20
13.4889606345
 30
0.0
 10
38.9393642951
 20
13.5298067478
 30
0.0
 10
38.8812347486
 20
13.5517224105
 30
0.0
  0
SPLINE
  5
4E9
100
AcDbEntity
  8
0
100
AcDbSpline
 62
7
  6
BYLAYER
 70
0
 71
3
 72
11
 73
7
 74
0
 42
0.0000001
 43
0.0000001
 44
0.0000000001
 40
0.0
 40
0.0
 40
0.0
 40
0.0
 40
0.1377134129
 40
0.3563282318
 40
0.647182618
 40
1.0
 40
1.0
 40
1.0
 40
1.0
 10
55.8405066545
 20
12.5627417546
 30
0.0
 10
55.8405066545
 20
12.5679006682
 30
0.0
 10
55.8499111089
 20
12.5796172694
 30
0.0
 10
55.8694374265
 20
12.592861192
 30
0.0
 10
55.8983170286
 20
12.6080960702
 30
0.0
 10
55.9204572137
 20
12.6174882975
 30
0.0
 10
55.9327424276
 20
12.6223629134
 30
0.0
  0
SPLINE
  5
4EA
100
AcDbEntity
  8
0
100
AcDbSpline
 62
7
  6
BYLAYER
 70
0
 71
3
 72
9
 73
5
 74
0
 42
0.0000001
 43
0.0000001
 44
0.0000000001
 40
0.0
 40
0.0
 40
0.0
 40
0.0
 40
0.4430731431
 40
1.0
 40
1.0
 40
1.0
 40
1.0
 10
55.9327424276
 20
12.6223629134
 30
0.0
 10
55.9680138453
 20
12.6363581611
 30
0.0
 10
56.0497850424
 20
12.662421172
 30
0.0
 10
56.133698301
 20
12.6805309245
 30
0.0
 10
56.1808662545
 20
12.6876181166
 30
0.0
  0
SPLINE
  5
4EB
100
AcDbEntity
  8
0
100
AcDbSpline
 62
7
  6
BYLAYER
 70
0
 71
3
 72
9
 73
5
 74
0
 42
0.0000001
 43
0.0000001
 44
0.0000000001
 40
0.0
 40
0.0
 40
0.0
 40
0.0
 40
0.5685760031
 40
1.0
 40
1.0
 40
1.0
 40
1.0
 10
54.9576997816
 20
12.6006888881
 30
0.0
 10
54.972600141
 20
12.6043000283
 30
0.0
 10
54.998478834
 20
12.6119237904
 30
0.0
 10
55.023657082
 20
12.6219594104
 30
0.0
 10
55.0338504358
 20
12.6275657626
 30
0.0
  0
SPLINE
  5
4EC
100
AcDbEntity
  8
0
100
AcDbSpline
 62
7
  6
BYLAYER
 70
0
 71
3
 72
9
 73
5
 74
0
 42
0.0000001
 43
0.0000001
 44
0.0000000001
 40
0.0
 40
0.0
 40
0.0
 40
0.0
 40
0.6213224033
 40
1.0
 40
1.0
 40
1.0
 40
1.0
 10
55.0338504358
 20
12.6275657626
 30
0.0
 10
55.0376519793
 20
12.6296566143
 30
0.0
 10
55.0434049014
 20
12.6329751963
 30
0.0
 10
55.048802698
 20
12.6389615412
 30
0.0
 10
55.0487570113
 20
12.6416053907
 30
0.0
  0
SPLINE
  5
4ED
100
AcDbEntity
  8
0
100
AcDbSpline
 62
7
  6
BYLAYER
 70
0
 71
3
 72
9
 73
5
 74
0
 42
0.0000001
 43
0.0000001
 44
0.0000000001
 40
0.0
 40
0.0
 40
0.0
 40
0.0
 40
0.209949023
 40
1.0
 40
1.0
 40
1.0
 40
1.0
 10
40.9460467604
 20
12.1397501746
 30
0.0
 10
40.9455745745
 20
12.1397916505
 30
0.0
 10
40.9433515339
 20
12.1404329712
 30
0.0
 10
40.9418761184
 20
12.1424475904
 30
0.0
 10
40.9409716984
 20
12.1439850012
 30
0.0
  0
SPLINE
  5
4EE
100
AcDbEntity
  8
0
100
AcDbSpline
 62
7
  6
BYLAYER
 70
0
 71
3
 72
13
 73
9
 74
0
 42
0.0000001
 43
0.0000001
 44
0.0000000001
 40
0.0
 40
0.0
 40
0.0
 40
0.0
 40
0.0952732777
 40
0.1819041116
 40
0.2964111262
 40
0.4375625379
 40
0.6035032781
 40
1.0
 40
1.0
 40
1.0
 40
1.0
 10
28.310860665
 20
14.4417996784
 30
0.0
 10
28.3148195345
 20
14.4444630821
 30
0.0
 10
28.3142282681
 20
14.4563008043
 30
0.0
 10
28.3099230075
 20
14.4695238903
 30
0.0
 10
28.3033202366
 20
14.485724593
 30
0.0
 10
28.2941358459
 20
14.5046097606
 30
0.0
 10
28.2777486169
 20
14.5358682228
 30
0.0
 10
28.2639324113
 20
14.5603926783
 30
0.0
 10
28.2541592463
 20
14.5776781874
 30
0.0
  0
SPLINE
  5
4EF
100
AcDbEntity
  8
0
100
AcDbSpline
 62
7
  6
BYLAYER
 70
0
 71
3
 72
9
 73
5
 74
0
 42
0.0000001
 43
0.0000001
 44
0.0000000001
 40
0.0
 40
0.0
 40
0.0
 40
0.0
 40
0.2276298742
 40
1.0
 40
1.0
 40
1.0
 40
1.0
 10
28.2541592463
 20
14.5776781874
 30
0.0
 10
28.2482780808
 20
14.5880800316
 30
0.0
 10
28.2223300366
 20
14.6337127059
 30
0.0
 10
28.1964634283
 20
14.6793956337
 30
0.0
 10
28.1769678426
 20
14.7149461272
 30
0.0
  0
SPLINE
  5
4F0
100
AcDbEntity
  8
0
100
AcDbSpline
 62
7
  6
BYLAYER
 70
0
 71
3
 72
11
 73
7
 74
0
 42
0.0000001
 43
0.0000001
 44
0.0000000001
 40
0.0
 40
0.0
 40
0.0
 40
0.0
 40
0.2317685293
 40
0.4834200124
 40
0.7409448213
 40
1.0
 40
1.0
 40
1.0
 40
1.0
 10
28.1769678426
 20
14.7149461272
 30
0.0
 10
28.1221394539
 20
14.8149265179
 30
0.0
 10
28.0157661593
 20
15.0281086216
 30
0.0
 10
27.8915934703
 20
15.3719129394
 30
0.0
 10
27.8111095305
 20
15.7423771834
 30
0.0
 10
27.7927276847
 20
15.9969043203
 30
0.0
 10
27.7927223352
 20
16.1243563474
 30
0.0
  0
SPLINE
  5
4F1
100
AcDbEntity
  8
00_COMPONENTS_1
100
AcDbSpline
 62
7
  6
BYLAYER
 70
0
 71
3
 72
13
 73
9
 74
0
 42
0.0000001
 43
0.0000001
 44
0.0000000001
 40
0.0
 40
0.0
 40
0.0
 40
0.0
 40
0.2514377003
 40
0.3759344879
 40
0.5
 40
0.6240655121
 40
0.7485622997
 40
1.0
 40
1.0
 40
1.0
 40
1.0
 10
29.9722094545
 20
45.0402633157
 30
0.0
 10
30.8040484744
 20
44.7803471334
 30
0.0
 10
32.0740920685
 20
44.4651522249
 30
0.0
 10
33.7948785947
 20
44.2465569028
 30
0.0
 10
35.086857288
 20
44.1911526878
 30
0.0
 10
36.3788359814
 20
44.2465569028
 30
0.0
 10
38.0996225076
 20
44.4651522249
 30
0.0
 10
39.3696661017
 20
44.7803471334
 30
0.0
 10
40.2015051216
 20
45.0402633157
 30
0.0
  0
SPLINE
  5
4F2
100
AcDbEntity
  8
00_COMPONENTS_1
100
AcDbSpline
 62
7
  6
BYLAYER
 70
0
 71
3
 72
11
 73
7
 74
0
 42
0.0000001
 43
0.0000001
 44
0.0000000001
 40
0.0
 40
0.0
 40
0.0
 40
0.0
 40
0.250002409
 40
0.5000015229
 40
0.7500018388
 40
1.0
 40
1.0
 40
1.0
 40
1.0
 10
40.2015051216
 20
45.0402633157
 30
0.0
 10
40.7950671807
 20
44.9091203001
 30
0.0
 10
41.9881978256
 20
44.6730062644
 30
0.0
 10
43.7935167409
 20
44.4094084138
 30
0.0
 10
45.6107960389
 20
44.2464342258
 30
0.0
 10
46.8268428147
 20
44.2095868764
 30
0.0
 10
47.4347094545
 20
44.2095868764
 30
0.0
  0
SPLINE
  5
4F3
100
AcDbEntity
  8
00_COMPONENTS_1
100
AcDbSpline
 62
7
  6
BYLAYER
 70
0
 71
3
 72
10
 73
6
 74
0
 42
0.0000001
 43
0.0000001
 44
0.0000000001
 40
0.0
 40
0.0
 40
0.0
 40
0.0
 40
0.2500381947
 40
0.5000769298
 40
1.0
 40
1.0
 40
1.0
 40
1.0
 10
47.4347094545
 20
44.2095868764
 30
0.0
 10
48.0425780873
 20
44.2095868764
 30
0.0
 10
49.2586624988
 20
44.246523997
 30
0.0
 10
51.6810994693
 20
44.4633994604
 30
0.0
 10
53.4811699051
 20
44.7780612947
 30
0.0
 10
54.6679137875
 20
45.0402633157
 30
0.0
  0
SPLINE
  5
4F4
100
AcDbEntity
  8
00_COMPONENTS_1
100
AcDbSpline
 62
7
  6
BYLAYER
 70
0
 71
3
 72
13
 73
9
 74
0
 42
0.0000001
 43
0.0000001
 44
0.0000000001
 40
0.0
 40
0.0
 40
0.0
 40
0.0
 40
0.2514377003
 40
0.3759344879
 40
0.5
 40
0.6240655121
 40
0.7485622997
 40
1.0
 40
1.0
 40
1.0
 40
1.0
 10
54.6679137875
 20
45.0402633157
 30
0.0
 10
55.4997528074
 20
44.7803471334
 30
0.0
 10
56.7697964014
 20
44.4651522249
 30
0.0
 10
58.4905829276
 20
44.2465569028
 30
0.0
 10
59.782561621
 20
44.1911526878
 30
0.0
 10
61.0745403144
 20
44.2465569028
 30
0.0
 10
62.7953268406
 20
44.4651522249
 30
0.0
 10
64.0653704346
 20
44.7803471334
 30
0.0
 10
64.8972094545
 20
45.0402633157
 30
0.0
  0
LINE
  5
4F5
100
AcDbEntity
  8
00_COMPONENTS_1
100
AcDbLine
 62
7
  6
BYLAYER
 10
47.4347094545
 20
12.4647838275
 11
35.2068235774
 21
12.4647858465
  0
SPLINE
  5
4F6
100
AcDbEntity
  8
00_COMPONENTS_1
100
AcDbSpline
 62
7
  6
BYLAYER
 70
0
 71
3
 72
19
 73
15
 74
0
 42
0.0000001
 43
0.0000001
 44
0.0000000001
 40
0.0
 40
0.0
 40
0.0
 40
0.0
 40
0.1234719724
 40
0.2452049587
 40
0.355222752
 40
0.447832618
 40
0.5178156845
 40
0.5606383769
 40
0.5797373185
 40
0.6143156661
 40
0.6771924815
 40
0.7648484926
 40
0.8737993361
 40
1.0
 40
1.0
 40
1.0
 40
1.0
 10
37.3228784974
 20
12.5089562221
 30
0.0
 10
37.2170887397
 20
12.5256409147
 30
0.0
 10
37.0076881688
 20
12.5626126428
 30
0.0
 10
36.7057773835
 20
12.6264923906
 30
0.0
 10
36.4346836267
 20
12.6973779506
 30
0.0
 10
36.2042054078
 20
12.7640534203
 30
0.0
 10
36.0493089
 20
12.8382561133
 30
0.0
 10
35.9289167006
 20
12.8799916614
 30
0.0
 10
35.915307874
 20
12.9814084439
 30
0.0
 10
36.0460812225
 20
12.9948938619
 30
0.0
 10
36.1889577093
 20
13.0090235829
 30
0.0
 10
36.4219592302
 20
12.9977266277
 30
0.0
 10
36.6977867578
 20
12.9721324205
 30
0.0
 10
36.9006228857
 20
12.9433935331
 30
0.0
 10
37.0087680416
 20
12.9264513056
 30
0.0
  0
SPLINE
  5
4F7
100
AcDbEntity
  8
00_COMPONENTS_1
100
AcDbSpline
 62
7
  6
BYLAYER
 70
0
 71
3
 72
14
 73
10
 74
0
 42
0.0000001
 43
0.0000001
 44
0.0000000001
 40
0.0
 40
0.0
 40
0.0
 40
0.0
 40
0.2185537675
 40
0.43353579
 40
0.6247252796
 40
0.7836706337
 40
0.898563834
 40
0.9671253726
 40
1.0
 40
1.0
 40
1.0
 40
1.0
 10
40.9735104961
 20
12.4377288079
 30
0.0
 10
41.0818950869
 20
12.4281502485
 30
0.0
 10
41.2964256589
 20
12.4047657865
 30
0.0
 10
41.6046294518
 20
12.3594836512
 30
0.0
 10
41.8794898185
 20
12.3047352824
 30
0.0
 10
42.1080903595
 20
12.2510067572
 30
0.0
 10
42.259959369
 20
12.1869893157
 30
0.0
 10
42.3723399708
 20
12.1486929582
 30
0.0
 10
42.379615764
 20
12.0832920682
 30
0.0
 10
42.3681206892
 20
12.0716417426
 30
0.0
  0
SPLINE
  5
4F8
100
AcDbEntity
  8
00_COMPONENTS_1
100
AcDbSpline
 62
7
  6
BYLAYER
 70
0
 71
3
 72
10
 73
6
 74
0
 42
0.0000001
 43
0.0000001
 44
0.0000000001
 40
0.0
 40
0.0
 40
0.0
 40
0.0
 40
0.3769587403
 40
0.7077685941
 40
1.0
 40
1.0
 40
1.0
 40
1.0
 10
42.3681206892
 20
12.0716417426
 30
0.0
 10
42.3081493633
 20
12.0105331858
 30
0.0
 10
42.1902129956
 20
11.9008489661
 30
0.0
 10
42.0090939486
 20
11.763141126
 30
0.0
 10
41.8869858605
 20
11.6908341731
 30
0.0
 10
41.8278550805
 20
11.660679795
 30
0.0
  0
SPLINE
  5
4F9
100
AcDbEntity
  8
00_COMPONENTS_1
100
AcDbSpline
 62
7
  6
BYLAYER
 70
0
 71
3
 72
19
 73
15
 74
0
 42
0.0000001
 43
0.0000001
 44
0.0000000001
 40
0.0
 40
0.0
 40
0.0
 40
0.0
 40
0.0375044194
 40
0.106641351
 40
0.20030546
 40
0.309903569
 40
0.427027927
 40
0.5507211897
 40
0.6703806934
 40
0.7807914446
 40
0.8769144351
 40
0.9485778315
 40
0.988456706
 40
1.0
 40
1.0
 40
1.0
 40
1.0
 10
41.8278550805
 20
11.660679795
 30
0.0
 10
41.7991353009
 20
11.6473103877
 30
0.0
 10
41.7065407428
 20
11.6406889231
 30
0.0
 10
41.539124042
 20
11.6368911446
 30
0.0
 10
41.3083577599
 20
11.6469948659
 30
0.0
 10
41.0386670963
 20
11.6658202383
 30
0.0
 10
40.7438460809
 20
11.6936979532
 30
0.0
 10
40.4415266184
 20
11.7288810504
 30
0.0
 10
40.1448740891
 20
11.7682885964
 30
0.0
 10
39.8746111301
 20
11.8152705104
 30
0.0
 10
39.638412469
 20
11.849646786
 30
0.0
 10
39.4805621628
 20
11.9143284345
 30
0.0
 10
39.3608205037
 20
11.9093266703
 30
0.0
 10
39.3442630889
 20
11.9718198882
 30
0.0
 10
39.3529412532
 20
11.9762649863
 30
0.0
  0
SPLINE
  5
4FA
100
AcDbEntity
  8
00_COMPONENTS_1
100
AcDbSpline
 62
7
  6
BYLAYER
 70
0
 71
3
 72
27
 73
23
 74
0
 42
0.0000001
 43
0.0000001
 44
0.0000000001
 40
0.0
 40
0.0
 40
0.0
 40
0.0
 40
0.0709842948
 40
0.1196669301
 40
0.1454680466
 40
0.146749989
 40
0.1690018045
 40
0.2105840258
 40
0.266065596
 40
0.3299496884
 40
0.3971047099
 40
0.4638660121
 40
0.528364873
 40
0.5896745947
 40
0.6475790732
 40
0.7021623597
 40
0.7538903715
 40
0.8033143338
 40
0.8513190088
 40
0.8994114534
 40
0.9478821827
 40
1.0
 40
1.0
 40
1.0
 40
1.0
 10
39.3917538892
 20
11.9968112594
 30
0.0
 10
39.1223868131
 20
11.9967298212
 30
0.0
 10
38.670914091
 20
11.9968369671
 30
0.0
 10
38.1113111238
 20
11.9968105879
 30
0.0
 10
37.8344925166
 20
11.9968084055
 30
0.0
 10
37.6357840527
 20
11.996813233
 30
0.0
 10
38.1879458294
 20
11.9968110521
 30
0.0
 10
38.4368692934
 20
11.9968147164
 30
0.0
 10
39.1335806834
 20
11.9967805344
 30
0.0
 10
39.812441231
 20
11.9968710957
 30
0.0
 10
40.571536599
 20
11.9967533017
 30
0.0
 10
41.3221857034
 20
11.9968680641
 30
0.0
 10
42.053524091
 20
11.9969017584
 30
0.0
 10
42.7505218149
 20
11.9969302307
 30
0.0
 10
43.4100743814
 20
11.996992239
 30
0.0
 10
44.033222095
 20
11.9970306015
 30
0.0
 10
44.6241993341
 20
11.9968049797
 30
0.0
 10
45.190209855
 20
11.9963806148
 30
0.0
 10
45.7424247015
 20
11.9973547746
 30
0.0
 10
46.2910224768
 20
11.9962700545
 30
0.0
 10
46.8552271176
 20
11.9969422118
 30
0.0
 10
47.2369385208
 20
11.995770325
 30
0.0
 10
47.4347094545
 20
11.9968112596
 30
0.0
  0
SPLINE
  5
4FB
100
AcDbEntity
  8
00_COMPONENTS_1
100
AcDbSpline
 62
7
  6
BYLAYER
 70
0
 71
3
 72
31
 73
27
 74
0
 42
0.0000001
 43
0.0000001
 44
0.0000000001
 40
0.0
 40
0.0
 40
0.0
 40
0.0
 40
0.0707164879
 40
0.1399952618
 40
0.2063824398
 40
0.268884097
 40
0.3260391244
 40
0.3765083568
 40
0.419227076
 40
0.453491417
 40
0.4786776159
 40
0.4942977545
 40
0.4999999997
 40
0.5045513246
 40
0.519455788
 40
0.5443305565
 40
0.5781982425
 40
0.6195066501
 40
0.6663787499
 40
0.7164922625
 40
0.7674669321
 40
0.8170330531
 40
0.8645918864
 40
0.9105599339
 40
0.9554514079
 40
1.0
 40
1.0
 40
1.0
 40
1.0
 10
47.4347094545
 20
14.0287222144
 30
0.0
 10
46.5781494147
 20
14.0286930476
 30
0.0
 10
44.8824343939
 20
14.0287356306
 30
0.0
 10
42.3826488187
 20
14.0287195308
 30
0.0
 10
39.9821845715
 20
14.0287244143
 30
0.0
 10
37.72918747
 20
14.0287243251
 30
0.0
 10
35.6669712549
 20
14.0287255389
 30
0.0
 10
33.8507183858
 20
14.0287263121
 30
0.0
 10
32.2930281294
 20
14.0287270803
 30
0.0
 10
31.0927324705
 20
14.028727653
 30
0.0
 10
30.0958288103
 20
14.0287283563
 30
0.0
 10
29.6931247859
 20
14.0287283537
 30
0.0
 10
29.1655994708
 20
14.0287287211
 30
0.0
 10
29.6339169198
 20
14.028720552
 30
0.0
 10
30.043261136
 20
14.0287163314
 30
0.0
 10
31.0082195419
 20
14.0287038278
 30
0.0
 10
32.1890438429
 20
14.0286914938
 30
0.0
 10
33.6786297956
 20
14.0286801505
 30
0.0
 10
35.3500619324
 20
14.0286762627
 30
0.0
 10
37.1433387935
 20
14.0287484048
 30
0.0
 10
38.9678501369
 20
14.0288736828
 30
0.0
 10
40.7617994162
 20
14.0285040098
 30
0.0
 10
42.4950067314
 20
14.0288399625
 30
0.0
 10
44.1716170679
 20
14.0289176699
 30
0.0
 10
45.8117589436
 20
14.0284693274
 30
0.0
 10
46.8951107552
 20
14.0292602559
 30
0.0
 10
47.4347094545
 20
14.0287222144
 30
0.0
  0
SPLINE
  5
4FC
100
AcDbEntity
  8
00_COMPONENTS_1
100
AcDbSpline
 62
7
  6
BYLAYER
 70
0
 71
3
 72
29
 73
25
 74
0
 42
0.0000001
 43
0.0000001
 44
0.0000000001
 40
0.0
 40
0.0
 40
0.0
 40
0.0
 40
0.0659248604
 40
0.1347992765
 40
0.2032190716
 40
0.267813576
 40
0.3263505865
 40
0.3775005273
 40
0.4205278471
 40
0.4548681338
 40
0.4799816062
 40
0.495165832
 40
0.5
 40
0.5054188761
 40
0.5207655343
 40
0.5457246251
 40
0.5798847915
 40
0.6225956536
 40
0.672971599
 40
0.7299784538
 40
0.7922824065
 40
0.8589641673
 40
0.9286960594
 40
1.0
 40
1.0
 40
1.0
 40
1.0
 10
47.4347094545
 20
14.0287222144
 30
0.0
 10
48.2332506524
 20
14.02770792
 30
0.0
 10
49.8660707231
 20
14.0292380258
 30
0.0
 10
52.327608473
 20
14.0286241256
 30
0.0
 10
54.77319813
 20
14.0287633403
 30
0.0
 10
57.0929984694
 20
14.0286703933
 30
0.0
 10
59.2054797455
 20
14.0286745301
 30
0.0
 10
61.0509476376
 20
14.0286801742
 30
0.0
 10
62.6201712093
 20
14.0286919473
 30
0.0
 10
63.828292608
 20
14.0287007219
 30
0.0
 10
64.8096801901
 20
14.028711831
 30
0.0
 10
65.2196818611
 20
14.0287155577
 30
0.0
 10
65.7040887092
 20
14.0287257553
 30
0.0
 10
65.1933083233
 20
14.0287271378
 30
0.0
 10
64.7907396713
 20
14.0287268712
 30
0.0
 10
63.8051993239
 20
14.0287270948
 30
0.0
 10
62.6075287426
 20
14.028726789
 30
0.0
 10
61.0527790622
 20
14.0287263529
 30
0.0
 10
59.2393242505
 20
14.0287257366
 30
0.0
 10
57.1824323012
 20
14.0287245056
 30
0.0
 10
54.9299801943
 20
14.0287253023
 30
0.0
 10
52.5227954168
 20
14.0287177085
 30
0.0
 10
50.0067709986
 20
14.0287438931
 30
0.0
 10
48.2984076058
 20
14.028674993
 30
0.0
 10
47.4347094545
 20
14.0287222144
 30
0.0
  0
LINE
  5
4FD
100
AcDbEntity
  8
00_COMPONENTS_1
100
AcDbLine
 62
7
  6
BYLAYER
 10
47.4347094545
 20
11.9968112596
 11
57.1162384016
 21
11.9968127738
  0
SPLINE
  5
4FE
100
AcDbEntity
  8
00_COMPONENTS_1
100
AcDbSpline
 62
7
  6
BYLAYER
 70
0
 71
3
 72
19
 73
15
 74
0
 42
0.0000001
 43
0.0000001
 44
0.0000000001
 40
0.0
 40
0.0
 40
0.0
 40
0.0
 40
0.0804771829
 40
0.1278393764
 40
0.1484422456
 40
0.1729356707
 40
0.2249929568
 40
0.3035029786
 40
0.4057294563
 40
0.5246269938
 40
0.6533776921
 40
0.7801887642
 40
0.8977584922
 40
1.0
 40
1.0
 40
1.0
 40
1.0
 10
54.3231510316
 20
11.9968111891
 30
0.0
 10
54.2540348191
 20
11.9971893117
 30
0.0
 10
54.1413762076
 20
12.0060000531
 30
0.0
 10
54.0216767147
 20
12.0084765061
 30
0.0
 10
53.9364604198
 20
12.0673814113
 30
0.0
 10
54.0262110623
 20
12.1359132657
 30
0.0
 10
54.1373624277
 20
12.1747874603
 30
0.0
 10
54.3354618509
 20
12.237110976
 30
0.0
 10
54.5838180218
 20
12.2929422016
 30
0.0
 10
54.8800841212
 20
12.3489764474
 30
0.0
 10
55.1979018025
 20
12.3967001064
 30
0.0
 10
55.5163365522
 20
12.4338890329
 30
0.0
 10
55.8131076462
 20
12.4578981288
 30
0.0
 10
56.0018870239
 20
12.4645985421
 30
0.0
 10
56.0896962084
 20
12.4647837882
 30
0.0
  0
SPLINE
  5
4FF
100
AcDbEntity
  8
00_COMPONENTS_1
100
AcDbSpline
 62
7
  6
BYLAYER
 70
0
 71
3
 72
25
 73
21
 74
0
 42
0.0000001
 43
0.0000001
 44
0.0000000001
 40
0.0
 40
0.0
 40
0.0
 40
0.0
 40
0.0790840315
 40
0.1428922993
 40
0.1891325944
 40
0.217112681
 40
0.2265328151
 40
0.2362124918
 40
0.2658189988
 40
0.3144296163
 40
0.378611089
 40
0.4531806939
 40
0.5332006893
 40
0.6142855166
 40
0.6925179164
 40
0.7644315497
 40
0.8304471824
 40
0.8910277295
 40
0.9470196857
 40
1.0
 40
1.0
 40
1.0
 40
1.0
 10
56.0896962084
 20
12.4647837882
 30
0.0
 10
56.5068524331
 20
12.4646792797
 30
0.0
 10
57.2687555373
 20
12.46482475
 30
0.0
 10
58.2381443998
 20
12.4647796306
 30
0.0
 10
59.0303420447
 20
12.4647882256
 30
0.0
 10
59.3579286082
 20
12.4647872175
 30
0.0
 10
59.7555036122
 20
12.4647878063
 30
0.0
 10
59.3403349276
 20
12.4647835229
 30
0.0
 10
59.0005112111
 20
12.4647777706
 30
0.0
 10
58.180648488
 20
12.4647681639
 30
0.0
 10
57.2204073045
 20
12.464757777
 30
0.0
 10
56.0568796211
 20
12.4647500721
 30
0.0
 10
54.8166082733
 20
12.4647150532
 30
0.0
 10
53.5533476538
 20
12.4649583044
 30
0.0
 10
52.3338430187
 20
12.4645621205
 30
0.0
 10
51.1935743801
 20
12.4645702687
 30
0.0
 10
50.1464768585
 20
12.4650153806
 30
0.0
 10
49.1833494885
 20
12.465076069
 30
0.0
 10
48.2889848353
 20
12.4648999792
 30
0.0
 10
47.7141725497
 20
12.4648409113
 30
0.0
 10
47.4347094545
 20
12.4647906216
 30
0.0
  0
ELLIPSE
  5
500
100
AcDbEntity
  8
0
100
AcDbEllipse
 62
7
  6
BYLAYER
 10
47.4347094545
 20
86.10995211
 30
0.0
 11
-0.0
 21
4.445
 31
0.0
 40
1.0
 41
-1.4713298073
 42
1.4713298073
  0
ENDSEC
  0
SECTION
  2
OBJECTS
  0
DICTIONARY
  5
C
100
AcDbDictionary
280
0
281
1
  3
ACAD_GROUP
350
D
  3
ACAD_MLINESTYLE
350
17
  3
ACAD_LAYOUT
350
1A
  3
ACAD_PLOTSETTINGS
350
19
  3
ACAD_PLOTSTYLENAME
350
E
  0
DICTIONARY
  5
D
102
{ACAD_REACTORS
330
C
102
}
100
AcDbDictionary
280
0
281
1
  0
ACDBDICTIONARYWDFLT
  5
E
102
{ACAD_REACTORS
330
C
102
}
100
AcDbDictionary
281
1
  3
Normal
350
F
100
AcDbDictionaryWithDefault
340
F
  0
DICTIONARY
  5
17
102
{ACAD_REACTORS
330
C
102
}
100
AcDbDictionary
280
0
281
1
  3
Standard
350
18
  0
DICTIONARY
  5
19
102
{ACAD_REACTORS
330
C
102
}
100
AcDbDictionary
281
1
  0
DICTIONARY
  5
1A
102
{ACAD_REACTORS
330
C
102
}
100
AcDbDictionary
281
1
  3
Model
350
501
  3
Layout1
350
502
  0
ACDBPLACEHOLDER
  5
F
102
{ACAD_REACTORS
330
E
102
}
  0
MLINESTYLE
  5
18
102
{ACAD_REACTORS
330
17
102
}
100
AcDbMlineStyle
  2
STANDARD
 70
0
  3

 62
256
 51
90.0
 52
90.0
 71
2
 49
0.5
 62
256
  6
BYLAYER
 49
-0.5
 62
256
  6
BYLAYER
  0
LAYOUT
  5
501
102
{ACAD_REACTORS
330
1A
102
}
100
AcDbPlotSettings
  1

  2
none_device
  4

  6

 40
0.0
 41
0.0
 42
0.0
 43
0.0
 44
210.0
 45
297.0
 46
0.0
 47
0.0
 48
0.0
 49
0.0
140
0.0
141
0.0
142
1.0
143
1.0
 70
1024
 72
1
 73
0
 74
0
  7

 75
0
147
1.0
148
0.0
149
0.0
100
AcDbLayout
  1
Model
 70
0
 71
0
 10
0.0
 20
0.0
 11
210.0
 21
297.0
 12
0.0
 22
0.0
 32
0.0
 14
0.0
 24
0.0
 34
0.0
 15
0.0
 25
0.0
 35
0.0
146
0.0
 13
0.0
 23
0.0
 33
0.0
 16
1.0
 26
0.0
 36
0.0
 17
0.0
 27
1.0
 37
0.0
 76
0
330
21F
345
0
346
0
  0
LAYOUT
  5
502
102
{ACAD_REACTORS
330
1A
102
}
100
AcDbPlotSettings
  1

  2
none_device
  4

  6

 40
0.0
 41
0.0
 42
0.0
 43
0.0
 44
210.0
 45
297.0
 46
0.0
 47
0.0
 48
0.0
 49
0.0
140
0.0
141
0.0
142
1.0
143
1.0
 70
0
 72
1
 73
0
 74
0
  7

 75
0
147
1.0
148
0.0
149
0.0
100
AcDbLayout
  1
Layout1
 70
0
 71
1
 10
0.0
 20
0.0
 11
210.0
 21
297.0
 12
0.0
 22
0.0
 32
0.0
 14
0.0
 24
0.0
 34
0.0
 15
0.0
 25
0.0
 35
0.0
146
0.0
 13
0.0
 23
0.0
 33
0.0
 16
1.0
 26
0.0
 36
0.0
 17
0.0
 27
1.0
 37
0.0
 76
0
330
220
345
0
346
0
  0
ENDSEC
  0
EOF
