999
DXF file: C:\Users\sesa63760\Dev\_Creo\CAD\MCADID0005630_3D-CAD\mcadid0005630_3d-simplified_6.dxf
999
Pro/ENGINEER 2019471 by Parametric Technology Corporation
  0
SECTION
  2
HEADER
  9
$ACADVER
  1
AC1024
  9
$DWGCODEPAGE
  3
ANSI_1252
  9
$EXTMAX
 10
71.4186961633
 20
101.0064417166
 30
0.0
  9
$EXTMIN
 10
0.0
 20
0.0
 30
0.0
  9
$LIMMIN
 10
0.0
 20
0.0
  9
$LIMMAX
 10
71.4186961633
 20
101.0064417166
  9
$VIEWCTR
 10
35.7093480816
 20
50.5032208583
  9
$VIEWSIZE
 40
101.0064417166
  9
$CLAYER
  8
0
  9
$LTSCALE
 40
6.5841236082
  9
$CELTYPE
  6
BYLAYER
  9
$DIMSCALE
 40
1.0
  9
$DIMASZ
 40
0.8502225734
  9
$DIMEXO
 40
1.0
  9
$DIMDLI
 40
4.5490308566
  9
$DIMEXE
 40
1.0
  9
$DIMCEN
 40
1.077402045
  9
$DIMLFAC
 40
1.0
  9
$DIMBLK
  1
_FILLED
  9
$DIMALT
 70
0
  9
$DIMALTF
 40
0.0393700787
  9
$DIMTXT
 40
1.1903116027
  9
$DIMTOL
 70
1
  9
$DIMLIM
 70
0
  9
$DIMTFAC
 40
1.0
  9
$DIMTP
 40
0.01
  9
$DIMTM
 40
0.01
  9
$DIMGAP
 40
0.625
  9
$DIMDSEP
 70
46
  9
$AUNITS
 70
0
  9
$PDMODE
 70
3
  9
$PDSIZE
 40
0.3125
  9
$HANDSEED
  5
523
  9
$TILEMODE
 70
1
  9
$MEASUREMENT
 70
1
  9
$INSUNITS
 70
4
  0
ENDSEC
  0
SECTION
  2
CLASSES
  0
CLASS
  1
ACDBDICTIONARYWDFLT
  2
AcDbDictionaryWithDefault
  3
AutoCAD 2000
 90
0
 91
1
280
0
281
0
  0
CLASS
  1
ACDBPLACEHOLDER
  2
AcDbPlaceHolder
  3
AutoCAD 2000
 90
0
 91
1
280
0
281
0
  0
CLASS
  1
LAYOUT
  2
AcDbLayout
  3
AutoCAD 2000
 90
0
 91
0
280
0
281
0
  0
ENDSEC
  0
SECTION
  2
TABLES
  0
TABLE
  2
VPORT
  5
8
100
AcDbSymbolTable
 70
2
  0
VPORT
  5
1F4
100
AcDbSymbolTableRecord
100
AcDbViewportTableRecord
  2
*ACTIVE
 70
0
 10
0.0
 20
0.0
 11
1.0
 21
1.0
 12
35.7093480816
 22
50.5032208583
 13
0.0
 23
0.0
 14
1.0
 24
1.0
 15
0.0
 25
0.0
 16
0.0
 26
0.0
 36
1.0
 17
0.0
 27
0.0
 37
0.0
 40
101.0064417166
 41
0.7070707071
 42
50.0
 43
0.0
 44
0.0
 50
0.0
 51
0.0
 71
0
 72
100
 73
1
 74
1
 75
0
 76
0
 77
0
 78
0
  0
ENDTAB
  0
TABLE
  2
LTYPE
  5
5
100
AcDbSymbolTable
 70
6
  0
LTYPE
  5
14
100
AcDbSymbolTableRecord
100
AcDbLinetypeTableRecord
  2
BYBLOCK
 70
0
  3

 72
65
 73
0
 40
0.0
  0
LTYPE
  5
15
100
AcDbSymbolTableRecord
100
AcDbLinetypeTableRecord
  2
BYLAYER
 70
0
  3

 72
65
 73
0
 40
0.0
  0
LTYPE
  5
16
100
AcDbSymbolTableRecord
100
AcDbLinetypeTableRecord
  2
CONTINUOUS
 70
64
  3
Solid line
 72
65
 73
0
 40
0.0
  0
LTYPE
  5
1F5
100
AcDbSymbolTableRecord
100
AcDbLinetypeTableRecord
  2
CENTER
 70
64
  3
____ _ ____ _ ____ _ ____ _ ____ _ ____ _ ____
 72
65
 73
4
 40
0.6
 49
0.375
 74
0
 49
-0.075
 74
0
 49
0.075
 74
0
 49
-0.075
 74
0
  0
LTYPE
  5
1F6
100
AcDbSymbolTableRecord
100
AcDbLinetypeTableRecord
  2
HIDDEN
 70
64
  3
- - - - - - - - - - - - - - - - - - - -
 72
65
 73
2
 40
0.2
 49
0.1
 74
0
 49
-0.1
 74
0
  0
LTYPE
  5
1F7
100
AcDbSymbolTableRecord
100
AcDbLinetypeTableRecord
  2
PHANTOM
 70
64
  3
_____ _ _ _____ _ _ _____ _ _ _____
 72
65
 73
6
 40
0.8
 49
0.45
 74
0
 49
-0.05
 74
0
 49
0.1
 74
0
 49
-0.05
 74
0
 49
0.1
 74
0
 49
-0.05
 74
0
  0
LTYPE
  5
1F8
100
AcDbSymbolTableRecord
100
AcDbLinetypeTableRecord
  2
DOT
 70
64
  3
. . . . . . . . . . . . . . . . . . . .
 72
65
 73
2
 40
0.2
 49
0.1
 74
0
 49
-0.1
 74
0
  0
LTYPE
  5
1F9
100
AcDbSymbolTableRecord
100
AcDbLinetypeTableRecord
  2
DASHED
 70
64
  3
- - - - - - - - - - - - - - - - - - - -
 72
65
 73
2
 40
0.2
 49
0.1
 74
0
 49
-0.1
 74
0
  0
ENDTAB
  0
TABLE
  2
LAYER
  5
2
100
AcDbSymbolTable
 70
36
  0
LAYER
  5
10
100
AcDbSymbolTableRecord
100
AcDbLayerTableRecord
  2
0
 70
0
 62
7
  6
CONTINUOUS
370
-3
390
F
  0
LAYER
  5
1FA
100
AcDbSymbolTableRecord
100
AcDbLayerTableRecord
  2
DEFAULT_1
 70
0
 62
7
  6
CENTER
370
-3
390
F
  0
LAYER
  5
1FB
100
AcDbSymbolTableRecord
100
AcDbLayerTableRecord
  2
DEFAULT_2
 70
0
 62
7
  6
HIDDEN
370
-3
390
F
  0
LAYER
  5
1FC
100
AcDbSymbolTableRecord
100
AcDbLayerTableRecord
  2
DEFAULT_3
 70
0
 62
7
  6
PHANTOM
370
-3
390
F
  0
LAYER
  5
1FD
100
AcDbSymbolTableRecord
100
AcDbLayerTableRecord
  2
00_COMPONENTS
 70
0
 62
7
  6
CONTINUOUS
370
-3
390
F
  0
LAYER
  5
1FE
100
AcDbSymbolTableRecord
100
AcDbLayerTableRecord
  2
00_COMPONENTS_1
 70
0
 62
7
  6
CONTINUOUS
370
-3
390
F
  0
LAYER
  5
1FF
100
AcDbSymbolTableRecord
100
AcDbLayerTableRecord
  2
00_COMPONENTS_2
 70
0
 62
7
  6
CONTINUOUS
370
-3
390
F
  0
LAYER
  5
200
100
AcDbSymbolTableRecord
100
AcDbLayerTableRecord
  2
00_COMPONENTS_3
 70
0
 62
7
  6
CONTINUOUS
370
-3
390
F
  0
LAYER
  5
201
100
AcDbSymbolTableRecord
100
AcDbLayerTableRecord
  2
00_COMPONENTS_4
 70
0
 62
7
  6
CONTINUOUS
370
-3
390
F
  0
LAYER
  5
202
100
AcDbSymbolTableRecord
100
AcDbLayerTableRecord
  2
00_COMPONENTS_5
 70
0
 62
7
  6
CONTINUOUS
370
-3
390
F
  0
LAYER
  5
203
100
AcDbSymbolTableRecord
100
AcDbLayerTableRecord
  2
00_COMPONENTS_6
 70
0
 62
7
  6
CONTINUOUS
370
-3
390
F
  0
LAYER
  5
204
100
AcDbSymbolTableRecord
100
AcDbLayerTableRecord
  2
00_COMPONENTS_7
 70
0
 62
7
  6
CONTINUOUS
370
-3
390
F
  0
LAYER
  5
205
100
AcDbSymbolTableRecord
100
AcDbLayerTableRecord
  2
01_1_DEFAULT_DATUMS
 70
0
 62
7
  6
CONTINUOUS
370
-3
390
F
  0
LAYER
  5
206
100
AcDbSymbolTableRecord
100
AcDbLayerTableRecord
  2
01_PLANES
 70
0
 62
7
  6
CONTINUOUS
370
-3
390
F
  0
LAYER
  5
207
100
AcDbSymbolTableRecord
100
AcDbLayerTableRecord
  2
02_COORD_SYS
 70
0
 62
7
  6
CONTINUOUS
370
-3
390
F
  0
LAYER
  5
208
100
AcDbSymbolTableRecord
100
AcDbLayerTableRecord
  2
03_AXES
 70
0
 62
7
  6
CONTINUOUS
370
-3
390
F
  0
LAYER
  5
209
100
AcDbSymbolTableRecord
100
AcDbLayerTableRecord
  2
03_AXES_1
 70
0
 62
7
  6
CONTINUOUS
370
-3
390
F
  0
LAYER
  5
20A
100
AcDbSymbolTableRecord
100
AcDbLayerTableRecord
  2
03_AXES_6
 70
0
 62
7
  6
CONTINUOUS
370
-3
390
F
  0
LAYER
  5
20B
100
AcDbSymbolTableRecord
100
AcDbLayerTableRecord
  2
04_POINTS
 70
0
 62
7
  6
CONTINUOUS
370
-3
390
F
  0
LAYER
  5
20C
100
AcDbSymbolTableRecord
100
AcDbLayerTableRecord
  2
05_CURVES
 70
0
 62
7
  6
CONTINUOUS
370
-3
390
F
  0
LAYER
  5
20D
100
AcDbSymbolTableRecord
100
AcDbLayerTableRecord
  2
06_SURFS
 70
0
 62
7
  6
CONTINUOUS
370
-3
390
F
  0
LAYER
  5
20E
100
AcDbSymbolTableRecord
100
AcDbLayerTableRecord
  2
07_COSMETICS
 70
0
 62
7
  6
CONTINUOUS
370
-3
390
F
  0
LAYER
  5
20F
100
AcDbSymbolTableRecord
100
AcDbLayerTableRecord
  2
10_NOTES
 70
0
 62
7
  6
CONTINUOUS
370
-3
390
F
  0
LAYER
  5
210
100
AcDbSymbolTableRecord
100
AcDbLayerTableRecord
  2
11_NOTES_PUB
 70
0
 62
7
  6
CONTINUOUS
370
-3
390
F
  0
LAYER
  5
211
100
AcDbSymbolTableRecord
100
AcDbLayerTableRecord
  2
13_REF_GTOL
 70
0
 62
7
  6
CONTINUOUS
370
-3
390
F
  0
LAYER
  5
212
100
AcDbSymbolTableRecord
100
AcDbLayerTableRecord
  2
13_REF_GTOL_7
 70
0
 62
7
  6
CONTINUOUS
370
-3
390
F
  0
LAYER
  5
213
100
AcDbSymbolTableRecord
100
AcDbLayerTableRecord
  2
16_MISC
 70
0
 62
7
  6
CONTINUOUS
370
-3
390
F
  0
LAYER
  5
214
100
AcDbSymbolTableRecord
100
AcDbLayerTableRecord
  2
17_NO_PRINT
 70
0
 62
7
  6
CONTINUOUS
370
-3
390
F
  0
LAYER
  5
215
100
AcDbSymbolTableRecord
100
AcDbLayerTableRecord
  2
18_DATUM_CAMS_JOINTS
 70
0
 62
7
  6
CONTINUOUS
370
-3
390
F
  0
LAYER
  5
216
100
AcDbSymbolTableRecord
100
AcDbLayerTableRecord
  2
19_DATUM_FUNCTIONAL
 70
0
 62
7
  6
CONTINUOUS
370
-3
390
F
  0
LAYER
  5
217
100
AcDbSymbolTableRecord
100
AcDbLayerTableRecord
  2
20_DATUM_KINEMATIC_SCHEME
 70
0
 62
7
  6
CONTINUOUS
370
-3
390
F
  0
LAYER
  5
218
100
AcDbSymbolTableRecord
100
AcDbLayerTableRecord
  2
INTFCLR_113966
 70
0
 62
7
  6
CONTINUOUS
370
-3
390
F
  0
LAYER
  5
219
100
AcDbSymbolTableRecord
100
AcDbLayerTableRecord
  2
INTF_BLANK
 70
0
 62
7
  6
CONTINUOUS
370
-3
390
F
  0
LAYER
  5
21A
100
AcDbSymbolTableRecord
100
AcDbLayerTableRecord
  2
SHELL1
 70
0
 62
7
  6
CONTINUOUS
370
-3
390
F
  0
LAYER
  5
21B
100
AcDbSymbolTableRecord
100
AcDbLayerTableRecord
  2
SHELL2
 70
0
 62
7
  6
CONTINUOUS
370
-3
390
F
  0
LAYER
  5
21C
100
AcDbSymbolTableRecord
100
AcDbLayerTableRecord
  2
SHELL980
 70
0
 62
7
  6
CONTINUOUS
370
-3
390
F
  0
LAYER
  5
21D
100
AcDbSymbolTableRecord
100
AcDbLayerTableRecord
  2
_BLACK_HOLE
 70
0
 62
7
  6
CONTINUOUS
370
-3
390
F
  0
LAYER
  5
21E
100
AcDbSymbolTableRecord
100
AcDbLayerTableRecord
  2
black
 70
0
 62
7
  6
CONTINUOUS
370
-3
390
F
  0
ENDTAB
  0
TABLE
  2
STYLE
  5
3
100
AcDbSymbolTable
 70
1
  0
STYLE
  5
11
100
AcDbSymbolTableRecord
100
AcDbTextStyleTableRecord
  2
STANDARD
 70
0
 40
0.0
 41
1.0
 50
0.0
 71
0
 42
0.2
  3
ARIAL.TTF
  4

  0
STYLE
  5
21F
100
AcDbSymbolTableRecord
100
AcDbTextStyleTableRecord
  2
TEXTSTYLE_1
 70
0
 40
0.0
 41
0.8
 50
0.0
 71
0
 42
0.2
  3
gdt
  4

  0
ENDTAB
  0
TABLE
  2
VIEW
  5
6
100
AcDbSymbolTable
 70
0
  0
ENDTAB
  0
TABLE
  2
UCS
  5
7
100
AcDbSymbolTable
 70
0
  0
ENDTAB
  0
TABLE
  2
APPID
  5
9
100
AcDbSymbolTable
 70
1
  0
APPID
  5
220
100
AcDbSymbolTableRecord
100
AcDbRegAppTableRecord
  2
ACAD
 70
0
  0
ENDTAB
  0
TABLE
  2
BLOCK_RECORD
  5
1
100
AcDbSymbolTable
 70
0
  0
BLOCK_RECORD
  5
221
100
AcDbSymbolTableRecord
100
AcDbBlockTableRecord
  2
*Model_Space
  0
BLOCK_RECORD
  5
222
100
AcDbSymbolTableRecord
100
AcDbBlockTableRecord
  2
*Paper_Space
  0
BLOCK_RECORD
  5
223
100
AcDbSymbolTableRecord
100
AcDbBlockTableRecord
  2
_FILLED
  0
ENDTAB
  0
TABLE
  2
DIMSTYLE
  5
A
100
AcDbSymbolTable
 70
1
100
AcDbDimStyleTable
 71
0
  0
DIMSTYLE
105
224
100
AcDbSymbolTableRecord
100
AcDbDimStyleTableRecord
  2
STANDARD
 70
0
  3

  4

 40
1.0
 41
0.8502225734
 42
1.0
 43
0.38
 44
1.0
 45
0.0
 46
0.0
 47
0.01
 48
0.01
140
1.1903116027
141
0.09
142
0.0
143
25.4
144
1.0
145
0.0
146
1.0
147
0.625
 71
1
 72
0
 73
0
 74
0
 75
0
 76
0
 77
1
 78
8
 79
2
170
0
171
1
172
0
173
0
174
0
175
0
176
0
177
0
178
0
270
2
179
2
271
2
272
2
273
2
274
2
275
0
280
0
281
0
282
0
283
1
284
8
285
0
286
0
287
3
288
0
340
11
278
46
341
223
342
223
343
223
344
223
  0
ENDTAB
  0
ENDSEC
  0
SECTION
  2
BLOCKS
  0
BLOCK
  5
20
100
AcDbEntity
  8
0
100
AcDbBlockBegin
  2
*Model_Space
 70
0
 10
0.0
 20
0.0
 30
0.0
  3
*Model_Space
  1

  0
ENDBLK
  5
21
100
AcDbEntity
  8
0
100
AcDbBlockEnd
  0
BLOCK
  5
1C
100
AcDbEntity
  8
0
100
AcDbBlockBegin
  2
*Paper_Space
 70
0
 10
0.0
 20
0.0
 30
0.0
  3
*Paper_Space
  1

  0
ENDBLK
  5
1D
100
AcDbEntity
  8
0
100
AcDbBlockEnd
  0
BLOCK
  5
225
100
AcDbEntity
  8
0
100
AcDbBlockBegin
  2
_FILLED
 70
64
 10
0.0
 20
0.0
  3
_FILLED
  1

  0
SOLID
  5
226
100
AcDbEntity
  8
0
  6
BYBLOCK
 62
0
100
AcDbTrace
 10
0.0
 20
0.0
 11
-1.0
 21
0.25
 12
-1.0
 22
-0.25
 13
-1.0
 23
-0.25
  0
ENDBLK
  5
227
100
AcDbEntity
  8
0
  6
BYBLOCK
 62
0
100
AcDbBlockEnd
  0
ENDSEC
  0
SECTION
  2
ENTITIES
  0
LINE
  5
228
100
AcDbEntity
  8
00_COMPONENTS_2
100
AcDbLine
 62
7
  6
BYLAYER
 10
34.6030268584
 20
8.3450944489
 11
35.8398557523
 21
8.4044754439
  0
LINE
  5
229
100
AcDbEntity
  8
00_COMPONENTS_2
100
AcDbLine
 62
7
  6
BYLAYER
 10
36.3477690911
 20
8.4288607082
 11
39.395248754
 21
8.5751722761
  0
LINE
  5
22A
100
AcDbEntity
  8
00_COMPONENTS_2
100
AcDbLine
 62
7
  6
BYLAYER
 10
39.9031620928
 20
8.5995575403
 11
42.9506417557
 21
8.7458691082
  0
LINE
  5
22B
100
AcDbEntity
  8
00_COMPONENTS_2
100
AcDbLine
 62
7
  6
BYLAYER
 10
43.4585550945
 20
8.7702543725
 11
46.5723645725
 21
8.9197504799
  0
LINE
  5
22C
100
AcDbEntity
  8
00_COMPONENTS_2
100
AcDbLine
 62
7
  6
BYLAYER
 10
47.0802779113
 20
8.9441357441
 11
50.0790059701
 21
9.0881067144
  0
LINE
  5
22D
100
AcDbEntity
  8
00_COMPONENTS_2
100
AcDbLine
 62
7
  6
BYLAYER
 10
50.0719643544
 20
9.3285426369
 11
47.0802779113
 21
9.1849097394
  0
LINE
  5
22E
100
AcDbEntity
  8
00_COMPONENTS_2
100
AcDbLine
 62
7
  6
BYLAYER
 10
46.5723645725
 20
9.1605244751
 11
43.4585550945
 21
9.0110283678
  0
LINE
  5
22F
100
AcDbEntity
  8
00_COMPONENTS_2
100
AcDbLine
 62
7
  6
BYLAYER
 10
42.9506417557
 20
8.9866431035
 11
39.9031620928
 21
8.8403315356
  0
LINE
  5
230
100
AcDbEntity
  8
00_COMPONENTS_2
100
AcDbLine
 62
7
  6
BYLAYER
 10
39.395248754
 20
8.8159462713
 11
36.3477690911
 21
8.6696347034
  0
LINE
  5
231
100
AcDbEntity
  8
00_COMPONENTS_2
100
AcDbLine
 62
7
  6
BYLAYER
 10
35.8398557523
 20
8.6452494391
 11
34.5952139038
 21
8.5854933389
  0
LINE
  5
232
100
AcDbEntity
  8
0
100
AcDbLine
 62
7
  6
BYLAYER
 10
20.5069994928
 20
84.7873031248
 11
26.5776526307
 21
90.8579562627
  0
LINE
  5
233
100
AcDbEntity
  8
0
100
AcDbLine
 62
7
  6
BYLAYER
 10
25.2395944686
 20
87.7238468764
 11
22.7071622425
 21
85.1914146503
  0
LINE
  5
234
100
AcDbEntity
  8
0
100
AcDbLine
 62
7
  6
BYLAYER
 10
30.5783528418
 20
90.8579562627
 11
26.3419189621
 21
86.621522383
  0
LINE
  5
235
100
AcDbEntity
  8
0
100
AcDbLine
 62
7
  6
BYLAYER
 10
23.809486736
 20
84.0890901568
 11
22.5073495984
 21
82.7869530193
  0
LINE
  5
236
100
AcDbEntity
  8
0
100
AcDbLine
 62
7
  6
BYLAYER
 10
16.1964765547
 20
75.5196788079
 11
22.9855501822
 21
82.3087524354
  0
LINE
  5
237
100
AcDbEntity
  8
0
100
AcDbLine
 62
7
  6
BYLAYER
 10
21.3421633121
 20
78.8693143411
 11
18.8097310859
 21
76.3368821149
  0
LINE
  5
238
100
AcDbEntity
  8
0
100
AcDbLine
 62
7
  6
BYLAYER
 10
25.1857129319
 20
82.7128639609
 11
27.718145158
 21
85.245296187
  0
LINE
  5
239
100
AcDbEntity
  8
0
100
AcDbLine
 62
7
  6
BYLAYER
 10
26.5297108728
 20
82.7637050203
 11
25.9075404781
 21
82.1415346257
  0
LINE
  5
23A
100
AcDbEntity
  8
0
100
AcDbLine
 62
7
  6
BYLAYER
 10
26.2633436664
 20
81.6352332263
 11
28.7957758926
 21
84.1676654525
  0
LINE
  5
23B
100
AcDbEntity
  8
0
100
AcDbLine
 62
7
  6
BYLAYER
 10
24.9859002878
 20
80.3084023298
 11
22.4444878056
 21
77.7669898476
  0
LINE
  5
23C
100
AcDbEntity
  8
0
100
AcDbLine
 62
7
  6
BYLAYER
 10
19.9120555794
 20
75.2345576214
 11
17.4983266603
 21
72.8208287023
  0
LINE
  5
23D
100
AcDbEntity
  8
00_COMPONENTS_3
100
AcDbLine
 62
7
  6
BYLAYER
 10
23.7545025597
 20
19.6871562627
 11
50.2213025597
 21
19.6871562627
  0
LINE
  5
23E
100
AcDbEntity
  8
00_COMPONENTS_3
100
AcDbLine
 62
7
  6
BYLAYER
 10
22.9786348727
 20
20.4745562627
 11
22.9823917834
 21
20.4745562627
  0
LINE
  5
23F
100
AcDbEntity
  8
00_COMPONENTS_3
100
AcDbLine
 62
7
  6
BYLAYER
 10
23.0814969482
 20
20.4745562627
 11
23.0927390878
 21
20.4745562627
  0
LINE
  5
240
100
AcDbEntity
  8
00_COMPONENTS_3
100
AcDbLine
 62
7
  6
BYLAYER
 10
23.2901951673
 20
20.4745562627
 11
23.3088369763
 21
20.4745562627
  0
LINE
  5
241
100
AcDbEntity
  8
00_COMPONENTS_3
100
AcDbLine
 62
7
  6
BYLAYER
 10
23.6031412106
 20
20.4745562627
 11
23.6290408136
 21
20.4745562627
  0
LINE
  5
242
100
AcDbEntity
  8
00_COMPONENTS_3
100
AcDbLine
 62
7
  6
BYLAYER
 10
24.0179533697
 20
20.4745562627
 11
24.0509136551
 21
20.4745562627
  0
LINE
  5
243
100
AcDbEntity
  8
00_COMPONENTS_3
100
AcDbLine
 62
7
  6
BYLAYER
 10
24.5314746735
 20
20.4745562627
 11
24.5712447937
 21
20.4745562627
  0
LINE
  5
244
100
AcDbEntity
  8
00_COMPONENTS_3
100
AcDbLine
 62
7
  6
BYLAYER
 10
25.139796915
 20
20.4745562627
 11
25.1860741953
 21
20.4745562627
  0
LINE
  5
245
100
AcDbEntity
  8
00_COMPONENTS_3
100
AcDbLine
 62
7
  6
BYLAYER
 10
25.8382903945
 20
20.4745562627
 11
25.8907226369
 21
20.4745562627
  0
LINE
  5
246
100
AcDbEntity
  8
00_COMPONENTS_3
100
AcDbLine
 62
7
  6
BYLAYER
 10
26.621639155
 20
20.4745562627
 11
26.6798273184
 21
20.4745562627
  0
LINE
  5
247
100
AcDbEntity
  8
00_COMPONENTS_3
100
AcDbLine
 62
7
  6
BYLAYER
 10
27.4838814392
 20
20.4745562627
 11
27.5473826766
 21
20.4745562627
  0
LINE
  5
248
100
AcDbEntity
  8
00_COMPONENTS_3
100
AcDbLine
 62
7
  6
BYLAYER
 10
28.4184550629
 20
20.4745562627
 11
28.4867860915
 21
20.4745562627
  0
LINE
  5
249
100
AcDbEntity
  8
00_COMPONENTS_3
100
AcDbLine
 62
7
  6
BYLAYER
 10
29.4182473564
 20
20.4745562627
 11
29.4908881358
 21
20.4745562627
  0
LINE
  5
24A
100
AcDbEntity
  8
00_COMPONENTS_3
100
AcDbLine
 62
7
  6
BYLAYER
 10
30.4756492966
 20
20.4745562627
 11
30.5520469867
 21
20.4745562627
  0
LINE
  5
24B
100
AcDbEntity
  8
00_COMPONENTS_3
100
AcDbLine
 62
7
  6
BYLAYER
 10
31.5826134164
 20
20.4745562627
 11
31.6621865846
 21
20.4745562627
  0
LINE
  5
24C
100
AcDbEntity
  8
00_COMPONENTS_3
100
AcDbLine
 62
7
  6
BYLAYER
 10
32.7307150504
 20
20.4745562627
 11
32.8128580968
 21
20.4745562627
  0
LINE
  5
24D
100
AcDbEntity
  8
00_COMPONENTS_3
100
AcDbLine
 62
7
  6
BYLAYER
 10
33.9112164519
 20
20.4745562627
 11
33.9953042184
 21
20.4745562627
  0
LINE
  5
24E
100
AcDbEntity
  8
00_COMPONENTS_3
100
AcDbLine
 62
7
  6
BYLAYER
 10
35.1151332925
 20
20.4745562627
 11
35.2005258203
 21
20.4745562627
  0
LINE
  5
24F
100
AcDbEntity
  8
00_COMPONENTS_3
100
AcDbLine
 62
7
  6
BYLAYER
 10
36.3333030379
 20
20.4745562627
 11
36.4193504384
 21
20.4745562627
  0
LINE
  5
250
100
AcDbEntity
  8
00_COMPONENTS_3
100
AcDbLine
 62
7
  6
BYLAYER
 10
37.556454681
 20
20.4745562627
 11
37.6425020815
 21
20.4745562627
  0
LINE
  5
251
100
AcDbEntity
  8
00_COMPONENTS_3
100
AcDbLine
 62
7
  6
BYLAYER
 10
38.7752792991
 20
20.4745562627
 11
38.860671827
 21
20.4745562627
  0
LINE
  5
252
100
AcDbEntity
  8
00_COMPONENTS_3
100
AcDbLine
 62
7
  6
BYLAYER
 10
39.980500901
 20
20.4745562627
 11
40.0645886675
 21
20.4745562627
  0
LINE
  5
253
100
AcDbEntity
  8
00_COMPONENTS_3
100
AcDbLine
 62
7
  6
BYLAYER
 10
41.1629470226
 20
20.4745562627
 11
41.245090069
 21
20.4745562627
  0
LINE
  5
254
100
AcDbEntity
  8
00_COMPONENTS_3
100
AcDbLine
 62
7
  6
BYLAYER
 10
42.3136185348
 20
20.4745562627
 11
42.393191703
 21
20.4745562627
  0
LINE
  5
255
100
AcDbEntity
  8
00_COMPONENTS_3
100
AcDbLine
 62
7
  6
BYLAYER
 10
43.4237581327
 20
20.4745562627
 11
43.5001558228
 21
20.4745562627
  0
LINE
  5
256
100
AcDbEntity
  8
00_COMPONENTS_3
100
AcDbLine
 62
7
  6
BYLAYER
 10
44.4849169836
 20
20.4745562627
 11
44.557557763
 21
20.4745562627
  0
LINE
  5
257
100
AcDbEntity
  8
00_COMPONENTS_3
100
AcDbLine
 62
7
  6
BYLAYER
 10
45.4890190279
 20
20.4745562627
 11
45.5573500565
 21
20.4745562627
  0
LINE
  5
258
100
AcDbEntity
  8
00_COMPONENTS_3
100
AcDbLine
 62
7
  6
BYLAYER
 10
46.4284224428
 20
20.4745562627
 11
46.4919236802
 21
20.4745562627
  0
LINE
  5
259
100
AcDbEntity
  8
00_COMPONENTS_3
100
AcDbLine
 62
7
  6
BYLAYER
 10
47.295977801
 20
20.4745562627
 11
47.3541659645
 21
20.4745562627
  0
LINE
  5
25A
100
AcDbEntity
  8
00_COMPONENTS_3
100
AcDbLine
 62
7
  6
BYLAYER
 10
48.0850824825
 20
20.4745562627
 11
48.1375147249
 21
20.4745562627
  0
LINE
  5
25B
100
AcDbEntity
  8
00_COMPONENTS_3
100
AcDbLine
 62
7
  6
BYLAYER
 10
48.7897309241
 20
20.4745562627
 11
48.8360082044
 21
20.4745562627
  0
LINE
  5
25C
100
AcDbEntity
  8
00_COMPONENTS_3
100
AcDbLine
 62
7
  6
BYLAYER
 10
49.4045603257
 20
20.4745562627
 11
49.4443304459
 21
20.4745562627
  0
LINE
  5
25D
100
AcDbEntity
  8
00_COMPONENTS_3
100
AcDbLine
 62
7
  6
BYLAYER
 10
49.9248914643
 20
20.4745562627
 11
49.9578517498
 21
20.4745562627
  0
LINE
  5
25E
100
AcDbEntity
  8
00_COMPONENTS_3
100
AcDbLine
 62
7
  6
BYLAYER
 10
50.3467643058
 20
20.4745562627
 11
50.3726639088
 21
20.4745562627
  0
LINE
  5
25F
100
AcDbEntity
  8
00_COMPONENTS_3
100
AcDbLine
 62
7
  6
BYLAYER
 10
50.6669681431
 20
20.4745562627
 11
50.6856099521
 21
20.4745562627
  0
LINE
  5
260
100
AcDbEntity
  8
00_COMPONENTS_3
100
AcDbLine
 62
7
  6
BYLAYER
 10
50.8830660316
 20
20.4745562627
 11
50.8943081712
 21
20.4745562627
  0
LINE
  5
261
100
AcDbEntity
  8
00_COMPONENTS_3
100
AcDbLine
 62
7
  6
BYLAYER
 10
50.993413336
 20
20.4745562627
 11
50.9971702467
 21
20.4745562627
  0
LINE
  5
262
100
AcDbEntity
  8
00_COMPONENTS_2
100
AcDbLine
 62
7
  6
BYLAYER
 10
46.8921628968
 20
18.9741533167
 11
51.2881025597
 21
18.1196692061
  0
LINE
  5
263
100
AcDbEntity
  8
00_COMPONENTS_3
100
AcDbLine
 62
7
  6
BYLAYER
 10
23.1987746489
 20
20.3939813838
 11
23.2726427734
 21
20.32873291
  0
LINE
  5
264
100
AcDbEntity
  8
00_COMPONENTS_2
100
AcDbLine
 62
7
  6
BYLAYER
 10
36.0891209323
 20
8.6707354042
 11
36.3477690911
 21
8.4288607082
  0
LINE
  5
265
100
AcDbEntity
  8
00_COMPONENTS_2
100
AcDbLine
 62
7
  6
BYLAYER
 10
39.644513934
 20
8.8414322363
 11
39.9031620928
 21
8.5995575403
  0
LINE
  5
266
100
AcDbEntity
  8
00_COMPONENTS_3
100
AcDbLine
 62
7
  6
BYLAYER
 10
23.0728467518
 20
20.3939813838
 11
23.1077286818
 21
20.3610337414
  0
LINE
  5
267
100
AcDbEntity
  8
00_COMPONENTS_3
100
AcDbLine
 62
7
  6
BYLAYER
 10
23.7545025597
 20
19.6871562627
 11
23.3904359777
 21
20.0512228447
  0
LINE
  5
268
100
AcDbEntity
  8
00_COMPONENTS
100
AcDbLine
 62
7
  6
BYLAYER
 10
21.2419025557
 20
24.4623562627
 11
20.9879025557
 21
24.7163562627
  0
LINE
  5
269
100
AcDbEntity
  8
00_COMPONENTS_3
100
AcDbLine
 62
7
  6
BYLAYER
 10
23.3836650144
 20
20.058041426
 11
23.3614219755
 21
20.0804168791
  0
LINE
  5
26A
100
AcDbEntity
  8
00_COMPONENTS_3
100
AcDbLine
 62
7
  6
BYLAYER
 10
23.0948455127
 20
20.3509785347
 11
23.0528208316
 21
20.3939813838
  0
LINE
  5
26B
100
AcDbEntity
  8
0
100
AcDbLine
 62
7
  6
BYLAYER
 10
27.3409744009
 20
80.5576024918
 11
29.8734066271
 21
83.090034718
  0
LINE
  5
26C
100
AcDbEntity
  8
0
100
AcDbLine
 62
7
  6
BYLAYER
 10
21.2882817753
 20
73.8583314255
 11
23.8207140015
 21
76.3907636516
  0
LINE
  5
26D
100
AcDbEntity
  8
0
100
AcDbLine
 62
7
  6
BYLAYER
 10
30.3224194331
 20
82.6410219119
 11
27.789987207
 21
80.1085896858
  0
LINE
  5
26E
100
AcDbEntity
  8
0
100
AcDbLine
 62
7
  6
BYLAYER
 10
27.9695923294
 20
79.9289845633
 11
30.5020245556
 21
82.4614167895
  0
LINE
  5
26F
100
AcDbEntity
  8
0
100
AcDbLine
 62
7
  6
BYLAYER
 10
31.7682406686
 20
83.3684226577
 11
30.681629678
 21
82.2818116671
  0
LINE
  5
270
100
AcDbEntity
  8
0
100
AcDbLine
 62
7
  6
BYLAYER
 10
28.1491974518
 20
79.7493794409
 11
27.0625864612
 21
78.6627684503
  0
LINE
  5
271
100
AcDbEntity
  8
0
100
AcDbLine
 62
7
  6
BYLAYER
 10
22.6322797162
 20
73.9091724849
 11
22.0101093216
 21
73.2870020903
  0
LINE
  5
272
100
AcDbEntity
  8
0
100
AcDbLine
 62
7
  6
BYLAYER
 10
31.570675034
 20
82.4524365334
 11
27.9785725855
 21
78.8603340849
  0
LINE
  5
273
100
AcDbEntity
  8
0
100
AcDbLine
 62
7
  6
BYLAYER
 10
22.3659125099
 20
72.780700691
 11
24.898344736
 21
75.3131329171
  0
LINE
  5
274
100
AcDbEntity
  8
0
100
AcDbLine
 62
7
  6
BYLAYER
 10
46.1186899501
 20
80.5845432602
 11
46.1977741411
 21
80.6097459145
  0
LINE
  5
275
100
AcDbEntity
  8
00_COMPONENTS_3
100
AcDbLine
 62
7
  6
BYLAYER
 10
22.9671027448
 20
23.7511562627
 11
22.978425954
 21
23.7511562627
  0
LINE
  5
276
100
AcDbEntity
  8
00_COMPONENTS_3
100
AcDbLine
 62
7
  6
BYLAYER
 10
22.9823917834
 20
23.7511562627
 11
23.0814969482
 21
23.7511562627
  0
LINE
  5
277
100
AcDbEntity
  8
00_COMPONENTS_3
100
AcDbLine
 62
7
  6
BYLAYER
 10
23.0927390878
 20
23.7511562627
 11
23.2901951673
 21
23.7511562627
  0
LINE
  5
278
100
AcDbEntity
  8
00_COMPONENTS_3
100
AcDbLine
 62
7
  6
BYLAYER
 10
23.3088369763
 20
23.7511562627
 11
23.6031412106
 21
23.7511562627
  0
LINE
  5
279
100
AcDbEntity
  8
00_COMPONENTS_3
100
AcDbLine
 62
7
  6
BYLAYER
 10
23.6290408136
 20
23.7511562627
 11
24.0179533697
 21
23.7511562627
  0
LINE
  5
27A
100
AcDbEntity
  8
00_COMPONENTS_3
100
AcDbLine
 62
7
  6
BYLAYER
 10
24.0509136551
 20
23.7511562627
 11
24.5314746735
 21
23.7511562627
  0
LINE
  5
27B
100
AcDbEntity
  8
00_COMPONENTS_3
100
AcDbLine
 62
7
  6
BYLAYER
 10
24.5712447937
 20
23.7511562627
 11
25.139796915
 21
23.7511562627
  0
LINE
  5
27C
100
AcDbEntity
  8
00_COMPONENTS_3
100
AcDbLine
 62
7
  6
BYLAYER
 10
25.1860741953
 20
23.7511562627
 11
25.8382903945
 21
23.7511562627
  0
LINE
  5
27D
100
AcDbEntity
  8
00_COMPONENTS_3
100
AcDbLine
 62
7
  6
BYLAYER
 10
25.8907226369
 20
23.7511562627
 11
26.621639155
 21
23.7511562627
  0
LINE
  5
27E
100
AcDbEntity
  8
00_COMPONENTS_3
100
AcDbLine
 62
7
  6
BYLAYER
 10
26.6798273184
 20
23.7511562627
 11
27.4838814392
 21
23.7511562627
  0
LINE
  5
27F
100
AcDbEntity
  8
00_COMPONENTS_3
100
AcDbLine
 62
7
  6
BYLAYER
 10
27.5473826766
 20
23.7511562627
 11
28.4184550629
 21
23.7511562627
  0
LINE
  5
280
100
AcDbEntity
  8
00_COMPONENTS_3
100
AcDbLine
 62
7
  6
BYLAYER
 10
28.4867860915
 20
23.7511562627
 11
29.4182473564
 21
23.7511562627
  0
LINE
  5
281
100
AcDbEntity
  8
00_COMPONENTS_3
100
AcDbLine
 62
7
  6
BYLAYER
 10
29.4908881358
 20
23.7511562627
 11
30.4756492966
 21
23.7511562627
  0
LINE
  5
282
100
AcDbEntity
  8
00_COMPONENTS_3
100
AcDbLine
 62
7
  6
BYLAYER
 10
30.5520469867
 20
23.7511562627
 11
31.5826134164
 21
23.7511562627
  0
LINE
  5
283
100
AcDbEntity
  8
00_COMPONENTS_3
100
AcDbLine
 62
7
  6
BYLAYER
 10
31.6621865846
 20
23.7511562627
 11
32.7307150504
 21
23.7511562627
  0
LINE
  5
284
100
AcDbEntity
  8
00_COMPONENTS_3
100
AcDbLine
 62
7
  6
BYLAYER
 10
32.8128580968
 20
23.7511562627
 11
33.9112164519
 21
23.7511562627
  0
LINE
  5
285
100
AcDbEntity
  8
00_COMPONENTS_3
100
AcDbLine
 62
7
  6
BYLAYER
 10
33.9953042184
 20
23.7511562627
 11
35.1151332925
 21
23.7511562627
  0
LINE
  5
286
100
AcDbEntity
  8
00_COMPONENTS_3
100
AcDbLine
 62
7
  6
BYLAYER
 10
35.2005258203
 20
23.7511562627
 11
36.3333030379
 21
23.7511562627
  0
LINE
  5
287
100
AcDbEntity
  8
00_COMPONENTS_3
100
AcDbLine
 62
7
  6
BYLAYER
 10
36.4193504384
 20
23.7511562627
 11
37.556454681
 21
23.7511562627
  0
LINE
  5
288
100
AcDbEntity
  8
00_COMPONENTS_3
100
AcDbLine
 62
7
  6
BYLAYER
 10
37.6425020815
 20
23.7511562627
 11
38.7752792991
 21
23.7511562627
  0
LINE
  5
289
100
AcDbEntity
  8
00_COMPONENTS_3
100
AcDbLine
 62
7
  6
BYLAYER
 10
38.860671827
 20
23.7511562627
 11
39.980500901
 21
23.7511562627
  0
LINE
  5
28A
100
AcDbEntity
  8
00_COMPONENTS_3
100
AcDbLine
 62
7
  6
BYLAYER
 10
40.0645886675
 20
23.7511562627
 11
41.1629470226
 21
23.7511562627
  0
LINE
  5
28B
100
AcDbEntity
  8
00_COMPONENTS_3
100
AcDbLine
 62
7
  6
BYLAYER
 10
41.245090069
 20
23.7511562627
 11
42.3136185348
 21
23.7511562627
  0
LINE
  5
28C
100
AcDbEntity
  8
00_COMPONENTS_3
100
AcDbLine
 62
7
  6
BYLAYER
 10
42.393191703
 20
23.7511562627
 11
43.4237581327
 21
23.7511562627
  0
LINE
  5
28D
100
AcDbEntity
  8
00_COMPONENTS_3
100
AcDbLine
 62
7
  6
BYLAYER
 10
43.5001558228
 20
23.7511562627
 11
44.4849169836
 21
23.7511562627
  0
LINE
  5
28E
100
AcDbEntity
  8
00_COMPONENTS_3
100
AcDbLine
 62
7
  6
BYLAYER
 10
44.557557763
 20
23.7511562627
 11
45.4890190279
 21
23.7511562627
  0
LINE
  5
28F
100
AcDbEntity
  8
00_COMPONENTS_3
100
AcDbLine
 62
7
  6
BYLAYER
 10
45.5573500565
 20
23.7511562627
 11
46.4284224428
 21
23.7511562627
  0
LINE
  5
290
100
AcDbEntity
  8
00_COMPONENTS_3
100
AcDbLine
 62
7
  6
BYLAYER
 10
46.4919236802
 20
23.7511562627
 11
47.295977801
 21
23.7511562627
  0
LINE
  5
291
100
AcDbEntity
  8
00_COMPONENTS_3
100
AcDbLine
 62
7
  6
BYLAYER
 10
47.3541659645
 20
23.7511562627
 11
48.0850824825
 21
23.7511562627
  0
LINE
  5
292
100
AcDbEntity
  8
00_COMPONENTS_3
100
AcDbLine
 62
7
  6
BYLAYER
 10
48.1375147249
 20
23.7511562627
 11
48.7897309241
 21
23.7511562627
  0
LINE
  5
293
100
AcDbEntity
  8
00_COMPONENTS_3
100
AcDbLine
 62
7
  6
BYLAYER
 10
48.8360082044
 20
23.7511562627
 11
49.4045603257
 21
23.7511562627
  0
LINE
  5
294
100
AcDbEntity
  8
00_COMPONENTS_3
100
AcDbLine
 62
7
  6
BYLAYER
 10
49.4443304459
 20
23.7511562627
 11
49.9248914643
 21
23.7511562627
  0
LINE
  5
295
100
AcDbEntity
  8
00_COMPONENTS_3
100
AcDbLine
 62
7
  6
BYLAYER
 10
49.9578517498
 20
23.7511562627
 11
50.3467643058
 21
23.7511562627
  0
LINE
  5
296
100
AcDbEntity
  8
00_COMPONENTS_3
100
AcDbLine
 62
7
  6
BYLAYER
 10
50.3726639088
 20
23.7511562627
 11
50.6669681431
 21
23.7511562627
  0
LINE
  5
297
100
AcDbEntity
  8
00_COMPONENTS_3
100
AcDbLine
 62
7
  6
BYLAYER
 10
50.6856099521
 20
23.7511562627
 11
50.8830660316
 21
23.7511562627
  0
LINE
  5
298
100
AcDbEntity
  8
00_COMPONENTS_3
100
AcDbLine
 62
7
  6
BYLAYER
 10
50.8943081712
 20
23.7511562627
 11
50.993413336
 21
23.7511562627
  0
LINE
  5
299
100
AcDbEntity
  8
00_COMPONENTS_3
100
AcDbLine
 62
7
  6
BYLAYER
 10
50.9971702467
 20
23.7511562627
 11
51.0087023746
 21
23.7511562627
  0
LINE
  5
29A
100
AcDbEntity
  8
00_COMPONENTS
100
AcDbLine
 62
7
  6
BYLAYER
 10
21.2419112634
 20
24.4623562627
 11
52.7338938561
 21
24.4623562627
  0
LINE
  5
29B
100
AcDbEntity
  8
00_COMPONENTS
100
AcDbLine
 62
7
  6
BYLAYER
 10
20.9879025557
 20
24.7163562627
 11
52.9879025637
 21
24.7163562627
  0
LINE
  5
29C
100
AcDbEntity
  8
00_COMPONENTS_2
100
AcDbLine
 62
7
  6
BYLAYER
 10
43.1999069357
 20
9.0121290685
 11
43.4585550945
 21
8.7702543725
  0
LINE
  5
29D
100
AcDbEntity
  8
0
100
AcDbLine
 62
7
  6
BYLAYER
 10
14.2295025597
 20
66.2199562627
 11
14.2295025597
 21
58.7777562627
  0
LINE
  5
29E
100
AcDbEntity
  8
0
100
AcDbLine
 62
7
  6
BYLAYER
 10
23.4435432444
 20
71.7030699564
 11
25.9759754705
 21
74.2355021826
  0
LINE
  5
29F
100
AcDbEntity
  8
0
100
AcDbLine
 62
7
  6
BYLAYER
 10
28.9484402466
 20
76.7769146648
 11
33.6540944541
 21
81.4825688723
  0
LINE
  5
2A0
100
AcDbEntity
  8
0
100
AcDbLine
 62
7
  6
BYLAYER
 10
26.4249882766
 20
73.7864893765
 11
23.8925560505
 21
71.2540571504
  0
LINE
  5
2A1
100
AcDbEntity
  8
0
100
AcDbLine
 62
7
  6
BYLAYER
 10
24.0721611729
 20
71.074452028
 11
26.604593399
 21
73.6068842541
  0
LINE
  5
2A2
100
AcDbEntity
  8
0
100
AcDbLine
 62
7
  6
BYLAYER
 10
27.8708095121
 20
74.5138901223
 11
26.7841985214
 21
73.4272791317
  0
LINE
  5
2A3
100
AcDbEntity
  8
0
100
AcDbLine
 62
7
  6
BYLAYER
 10
24.2517662953
 20
70.8948469056
 11
23.1651553046
 21
69.8082359149
  0
LINE
  5
2A4
100
AcDbEntity
  8
0
100
AcDbLine
 62
7
  6
BYLAYER
 10
27.6732438774
 20
73.597903998
 11
24.081141429
 21
70.0058015496
  0
LINE
  5
2A5
100
AcDbEntity
  8
00_COMPONENTS_2
100
AcDbLine
 62
7
  6
BYLAYER
 10
46.8216297525
 20
9.1860104401
 11
47.0802779113
 21
8.9441357441
  0
LINE
  5
2A6
100
AcDbEntity
  8
00_COMPONENTS_2
100
AcDbLine
 62
7
  6
BYLAYER
 10
27.2597025597
 20
19.6871562627
 11
33.4422711842
 21
8.9786332837
  0
LINE
  5
2A7
100
AcDbEntity
  8
00_COMPONENTS_2
100
AcDbLine
 62
7
  6
BYLAYER
 10
33.6668845164
 20
9.0924241454
 11
27.5500130765
 21
19.6871562627
  0
LINE
  5
2A8
100
AcDbEntity
  8
00_COMPONENTS_3
100
AcDbLine
 62
7
  6
BYLAYER
 10
24.2071564496
 20
20.0804168791
 11
24.2164376002
 21
20.0572374554
  0
LINE
  5
2A9
100
AcDbEntity
  8
0
100
AcDbLine
 62
7
  6
BYLAYER
 10
15.5503025597
 20
66.2199562627
 11
15.5503025597
 21
63.7392229294
  0
LINE
  5
2AA
100
AcDbEntity
  8
0
100
AcDbLine
 62
7
  6
BYLAYER
 10
15.7379582246
 20
58.7777562627
 11
15.7379582246
 21
63.7392229294
  0
LINE
  5
2AB
100
AcDbEntity
  8
0
100
AcDbLine
 62
7
  6
BYLAYER
 10
16.1964765547
 20
74.1226788079
 11
16.1964765547
 21
75.5196788079
  0
LINE
  5
2AC
100
AcDbEntity
  8
0
100
AcDbLine
 62
7
  6
BYLAYER
 10
16.5503025597
 20
90.8579562627
 11
16.5503025597
 21
75.8735048129
  0
LINE
  5
2AD
100
AcDbEntity
  8
0
100
AcDbLine
 62
7
  6
BYLAYER
 10
16.5503025597
 20
73.7688528029
 11
16.5503025597
 21
66.2199562627
  0
LINE
  5
2AE
100
AcDbEntity
  8
0
100
AcDbLine
 62
7
  6
BYLAYER
 10
16.6933025597
 20
56.3774562627
 11
16.6933025597
 21
58.7777562627
  0
LINE
  5
2AF
100
AcDbEntity
  8
00_COMPONENTS
100
AcDbLine
 62
7
  6
BYLAYER
 10
17.1441525597
 20
46.9159562627
 11
17.1441525597
 21
48.4399562627
  0
LINE
  5
2B0
100
AcDbEntity
  8
0
100
AcDbLine
 62
7
  6
BYLAYER
 10
17.1441525597
 20
54.7899562627
 11
17.1441525597
 21
56.3774562627
  0
LINE
  5
2B1
100
AcDbEntity
  8
0
100
AcDbLine
 62
7
  6
BYLAYER
 10
25.0510090901
 20
67.9223821295
 11
29.7566632975
 21
72.6280363369
  0
LINE
  5
2B2
100
AcDbEntity
  8
0
100
AcDbLine
 62
7
  6
BYLAYER
 10
41.7183644508
 20
83.3684226577
 11
39.8325106654
 21
81.4825688723
  0
LINE
  5
2B3
100
AcDbEntity
  8
0
100
AcDbLine
 62
7
  6
BYLAYER
 10
39.9402737388
 20
81.3748057988
 11
41.8261275242
 21
83.2606595843
  0
LINE
  5
2B4
100
AcDbEntity
  8
0
100
AcDbLine
 62
7
  6
BYLAYER
 10
42.2751403303
 20
82.8116467782
 11
40.3892865449
 21
80.9257929928
  0
LINE
  5
2B5
100
AcDbEntity
  8
00_COMPONENTS_3
100
AcDbLine
 62
7
  6
BYLAYER
 10
24.6677198141
 20
20.0804168791
 11
24.6736938631
 21
20.0605675391
  0
LINE
  5
2B6
100
AcDbEntity
  8
00_COMPONENTS
100
AcDbLine
 62
7
  6
BYLAYER
 10
18.5729025597
 20
45.6459562627
 11
18.5729025597
 21
46.9159562627
  0
LINE
  5
2B7
100
AcDbEntity
  8
00_COMPONENTS
100
AcDbLine
 62
7
  6
BYLAYER
 10
19.5254025597
 20
39.3528225597
 11
19.5254025597
 21
45.6459562627
  0
LINE
  5
2B8
100
AcDbEntity
  8
0
100
AcDbLine
 62
7
  6
BYLAYER
 10
42.8049754414
 20
82.2818116671
 11
48.2470106508
 21
87.7238468764
  0
LINE
  5
2B9
100
AcDbEntity
  8
0
100
AcDbLine
 62
7
  6
BYLAYER
 10
43.1911264546
 20
82.6140811435
 11
43.0115213322
 21
82.4344760211
  0
LINE
  5
2BA
100
AcDbEntity
  8
0
100
AcDbLine
 62
7
  6
BYLAYER
 10
42.472705965
 20
81.8956606539
 11
40.9460624244
 21
80.3690171133
  0
LINE
  5
2BB
100
AcDbEntity
  8
0
100
AcDbLine
 62
7
  6
BYLAYER
 10
45.1971306262
 20
84.5234686408
 11
45.8437090669
 21
85.1700470815
  0
LINE
  5
2BC
100
AcDbEntity
  8
0
100
AcDbLine
 62
7
  6
BYLAYER
 10
46.4658794615
 20
84.5478766869
 11
45.8193010208
 21
83.9012982461
  0
LINE
  5
2BD
100
AcDbEntity
  8
0
100
AcDbLine
 62
7
  6
BYLAYER
 10
50.0161211066
 20
71.7300107248
 11
50.0952052976
 21
71.7552133791
  0
LINE
  5
2BE
100
AcDbEntity
  8
00_COMPONENTS
100
AcDbLine
 62
7
  6
BYLAYER
 10
20.5942025557
 20
38.7358590637
 11
19.5254025597
 21
39.3529310291
  0
LINE
  5
2BF
100
AcDbEntity
  8
00_COMPONENTS_3
100
AcDbLine
 62
7
  6
BYLAYER
 10
25.2220472084
 20
20.0804168791
 11
25.2254225961
 21
20.0645813801
  0
LINE
  5
2C0
100
AcDbEntity
  8
00_COMPONENTS_3
100
AcDbLine
 62
7
  6
BYLAYER
 10
25.1090913502
 20
20.3939813838
 11
25.10043651
 21
20.4358522562
  0
LINE
  5
2C1
100
AcDbEntity
  8
00_COMPONENTS
100
AcDbLine
 62
7
  6
BYLAYER
 10
20.9879025557
 20
24.7163562627
 11
20.9879025557
 21
38.0539506607
  0
LINE
  5
2C2
100
AcDbEntity
  8
0
100
AcDbLine
 62
7
  6
BYLAYER
 10
22.0019025597
 20
48.4399562627
 11
22.0019025597
 21
54.7899562627
  0
LINE
  5
2C3
100
AcDbEntity
  8
00_COMPONENTS_3
100
AcDbLine
 62
7
  6
BYLAYER
 10
22.9671025597
 20
24.4623562627
 11
22.9671025597
 21
23.7511562627
  0
LINE
  5
2C4
100
AcDbEntity
  8
00_COMPONENTS_3
100
AcDbLine
 62
7
  6
BYLAYER
 10
22.978425954
 20
23.7511562627
 11
22.978425954
 21
20.4743511272
  0
LINE
  5
2C5
100
AcDbEntity
  8
00_COMPONENTS_3
100
AcDbLine
 62
7
  6
BYLAYER
 10
22.9823917834
 20
23.7511562627
 11
22.9823917834
 21
20.4745562627
  0
LINE
  5
2C6
100
AcDbEntity
  8
00_COMPONENTS_3
100
AcDbLine
 62
7
  6
BYLAYER
 10
23.0728467518
 20
23.7511562627
 11
23.0728467518
 21
20.3939813838
  0
LINE
  5
2C7
100
AcDbEntity
  8
00_COMPONENTS_3
100
AcDbLine
 62
7
  6
BYLAYER
 10
23.0794245861
 20
23.7511562627
 11
23.0794245861
 21
20.4725212957
  0
LINE
  5
2C8
100
AcDbEntity
  8
00_COMPONENTS_3
100
AcDbLine
 62
7
  6
BYLAYER
 10
23.0814969482
 20
20.4745562627
 11
23.0814969482
 21
23.7511562627
  0
LINE
  5
2C9
100
AcDbEntity
  8
00_COMPONENTS_3
100
AcDbLine
 62
7
  6
BYLAYER
 10
23.0927390878
 20
23.7511562627
 11
23.0927390878
 21
20.4745562627
  0
LINE
  5
2CA
100
AcDbEntity
  8
00_COMPONENTS_3
100
AcDbLine
 62
7
  6
BYLAYER
 10
23.1987746489
 20
23.7511562627
 11
23.1987746489
 21
20.3939813838
  0
LINE
  5
2CB
100
AcDbEntity
  8
00_COMPONENTS_3
100
AcDbLine
 62
7
  6
BYLAYER
 10
23.2843420404
 20
23.7511562627
 11
23.2843420404
 21
20.4688079923
  0
LINE
  5
2CC
100
AcDbEntity
  8
00_COMPONENTS_3
100
AcDbLine
 62
7
  6
BYLAYER
 10
23.2901951673
 20
20.4745562627
 11
23.2901951673
 21
23.7511562627
  0
LINE
  5
2CD
100
AcDbEntity
  8
00_COMPONENTS_3
100
AcDbLine
 62
7
  6
BYLAYER
 10
23.3088369763
 20
23.7511562627
 11
23.3088369763
 21
20.4745562627
  0
LINE
  5
2CE
100
AcDbEntity
  8
00_COMPONENTS_3
100
AcDbLine
 62
7
  6
BYLAYER
 10
23.4071699371
 20
20.0804168791
 11
23.4071699371
 21
20.0939670887
  0
LINE
  5
2CF
100
AcDbEntity
  8
00_COMPONENTS_3
100
AcDbLine
 62
7
  6
BYLAYER
 10
23.4296461355
 20
23.7511562627
 11
23.4296461355
 21
20.3939813838
  0
LINE
  5
2D0
100
AcDbEntity
  8
00_COMPONENTS_3
100
AcDbLine
 62
7
  6
BYLAYER
 10
23.5562754742
 20
20.0804168791
 11
23.5562754742
 21
20.1106718285
  0
LINE
  5
2D1
100
AcDbEntity
  8
00_COMPONENTS_3
100
AcDbLine
 62
7
  6
BYLAYER
 10
23.5916187713
 20
23.7511562627
 11
23.5916187713
 21
20.4745562627
  0
LINE
  5
2D2
100
AcDbEntity
  8
00_COMPONENTS_3
100
AcDbLine
 62
7
  6
BYLAYER
 10
23.6031412106
 20
20.4745562627
 11
23.6031412106
 21
23.7511562627
  0
LINE
  5
2D3
100
AcDbEntity
  8
00_COMPONENTS_3
100
AcDbLine
 62
7
  6
BYLAYER
 10
23.6290408136
 20
23.7511562627
 11
23.6290408136
 21
20.4745562627
  0
LINE
  5
2D4
100
AcDbEntity
  8
00_COMPONENTS_3
100
AcDbLine
 62
7
  6
BYLAYER
 10
23.7637041401
 20
23.7511562627
 11
23.7637041401
 21
20.3939813838
  0
LINE
  5
2D5
100
AcDbEntity
  8
00_COMPONENTS_3
100
AcDbLine
 62
7
  6
BYLAYER
 10
23.8076038037
 20
20.0804168791
 11
23.8076038037
 21
20.1321470279
  0
LINE
  5
2D6
100
AcDbEntity
  8
00_COMPONENTS_3
100
AcDbLine
 62
7
  6
BYLAYER
 10
23.9989162173
 20
23.7511562627
 11
23.9989162173
 21
20.4745562627
  0
LINE
  5
2D7
100
AcDbEntity
  8
00_COMPONENTS_3
100
AcDbLine
 62
7
  6
BYLAYER
 10
24.0179533697
 20
20.4745562627
 11
24.0179533697
 21
23.7511562627
  0
LINE
  5
2D8
100
AcDbEntity
  8
00_COMPONENTS_3
100
AcDbLine
 62
7
  6
BYLAYER
 10
24.0509136551
 20
23.7511562627
 11
24.0509136551
 21
20.4745562627
  0
LINE
  5
2D9
100
AcDbEntity
  8
0
100
AcDbLine
 62
7
  6
BYLAYER
 10
43.4246131138
 20
77.8904664239
 11
44.9512566544
 21
79.4171099644
  0
LINE
  5
2DA
100
AcDbEntity
  8
0
100
AcDbLine
 62
7
  6
BYLAYER
 10
45.4900720216
 20
79.9559253317
 11
45.669677144
 21
80.1355304541
  0
LINE
  5
2DB
100
AcDbEntity
  8
0
100
AcDbLine
 62
7
  6
BYLAYER
 10
45.3374076676
 20
79.7493794409
 11
50.7794428769
 21
85.1914146503
  0
LINE
  5
2DC
100
AcDbEntity
  8
0
100
AcDbLine
 62
7
  6
BYLAYER
 10
43.9813889933
 20
77.3336905444
 11
45.8672427787
 21
79.2195443298
  0
LINE
  5
2DD
100
AcDbEntity
  8
0
100
AcDbLine
 62
7
  6
BYLAYER
 10
46.3162555848
 20
78.7705315237
 11
44.4304017993
 21
76.8846777383
  0
LINE
  5
2DE
100
AcDbEntity
  8
0
100
AcDbLine
 62
7
  6
BYLAYER
 10
44.5381648728
 20
76.7769146648
 11
46.4240186582
 21
78.6627684503
  0
LINE
  5
2DF
100
AcDbEntity
  8
0
100
AcDbLine
 62
7
  6
BYLAYER
 10
52.9796056266
 20
84.7873031248
 11
48.5007048316
 21
80.3084023298
  0
LINE
  5
2E0
100
AcDbEntity
  8
00_COMPONENTS
100
AcDbLine
 62
7
  6
BYLAYER
 10
52.9879025637
 20
38.0539506607
 11
20.9879025557
 21
38.0539506607
  0
LINE
  5
2E1
100
AcDbEntity
  8
00_COMPONENTS_3
100
AcDbLine
 62
7
  6
BYLAYER
 10
25.8659198664
 20
20.0804168791
 11
25.8674248104
 21
20.0692587659
  0
LINE
  5
2E2
100
AcDbEntity
  8
00_COMPONENTS_3
100
AcDbLine
 62
7
  6
BYLAYER
 10
25.7901349529
 20
20.3939813838
 11
25.7862761222
 21
20.4233943435
  0
LINE
  5
2E3
100
AcDbEntity
  8
00_COMPONENTS_3
100
AcDbLine
 62
7
  6
BYLAYER
 10
26.5944375283
 20
20.0804168791
 11
26.5948144815
 21
20.0745515883
  0
LINE
  5
2E4
100
AcDbEntity
  8
00_COMPONENTS_3
100
AcDbLine
 62
7
  6
BYLAYER
 10
26.5564003285
 20
20.3939813838
 11
26.555433782
 21
20.4093871384
  0
LINE
  5
2E5
100
AcDbEntity
  8
00_COMPONENTS_3
100
AcDbLine
 62
7
  6
BYLAYER
 10
24.1592421652
 20
20.0804168791
 11
24.1592421652
 21
20.1612931144
  0
LINE
  5
2E6
100
AcDbEntity
  8
00_COMPONENTS_3
100
AcDbLine
 62
7
  6
BYLAYER
 10
24.1984062797
 20
23.7511562627
 11
24.1984062797
 21
20.3939813838
  0
LINE
  5
2E7
100
AcDbEntity
  8
00_COMPONENTS_3
100
AcDbLine
 62
7
  6
BYLAYER
 10
24.503134599
 20
23.7511562627
 11
24.503134599
 21
20.4745562627
  0
LINE
  5
2E8
100
AcDbEntity
  8
00_COMPONENTS_3
100
AcDbLine
 62
7
  6
BYLAYER
 10
24.5314746735
 20
20.4745562627
 11
24.5314746735
 21
23.7511562627
  0
LINE
  5
2E9
100
AcDbEntity
  8
00_COMPONENTS_3
100
AcDbLine
 62
7
  6
BYLAYER
 10
24.5712447937
 20
23.7511562627
 11
24.5712447937
 21
20.4745562627
  0
LINE
  5
2EA
100
AcDbEntity
  8
00_COMPONENTS_3
100
AcDbLine
 62
7
  6
BYLAYER
 10
24.6085143785
 20
20.0804168791
 11
24.6085143785
 21
20.2040459385
  0
LINE
  5
2EB
100
AcDbEntity
  8
00_COMPONENTS_3
100
AcDbLine
 62
7
  6
BYLAYER
 10
24.7304442085
 20
23.7511562627
 11
24.7304442085
 21
20.3939813838
  0
LINE
  5
2EC
100
AcDbEntity
  8
00_COMPONENTS_3
100
AcDbLine
 62
7
  6
BYLAYER
 10
25.10043651
 20
23.7511562627
 11
25.10043651
 21
20.4358554968
  0
LINE
  5
2ED
100
AcDbEntity
  8
00_COMPONENTS_3
100
AcDbLine
 62
7
  6
BYLAYER
 10
25.139796915
 20
20.4745562627
 11
25.139796915
 21
23.7511562627
  0
LINE
  5
2EE
100
AcDbEntity
  8
00_COMPONENTS_3
100
AcDbLine
 62
7
  6
BYLAYER
 10
25.1520012107
 20
20.0804168791
 11
25.1520012107
 21
20.2741217647
  0
LINE
  5
2EF
100
AcDbEntity
  8
00_COMPONENTS_3
100
AcDbLine
 62
7
  6
BYLAYER
 10
25.1860741953
 20
23.7511562627
 11
25.1860741953
 21
20.4745562627
  0
LINE
  5
2F0
100
AcDbEntity
  8
00_COMPONENTS_3
100
AcDbLine
 62
7
  6
BYLAYER
 10
25.3557687967
 20
23.7511562627
 11
25.3557687967
 21
20.3939813838
  0
LINE
  5
2F1
100
AcDbEntity
  8
00_COMPONENTS_3
100
AcDbLine
 62
7
  6
BYLAYER
 10
25.7855663989
 20
20.0804168791
 11
25.7855663989
 21
20.3939813838
  0
LINE
  5
2F2
100
AcDbEntity
  8
00_COMPONENTS_3
100
AcDbLine
 62
7
  6
BYLAYER
 10
25.7862761222
 20
23.7511562627
 11
25.7862761222
 21
20.4233909204
  0
LINE
  5
2F3
100
AcDbEntity
  8
00_COMPONENTS_3
100
AcDbLine
 62
7
  6
BYLAYER
 10
25.8382903945
 20
20.4745562627
 11
25.8382903945
 21
23.7511562627
  0
LINE
  5
2F4
100
AcDbEntity
  8
00_COMPONENTS_3
100
AcDbLine
 62
7
  6
BYLAYER
 10
25.8907226369
 20
23.7511562627
 11
25.8907226369
 21
20.4745562627
  0
LINE
  5
2F5
100
AcDbEntity
  8
00_COMPONENTS_3
100
AcDbLine
 62
7
  6
BYLAYER
 10
26.0696209464
 20
23.7511562627
 11
26.0696209464
 21
20.3939813838
  0
LINE
  5
2F6
100
AcDbEntity
  8
00_COMPONENTS_3
100
AcDbLine
 62
7
  6
BYLAYER
 10
26.5043881294
 20
20.0804168791
 11
26.5043881294
 21
23.7511562627
  0
LINE
  5
2F7
100
AcDbEntity
  8
00_COMPONENTS_3
100
AcDbLine
 62
7
  6
BYLAYER
 10
26.5554337819
 20
23.7511562627
 11
26.5554337819
 21
20.4093988627
  0
LINE
  5
2F8
100
AcDbEntity
  8
00_COMPONENTS_3
100
AcDbLine
 62
7
  6
BYLAYER
 10
26.621639155
 20
20.4745562627
 11
26.621639155
 21
23.7511562627
  0
LINE
  5
2F9
100
AcDbEntity
  8
00_COMPONENTS_3
100
AcDbLine
 62
7
  6
BYLAYER
 10
26.6798273184
 20
23.7511562627
 11
26.6798273184
 21
20.4745562627
  0
LINE
  5
2FA
100
AcDbEntity
  8
00_COMPONENTS_3
100
AcDbLine
 62
7
  6
BYLAYER
 10
26.8665678119
 20
23.7511562627
 11
26.8665678119
 21
20.3939813838
  0
LINE
  5
2FB
100
AcDbEntity
  8
0
100
AcDbLine
 62
7
  6
BYLAYER
 10
45.6157956073
 20
74.5138901223
 11
43.7299418219
 21
72.6280363369
  0
LINE
  5
2FC
100
AcDbEntity
  8
0
100
AcDbLine
 62
7
  6
BYLAYER
 10
43.8377048954
 20
72.5202732635
 11
45.7235586808
 21
74.4061270489
  0
LINE
  5
2FD
100
AcDbEntity
  8
0
100
AcDbLine
 62
7
  6
BYLAYER
 10
46.1725714868
 20
73.9571142428
 11
44.2867177014
 21
72.0712604574
  0
LINE
  5
2FE
100
AcDbEntity
  8
00_COMPONENTS
100
AcDbLine
 62
7
  6
BYLAYER
 10
20.5942025557
 20
38.7358590637
 11
53.3816025637
 21
38.7358590637
  0
LINE
  5
2FF
100
AcDbEntity
  8
00_COMPONENTS_3
100
AcDbLine
 62
7
  6
BYLAYER
 10
50.9971702467
 20
20.4745562627
 11
50.9973791654
 21
20.4743610905
  0
LINE
  5
300
100
AcDbEntity
  8
00_COMPONENTS_3
100
AcDbLine
 62
7
  6
BYLAYER
 10
50.6856099521
 20
20.4745562627
 11
50.691463079
 21
20.4688119754
  0
LINE
  5
301
100
AcDbEntity
  8
00_COMPONENTS_3
100
AcDbLine
 62
7
  6
BYLAYER
 10
50.8943081712
 20
20.4745562627
 11
50.8963805333
 21
20.4725210415
  0
LINE
  5
302
100
AcDbEntity
  8
00_COMPONENTS_3
100
AcDbLine
 62
7
  6
BYLAYER
 10
27.3029957349
 20
20.0804168791
 11
27.3029957349
 21
23.7511562627
  0
LINE
  5
303
100
AcDbEntity
  8
00_COMPONENTS_3
100
AcDbLine
 62
7
  6
BYLAYER
 10
27.4020557349
 20
20.0804168791
 11
27.4020557349
 21
23.7511562627
  0
LINE
  5
304
100
AcDbEntity
  8
00_COMPONENTS_3
100
AcDbLine
 62
7
  6
BYLAYER
 10
27.4838814392
 20
20.4745562627
 11
27.4838814392
 21
23.7511562627
  0
LINE
  5
305
100
AcDbEntity
  8
00_COMPONENTS_3
100
AcDbLine
 62
7
  6
BYLAYER
 10
27.5473826766
 20
23.7511562627
 11
27.5473826766
 21
20.4745562627
  0
LINE
  5
306
100
AcDbEntity
  8
00_COMPONENTS_3
100
AcDbLine
 62
7
  6
BYLAYER
 10
27.7405441462
 20
23.7511562627
 11
27.7405441462
 21
20.3939813838
  0
LINE
  5
307
100
AcDbEntity
  8
00_COMPONENTS_3
100
AcDbLine
 62
7
  6
BYLAYER
 10
28.1753113292
 20
20.0804168791
 11
28.1753113292
 21
23.7511562627
  0
LINE
  5
308
100
AcDbEntity
  8
00_COMPONENTS_3
100
AcDbLine
 62
7
  6
BYLAYER
 10
28.2826280238
 20
23.7511562627
 11
28.2826280238
 21
20.0804168791
  0
LINE
  5
309
100
AcDbEntity
  8
00_COMPONENTS_3
100
AcDbLine
 62
7
  6
BYLAYER
 10
28.3206652236
 20
20.3939813838
 11
28.3206652236
 21
23.7511562627
  0
LINE
  5
30A
100
AcDbEntity
  8
00_COMPONENTS_3
100
AcDbLine
 62
7
  6
BYLAYER
 10
28.4184550629
 20
20.4745562627
 11
28.4184550629
 21
23.7511562627
  0
LINE
  5
30B
100
AcDbEntity
  8
00_COMPONENTS_3
100
AcDbLine
 62
7
  6
BYLAYER
 10
28.4867860915
 20
23.7511562627
 11
28.4867860915
 21
20.4745562627
  0
LINE
  5
30C
100
AcDbEntity
  8
00_COMPONENTS_3
100
AcDbLine
 62
7
  6
BYLAYER
 10
28.6848984617
 20
23.7511562627
 11
28.6848984617
 21
20.3939813838
  0
LINE
  5
30D
100
AcDbEntity
  8
00_COMPONENTS_3
100
AcDbLine
 62
7
  6
BYLAYER
 10
29.1146960639
 20
20.0804168791
 11
29.1146960639
 21
23.7511562627
  0
LINE
  5
30E
100
AcDbEntity
  8
00_COMPONENTS_3
100
AcDbLine
 62
7
  6
BYLAYER
 10
29.2294527084
 20
23.7511562627
 11
29.2294527084
 21
20.0804168791
  0
LINE
  5
30F
100
AcDbEntity
  8
00_COMPONENTS_3
100
AcDbLine
 62
7
  6
BYLAYER
 10
29.3052376219
 20
20.3939813838
 11
29.3052376219
 21
23.7511562627
  0
LINE
  5
310
100
AcDbEntity
  8
00_COMPONENTS_3
100
AcDbLine
 62
7
  6
BYLAYER
 10
29.4182473564
 20
20.4745562627
 11
29.4182473564
 21
23.7511562627
  0
LINE
  5
311
100
AcDbEntity
  8
00_COMPONENTS_3
100
AcDbLine
 62
7
  6
BYLAYER
 10
29.4908881358
 20
23.7511562627
 11
29.4908881358
 21
20.4745562627
  0
LINE
  5
312
100
AcDbEntity
  8
00_COMPONENTS_3
100
AcDbLine
 62
7
  6
BYLAYER
 10
29.692443652
 20
23.7511562627
 11
29.692443652
 21
20.3939813838
  0
LINE
  5
313
100
AcDbEntity
  8
00_COMPONENTS
100
AcDbLine
 62
7
  6
BYLAYER
 10
29.7546982268
 20
45.6459562627
 11
29.7546982268
 21
40.1836074684
  0
LINE
  5
314
100
AcDbEntity
  8
00_COMPONENTS_3
100
AcDbLine
 62
7
  6
BYLAYER
 10
30.1140006541
 20
20.0804168791
 11
30.1140006541
 21
23.7511562627
  0
LINE
  5
315
100
AcDbEntity
  8
00_COMPONENTS_3
100
AcDbLine
 62
7
  6
BYLAYER
 10
30.2353238811
 20
23.7511562627
 11
30.2353238811
 21
20.0804168791
  0
LINE
  5
316
100
AcDbEntity
  8
00_COMPONENTS_3
100
AcDbLine
 62
7
  6
BYLAYER
 10
30.3482797393
 20
20.3939813838
 11
30.3482797393
 21
23.7511562627
  0
LINE
  5
317
100
AcDbEntity
  8
0
100
AcDbLine
 62
7
  6
BYLAYER
 10
46.702406598
 20
73.4272791317
 11
52.1444418073
 21
78.8693143411
  0
LINE
  5
318
100
AcDbEntity
  8
0
100
AcDbLine
 62
7
  6
BYLAYER
 10
47.0885576112
 20
73.7595486082
 11
46.9089524888
 21
73.5799434858
  0
LINE
  5
319
100
AcDbEntity
  8
0
100
AcDbLine
 62
7
  6
BYLAYER
 10
46.3701371215
 20
73.0411281185
 11
44.8434935809
 21
71.5144845779
  0
LINE
  5
31A
100
AcDbEntity
  8
0
100
AcDbLine
 62
7
  6
BYLAYER
 10
49.0945617827
 20
75.6689361054
 11
49.7411402234
 21
76.3155145462
  0
LINE
  5
31B
100
AcDbEntity
  8
0
100
AcDbLine
 62
7
  6
BYLAYER
 10
50.3633106181
 20
75.6933441515
 11
49.7167321774
 21
75.0467657108
  0
LINE
  5
31C
100
AcDbEntity
  8
00_COMPONENTS_3
100
AcDbLine
 62
7
  6
BYLAYER
 10
30.4756492966
 20
20.4745562627
 11
30.4756492966
 21
23.7511562627
  0
LINE
  5
31D
100
AcDbEntity
  8
00_COMPONENTS_3
100
AcDbLine
 62
7
  6
BYLAYER
 10
30.5520469867
 20
23.7511562627
 11
30.5520469867
 21
20.4745562627
  0
LINE
  5
31E
100
AcDbEntity
  8
00_COMPONENTS_3
100
AcDbLine
 62
7
  6
BYLAYER
 10
30.7555116896
 20
23.7511562627
 11
30.7555116896
 21
20.3939813838
  0
LINE
  5
31F
100
AcDbEntity
  8
0
100
AcDbLine
 62
7
  6
BYLAYER
 10
31.1244623374
 20
63.7392229294
 11
31.1244623374
 21
58.7777562627
  0
LINE
  5
320
100
AcDbEntity
  8
00_COMPONENTS_3
100
AcDbLine
 62
7
  6
BYLAYER
 10
31.1656197883
 20
20.0804168791
 11
31.1656197883
 21
23.7511562627
  0
LINE
  5
321
100
AcDbEntity
  8
00_COMPONENTS_3
100
AcDbLine
 62
7
  6
BYLAYER
 10
31.2925862548
 20
23.7511562627
 11
31.2925862548
 21
20.0804168791
  0
LINE
  5
322
100
AcDbEntity
  8
00_COMPONENTS
100
AcDbLine
 62
7
  6
BYLAYER
 10
31.4316525597
 20
48.4399562627
 11
31.4316525597
 21
46.9159562627
  0
LINE
  5
323
100
AcDbEntity
  8
00_COMPONENTS_3
100
AcDbLine
 62
7
  6
BYLAYER
 10
31.4418533955
 20
20.3939813838
 11
31.4418533955
 21
23.7511562627
  0
LINE
  5
324
100
AcDbEntity
  8
00_COMPONENTS_3
100
AcDbLine
 62
7
  6
BYLAYER
 10
31.5826134164
 20
20.4745562627
 11
31.5826134164
 21
23.7511562627
  0
LINE
  5
325
100
AcDbEntity
  8
00_COMPONENTS_3
100
AcDbLine
 62
7
  6
BYLAYER
 10
31.6621865846
 20
23.7511562627
 11
31.6621865846
 21
20.4745562627
  0
LINE
  5
326
100
AcDbEntity
  8
00_COMPONENTS_3
100
AcDbLine
 62
7
  6
BYLAYER
 10
31.866011985
 20
23.7511562627
 11
31.866011985
 21
20.3939813838
  0
LINE
  5
327
100
AcDbEntity
  8
00_COMPONENTS_3
100
AcDbLine
 62
7
  6
BYLAYER
 10
32.2615500101
 20
20.0804168791
 11
32.2615500101
 21
23.7511562627
  0
LINE
  5
328
100
AcDbEntity
  8
00_COMPONENTS_3
100
AcDbLine
 62
7
  6
BYLAYER
 10
32.3931934245
 20
23.7511562627
 11
32.3931934245
 21
20.0804168791
  0
LINE
  5
329
100
AcDbEntity
  8
00_COMPONENTS_3
100
AcDbLine
 62
7
  6
BYLAYER
 10
32.5776358346
 20
20.3939813838
 11
32.5776358346
 21
23.7511562627
  0
LINE
  5
32A
100
AcDbEntity
  8
00_COMPONENTS_3
100
AcDbLine
 62
7
  6
BYLAYER
 10
32.7307150504
 20
20.4745562627
 11
32.7307150504
 21
23.7511562627
  0
LINE
  5
32B
100
AcDbEntity
  8
00_COMPONENTS_3
100
AcDbLine
 62
7
  6
BYLAYER
 10
32.8128580968
 20
23.7511562627
 11
32.8128580968
 21
20.4745562627
  0
LINE
  5
32C
100
AcDbEntity
  8
00_COMPONENTS_3
100
AcDbLine
 62
7
  6
BYLAYER
 10
33.0154929603
 20
23.7511562627
 11
33.0154929603
 21
20.3939813838
  0
LINE
  5
32D
100
AcDbEntity
  8
00_COMPONENTS_3
100
AcDbLine
 62
7
  6
BYLAYER
 10
33.3934506285
 20
20.0804168791
 11
33.3934506285
 21
23.7511562627
  0
LINE
  5
32E
100
AcDbEntity
  8
0
100
AcDbLine
 62
7
  6
BYLAYER
 10
33.5048025597
 20
90.8579562627
 11
33.5048025597
 21
92.6613562627
  0
LINE
  5
32F
100
AcDbEntity
  8
00_COMPONENTS_3
100
AcDbLine
 62
7
  6
BYLAYER
 10
33.528769105
 20
23.7511562627
 11
33.528769105
 21
20.0804168791
  0
LINE
  5
330
100
AcDbEntity
  8
0
100
AcDbLine
 62
7
  6
BYLAYER
 10
43.665341915
 20
83.1421781406
 11
43.6401392607
 21
83.0630939496
  0
LINE
  5
331
100
AcDbEntity
  8
0
100
AcDbLine
 62
7
  6
BYLAYER
 10
47.3220442703
 20
69.0359338885
 11
48.8486878109
 21
70.5625774291
  0
LINE
  5
332
100
AcDbEntity
  8
0
100
AcDbLine
 62
7
  6
BYLAYER
 10
49.3875031782
 20
71.1013927963
 11
49.5671083006
 21
71.2809979188
  0
LINE
  5
333
100
AcDbEntity
  8
0
100
AcDbLine
 62
7
  6
BYLAYER
 10
49.2348388241
 20
70.8948469056
 11
54.6768740335
 21
76.3368821149
  0
LINE
  5
334
100
AcDbEntity
  8
0
100
AcDbLine
 62
7
  6
BYLAYER
 10
47.8788201498
 20
68.479158009
 11
49.7646739353
 21
70.3650117944
  0
LINE
  5
335
100
AcDbEntity
  8
0
100
AcDbLine
 62
7
  6
BYLAYER
 10
50.2136867413
 20
69.9159989884
 11
48.3278329559
 21
68.0301452029
  0
LINE
  5
336
100
AcDbEntity
  8
0
100
AcDbLine
 62
7
  6
BYLAYER
 10
48.4355960293
 20
67.9223821295
 11
50.3214498148
 21
69.8082359149
  0
LINE
  5
337
100
AcDbEntity
  8
00_COMPONENTS
100
AcDbLine
 62
7
  6
BYLAYER
 10
18.5729025597
 20
45.6459562627
 11
55.6568983756
 21
45.6459562627
  0
LINE
  5
338
100
AcDbEntity
  8
00_COMPONENTS
100
AcDbLine
 62
7
  6
BYLAYER
 10
17.1442982553
 20
46.9159562627
 11
56.8315068641
 21
46.9159562627
  0
LINE
  5
339
100
AcDbEntity
  8
00_COMPONENTS_3
100
AcDbLine
 62
7
  6
BYLAYER
 10
33.7469830665
 20
20.3939813838
 11
33.7469830665
 21
23.7511562627
  0
LINE
  5
33A
100
AcDbEntity
  8
00_COMPONENTS_3
100
AcDbLine
 62
7
  6
BYLAYER
 10
33.9112164519
 20
20.4745562627
 11
33.9112164519
 21
23.7511562627
  0
LINE
  5
33B
100
AcDbEntity
  8
00_COMPONENTS
100
AcDbLine
 62
7
  6
BYLAYER
 10
33.9188088824
 20
46.9159562627
 11
33.9188088824
 21
45.6459562627
  0
LINE
  5
33C
100
AcDbEntity
  8
00_COMPONENTS_3
100
AcDbLine
 62
7
  6
BYLAYER
 10
33.9953042184
 20
23.7511562627
 11
33.9953042184
 21
20.4745562627
  0
LINE
  5
33D
100
AcDbEntity
  8
00_COMPONENTS_3
100
AcDbLine
 62
7
  6
BYLAYER
 10
34.1952063713
 20
23.7511562627
 11
34.1952063713
 21
20.3939813838
  0
LINE
  5
33E
100
AcDbEntity
  8
00_COMPONENTS_3
100
AcDbLine
 62
7
  6
BYLAYER
 10
34.5527071966
 20
20.0804168791
 11
34.5527071966
 21
23.7511562627
  0
LINE
  5
33F
100
AcDbEntity
  8
00_COMPONENTS_3
100
AcDbLine
 62
7
  6
BYLAYER
 10
34.6906708799
 20
23.7511562627
 11
34.6906708799
 21
20.0804168791
  0
LINE
  5
340
100
AcDbEntity
  8
00_COMPONENTS_3
100
AcDbLine
 62
7
  6
BYLAYER
 10
34.9409956527
 20
20.3939813838
 11
34.9409956527
 21
23.7511562627
  0
LINE
  5
341
100
AcDbEntity
  8
00_COMPONENTS_3
100
AcDbLine
 62
7
  6
BYLAYER
 10
35.1151332925
 20
20.4745562627
 11
35.1151332925
 21
23.7511562627
  0
LINE
  5
342
100
AcDbEntity
  8
00_COMPONENTS_3
100
AcDbLine
 62
7
  6
BYLAYER
 10
35.2005258203
 20
23.7511562627
 11
35.2005258203
 21
20.4745562627
  0
LINE
  5
343
100
AcDbEntity
  8
00_COMPONENTS_3
100
AcDbLine
 62
7
  6
BYLAYER
 10
35.3961738865
 20
23.7511562627
 11
35.3961738865
 21
20.3939813838
  0
LINE
  5
344
100
AcDbEntity
  8
00_COMPONENTS_3
100
AcDbLine
 62
7
  6
BYLAYER
 10
35.7304970718
 20
20.0804168791
 11
35.7304970718
 21
23.7511562627
  0
LINE
  5
345
100
AcDbEntity
  8
00_COMPONENTS_2
100
AcDbLine
 62
7
  6
BYLAYER
 10
35.8398557523
 20
19.6871562627
 11
35.8398557523
 21
8.6452494391
  0
LINE
  5
346
100
AcDbEntity
  8
00_COMPONENTS_3
100
AcDbLine
 62
7
  6
BYLAYER
 10
35.8700559749
 20
23.7511562627
 11
35.8700559749
 21
20.0804168791
  0
LINE
  5
347
100
AcDbEntity
  8
00_COMPONENTS_2
100
AcDbLine
 62
7
  6
BYLAYER
 10
36.0891209323
 20
19.6871562627
 11
36.0891209323
 21
8.6707354042
  0
LINE
  5
348
100
AcDbEntity
  8
00_COMPONENTS_3
100
AcDbLine
 62
7
  6
BYLAYER
 10
36.1505864364
 20
20.3939813838
 11
36.1505864364
 21
23.7511562627
  0
LINE
  5
349
100
AcDbEntity
  8
00_COMPONENTS_3
100
AcDbLine
 62
7
  6
BYLAYER
 10
36.3333030379
 20
20.4745562627
 11
36.3333030379
 21
23.7511562627
  0
LINE
  5
34A
100
AcDbEntity
  8
00_COMPONENTS_2
100
AcDbLine
 62
7
  6
BYLAYER
 10
36.3477690911
 20
8.6696347034
 11
36.3477690911
 21
19.6871562627
  0
LINE
  5
34B
100
AcDbEntity
  8
00_COMPONENTS_3
100
AcDbLine
 62
7
  6
BYLAYER
 10
36.4193504384
 20
23.7511562627
 11
36.4193504384
 21
20.4745562627
  0
LINE
  5
34C
100
AcDbEntity
  8
00_COMPONENTS_3
100
AcDbLine
 62
7
  6
BYLAYER
 10
36.6092554181
 20
23.7511562627
 11
36.6092554181
 21
20.3939813838
  0
LINE
  5
34D
100
AcDbEntity
  8
0
100
AcDbLine
 62
7
  6
BYLAYER
 10
57.2901285647
 20
74.1226788079
 11
49.5132267639
 21
66.3457770071
  0
LINE
  5
34E
100
AcDbEntity
  8
00_COMPONENTS
100
AcDbLine
 62
7
  6
BYLAYER
 10
17.1442982553
 20
48.4399562627
 11
56.8315068641
 21
48.4399562627
  0
LINE
  5
34F
100
AcDbEntity
  8
0
100
AcDbLine
 62
7
  6
BYLAYER
 10
25.9490347022
 20
74.2085614142
 11
25.9238320479
 21
74.2876456052
  0
LINE
  5
350
100
AcDbEntity
  8
00_COMPONENTS_3
100
AcDbLine
 62
7
  6
BYLAYER
 10
36.917856562
 20
23.7511562627
 11
36.9178564817
 21
20.08041675
  0
LINE
  5
351
100
AcDbEntity
  8
00_COMPONENTS
100
AcDbLine
 62
7
  6
BYLAYER
 10
36.9879025597
 20
8.4595939507
 11
36.9879025597
 21
-24.9776437373
  0
LINE
  5
352
100
AcDbEntity
  8
00_COMPONENTS_3
100
AcDbLine
 62
7
  6
BYLAYER
 10
37.0579485575
 20
23.7511562627
 11
37.057948465
 21
20.0804167446
  0
LINE
  5
353
100
AcDbEntity
  8
00_COMPONENTS_3
100
AcDbLine
 62
7
  6
BYLAYER
 10
37.3665497013
 20
20.3939813838
 11
37.3665497013
 21
23.7511562627
  0
LINE
  5
354
100
AcDbEntity
  8
00_COMPONENTS_3
100
AcDbLine
 62
7
  6
BYLAYER
 10
37.556454681
 20
20.4745562627
 11
37.556454681
 21
23.7511562627
  0
LINE
  5
355
100
AcDbEntity
  8
00_COMPONENTS_3
100
AcDbLine
 62
7
  6
BYLAYER
 10
37.6425020815
 20
23.7511562627
 11
37.6425020815
 21
20.4745562627
  0
LINE
  5
356
100
AcDbEntity
  8
00_COMPONENTS_3
100
AcDbLine
 62
7
  6
BYLAYER
 10
37.8252186831
 20
23.7511562627
 11
37.8252186831
 21
20.3939813838
  0
LINE
  5
357
100
AcDbEntity
  8
00_COMPONENTS_3
100
AcDbLine
 62
7
  6
BYLAYER
 10
38.1057491445
 20
23.7511562627
 11
38.1057490807
 21
20.0804167053
  0
LINE
  5
358
100
AcDbEntity
  8
00_COMPONENTS_3
100
AcDbLine
 62
7
  6
BYLAYER
 10
38.2453080476
 20
23.7511562627
 11
38.2453079423
 21
20.0804167002
  0
LINE
  5
359
100
AcDbEntity
  8
00_COMPONENTS_3
100
AcDbLine
 62
7
  6
BYLAYER
 10
38.5796312329
 20
20.3939813838
 11
38.5796312329
 21
23.7511562627
  0
LINE
  5
35A
100
AcDbEntity
  8
00_COMPONENTS_3
100
AcDbLine
 62
7
  6
BYLAYER
 10
38.7752792991
 20
20.4745562627
 11
38.7752792991
 21
23.7511562627
  0
LINE
  5
35B
100
AcDbEntity
  8
00_COMPONENTS_3
100
AcDbLine
 62
7
  6
BYLAYER
 10
38.860671827
 20
23.7511562627
 11
38.860671827
 21
20.4745562627
  0
LINE
  5
35C
100
AcDbEntity
  8
00_COMPONENTS_3
100
AcDbLine
 62
7
  6
BYLAYER
 10
39.0348094667
 20
23.7511562627
 11
39.0348094667
 21
20.3939813838
  0
LINE
  5
35D
100
AcDbEntity
  8
00_COMPONENTS_3
100
AcDbLine
 62
7
  6
BYLAYER
 10
39.2851342395
 20
23.7511562627
 11
39.285134191
 21
20.0804166622
  0
LINE
  5
35E
100
AcDbEntity
  8
00_COMPONENTS_2
100
AcDbLine
 62
7
  6
BYLAYER
 10
39.395248754
 20
19.6871562627
 11
39.395248754
 21
8.8159462713
  0
LINE
  5
35F
100
AcDbEntity
  8
00_COMPONENTS_3
100
AcDbLine
 62
7
  6
BYLAYER
 10
39.4230979228
 20
23.7511562627
 11
39.4230978057
 21
20.0804166573
  0
LINE
  5
360
100
AcDbEntity
  8
00_COMPONENTS_2
100
AcDbLine
 62
7
  6
BYLAYER
 10
39.644513934
 20
19.6871562627
 11
39.644513934
 21
8.8414322363
  0
LINE
  5
361
100
AcDbEntity
  8
00_COMPONENTS_3
100
AcDbLine
 62
7
  6
BYLAYER
 10
39.7805987481
 20
20.3939813838
 11
39.7805987481
 21
23.7511562627
  0
LINE
  5
362
100
AcDbEntity
  8
00_COMPONENTS_2
100
AcDbLine
 62
7
  6
BYLAYER
 10
39.9031620928
 20
8.8403315356
 11
39.9031620928
 21
19.6871562627
  0
LINE
  5
363
100
AcDbEntity
  8
0
100
AcDbLine
 62
7
  6
BYLAYER
 10
47.5627730715
 20
74.2876456052
 11
47.5375704172
 21
74.2085614142
  0
LINE
  5
364
100
AcDbEntity
  8
0
100
AcDbLine
 62
7
  6
BYLAYER
 10
23.9733783555
 20
66.3457770071
 11
16.1964765547
 21
74.1226788079
  0
LINE
  5
365
100
AcDbEntity
  8
00_COMPONENTS_3
100
AcDbLine
 62
7
  6
BYLAYER
 10
39.980500901
 20
20.4745562627
 11
39.980500901
 21
23.7511562627
  0
LINE
  5
366
100
AcDbEntity
  8
0
100
AcDbLine
 62
7
  6
BYLAYER
 10
39.9818025597
 20
90.8579562627
 11
39.9818025597
 21
92.6613562627
  0
LINE
  5
367
100
AcDbEntity
  8
00_COMPONENTS
100
AcDbLine
 62
7
  6
BYLAYER
 10
40.056996237
 20
45.6459562627
 11
40.056996237
 21
46.9159562627
  0
LINE
  5
368
100
AcDbEntity
  8
00_COMPONENTS_3
100
AcDbLine
 62
7
  6
BYLAYER
 10
40.0645886675
 20
23.7511562627
 11
40.0645886675
 21
20.4745562627
  0
LINE
  5
369
100
AcDbEntity
  8
00_COMPONENTS_3
100
AcDbLine
 62
7
  6
BYLAYER
 10
40.2288220529
 20
23.7511562627
 11
40.2288220529
 21
20.3939813838
  0
LINE
  5
36A
100
AcDbEntity
  8
00_COMPONENTS_3
100
AcDbLine
 62
7
  6
BYLAYER
 10
40.4470360144
 20
23.7511562627
 11
40.4470359797
 21
20.080416621
  0
LINE
  5
36B
100
AcDbEntity
  8
00_COMPONENTS_3
100
AcDbLine
 62
7
  6
BYLAYER
 10
40.5823544909
 20
23.7511562627
 11
40.5823543634
 21
20.0804166163
  0
LINE
  5
36C
100
AcDbEntity
  8
00_COMPONENTS_3
100
AcDbLine
 62
7
  6
BYLAYER
 10
40.9603121591
 20
20.3939813838
 11
40.9603121591
 21
23.7511562627
  0
LINE
  5
36D
100
AcDbEntity
  8
00_COMPONENTS_3
100
AcDbLine
 62
7
  6
BYLAYER
 10
41.1629470226
 20
20.4745562627
 11
41.1629470226
 21
23.7511562627
  0
LINE
  5
36E
100
AcDbEntity
  8
00_COMPONENTS_3
100
AcDbLine
 62
7
  6
BYLAYER
 10
41.245090069
 20
23.7511562627
 11
41.245090069
 21
20.4745562627
  0
LINE
  5
36F
100
AcDbEntity
  8
00_COMPONENTS_3
100
AcDbLine
 62
7
  6
BYLAYER
 10
41.3981692848
 20
23.7511562627
 11
41.3981692848
 21
20.3939813838
  0
LINE
  5
370
100
AcDbEntity
  8
00_COMPONENTS_3
100
AcDbLine
 62
7
  6
BYLAYER
 10
41.582611695
 20
23.7511562627
 11
41.5826116722
 21
20.0804165819
  0
LINE
  5
371
100
AcDbEntity
  8
00_COMPONENTS_3
100
AcDbLine
 62
7
  6
BYLAYER
 10
41.7142551094
 20
23.7511562627
 11
41.7142549734
 21
20.0804165774
  0
LINE
  5
372
100
AcDbEntity
  8
00_COMPONENTS_3
100
AcDbLine
 62
7
  6
BYLAYER
 10
42.1097931345
 20
20.3939813838
 11
42.1097931345
 21
23.7511562627
  0
LINE
  5
373
100
AcDbEntity
  8
00_COMPONENTS_3
100
AcDbLine
 62
7
  6
BYLAYER
 10
42.3136185348
 20
20.4745562627
 11
42.3136185348
 21
23.7511562627
  0
LINE
  5
374
100
AcDbEntity
  8
00_COMPONENTS_3
100
AcDbLine
 62
7
  6
BYLAYER
 10
42.393191703
 20
23.7511562627
 11
42.393191703
 21
20.4745562627
  0
LINE
  5
375
100
AcDbEntity
  8
00_COMPONENTS_3
100
AcDbLine
 62
7
  6
BYLAYER
 10
42.5339517239
 20
23.7511562627
 11
42.5339517239
 21
20.3939813838
  0
LINE
  5
376
100
AcDbEntity
  8
00_COMPONENTS
100
AcDbLine
 62
7
  6
BYLAYER
 10
42.5441525597
 20
46.9159562627
 11
42.5441525597
 21
48.4399562627
  0
LINE
  5
377
100
AcDbEntity
  8
00_COMPONENTS_3
100
AcDbLine
 62
7
  6
BYLAYER
 10
42.6832188516
 20
20.0804165453
 11
42.6832188647
 21
23.7511562627
  0
LINE
  5
378
100
AcDbEntity
  8
00_COMPONENTS_3
100
AcDbLine
 62
7
  6
BYLAYER
 10
42.8101853311
 20
23.7511562627
 11
42.8101851887
 21
20.0804165411
  0
LINE
  5
379
100
AcDbEntity
  8
0
100
AcDbLine
 62
7
  6
BYLAYER
 10
42.851342782
 20
58.7777562627
 11
42.851342782
 21
63.7392229294
  0
LINE
  5
37A
100
AcDbEntity
  8
00_COMPONENTS_2
100
AcDbLine
 62
7
  6
BYLAYER
 10
42.9506417557
 20
19.6871562627
 11
42.9506417557
 21
8.9866431035
  0
LINE
  5
37B
100
AcDbEntity
  8
0
100
AcDbLine
 62
7
  6
BYLAYER
 10
17.1443227207
 20
54.7899562627
 11
56.8314823988
 21
54.7899562627
  0
LINE
  5
37C
100
AcDbEntity
  8
0
100
AcDbLine
 62
7
  6
BYLAYER
 10
16.6934773399
 20
56.3774562627
 11
57.2823277795
 21
56.3774562627
  0
LINE
  5
37D
100
AcDbEntity
  8
0
100
AcDbLine
 62
7
  6
BYLAYER
 10
23.1651553046
 20
69.8082359149
 11
25.0510090901
 21
67.9223821295
  0
LINE
  5
37E
100
AcDbEntity
  8
0
100
AcDbLine
 62
7
  6
BYLAYER
 10
25.1587721635
 20
68.0301452029
 11
23.2729183781
 21
69.9159989884
  0
LINE
  5
37F
100
AcDbEntity
  8
0
100
AcDbLine
 62
7
  6
BYLAYER
 10
23.7219311842
 20
70.3650117944
 11
25.6077849696
 21
68.479158009
  0
LINE
  5
380
100
AcDbEntity
  8
0
100
AcDbLine
 62
7
  6
BYLAYER
 10
24.2517662953
 20
70.8948469056
 11
18.8097310859
 21
76.3368821149
  0
LINE
  5
381
100
AcDbEntity
  8
0
100
AcDbLine
 62
7
  6
BYLAYER
 10
23.9194968188
 20
71.2809979188
 11
24.0991019412
 21
71.1013927963
  0
LINE
  5
382
100
AcDbEntity
  8
0
100
AcDbLine
 62
7
  6
BYLAYER
 10
24.6379173085
 20
70.5625774291
 11
26.1645608491
 21
69.0359338885
  0
LINE
  5
383
100
AcDbEntity
  8
0
100
AcDbLine
 62
7
  6
BYLAYER
 10
22.0101093216
 20
73.2870020903
 11
21.3635308808
 21
73.933580531
  0
LINE
  5
384
100
AcDbEntity
  8
0
100
AcDbLine
 62
7
  6
BYLAYER
 10
29.8464658587
 20
83.0630939496
 11
29.8212632044
 21
83.1421781406
  0
LINE
  5
385
100
AcDbEntity
  8
00_COMPONENTS_2
100
AcDbLine
 62
7
  6
BYLAYER
 10
43.1999069357
 20
19.6871562627
 11
43.1999069357
 21
9.0121290685
  0
LINE
  5
386
100
AcDbEntity
  8
00_COMPONENTS_3
100
AcDbLine
 62
7
  6
BYLAYER
 10
43.2202934298
 20
20.3939813838
 11
43.2202934298
 21
23.7511562627
  0
LINE
  5
387
100
AcDbEntity
  8
00_COMPONENTS_3
100
AcDbLine
 62
7
  6
BYLAYER
 10
43.4237581327
 20
20.4745562627
 11
43.4237581327
 21
23.7511562627
  0
LINE
  5
388
100
AcDbEntity
  8
00_COMPONENTS_2
100
AcDbLine
 62
7
  6
BYLAYER
 10
43.4585550945
 20
9.0110283678
 11
43.4585550945
 21
19.6871562627
  0
LINE
  5
389
100
AcDbEntity
  8
00_COMPONENTS_3
100
AcDbLine
 62
7
  6
BYLAYER
 10
43.5001558228
 20
23.7511562627
 11
43.5001558228
 21
20.4745562627
  0
LINE
  5
38A
100
AcDbEntity
  8
00_COMPONENTS_3
100
AcDbLine
 62
7
  6
BYLAYER
 10
43.6275253801
 20
23.7511562627
 11
43.6275253801
 21
20.3939813838
  0
LINE
  5
38B
100
AcDbEntity
  8
00_COMPONENTS_3
100
AcDbLine
 62
7
  6
BYLAYER
 10
43.7404812326
 20
20.0804165114
 11
43.7404812384
 21
23.7511562627
  0
LINE
  5
38C
100
AcDbEntity
  8
00_COMPONENTS_3
100
AcDbLine
 62
7
  6
BYLAYER
 10
43.8618044653
 20
23.7511562627
 11
43.8618043188
 21
20.0804165076
  0
LINE
  5
38D
100
AcDbEntity
  8
00_COMPONENTS
100
AcDbLine
 62
7
  6
BYLAYER
 10
44.2211068926
 20
45.6459562627
 11
44.2211068926
 21
40.1836074684
  0
LINE
  5
38E
100
AcDbEntity
  8
00_COMPONENTS_3
100
AcDbLine
 62
7
  6
BYLAYER
 10
44.2833614675
 20
20.3939813838
 11
44.2833614675
 21
23.7511562627
  0
LINE
  5
38F
100
AcDbEntity
  8
00_COMPONENTS_3
100
AcDbLine
 62
7
  6
BYLAYER
 10
44.4849169836
 20
20.4745562627
 11
44.4849169836
 21
23.7511562627
  0
LINE
  5
390
100
AcDbEntity
  8
00_COMPONENTS_3
100
AcDbLine
 62
7
  6
BYLAYER
 10
44.557557763
 20
23.7511562627
 11
44.557557763
 21
20.4745562627
  0
LINE
  5
391
100
AcDbEntity
  8
00_COMPONENTS_3
100
AcDbLine
 62
7
  6
BYLAYER
 10
44.6705674975
 20
23.7511562627
 11
44.6705674975
 21
20.3939813838
  0
LINE
  5
392
100
AcDbEntity
  8
00_COMPONENTS_3
100
AcDbLine
 62
7
  6
BYLAYER
 10
44.7463524098
 20
20.0804164806
 11
44.746352411
 21
23.7511562627
  0
LINE
  5
393
100
AcDbEntity
  8
00_COMPONENTS_3
100
AcDbLine
 62
7
  6
BYLAYER
 10
44.8611090555
 20
23.7511562627
 11
44.8611089073
 21
20.0804164771
  0
LINE
  5
394
100
AcDbEntity
  8
00_COMPONENTS_3
100
AcDbLine
 62
7
  6
BYLAYER
 10
45.2909066577
 20
20.3939813838
 11
45.2909066577
 21
23.7511562627
  0
LINE
  5
395
100
AcDbEntity
  8
00_COMPONENTS_3
100
AcDbLine
 62
7
  6
BYLAYER
 10
45.4890190279
 20
20.4745562627
 11
45.4890190279
 21
23.7511562627
  0
LINE
  5
396
100
AcDbEntity
  8
00_COMPONENTS_3
100
AcDbLine
 62
7
  6
BYLAYER
 10
45.5573500565
 20
23.7511562627
 11
45.5573500565
 21
20.4745562627
  0
LINE
  5
397
100
AcDbEntity
  8
00_COMPONENTS_3
100
AcDbLine
 62
7
  6
BYLAYER
 10
45.6551398958
 20
23.7511562627
 11
45.6551398958
 21
20.3939813838
  0
LINE
  5
398
100
AcDbEntity
  8
00_COMPONENTS_3
100
AcDbLine
 62
7
  6
BYLAYER
 10
45.6931770963
 20
20.0804164529
 11
45.6931770956
 21
23.7511562627
  0
LINE
  5
399
100
AcDbEntity
  8
00_COMPONENTS_3
100
AcDbLine
 62
7
  6
BYLAYER
 10
45.8004937902
 20
23.7511562627
 11
45.800493643
 21
20.0804164499
  0
LINE
  5
39A
100
AcDbEntity
  8
00_COMPONENTS_3
100
AcDbLine
 62
7
  6
BYLAYER
 10
46.2352609732
 20
20.3939813838
 11
46.2352609732
 21
23.7511562627
  0
LINE
  5
39B
100
AcDbEntity
  8
0
100
AcDbLine
 62
7
  6
BYLAYER
 10
14.2295025597
 20
58.7777562627
 11
58.4255025597
 21
58.7777562627
  0
LINE
  5
39C
100
AcDbEntity
  8
0
100
AcDbLine
 62
7
  6
BYLAYER
 10
21.9857012755
 20
74.5557509257
 11
22.6322797162
 21
73.9091724849
  0
LINE
  5
39D
100
AcDbEntity
  8
0
100
AcDbLine
 62
7
  6
BYLAYER
 10
28.6431115385
 20
71.5144845779
 11
27.1164679979
 21
73.0411281185
  0
LINE
  5
39E
100
AcDbEntity
  8
0
100
AcDbLine
 62
7
  6
BYLAYER
 10
26.5776526307
 20
73.5799434858
 11
26.3980475082
 21
73.7595486082
  0
LINE
  5
39F
100
AcDbEntity
  8
0
100
AcDbLine
 62
7
  6
BYLAYER
 10
26.7841985214
 20
73.4272791317
 11
21.3421633121
 21
78.8693143411
  0
LINE
  5
3A0
100
AcDbEntity
  8
00_COMPONENTS_3
100
AcDbLine
 62
7
  6
BYLAYER
 10
46.4284224428
 20
20.4745562627
 11
46.4284224428
 21
23.7511562627
  0
LINE
  5
3A1
100
AcDbEntity
  8
00_COMPONENTS_3
100
AcDbLine
 62
7
  6
BYLAYER
 10
46.4919236802
 20
23.7511562627
 11
46.4919236802
 21
20.4745562627
  0
LINE
  5
3A2
100
AcDbEntity
  8
00_COMPONENTS_2
100
AcDbLine
 62
7
  6
BYLAYER
 10
46.5723645725
 20
19.6871562627
 11
46.5723645725
 21
9.1605244751
  0
LINE
  5
3A3
100
AcDbEntity
  8
00_COMPONENTS_3
100
AcDbLine
 62
7
  6
BYLAYER
 10
46.5737493845
 20
20.0804164287
 11
46.5737493845
 21
23.7511562627
  0
LINE
  5
3A4
100
AcDbEntity
  8
00_COMPONENTS_3
100
AcDbLine
 62
7
  6
BYLAYER
 10
46.6728093845
 20
23.7511562627
 11
46.6728092407
 21
20.0804164261
  0
LINE
  5
3A5
100
AcDbEntity
  8
00_COMPONENTS_2
100
AcDbLine
 62
7
  6
BYLAYER
 10
46.8216297525
 20
19.6871562627
 11
46.8216297525
 21
9.1860104401
  0
LINE
  5
3A6
100
AcDbEntity
  8
00_COMPONENTS_2
100
AcDbLine
 62
7
  6
BYLAYER
 10
47.0802779113
 20
9.1849097394
 11
47.0802779113
 21
18.937587462
  0
LINE
  5
3A7
100
AcDbEntity
  8
00_COMPONENTS_3
100
AcDbLine
 62
7
  6
BYLAYER
 10
47.1092373075
 20
20.3939813838
 11
47.1092373075
 21
23.7511562627
  0
LINE
  5
3A8
100
AcDbEntity
  8
00_COMPONENTS_2
100
AcDbLine
 62
7
  6
BYLAYER
 10
47.2749025597
 20
19.6871562627
 11
47.2749025597
 21
18.8997567694
  0
LINE
  5
3A9
100
AcDbEntity
  8
00_COMPONENTS_3
100
AcDbLine
 62
7
  6
BYLAYER
 10
47.295977801
 20
20.4745562627
 11
47.295977801
 21
23.7511562627
  0
LINE
  5
3AA
100
AcDbEntity
  8
00_COMPONENTS_3
100
AcDbLine
 62
7
  6
BYLAYER
 10
47.3541659645
 20
23.7511562627
 11
47.3541659645
 21
20.4745562627
  0
LINE
  5
3AB
100
AcDbEntity
  8
00_COMPONENTS_3
100
AcDbLine
 62
7
  6
BYLAYER
 10
47.4203713376
 20
20.4093988627
 11
47.4203713376
 21
23.7511562627
  0
LINE
  5
3AC
100
AcDbEntity
  8
00_COMPONENTS_3
100
AcDbLine
 62
7
  6
BYLAYER
 10
47.47141699
 20
23.7511562627
 11
47.4714168519
 21
20.080416406
  0
LINE
  5
3AD
100
AcDbEntity
  8
00_COMPONENTS_3
100
AcDbLine
 62
7
  6
BYLAYER
 10
47.906184173
 20
20.3939813838
 11
47.906184173
 21
23.7511562627
  0
LINE
  5
3AE
100
AcDbEntity
  8
00_COMPONENTS_3
100
AcDbLine
 62
7
  6
BYLAYER
 10
48.0850824825
 20
20.4745562627
 11
48.0850824825
 21
23.7511562627
  0
LINE
  5
3AF
100
AcDbEntity
  8
00_COMPONENTS_3
100
AcDbLine
 62
7
  6
BYLAYER
 10
48.1375147249
 20
23.7511562627
 11
48.1375147249
 21
20.4745562627
  0
LINE
  5
3B0
100
AcDbEntity
  8
00_COMPONENTS_3
100
AcDbLine
 62
7
  6
BYLAYER
 10
48.1895289972
 20
20.4233909204
 11
48.1895289972
 21
23.7511562627
  0
LINE
  5
3B1
100
AcDbEntity
  8
00_COMPONENTS_3
100
AcDbLine
 62
7
  6
BYLAYER
 10
48.1902386016
 20
20.3939813836
 11
48.1902385905
 21
20.0804163897
  0
LINE
  5
3B2
100
AcDbEntity
  8
00_COMPONENTS_3
100
AcDbLine
 62
7
  6
BYLAYER
 10
48.6200363227
 20
20.3939813838
 11
48.6200363227
 21
23.7511562627
  0
LINE
  5
3B3
100
AcDbEntity
  8
00_COMPONENTS_3
100
AcDbLine
 62
7
  6
BYLAYER
 10
48.7897309241
 20
20.4745562627
 11
48.7897309241
 21
23.7511562627
  0
LINE
  5
3B4
100
AcDbEntity
  8
00_COMPONENTS_3
100
AcDbLine
 62
7
  6
BYLAYER
 10
48.823803795
 20
20.2741207757
 11
48.8238037887
 21
20.0804163774
  0
LINE
  5
3B5
100
AcDbEntity
  8
00_COMPONENTS_3
100
AcDbLine
 62
7
  6
BYLAYER
 10
48.8360082044
 20
23.7511562627
 11
48.8360082044
 21
20.4745562627
  0
LINE
  5
3B6
100
AcDbEntity
  8
00_COMPONENTS_3
100
AcDbLine
 62
7
  6
BYLAYER
 10
48.8753686094
 20
20.4358554968
 11
48.8753686094
 21
23.7511562627
  0
LINE
  5
3B7
100
AcDbEntity
  8
00_COMPONENTS_3
100
AcDbLine
 62
7
  6
BYLAYER
 10
49.2453609109
 20
20.3939813838
 11
49.2453609109
 21
23.7511562627
  0
LINE
  5
3B8
100
AcDbEntity
  8
00_COMPONENTS_3
100
AcDbLine
 62
7
  6
BYLAYER
 10
49.3672906362
 20
20.2040461453
 11
49.3672906325
 21
20.080416369
  0
LINE
  5
3B9
100
AcDbEntity
  8
00_COMPONENTS_3
100
AcDbLine
 62
7
  6
BYLAYER
 10
49.4045603257
 20
20.4745562627
 11
49.4045603257
 21
23.7511562627
  0
LINE
  5
3BA
100
AcDbEntity
  8
00_COMPONENTS_3
100
AcDbLine
 62
7
  6
BYLAYER
 10
49.4443304459
 20
23.7511562627
 11
49.4443304459
 21
20.4745562627
  0
LINE
  5
3BB
100
AcDbEntity
  8
00_COMPONENTS_3
100
AcDbLine
 62
7
  6
BYLAYER
 10
47.4203713374
 20
20.4093869067
 11
47.4194047909
 21
20.3939813838
  0
LINE
  5
3BC
100
AcDbEntity
  8
00_COMPONENTS_3
100
AcDbLine
 62
7
  6
BYLAYER
 10
47.380990638
 20
20.0745544182
 11
47.3813675894
 21
20.0804164205
  0
LINE
  5
3BD
100
AcDbEntity
  8
00_COMPONENTS_3
100
AcDbLine
 62
7
  6
BYLAYER
 10
23.0794245861
 20
20.4725210295
 11
23.0814969482
 21
20.4745562627
  0
LINE
  5
3BE
100
AcDbEntity
  8
00_COMPONENTS_3
100
AcDbLine
 62
7
  6
BYLAYER
 10
23.2843420404
 20
20.4688123531
 11
23.2901951673
 21
20.4745562627
  0
LINE
  5
3BF
100
AcDbEntity
  8
00_COMPONENTS_3
100
AcDbLine
 62
7
  6
BYLAYER
 10
22.978425954
 20
20.4743611137
 11
22.9786348727
 21
20.4745562627
  0
LINE
  5
3C0
100
AcDbEntity
  8
0
100
AcDbLine
 62
7
  6
BYLAYER
 10
29.199887418
 20
72.0712604574
 11
27.3140336326
 21
73.9571142428
  0
LINE
  5
3C1
100
AcDbEntity
  8
0
100
AcDbLine
 62
7
  6
BYLAYER
 10
27.7630464386
 20
74.4061270489
 11
29.6489002241
 21
72.5202732635
  0
LINE
  5
3C2
100
AcDbEntity
  8
0
100
AcDbLine
 62
7
  6
BYLAYER
 10
29.7566632975
 20
72.6280363369
 11
27.8708095121
 21
74.5138901223
  0
LINE
  5
3C3
100
AcDbEntity
  8
0
100
AcDbLine
 62
7
  6
BYLAYER
 10
24.9859002878
 20
80.3084023298
 11
20.5069994928
 21
84.7873031248
  0
LINE
  5
3C4
100
AcDbEntity
  8
00_COMPONENTS_3
100
AcDbLine
 62
7
  6
BYLAYER
 10
49.4726705204
 20
20.4745562627
 11
49.4726705204
 21
23.7511562627
  0
LINE
  5
3C5
100
AcDbEntity
  8
00_COMPONENTS_3
100
AcDbLine
 62
7
  6
BYLAYER
 10
49.7773988397
 20
20.3939813838
 11
49.7773988397
 21
23.7511562627
  0
LINE
  5
3C6
100
AcDbEntity
  8
00_COMPONENTS_3
100
AcDbLine
 62
7
  6
BYLAYER
 10
49.8165628609
 20
20.1612964677
 11
49.8165628588
 21
20.0804163648
  0
LINE
  5
3C7
100
AcDbEntity
  8
00_COMPONENTS_3
100
AcDbLine
 62
7
  6
BYLAYER
 10
49.9248914643
 20
20.4745562627
 11
49.9248914643
 21
23.7511562627
  0
LINE
  5
3C8
100
AcDbEntity
  8
00_COMPONENTS_3
100
AcDbLine
 62
7
  6
BYLAYER
 10
49.9578517498
 20
23.7511562627
 11
49.9578517498
 21
20.4745562627
  0
LINE
  5
3C9
100
AcDbEntity
  8
00_COMPONENTS_3
100
AcDbLine
 62
7
  6
BYLAYER
 10
49.9768889021
 20
20.4745562627
 11
49.9768889021
 21
23.7511562627
  0
LINE
  5
3CA
100
AcDbEntity
  8
00_COMPONENTS_3
100
AcDbLine
 62
7
  6
BYLAYER
 10
50.1682012352
 20
20.1321490017
 11
50.1682012341
 21
20.0804163646
  0
LINE
  5
3CB
100
AcDbEntity
  8
00_COMPONENTS_3
100
AcDbLine
 62
7
  6
BYLAYER
 10
50.2121009793
 20
20.3939813838
 11
50.2121009793
 21
23.7511562627
  0
LINE
  5
3CC
100
AcDbEntity
  8
00_COMPONENTS_3
100
AcDbLine
 62
7
  6
BYLAYER
 10
50.3467643058
 20
20.4745562627
 11
50.3467643058
 21
23.7511562627
  0
LINE
  5
3CD
100
AcDbEntity
  8
00_COMPONENTS_3
100
AcDbLine
 62
7
  6
BYLAYER
 10
50.3726639088
 20
23.7511562627
 11
50.3726639088
 21
20.4745562627
  0
LINE
  5
3CE
100
AcDbEntity
  8
00_COMPONENTS_3
100
AcDbLine
 62
7
  6
BYLAYER
 10
50.3841863482
 20
20.4745562627
 11
50.3841863482
 21
23.7511562627
  0
LINE
  5
3CF
100
AcDbEntity
  8
00_COMPONENTS_3
100
AcDbLine
 62
7
  6
BYLAYER
 10
50.4195295784
 20
20.1106727921
 11
50.4195295778
 21
20.0804163686
  0
LINE
  5
3D0
100
AcDbEntity
  8
00_COMPONENTS_3
100
AcDbLine
 62
7
  6
BYLAYER
 10
50.546158984
 20
20.3939813838
 11
50.546158984
 21
23.7511562627
  0
LINE
  5
3D1
100
AcDbEntity
  8
00_COMPONENTS_3
100
AcDbLine
 62
7
  6
BYLAYER
 10
50.5686351294
 20
20.0939672739
 11
50.5686351292
 21
20.0804163767
  0
LINE
  5
3D2
100
AcDbEntity
  8
00_COMPONENTS_3
100
AcDbLine
 62
7
  6
BYLAYER
 10
50.6669681431
 20
20.4745562627
 11
50.6669681431
 21
23.7511562627
  0
LINE
  5
3D3
100
AcDbEntity
  8
00_COMPONENTS_3
100
AcDbLine
 62
7
  6
BYLAYER
 10
50.6856099521
 20
23.7511562627
 11
50.6856099521
 21
20.4745562627
  0
LINE
  5
3D4
100
AcDbEntity
  8
00_COMPONENTS_3
100
AcDbLine
 62
7
  6
BYLAYER
 10
50.691463079
 20
20.4688079923
 11
50.691463079
 21
23.7511562627
  0
LINE
  5
3D5
100
AcDbEntity
  8
00_COMPONENTS_3
100
AcDbLine
 62
7
  6
BYLAYER
 10
50.7770304705
 20
20.3939813838
 11
50.7770304705
 21
23.7511562627
  0
LINE
  5
3D6
100
AcDbEntity
  8
00_COMPONENTS_3
100
AcDbLine
 62
7
  6
BYLAYER
 10
50.8830660316
 20
20.4745562627
 11
50.8830660316
 21
23.7511562627
  0
LINE
  5
3D7
100
AcDbEntity
  8
00_COMPONENTS_3
100
AcDbLine
 62
7
  6
BYLAYER
 10
50.8943081712
 20
23.7511562627
 11
50.8943081712
 21
20.4745562627
  0
LINE
  5
3D8
100
AcDbEntity
  8
00_COMPONENTS_3
100
AcDbLine
 62
7
  6
BYLAYER
 10
50.8963805333
 20
20.4725212957
 11
50.8963805333
 21
23.7511562627
  0
LINE
  5
3D9
100
AcDbEntity
  8
00_COMPONENTS_3
100
AcDbLine
 62
7
  6
BYLAYER
 10
50.9029583676
 20
20.3939813838
 11
50.9029583676
 21
23.7511562627
  0
LINE
  5
3DA
100
AcDbEntity
  8
00_COMPONENTS_3
100
AcDbLine
 62
7
  6
BYLAYER
 10
50.993413336
 20
20.4745562627
 11
50.993413336
 21
23.7511562627
  0
LINE
  5
3DB
100
AcDbEntity
  8
00_COMPONENTS_3
100
AcDbLine
 62
7
  6
BYLAYER
 10
50.9971702467
 20
23.7511562627
 11
50.9971702467
 21
20.4745562627
  0
LINE
  5
3DC
100
AcDbEntity
  8
00_COMPONENTS_3
100
AcDbLine
 62
7
  6
BYLAYER
 10
51.0087025597
 20
24.4623562627
 11
51.0087025597
 21
23.7511562627
  0
LINE
  5
3DD
100
AcDbEntity
  8
00_COMPONENTS_2
100
AcDbLine
 62
7
  6
BYLAYER
 10
51.0387940491
 20
10.343891525
 11
51.0387940491
 21
18.1681298714
  0
LINE
  5
3DE
100
AcDbEntity
  8
00_COMPONENTS_2
100
AcDbLine
 62
7
  6
BYLAYER
 10
51.2881025597
 20
10.3566455476
 11
51.2881025597
 21
18.1196692061
  0
LINE
  5
3DF
100
AcDbEntity
  8
0
100
AcDbLine
 62
7
  6
BYLAYER
 10
51.9739025597
 20
48.4399562627
 11
51.9739025597
 21
54.7899562627
  0
LINE
  5
3E0
100
AcDbEntity
  8
00_COMPONENTS_3
100
AcDbLine
 62
7
  6
BYLAYER
 10
48.1895289972
 20
20.4233944386
 11
48.1856701665
 21
20.3939813838
  0
LINE
  5
3E1
100
AcDbEntity
  8
00_COMPONENTS_3
100
AcDbLine
 62
7
  6
BYLAYER
 10
48.108380309
 20
20.0692602612
 11
48.1098852484
 21
20.0804164083
  0
LINE
  5
3E2
100
AcDbEntity
  8
0
100
AcDbLine
 62
7
  6
BYLAYER
 10
15.5503025597
 20
63.7392229294
 11
31.1244623374
 21
63.7392229294
  0
LINE
  5
3E3
100
AcDbEntity
  8
0
100
AcDbLine
 62
7
  6
BYLAYER
 10
42.851342782
 20
63.7392229294
 11
58.4255025597
 21
63.7392229294
  0
LINE
  5
3E4
100
AcDbEntity
  8
0
100
AcDbLine
 62
7
  6
BYLAYER
 10
58.4255025597
 20
66.2199562627
 11
14.2295025597
 21
66.2199562627
  0
LINE
  5
3E5
100
AcDbEntity
  8
0
100
AcDbLine
 62
7
  6
BYLAYER
 10
49.5132267639
 20
66.3457770071
 11
23.9733783555
 21
66.3457770071
  0
LINE
  5
3E6
100
AcDbEntity
  8
0
100
AcDbLine
 62
7
  6
BYLAYER
 10
27.0625864612
 20
78.6627684503
 11
28.9484402466
 21
76.7769146648
  0
LINE
  5
3E7
100
AcDbEntity
  8
0
100
AcDbLine
 62
7
  6
BYLAYER
 10
29.0562033201
 20
76.8846777383
 11
27.1703495346
 21
78.7705315237
  0
LINE
  5
3E8
100
AcDbEntity
  8
0
100
AcDbLine
 62
7
  6
BYLAYER
 10
27.6193623407
 20
79.2195443298
 11
29.5052161261
 21
77.3336905444
  0
LINE
  5
3E9
100
AcDbEntity
  8
0
100
AcDbLine
 62
7
  6
BYLAYER
 10
28.1491974518
 20
79.7493794409
 11
22.7071622425
 21
85.1914146503
  0
LINE
  5
3EA
100
AcDbEntity
  8
0
100
AcDbLine
 62
7
  6
BYLAYER
 10
27.8169279754
 20
80.1355304541
 11
27.9965330978
 21
79.9559253317
  0
LINE
  5
3EB
100
AcDbEntity
  8
0
100
AcDbLine
 62
7
  6
BYLAYER
 10
28.535348465
 20
79.4171099644
 11
30.0619920056
 21
77.8904664239
  0
LINE
  5
3EC
100
AcDbEntity
  8
0
100
AcDbLine
 62
7
  6
BYLAYER
 10
25.9075404781
 20
82.1415346257
 11
25.2609620374
 21
82.7881130664
  0
LINE
  5
3ED
100
AcDbEntity
  8
0
100
AcDbLine
 62
7
  6
BYLAYER
 10
25.883132432
 20
83.410283461
 11
26.5297108728
 21
82.7637050203
  0
LINE
  5
3EE
100
AcDbEntity
  8
00_COMPONENTS
100
AcDbLine
 62
7
  6
BYLAYER
 10
52.9879025637
 20
24.7163562627
 11
52.9879025637
 21
38.0539506607
  0
LINE
  5
3EF
100
AcDbEntity
  8
00_COMPONENTS
100
AcDbLine
 62
7
  6
BYLAYER
 10
54.4504025597
 20
45.6459562627
 11
54.4504025597
 21
39.3528225597
  0
LINE
  5
3F0
100
AcDbEntity
  8
00_COMPONENTS
100
AcDbLine
 62
7
  6
BYLAYER
 10
55.6569025597
 20
45.6459562627
 11
55.6569025597
 21
46.9159562627
  0
LINE
  5
3F1
100
AcDbEntity
  8
00_COMPONENTS_3
100
AcDbLine
 62
7
  6
BYLAYER
 10
48.8753686094
 20
20.4358524346
 11
48.8667137693
 21
20.3939813838
  0
LINE
  5
3F2
100
AcDbEntity
  8
00_COMPONENTS_3
100
AcDbLine
 62
7
  6
BYLAYER
 10
48.7503825234
 20
20.0645796031
 11
48.7537579023
 21
20.0804163997
  0
LINE
  5
3F3
100
AcDbEntity
  8
00_COMPONENTS
100
AcDbLine
 62
7
  6
BYLAYER
 10
53.3816025637
 20
38.7358590637
 11
54.4504025597
 21
39.3529310291
  0
LINE
  5
3F4
100
AcDbEntity
  8
0
100
AcDbLine
 62
7
  6
BYLAYER
 10
23.3913998218
 20
71.7552133791
 11
23.4704840128
 21
71.7300107248
  0
LINE
  5
3F5
100
AcDbEntity
  8
0
100
AcDbLine
 62
7
  6
BYLAYER
 10
32.540542695
 20
80.3690171133
 11
31.0138991545
 21
81.8956606539
  0
LINE
  5
3F6
100
AcDbEntity
  8
0
100
AcDbLine
 62
7
  6
BYLAYER
 10
30.4750837872
 20
82.4344760211
 11
30.2954786648
 21
82.6140811435
  0
LINE
  5
3F7
100
AcDbEntity
  8
0
100
AcDbLine
 62
7
  6
BYLAYER
 10
30.681629678
 20
82.2818116671
 11
25.2395944686
 21
87.7238468764
  0
LINE
  5
3F8
100
AcDbEntity
  8
0
100
AcDbLine
 62
7
  6
BYLAYER
 10
33.0973185746
 20
80.9257929928
 11
31.2114647891
 21
82.8116467782
  0
LINE
  5
3F9
100
AcDbEntity
  8
00_COMPONENTS
100
AcDbLine
 62
7
  6
BYLAYER
 10
56.8316525597
 20
46.9159562627
 11
56.8316525597
 21
48.4399562627
  0
LINE
  5
3FA
100
AcDbEntity
  8
0
100
AcDbLine
 62
7
  6
BYLAYER
 10
56.8316525597
 20
54.7899562627
 11
56.8316525597
 21
56.3774562627
  0
LINE
  5
3FB
100
AcDbEntity
  8
0
100
AcDbLine
 62
7
  6
BYLAYER
 10
56.9363025597
 20
66.2199562627
 11
56.9363025597
 21
73.7688528029
  0
LINE
  5
3FC
100
AcDbEntity
  8
0
100
AcDbLine
 62
7
  6
BYLAYER
 10
56.9363025597
 20
75.8735048129
 11
56.9363025597
 21
90.8579562627
  0
LINE
  5
3FD
100
AcDbEntity
  8
0
100
AcDbLine
 62
7
  6
BYLAYER
 10
57.2825025597
 20
56.3774562627
 11
57.2825025597
 21
58.7777562627
  0
LINE
  5
3FE
100
AcDbEntity
  8
0
100
AcDbLine
 62
7
  6
BYLAYER
 10
57.2901285647
 20
75.5196788079
 11
57.2901285647
 21
74.1226788079
  0
LINE
  5
3FF
100
AcDbEntity
  8
0
100
AcDbLine
 62
7
  6
BYLAYER
 10
58.4255025597
 20
66.2199562627
 11
58.4255025597
 21
58.7777562627
  0
LINE
  5
400
100
AcDbEntity
  8
00_COMPONENTS_3
100
AcDbLine
 62
7
  6
BYLAYER
 10
49.3021112563
 20
20.0605658463
 11
49.3080852916
 21
20.080416395
  0
LINE
  5
401
100
AcDbEntity
  8
0
100
AcDbLine
 62
7
  6
BYLAYER
 10
31.6604775952
 20
83.2606595843
 11
33.5463313806
 21
81.3748057988
  0
LINE
  5
402
100
AcDbEntity
  8
0
100
AcDbLine
 62
7
  6
BYLAYER
 10
33.6540944541
 20
81.4825688723
 11
31.7682406686
 21
83.3684226577
  0
LINE
  5
403
100
AcDbEntity
  8
0
100
AcDbLine
 62
7
  6
BYLAYER
 10
43.7299418219
 20
72.6280363369
 11
48.4355960293
 21
67.9223821295
  0
LINE
  5
404
100
AcDbEntity
  8
00_COMPONENTS_3
100
AcDbLine
 62
7
  6
BYLAYER
 10
49.7593675192
 20
20.0572384434
 11
49.7686486504
 21
20.0804163941
  0
LINE
  5
405
100
AcDbEntity
  8
0
100
AcDbLine
 62
7
  6
BYLAYER
 10
49.4054636904
 20
70.0058015496
 11
45.813361242
 21
73.597903998
  0
LINE
  5
406
100
AcDbEntity
  8
0
100
AcDbLine
 62
7
  6
BYLAYER
 10
50.3214498148
 20
69.8082359149
 11
49.2348388241
 21
70.8948469056
  0
LINE
  5
407
100
AcDbEntity
  8
0
100
AcDbLine
 62
7
  6
BYLAYER
 10
46.702406598
 20
73.4272791317
 11
45.6157956073
 21
74.5138901223
  0
LINE
  5
408
100
AcDbEntity
  8
0
100
AcDbLine
 62
7
  6
BYLAYER
 10
46.8820117204
 20
73.6068842541
 11
49.4144439465
 21
71.074452028
  0
LINE
  5
409
100
AcDbEntity
  8
0
100
AcDbLine
 62
7
  6
BYLAYER
 10
49.594049069
 20
71.2540571504
 11
47.0616168428
 21
73.7864893765
  0
LINE
  5
40A
100
AcDbEntity
  8
0
100
AcDbLine
 62
7
  6
BYLAYER
 10
39.8325106654
 20
81.4825688723
 11
44.5381648728
 21
76.7769146648
  0
LINE
  5
40B
100
AcDbEntity
  8
0
100
AcDbLine
 62
7
  6
BYLAYER
 10
47.5106296489
 20
74.2355021826
 11
50.043061875
 21
71.7030699564
  0
LINE
  5
40C
100
AcDbEntity
  8
00_COMPONENTS_2
100
AcDbLine
 62
7
  6
BYLAYER
 10
35.8398557523
 20
8.4044754439
 11
36.0891209323
 21
8.6707354042
  0
LINE
  5
40D
100
AcDbEntity
  8
0
100
AcDbLine
 62
7
  6
BYLAYER
 10
27.2888309783
 20
80.6097459145
 11
27.3679151693
 21
80.5845432602
  0
LINE
  5
40E
100
AcDbEntity
  8
0
100
AcDbLine
 62
7
  6
BYLAYER
 10
48.5882603834
 20
75.3131329171
 11
51.1206926095
 21
72.780700691
  0
LINE
  5
40F
100
AcDbEntity
  8
0
100
AcDbLine
 62
7
  6
BYLAYER
 10
45.5080325339
 20
78.8603340849
 11
41.9159300854
 21
82.4524365334
  0
LINE
  5
410
100
AcDbEntity
  8
0
100
AcDbLine
 62
7
  6
BYLAYER
 10
49.7167321774
 20
75.0467657108
 11
49.0945617827
 21
75.6689361054
  0
LINE
  5
411
100
AcDbEntity
  8
0
100
AcDbLine
 62
7
  6
BYLAYER
 10
46.4240186582
 20
78.6627684503
 11
45.3374076676
 21
79.7493794409
  0
LINE
  5
412
100
AcDbEntity
  8
0
100
AcDbLine
 62
7
  6
BYLAYER
 10
42.8049754414
 20
82.2818116671
 11
41.7183644508
 21
83.3684226577
  0
LINE
  5
413
100
AcDbEntity
  8
0
100
AcDbLine
 62
7
  6
BYLAYER
 10
42.9845805639
 20
82.4614167895
 11
45.51701279
 21
79.9289845634
  0
LINE
  5
414
100
AcDbEntity
  8
0
100
AcDbLine
 62
7
  6
BYLAYER
 10
45.6966179124
 20
80.1085896858
 11
43.1641856863
 21
82.6410219119
  0
LINE
  5
415
100
AcDbEntity
  8
0
100
AcDbLine
 62
7
  6
BYLAYER
 10
52.1983233441
 20
73.8583314255
 11
49.6658911179
 21
76.3907636516
  0
LINE
  5
416
100
AcDbEntity
  8
0
100
AcDbLine
 62
7
  6
BYLAYER
 10
43.6131984923
 20
83.090034718
 11
46.1456307185
 21
80.5576024918
  0
LINE
  5
417
100
AcDbEntity
  8
00_COMPONENTS_2
100
AcDbLine
 62
7
  6
BYLAYER
 10
39.395248754
 20
8.5751722761
 11
39.644513934
 21
8.8414322363
  0
LINE
  5
418
100
AcDbEntity
  8
00_COMPONENTS_3
100
AcDbLine
 62
7
  6
BYLAYER
 10
50.8809909042
 20
20.3509212705
 11
50.9229842878
 21
20.3939813838
  0
LINE
  5
419
100
AcDbEntity
  8
00_COMPONENTS_3
100
AcDbLine
 62
7
  6
BYLAYER
 10
50.5853691417
 20
20.0512071833
 11
50.6143830978
 21
20.0804164283
  0
LINE
  5
41A
100
AcDbEntity
  8
00_COMPONENTS
100
AcDbLine
 62
7
  6
BYLAYER
 10
52.7339025637
 20
24.4623562627
 11
52.9879025637
 21
24.7163562627
  0
LINE
  5
41B
100
AcDbEntity
  8
00_COMPONENTS_3
100
AcDbLine
 62
7
  6
BYLAYER
 10
50.2213025597
 20
19.6871562627
 11
50.5853691417
 21
20.0512228447
  0
LINE
  5
41C
100
AcDbEntity
  8
00_COMPONENTS_3
100
AcDbLine
 62
7
  6
BYLAYER
 10
50.9029583676
 20
20.3939813838
 11
50.868106149
 21
20.3609828176
  0
LINE
  5
41D
100
AcDbEntity
  8
00_COMPONENTS_3
100
AcDbLine
 62
7
  6
BYLAYER
 10
50.7770304705
 20
20.3939813838
 11
50.7031985858
 21
20.3286763216
  0
LINE
  5
41E
100
AcDbEntity
  8
0
100
AcDbLine
 62
7
  6
BYLAYER
 10
55.9882784591
 20
72.8208287023
 11
53.57454954
 21
75.2345576214
  0
LINE
  5
41F
100
AcDbEntity
  8
0
100
AcDbLine
 62
7
  6
BYLAYER
 10
51.0421173139
 20
77.7669898476
 11
48.5007048316
 21
80.3084023298
  0
LINE
  5
420
100
AcDbEntity
  8
0
100
AcDbLine
 62
7
  6
BYLAYER
 10
44.6908292269
 20
84.1676654525
 11
47.223261453
 21
81.6352332264
  0
LINE
  5
421
100
AcDbEntity
  8
0
100
AcDbLine
 62
7
  6
BYLAYER
 10
45.8193010208
 20
83.9012982461
 11
45.1971306262
 21
84.5234686408
  0
LINE
  5
422
100
AcDbEntity
  8
0
100
AcDbLine
 62
7
  6
BYLAYER
 10
54.6768740335
 20
76.3368821149
 11
52.1444418073
 21
78.8693143411
  0
LINE
  5
423
100
AcDbEntity
  8
0
100
AcDbLine
 62
7
  6
BYLAYER
 10
48.3008921875
 20
82.7128639609
 11
45.7684599614
 21
85.245296187
  0
LINE
  5
424
100
AcDbEntity
  8
00_COMPONENTS_2
100
AcDbLine
 62
7
  6
BYLAYER
 10
42.9506417557
 20
8.7458691082
 11
43.1999069357
 21
9.0121290685
  0
LINE
  5
425
100
AcDbEntity
  8
0
100
AcDbLine
 62
7
  6
BYLAYER
 10
50.5010549372
 20
82.3087524354
 11
57.2901285647
 21
75.5196788079
  0
LINE
  5
426
100
AcDbEntity
  8
0
100
AcDbLine
 62
7
  6
BYLAYER
 10
50.979255521
 20
82.7869530193
 11
49.6771183835
 21
84.0890901568
  0
LINE
  5
427
100
AcDbEntity
  8
0
100
AcDbLine
 62
7
  6
BYLAYER
 10
47.1446861573
 20
86.621522383
 11
42.9082522776
 21
90.8579562627
  0
LINE
  5
428
100
AcDbEntity
  8
0
100
AcDbLine
 62
7
  6
BYLAYER
 10
50.7794428769
 20
85.1914146503
 11
48.2470106508
 21
87.7238468764
  0
LINE
  5
429
100
AcDbEntity
  8
00_COMPONENTS_2
100
AcDbLine
 62
7
  6
BYLAYER
 10
46.5723645725
 20
8.9197504799
 11
46.8216297525
 21
9.1860104401
  0
LINE
  5
42A
100
AcDbEntity
  8
0
100
AcDbLine
 62
7
  6
BYLAYER
 10
46.9089524888
 20
90.8579562627
 11
52.9796056266
 21
84.7873031248
  0
LINE
  5
42B
100
AcDbEntity
  8
0
100
AcDbLine
 62
7
  6
BYLAYER
 10
16.5503025597
 20
90.8579562627
 11
56.9363025597
 21
90.8579562627
  0
LINE
  5
42C
100
AcDbEntity
  8
0
100
AcDbLine
 62
7
  6
BYLAYER
 10
39.9818025597
 20
92.6613562627
 11
33.5048025597
 21
92.6613562627
  0
ARC
  5
42D
100
AcDbEntity
  8
00_COMPONENTS_3
100
AcDbCircle
 62
7
  6
BYLAYER
 10
-74.9621354176
 20
35.0804641149
 40
123.2596209584
100
AcDbArc
 50
353.0100789729
 51
353.1569044848
  0
ARC
  5
42E
100
AcDbEntity
  8
00_COMPONENTS_3
100
AcDbCircle
 62
7
  6
BYLAYER
 10
-93.5325955721
 20
35.016401949
 40
122.7274718624
100
AcDbArc
 50
353.0097510875
 51
353.15721302
  0
ARC
  5
42F
100
AcDbEntity
  8
00_COMPONENTS_3
100
AcDbCircle
 62
7
  6
BYLAYER
 10
-15.926166412
 20
35.7231077893
 40
65.9189631732
100
AcDbArc
 50
346.2726525623
 51
346.553046021
  0
ARC
  5
430
100
AcDbEntity
  8
00_COMPONENTS_3
100
AcDbCircle
 62
7
  6
BYLAYER
 10
-34.5298414938
 20
35.6562411499
 40
65.6342433405
100
AcDbArc
 50
346.2720258488
 51
346.5536352347
  0
ARC
  5
431
100
AcDbEntity
  8
00_COMPONENTS_3
100
AcDbCircle
 62
7
  6
BYLAYER
 10
27.4127628937
 20
24.6416138234
 40
6.0869923712
100
AcDbArc
 50
223.8712610555
 51
224.2524604656
  0
ARC
  5
432
100
AcDbEntity
  8
00_COMPONENTS_3
100
AcDbCircle
 62
7
  6
BYLAYER
 10
20.3004801156
 20
17.4739823145
 40
4.0264638742
100
AcDbArc
 50
46.4856423495
 51
47.2074737371
  0
ARC
  5
433
100
AcDbEntity
  8
00_COMPONENTS_2
100
AcDbCircle
 62
7
  6
BYLAYER
 10
34.5421234473
 20
9.6136332833
 40
1.27
100
AcDbArc
 50
210.0000000215
 51
272.7486986356
  0
ARC
  5
434
100
AcDbEntity
  8
00_COMPONENTS_3
100
AcDbCircle
 62
7
  6
BYLAYER
 10
24.1613907843
 20
20.8927451536
 40
1.108479279
100
AcDbArc
 50
227.1242772801
 51
227.6566545734
  0
ARC
  5
435
100
AcDbEntity
  8
00_COMPONENTS_2
100
AcDbCircle
 62
7
  6
BYLAYER
 10
34.5468649536
 20
9.6004857287
 40
1.0161347947
100
AcDbArc
 50
210.0002266352
 51
272.7272109745
  0
ARC
  5
436
100
AcDbEntity
  8
00_COMPONENTS_3
100
AcDbCircle
 62
7
  6
BYLAYER
 10
15.8609138721
 20
63.425732352
 40
53.1807230951
100
AcDbArc
 50
305.4070104268
 51
305.9859898807
  0
ARC
  5
437
100
AcDbEntity
  8
00_COMPONENTS_3
100
AcDbCircle
 62
7
  6
BYLAYER
 10
16.6962267554
 20
63.2093393486
 40
52.9831701549
100
AcDbArc
 50
305.5102373674
 51
306.0899180587
  0
ARC
  5
438
100
AcDbEntity
  8
00_COMPONENTS_3
100
AcDbCircle
 62
7
  6
BYLAYER
 10
15.0253108195
 20
63.2093362118
 40
52.9831633413
100
AcDbArc
 50
305.510232963
 51
306.0899137091
  0
ARC
  5
439
100
AcDbEntity
  8
00_COMPONENTS_3
100
AcDbCircle
 62
7
  6
BYLAYER
 10
17.5230299141
 20
62.5667319684
 40
52.398136412
100
AcDbArc
 50
305.8222707077
 51
306.4040249286
  0
ARC
  5
43A
100
AcDbEntity
  8
00_COMPONENTS_3
100
AcDbCircle
 62
7
  6
BYLAYER
 10
14.1939146718
 20
62.5667258109
 40
52.3981228966
100
AcDbArc
 50
305.8222619007
 51
306.4040162313
  0
ARC
  5
43B
100
AcDbEntity
  8
00_COMPONENTS_3
100
AcDbCircle
 62
7
  6
BYLAYER
 10
18.3292834107
 20
61.5174348503
 40
51.4484428629
100
AcDbArc
 50
306.3502652387
 51
306.9353693074
  0
ARC
  5
43C
100
AcDbEntity
  8
00_COMPONENTS_3
100
AcDbCircle
 62
7
  6
BYLAYER
 10
13.3673053426
 20
61.5174258994
 40
51.4484228635
100
AcDbArc
 50
306.3502520369
 51
306.9353562701
  0
ARC
  5
43D
100
AcDbEntity
  8
00_COMPONENTS_3
100
AcDbCircle
 62
7
  6
BYLAYER
 10
19.0987090221
 20
60.0933292462
 40
50.1719067769
100
AcDbArc
 50
307.1064243524
 51
307.6959763705
  0
ARC
  5
43E
100
AcDbEntity
  8
00_COMPONENTS_3
100
AcDbCircle
 62
7
  6
BYLAYER
 10
12.5416316496
 20
60.0933178245
 40
50.1718805952
100
AcDbArc
 50
307.106406774
 51
307.6959590112
  0
ARC
  5
43F
100
AcDbEntity
  8
00_COMPONENTS_3
100
AcDbCircle
 62
7
  6
BYLAYER
 10
2.9085588786
 20
36.7724117632
 40
48.7893941615
100
AcDbArc
 50
339.9937015535
 51
340.3851007948
  0
ARC
  5
440
100
AcDbEntity
  8
00_COMPONENTS_3
100
AcDbCircle
 62
7
  6
BYLAYER
 10
19.8099626937
 20
58.337684295
 40
48.6211332956
100
AcDbArc
 50
308.1084112321
 51
308.7032189139
  0
ARC
  5
441
100
AcDbEntity
  8
00_COMPONENTS_3
100
AcDbCircle
 62
7
  6
BYLAYER
 10
11.7076891923
 20
58.3376708026
 40
48.6211012917
100
AcDbArc
 50
308.1083893176
 51
308.7031972727
  0
ARC
  5
442
100
AcDbEntity
  8
00_COMPONENTS_3
100
AcDbCircle
 62
7
  6
BYLAYER
 10
-15.4116149935
 20
36.7010162875
 40
48.5786717945
100
AcDbArc
 50
339.9928265789
 51
340.3859230585
  0
ARC
  5
443
100
AcDbEntity
  8
00_COMPONENTS_3
100
AcDbCircle
 62
7
  6
BYLAYER
 10
20.3547279893
 20
56.4008606383
 40
46.9895505316
100
AcDbArc
 50
309.380707129
 51
309.9795178061
  0
ARC
  5
444
100
AcDbEntity
  8
00_COMPONENTS_3
100
AcDbCircle
 62
7
  6
BYLAYER
 10
10.7736397462
 20
56.3951583482
 40
46.9821235598
100
AcDbArc
 50
309.3806338664
 51
309.9795390519
  0
ARC
  5
445
100
AcDbEntity
  8
00_COMPONENTS_3
100
AcDbCircle
 62
7
  6
BYLAYER
 10
9.862390429
 20
54.1437047884
 40
45.1014746867
100
AcDbArc
 50
310.9520069089
 51
311.5561123734
  0
ARC
  5
446
100
AcDbEntity
  8
00_COMPONENTS_3
100
AcDbCircle
 62
7
  6
BYLAYER
 10
21.0647314063
 20
53.9082525886
 40
44.7886891862
100
AcDbArc
 50
310.9504803853
 51
311.4327104663
  0
ARC
  5
447
100
AcDbEntity
  8
00_COMPONENTS_3
100
AcDbCircle
 62
7
  6
BYLAYER
 10
8.8617110093
 20
51.7442767278
 40
43.1971735253
100
AcDbArc
 50
312.8608651638
 51
313.4688280477
  0
ARC
  5
448
100
AcDbEntity
  8
00_COMPONENTS_3
100
AcDbCircle
 62
7
  6
BYLAYER
 10
21.3646139364
 20
51.5523136974
 40
42.9343123247
100
AcDbArc
 50
312.8594593289
 51
313.4070945335
  0
ARC
  5
449
100
AcDbEntity
  8
00_COMPONENTS_3
100
AcDbCircle
 62
7
  6
BYLAYER
 10
11.6556978665
 20
38.1964906809
 40
41.7839015199
100
AcDbArc
 50
334.3059259245
 51
334.7821323147
  0
ARC
  5
44A
100
AcDbEntity
  8
00_COMPONENTS_3
100
AcDbCircle
 62
7
  6
BYLAYER
 10
-6.1969254535
 20
38.1189825529
 40
41.603525568
100
AcDbArc
 50
334.3048618825
 51
334.7831322722
  0
ARC
  5
44B
100
AcDbEntity
  8
00_COMPONENTS_3
100
AcDbCircle
 62
7
  6
BYLAYER
 10
7.7127273898
 20
49.2697739393
 40
41.3903439632
100
AcDbArc
 50
315.1525648888
 51
315.76158362
  0
ARC
  5
44C
100
AcDbEntity
  8
00_COMPONENTS_3
100
AcDbCircle
 62
7
  6
BYLAYER
 10
21.5519906542
 20
48.9907571218
 40
40.9930537195
100
AcDbArc
 50
315.1502757951
 51
315.681130655
  0
ARC
  5
44D
100
AcDbEntity
  8
00_COMPONENTS_3
100
AcDbCircle
 62
7
  6
BYLAYER
 10
21.1916318878
 20
46.6338625079
 40
39.5901072562
100
AcDbArc
 50
317.8781811
 51
318.4870862606
  0
ARC
  5
44E
100
AcDbEntity
  8
00_COMPONENTS_3
100
AcDbCircle
 62
7
  6
BYLAYER
 10
6.6319450736
 20
46.5205612121
 40
39.4201517175
100
AcDbArc
 50
317.8768310667
 51
318.4883608562
  0
ARC
  5
44F
100
AcDbEntity
  8
00_COMPONENTS_3
100
AcDbCircle
 62
7
  6
BYLAYER
 10
16.3442191116
 20
39.9520674993
 40
38.8854086707
100
AcDbArc
 50
329.2674682551
 51
329.8034949982
  0
ARC
  5
450
100
AcDbEntity
  8
00_COMPONENTS_3
100
AcDbCircle
 62
7
  6
BYLAYER
 10
-0.8866620056
 20
39.8670556865
 40
38.7176943107
100
AcDbArc
 50
329.2662718664
 51
329.8046198615
  0
ARC
  5
451
100
AcDbEntity
  8
00_COMPONENTS_3
100
AcDbCircle
 62
7
  6
BYLAYER
 10
20.4588780791
 20
44.235848378
 40
38.4664585971
100
AcDbArc
 50
321.1001587552
 51
321.6977934963
  0
ARC
  5
452
100
AcDbEntity
  8
00_COMPONENTS_3
100
AcDbCircle
 62
7
  6
BYLAYER
 10
4.8836583102
 20
44.1326489773
 40
38.30101653
100
AcDbArc
 50
321.0988300534
 51
321.6990456558
  0
ARC
  5
453
100
AcDbEntity
  8
00_COMPONENTS_3
100
AcDbCircle
 62
7
  6
BYLAYER
 10
18.9891744451
 20
41.9857891766
 40
38.0751543407
100
AcDbArc
 50
324.8780008925
 51
325.4528720416
  0
ARC
  5
454
100
AcDbEntity
  8
00_COMPONENTS_3
100
AcDbCircle
 62
7
  6
BYLAYER
 10
2.5206418646
 20
41.8921213209
 40
37.9111382791
100
AcDbArc
 50
324.876719952
 51
325.4540775208
  0
ARC
  5
455
100
AcDbEntity
  8
00_COMPONENTS
100
AcDbCircle
 62
7
  6
BYLAYER
 10
20.2005025557
 20
38.0539506607
 40
0.7874
100
AcDbArc
 50
0.0
 51
60.0
  0
ARC
  5
456
100
AcDbEntity
  8
00_COMPONENTS_3
100
AcDbCircle
 62
7
  6
BYLAYER
 10
168.0353341619
 20
35.08030196
 40
123.2582652834
100
AcDbArc
 50
186.8430952225
 51
186.9899223285
  0
ARC
  5
457
100
AcDbEntity
  8
00_COMPONENTS_3
100
AcDbCircle
 62
7
  6
BYLAYER
 10
148.4096610181
 20
35.0164019361
 40
122.7274717555
100
AcDbArc
 50
186.8427869799
 51
186.9902489126
  0
ARC
  5
458
100
AcDbEntity
  8
00_COMPONENTS_3
100
AcDbCircle
 62
7
  6
BYLAYER
 10
108.7810012299
 20
35.7227710561
 40
65.9175204796
100
AcDbArc
 50
193.4469528689
 51
193.7273523871
  0
ARC
  5
459
100
AcDbEntity
  8
00_COMPONENTS_3
100
AcDbCircle
 62
7
  6
BYLAYER
 10
89.6252139204
 20
35.6562411143
 40
65.6342431881
100
AcDbArc
 50
193.4463647652
 51
193.7279741518
  0
ARC
  5
45A
100
AcDbEntity
  8
00_COMPONENTS_3
100
AcDbCircle
 62
7
  6
BYLAYER
 10
47.0313925529
 20
24.1883549723
 40
5.4352329445
100
AcDbArc
 50
315.7246835254
 51
316.151583052
  0
ARC
  5
45B
100
AcDbEntity
  8
00_COMPONENTS_3
100
AcDbCircle
 62
7
  6
BYLAYER
 10
53.9727042478
 20
17.1567893217
 40
4.4612500732
100
AcDbArc
 50
132.8276865742
 51
133.4791817569
  0
ARC
  5
45C
100
AcDbEntity
  8
00_COMPONENTS_2
100
AcDbCircle
 62
7
  6
BYLAYER
 10
50.0181025597
 20
10.3566455489
 40
1.27
100
AcDbArc
 50
272.7486986227
 51
360.0
  0
ARC
  5
45D
100
AcDbEntity
  8
00_COMPONENTS_2
100
AcDbCircle
 62
7
  6
BYLAYER
 10
50.0228004718
 20
10.3434203671
 40
1.0160316019
100
AcDbArc
 50
272.7734203783
 51
0.0265704034
  0
ARC
  5
45E
100
AcDbEntity
  8
00_COMPONENTS_3
100
AcDbCircle
 62
7
  6
BYLAYER
 10
58.1148551831
 20
63.4257306347
 40
53.1807005147
100
AcDbArc
 50
234.014040472
 51
234.5930197611
  0
ARC
  5
45F
100
AcDbEntity
  8
00_COMPONENTS_3
100
AcDbCircle
 62
7
  6
BYLAYER
 10
57.2795388599
 20
63.2093360908
 40
52.9831442523
100
AcDbArc
 50
233.9101143876
 51
234.4897949418
  0
ARC
  5
460
100
AcDbEntity
  8
00_COMPONENTS_3
100
AcDbCircle
 62
7
  6
BYLAYER
 10
58.9504620592
 20
63.2093360906
 40
52.9831442519
100
AcDbArc
 50
233.9101143879
 51
234.4897949421
  0
ARC
  5
461
100
AcDbEntity
  8
00_COMPONENTS_3
100
AcDbCircle
 62
7
  6
BYLAYER
 10
56.4527326904
 20
62.5667272812
 40
52.3981074079
100
AcDbArc
 50
233.5960094463
 51
234.1777635589
  0
ARC
  5
462
100
AcDbEntity
  8
00_COMPONENTS_3
100
AcDbCircle
 62
7
  6
BYLAYER
 10
59.7818623551
 20
62.566727281
 40
52.3981074076
100
AcDbArc
 50
233.5960094464
 51
234.1777635591
  0
ARC
  5
463
100
AcDbEntity
  8
00_COMPONENTS_3
100
AcDbCircle
 62
7
  6
BYLAYER
 10
60.6084760905
 20
61.5174288968
 40
51.448411026
100
AcDbArc
 50
233.0646668204
 51
233.6497708104
  0
ARC
  5
464
100
AcDbEntity
  8
00_COMPONENTS_3
100
AcDbCircle
 62
7
  6
BYLAYER
 10
55.6464766465
 20
61.5174288964
 40
51.4484110253
100
AcDbArc
 50
233.0646668208
 51
233.6497708108
  0
ARC
  5
465
100
AcDbEntity
  8
00_COMPONENTS_3
100
AcDbCircle
 62
7
  6
BYLAYER
 10
54.877048965
 20
60.0933222282
 40
50.1718724036
100
AcDbArc
 50
232.3040613184
 51
232.8936132883
  0
ARC
  5
466
100
AcDbEntity
  8
00_COMPONENTS_3
100
AcDbCircle
 62
7
  6
BYLAYER
 10
61.4341543747
 20
60.093322228
 40
50.1718724034
100
AcDbArc
 50
232.3040613184
 51
232.8936132883
  0
ARC
  5
467
100
AcDbEntity
  8
00_COMPONENTS_3
100
AcDbCircle
 62
7
  6
BYLAYER
 10
89.5841840198
 20
36.7718764532
 40
48.7878050361
100
AcDbArc
 50
199.6148969036
 51
200.0063087378
  0
ARC
  5
468
100
AcDbEntity
  8
00_COMPONENTS_3
100
AcDbCircle
 62
7
  6
BYLAYER
 10
62.2681015409
 20
58.3376764447
 40
48.6210966993
100
AcDbArc
 50
231.2968201147
 51
231.8916277796
  0
ARC
  5
469
100
AcDbEntity
  8
00_COMPONENTS_3
100
AcDbCircle
 62
7
  6
BYLAYER
 10
54.1657936956
 20
58.3376764449
 40
48.6210966992
100
AcDbArc
 50
231.2968201153
 51
231.8916277801
  0
ARC
  5
46A
100
AcDbEntity
  8
00_COMPONENTS_3
100
AcDbCircle
 62
7
  6
BYLAYER
 10
70.8689861229
 20
36.7010163019
 40
48.5786718368
100
AcDbArc
 50
199.6140769418
 51
200.007173421
  0
ARC
  5
46B
100
AcDbEntity
  8
00_COMPONENTS_3
100
AcDbCircle
 62
7
  6
BYLAYER
 10
63.3289393123
 20
56.5479847269
 40
47.1806844743
100
AcDbArc
 50
230.0217354789
 51
230.6181198134
  0
ARC
  5
46C
100
AcDbEntity
  8
00_COMPONENTS_3
100
AcDbCircle
 62
7
  6
BYLAYER
 10
53.7430923623
 20
56.5479845765
 40
47.1806842787
100
AcDbArc
 50
230.021735478
 51
230.618119815
  0
ARC
  5
46D
100
AcDbEntity
  8
00_COMPONENTS_3
100
AcDbCircle
 62
7
  6
BYLAYER
 10
64.2397010733
 20
54.2876993394
 40
45.2929992245
100
AcDbArc
 50
228.4451758254
 51
229.0467264688
  0
ARC
  5
46E
100
AcDbEntity
  8
00_COMPONENTS_3
100
AcDbCircle
 62
7
  6
BYLAYER
 10
52.9314058803
 20
53.931250121
 40
44.8193841719
100
AcDbArc
 50
228.567259821
 51
229.0491564839
  0
ARC
  5
46F
100
AcDbEntity
  8
00_COMPONENTS_3
100
AcDbCircle
 62
7
  6
BYLAYER
 10
65.2401910862
 20
51.8787298083
 40
43.381502348
100
AcDbArc
 50
226.5324710263
 51
227.1378503773
  0
ARC
  5
470
100
AcDbEntity
  8
00_COMPONENTS_3
100
AcDbCircle
 62
7
  6
BYLAYER
 10
52.7385517309
 20
51.6882194207
 40
43.1205651568
100
AcDbArc
 50
226.5940566831
 51
227.1393243866
  0
ARC
  5
471
100
AcDbEntity
  8
00_COMPONENTS_3
100
AcDbCircle
 62
7
  6
BYLAYER
 10
80.3339832853
 20
38.1957233581
 40
41.7821062581
100
AcDbArc
 50
205.2178640005
 51
205.694090611
  0
ARC
  5
472
100
AcDbEntity
  8
00_COMPONENTS_3
100
AcDbCircle
 62
7
  6
BYLAYER
 10
62.1572313661
 20
38.1189824787
 40
41.603525395
100
AcDbArc
 50
205.2168677272
 51
205.6951381189
  0
ARC
  5
473
100
AcDbEntity
  8
00_COMPONENTS_3
100
AcDbCircle
 62
7
  6
BYLAYER
 10
66.09507733
 20
49.1044172344
 40
41.1546208894
100
AcDbArc
 50
224.2366567552
 51
224.8491636481
  0
ARC
  5
474
100
AcDbEntity
  8
00_COMPONENTS_3
100
AcDbCircle
 62
7
  6
BYLAYER
 10
52.2621572098
 20
48.8313431195
 40
40.7660184071
100
AcDbArc
 50
224.3173075744
 51
224.8511161076
  0
ARC
  5
475
100
AcDbEntity
  8
00_COMPONENTS_3
100
AcDbCircle
 62
7
  6
BYLAYER
 10
67.4681688617
 20
46.6317533938
 40
39.5869318759
100
AcDbArc
 50
221.5129050271
 51
222.1218585367
  0
ARC
  5
476
100
AcDbEntity
  8
00_COMPONENTS_3
100
AcDbCircle
 62
7
  6
BYLAYER
 10
52.6574904979
 20
46.5205610674
 40
39.4201514999
100
AcDbArc
 50
221.5116391428
 51
222.1231689356
  0
ARC
  5
477
100
AcDbEntity
  8
00_COMPONENTS_3
100
AcDbCircle
 62
7
  6
BYLAYER
 10
75.005262074
 20
39.9510281317
 40
38.8833481486
100
AcDbArc
 50
210.1964999001
 51
210.7325547273
  0
ARC
  5
478
100
AcDbEntity
  8
00_COMPONENTS_3
100
AcDbCircle
 62
7
  6
BYLAYER
 10
57.4870117532
 20
39.8670556124
 40
38.7176941642
100
AcDbArc
 50
210.1953801378
 51
210.7337281349
  0
ARC
  5
479
100
AcDbEntity
  8
00_COMPONENTS_3
100
AcDbCircle
 62
7
  6
BYLAYER
 10
69.2192986304
 20
44.2341354675
 40
38.4637014964
100
AcDbArc
 50
218.3021988464
 51
218.8998759785
  0
ARC
  5
47A
100
AcDbEntity
  8
00_COMPONENTS_3
100
AcDbCircle
 62
7
  6
BYLAYER
 10
53.3876145511
 20
44.1326488087
 40
38.3010162588
100
AcDbArc
 50
218.3009543433
 51
218.90116995
  0
ARC
  5
47B
100
AcDbEntity
  8
00_COMPONENTS_3
100
AcDbCircle
 62
7
  6
BYLAYER
 10
71.5878442299
 20
41.9844344077
 40
38.0727715523
100
AcDbArc
 50
214.5471215125
 51
215.1220282492
  0
ARC
  5
47C
100
AcDbEntity
  8
00_COMPONENTS_3
100
AcDbCircle
 62
7
  6
BYLAYER
 10
54.8519893615
 20
41.8921212107
 40
37.9111380855
100
AcDbArc
 50
214.5459224783
 51
215.1232800501
  0
ARC
  5
47D
100
AcDbEntity
  8
00_COMPONENTS
100
AcDbCircle
 62
7
  6
BYLAYER
 10
53.7753025637
 20
38.0539506607
 40
0.7874
100
AcDbArc
 50
120.0
 51
180.0
  0
SPLINE
  5
47E
100
AcDbEntity
  8
00_COMPONENTS_3
100
AcDbSpline
 62
7
  6
BYLAYER
 70
0
 71
3
 72
15
 73
11
 74
0
 42
0.0000001
 43
0.0000001
 44
0.0000000001
 40
0.0
 40
0.0
 40
0.0
 40
0.0
 40
0.0094446164
 40
0.0268257063
 40
0.0858443048
 40
0.1758786576
 40
0.2946053249
 40
0.4392194897
 40
0.6068413246
 40
1.0
 40
1.0
 40
1.0
 40
1.0
 10
50.9973782422
 20
20.47435023
 30
0.0
 10
50.9973776945
 20
20.4741325759
 30
0.0
 10
50.9970850198
 20
20.473552603
 30
0.0
 10
50.9960470005
 20
20.4719020859
 30
0.0
 10
50.9936154899
 20
20.4688908224
 30
0.0
 10
50.9896219871
 20
20.4642090241
 30
0.0
 10
50.9841758765
 20
20.458143699
 30
0.0
 10
50.9774558119
 20
20.4508342408
 30
0.0
 10
50.9663439371
 20
20.4389670337
 30
0.0
 10
50.9574222883
 20
20.4296175845
 30
0.0
 10
50.9511471345
 20
20.423081917
 30
0.0
  0
SPLINE
  5
47F
100
AcDbEntity
  8
00_COMPONENTS_3
100
AcDbSpline
 62
7
  6
BYLAYER
 70
0
 71
3
 72
13
 73
9
 74
0
 42
0.0000001
 43
0.0000001
 44
0.0000000001
 40
0.0
 40
0.0
 40
0.0
 40
0.0
 40
0.0362207827
 40
0.1030762245
 40
0.1987451309
 40
0.3201581006
 40
0.62729015
 40
1.0
 40
1.0
 40
1.0
 40
1.0
 10
50.5332514227
 20
20.05160424
 30
0.0
 10
50.533251778
 20
20.0520521234
 30
0.0
 10
50.5338749476
 20
20.0532422842
 30
0.0
 10
50.5351565823
 20
20.0552879087
 30
0.0
 10
50.5372703494
 20
20.0581204855
 30
0.0
 10
50.5412962647
 20
20.0631871295
 30
0.0
 10
50.5477416819
 20
20.0707248494
 30
0.0
 10
50.5533339617
 20
20.0769982884
 30
0.0
 10
50.556425321
 20
20.0804164142
 30
0.0
  0
SPLINE
  5
480
100
AcDbEntity
  8
00_COMPONENTS_3
100
AcDbSpline
 62
7
  6
BYLAYER
 70
0
 71
3
 72
14
 73
10
 74
0
 42
0.0000001
 43
0.0000001
 44
0.0000000001
 40
0.0
 40
0.0
 40
0.0
 40
0.0
 40
0.0433692892
 40
0.1145408624
 40
0.2122364542
 40
0.3337368192
 40
0.4759964381
 40
0.6361742241
 40
1.0
 40
1.0
 40
1.0
 40
1.0
 10
50.8963805511
 20
20.4725213127
 30
0.0
 10
50.8963810923
 20
20.4710903422
 30
0.0
 10
50.8949396816
 20
20.467445296
 30
0.0
 10
50.891540135
 20
20.4613959548
 30
0.0
 10
50.8861281161
 20
20.4534432052
 30
0.0
 10
50.8789993442
 20
20.4438949231
 30
0.0
 10
50.870294452
 20
20.4329383702
 30
0.0
 10
50.8562641127
 20
20.4160155038
 30
0.0
 10
50.8449131936
 20
20.4029695305
 30
0.0
 10
50.8369558219
 20
20.3939813838
 30
0.0
  0
SPLINE
  5
481
100
AcDbEntity
  8
00_COMPONENTS_3
100
AcDbSpline
 62
7
  6
BYLAYER
 70
0
 71
3
 72
11
 73
7
 74
0
 42
0.0000001
 43
0.0000001
 44
0.0000000001
 40
0.0
 40
0.0
 40
0.0
 40
0.0
 40
0.131234136
 40
0.3522762167
 40
0.6476243281
 40
1.0
 40
1.0
 40
1.0
 40
1.0
 10
50.3772883004
 20
20.052738837
 30
0.0
 10
50.3772865816
 20
20.0541903461
 30
0.0
 10
50.3790290776
 20
20.0578822976
 30
0.0
 10
50.3826710824
 20
20.0639318375
 30
0.0
 10
50.3883434317
 20
20.0717551386
 30
0.0
 10
50.3927552195
 20
20.0773834325
 30
0.0
 10
50.3952028929
 20
20.0804164038
 30
0.0
  0
SPLINE
  5
482
100
AcDbEntity
  8
00_COMPONENTS_3
100
AcDbSpline
 62
7
  6
BYLAYER
 70
0
 71
3
 72
12
 73
8
 74
0
 42
0.0000001
 43
0.0000001
 44
0.0000000001
 40
0.0
 40
0.0
 40
0.0
 40
0.0
 40
0.0600602998
 40
0.1413112664
 40
0.3641210272
 40
0.6553848153
 40
1.0
 40
1.0
 40
1.0
 40
1.0
 10
50.6914627042
 20
20.4688076533
 30
0.0
 10
50.6914629838
 20
20.4670354261
 30
0.0
 10
50.69057832
 20
20.4628930144
 30
0.0
 10
50.6865901703
 20
20.4529136126
 30
0.0
 10
50.6776615397
 20
20.4376911532
 30
0.0
 10
50.6632552126
 20
20.4168608521
 30
0.0
 10
50.6518312408
 20
20.4019606212
 30
0.0
 10
50.6455276983
 20
20.3939813838
 30
0.0
  0
SPLINE
  5
483
100
AcDbEntity
  8
00_COMPONENTS_3
100
AcDbSpline
 62
7
  6
BYLAYER
 70
0
 71
3
 72
10
 73
6
 74
0
 42
0.0000001
 43
0.0000001
 44
0.0000000001
 40
0.0
 40
0.0
 40
0.0
 40
0.0
 40
0.1583874983
 40
0.3841382259
 40
1.0
 40
1.0
 40
1.0
 40
1.0
 10
50.118672365
 20
20.0546233471
 30
0.0
 10
50.1186733356
 20
20.0561673582
 30
0.0
 10
50.1197263684
 20
20.0598540018
 30
0.0
 10
50.1239060367
 20
20.0686336212
 30
0.0
 10
50.1284884427
 20
20.07550613
 30
0.0
 10
50.1319428134
 20
20.080416397
 30
0.0
  0
SPLINE
  5
484
100
AcDbEntity
  8
00_COMPONENTS_3
100
AcDbSpline
 62
7
  6
BYLAYER
 70
0
 71
3
 72
11
 73
7
 74
0
 42
0.0000001
 43
0.0000001
 44
0.0000000001
 40
0.0
 40
0.0
 40
0.0
 40
0.0
 40
0.1657570939
 40
0.3930165368
 40
0.6742723501
 40
1.0
 40
1.0
 40
1.0
 40
1.0
 10
50.3841858284
 20
20.4632375477
 30
0.0
 10
50.3841851687
 20
20.4589357019
 30
0.0
 10
50.3815911082
 20
20.4488508424
 30
0.0
 10
50.3744181663
 20
20.4329164487
 30
0.0
 10
50.3636202113
 20
20.4140977683
 30
0.0
 10
50.354951422
 20
20.400943677
 30
0.0
 10
50.3501568007
 20
20.3939813838
 30
0.0
  0
SPLINE
  5
485
100
AcDbEntity
  8
00_COMPONENTS_3
100
AcDbSpline
 62
7
  6
BYLAYER
 70
0
 71
3
 72
10
 73
6
 74
0
 42
0.0000001
 43
0.0000001
 44
0.0000000001
 40
0.0
 40
0.0
 40
0.0
 40
0.0
 40
0.188028039
 40
0.4200626538
 40
1.0
 40
1.0
 40
1.0
 40
1.0
 10
49.9768889183
 20
20.4558515226
 30
0.0
 10
49.9768892253
 20
20.451662985
 30
0.0
 10
49.9753354431
 20
20.4423274461
 30
0.0
 10
49.9681216461
 20
20.4212219213
 30
0.0
 10
49.9595899989
 20
20.4051464386
 30
0.0
 10
49.95309108
 20
20.3939813838
 30
0.0
  0
SPLINE
  5
486
100
AcDbEntity
  8
00_COMPONENTS_3
100
AcDbSpline
 62
7
  6
BYLAYER
 70
0
 71
3
 72
9
 73
5
 74
0
 42
0.0000001
 43
0.0000001
 44
0.0000000001
 40
0.0
 40
0.0
 40
0.0
 40
0.0
 40
0.4431104616
 40
1.0
 40
1.0
 40
1.0
 40
1.0
 10
49.4726701906
 20
20.4467016858
 30
0.0
 10
49.4726702266
 20
20.4385501787
 30
0.0
 10
49.4687335018
 20
20.4202598543
 30
0.0
 10
49.4617182066
 20
20.4032491746
 30
0.0
 10
49.4573524461
 20
20.3939813838
 30
0.0
  0
LINE
  5
487
100
AcDbEntity
  8
00_COMPONENTS_3
100
AcDbLine
 62
7
  6
BYLAYER
 10
23.3904359777
 20
20.051192582
 11
23.3836650144
 21
20.058041426
  0
SPLINE
  5
488
100
AcDbEntity
  8
00_COMPONENTS_3
100
AcDbSpline
 62
7
  6
BYLAYER
 70
0
 71
3
 72
15
 73
11
 74
0
 42
0.0000001
 43
0.0000001
 44
0.0000000001
 40
0.0
 40
0.0
 40
0.0
 40
0.0
 40
0.3931592309
 40
0.5607810297
 40
0.7053951383
 40
0.8241217858
 40
0.9141560053
 40
0.9731743351
 40
0.9905553999
 40
1.0
 40
1.0
 40
1.0
 40
1.0
 10
23.0246572522
 20
20.4230826802
 30
0.0
 10
23.0183821872
 20
20.4296182588
 30
0.0
 10
23.0094606689
 20
20.4389675763
 30
0.0
 10
22.998348961
 20
20.4508346141
 30
0.0
 10
22.9916290041
 20
20.4581439617
 30
0.0
 10
22.9861829845
 20
20.4642091947
 30
0.0
 10
22.9821895507
 20
20.4688909156
 30
0.0
 10
22.9797580889
 20
20.4719021297
 30
0.0
 10
22.9787200906
 20
20.4735526164
 30
0.0
 10
22.9784274228
 20
20.4741325807
 30
0.0
 10
22.978426876
 20
20.4743502311
 30
0.0
  0
SPLINE
  5
489
100
AcDbEntity
  8
00_COMPONENTS_3
100
AcDbSpline
 62
7
  6
BYLAYER
 70
0
 71
3
 72
14
 73
10
 74
0
 42
0.0000001
 43
0.0000001
 44
0.0000000001
 40
0.0
 40
0.0
 40
0.0
 40
0.0
 40
0.3638256921
 40
0.5240036085
 40
0.6662632471
 40
0.787763585
 40
0.8854592054
 40
0.9566308451
 40
1.0
 40
1.0
 40
1.0
 40
1.0
 10
23.1388492976
 20
20.3939813838
 30
0.0
 10
23.1308919275
 20
20.4029695285
 30
0.0
 10
23.1195410072
 20
20.4160155031
 30
0.0
 10
23.1055106665
 20
20.4329383716
 30
0.0
 10
23.096805772
 20
20.4438949278
 30
0.0
 10
23.0896769969
 20
20.4534432096
 30
0.0
 10
23.0842649851
 20
20.4613959646
 30
0.0
 10
23.080865427
 20
20.4674453017
 30
0.0
 10
23.0794240311
 20
20.4710903474
 30
0.0
 10
23.0794245676
 20
20.4725213134
 30
0.0
  0
SPLINE
  5
48A
100
AcDbEntity
  8
00_COMPONENTS_3
100
AcDbSpline
 62
7
  6
BYLAYER
 70
0
 71
3
 72
12
 73
8
 74
0
 42
0.0000001
 43
0.0000001
 44
0.0000000001
 40
0.0
 40
0.0
 40
0.0
 40
0.0
 40
0.3446149955
 40
0.635878917
 40
0.8586886226
 40
0.9399396397
 40
1.0
 40
1.0
 40
1.0
 40
1.0
 10
23.3302774211
 20
20.3939813838
 30
0.0
 10
23.3239738819
 20
20.401960617
 30
0.0
 10
23.3125499093
 20
20.4168608466
 30
0.0
 10
23.2981435879
 20
20.4376911465
 30
0.0
 10
23.2892149441
 20
20.4529136066
 30
0.0
 10
23.285226808
 20
20.4628930139
 30
0.0
 10
23.2843421318
 20
20.4670354271
 30
0.0
 10
23.2843424121
 20
20.4688076561
 30
0.0
  0
SPLINE
  5
48B
100
AcDbEntity
  8
00_COMPONENTS_3
100
AcDbSpline
 62
7
  6
BYLAYER
 70
0
 71
3
 72
11
 73
7
 74
0
 42
0.0000001
 43
0.0000001
 44
0.0000000001
 40
0.0
 40
0.0
 40
0.0
 40
0.0
 40
0.3257274698
 40
0.606983413
 40
0.8342428396
 40
1.0
 40
1.0
 40
1.0
 40
1.0
 10
23.6256483187
 20
20.3939813838
 30
0.0
 10
23.6208537003
 20
20.4009436727
 30
0.0
 10
23.6121849108
 20
20.4140977614
 30
0.0
 10
23.6013869607
 20
20.4329164402
 30
0.0
 10
23.5942140089
 20
20.4488508345
 30
0.0
 10
23.591619956
 20
20.4589356962
 30
0.0
 10
23.5916192958
 20
20.4632375434
 30
0.0
  0
SPLINE
  5
48C
100
AcDbEntity
  8
00_COMPONENTS_3
100
AcDbSpline
 62
7
  6
BYLAYER
 70
0
 71
3
 72
10
 73
6
 74
0
 42
0.0000001
 43
0.0000001
 44
0.0000000001
 40
0.0
 40
0.0
 40
0.0
 40
0.0
 40
0.579937294
 40
0.8119719988
 40
1.0
 40
1.0
 40
1.0
 40
1.0
 10
24.0227140394
 20
20.3939813838
 30
0.0
 10
24.016215121
 20
20.4051464377
 30
0.0
 10
24.0076834755
 20
20.4212219222
 30
0.0
 10
24.0004696752
 20
20.4423274459
 30
0.0
 10
23.9989158923
 20
20.4516629862
 30
0.0
 10
23.9989162006
 20
20.455851523
 30
0.0
  0
SPLINE
  5
48D
100
AcDbEntity
  8
00_COMPONENTS_3
100
AcDbSpline
 62
7
  6
BYLAYER
 70
0
 71
3
 72
9
 73
5
 74
0
 42
0.0000001
 43
0.0000001
 44
0.0000000001
 40
0.0
 40
0.0
 40
0.0
 40
0.0
 40
0.5568893803
 40
1.0
 40
1.0
 40
1.0
 40
1.0
 10
24.5184526733
 20
20.3939813838
 30
0.0
 10
24.514086914
 20
20.4032491722
 30
0.0
 10
24.5070716196
 20
20.4202598525
 30
0.0
 10
24.5031348918
 20
20.4385501768
 30
0.0
 10
24.5031349271
 20
20.4467016871
 30
0.0
  0
LINE
  5
48E
100
AcDbEntity
  8
00_COMPONENTS_3
100
AcDbLine
 62
7
  6
BYLAYER
 10
23.3836659922
 20
20.05804044
 11
23.3904359777
 21
20.051192582
  0
SPLINE
  5
48F
100
AcDbEntity
  8
00_COMPONENTS_3
100
AcDbSpline
 62
7
  6
BYLAYER
 70
0
 71
3
 72
13
 73
9
 74
0
 42
0.0000001
 43
0.0000001
 44
0.0000000001
 40
0.0
 40
0.0
 40
0.0
 40
0.0
 40
0.3727065578
 40
0.6798386107
 40
0.8012537868
 40
0.8969277383
 40
0.9637798967
 40
1.0
 40
1.0
 40
1.0
 40
1.0
 10
23.419379759
 20
20.0804168791
 30
0.0
 10
23.4224711048
 20
20.0769987686
 30
0.0
 10
23.4280632111
 20
20.0707251748
 30
0.0
 10
23.4345085759
 20
20.0631873858
 30
0.0
 10
23.4385346146
 20
20.0581206736
 30
0.0
 10
23.4406484485
 20
20.0552880968
 30
0.0
 10
23.4419301694
 20
20.0532424314
 30
0.0
 10
23.442553119
 20
20.0520522807
 30
0.0
 10
23.4425535313
 20
20.0516044038
 30
0.0
  0
SPLINE
  5
490
100
AcDbEntity
  8
00_COMPONENTS_3
100
AcDbSpline
 62
7
  6
BYLAYER
 70
0
 71
3
 72
11
 73
7
 74
0
 42
0.0000001
 43
0.0000001
 44
0.0000000001
 40
0.0
 40
0.0
 40
0.0
 40
0.0
 40
0.3523748777
 40
0.6477239517
 40
0.8687690395
 40
1.0
 40
1.0
 40
1.0
 40
1.0
 10
23.5806021939
 20
20.0804168791
 30
0.0
 10
23.5830498851
 20
20.0773838866
 30
0.0
 10
23.5874615605
 20
20.0717554425
 30
0.0
 10
23.5931339557
 20
20.0639319288
 30
0.0
 10
23.5967758173
 20
20.0578824201
 30
0.0
 10
23.5985187858
 20
20.0541903942
 30
0.0
 10
23.5985167453
 20
20.052738907
 30
0.0
  0
SPLINE
  5
491
100
AcDbEntity
  8
00_COMPONENTS_3
100
AcDbSpline
 62
7
  6
BYLAYER
 70
0
 71
3
 72
10
 73
6
 74
0
 42
0.0000001
 43
0.0000001
 44
0.0000000001
 40
0.0
 40
0.0
 40
0.0
 40
0.0
 40
0.6158599925
 40
0.8416086952
 40
1.0
 40
1.0
 40
1.0
 40
1.0
 10
23.8438622802
 20
20.0804168791
 30
0.0
 10
23.8473167079
 20
20.0755065329
 30
0.0
 10
23.8518989994
 20
20.0686337796
 30
0.0
 10
23.8560786467
 20
20.0598539897
 30
0.0
 10
23.8571319121
 20
20.0561673038
 30
0.0
 10
23.8571328954
 20
20.054623226
 30
0.0
  0
SPLINE
  5
492
100
AcDbEntity
  8
00_COMPONENTS_3
100
AcDbSpline
 62
7
  6
BYLAYER
 70
0
 71
3
 72
11
 73
7
 74
0
 42
0.0000001
 43
0.0000001
 44
0.0000000001
 40
0.0
 40
0.0
 40
0.0
 40
0.0
 40
0.2096972008
 40
0.4562056043
 40
0.72390733
 40
1.0
 40
1.0
 40
1.0
 40
1.0
 10
26.6798273184
 20
20.4745562627
 30
0.0
 10
26.6942280286
 20
20.4745562627
 30
0.0
 10
26.7255088082
 20
20.4691264681
 30
0.0
 10
26.7721313508
 20
20.4514989535
 30
0.0
 10
26.8201154741
 20
20.4258718237
 30
0.0
 10
26.8512249986
 20
20.4051210711
 30
0.0
 10
26.8665678119
 20
20.3939813838
 30
0.0
  0
SPLINE
  5
493
100
AcDbEntity
  8
00_COMPONENTS_3
100
AcDbSpline
 62
7
  6
BYLAYER
 70
0
 71
3
 72
12
 73
8
 74
0
 42
0.0000001
 43
0.0000001
 44
0.0000000001
 40
0.0
 40
0.0
 40
0.0
 40
0.0
 40
0.2438848837
 40
0.4704471217
 40
0.5866883835
 40
0.7110396292
 40
1.0
 40
1.0
 40
1.0
 40
1.0
 10
27.4020557349
 20
20.3939813838
 30
0.0
 10
27.4020557349
 20
20.4045557523
 30
0.0
 10
27.404367408
 20
20.4251771613
 30
0.0
 10
27.4168538832
 20
20.4483510463
 30
0.0
 10
27.4323855612
 20
20.4616617389
 30
0.0
 10
27.4530221237
 20
20.4721464858
 30
0.0
 10
27.4713526864
 20
20.4745562627
 30
0.0
 10
27.4838814392
 20
20.4745562627
 30
0.0
  0
SPLINE
  5
494
100
AcDbEntity
  8
00_COMPONENTS_3
100
AcDbSpline
 62
7
  6
BYLAYER
 70
0
 71
3
 72
10
 73
6
 74
0
 42
0.0000001
 43
0.0000001
 44
0.0000000001
 40
0.0
 40
0.0
 40
0.0
 40
0.0
 40
0.2181445727
 40
0.4669263048
 40
1.0
 40
1.0
 40
1.0
 40
1.0
 10
27.5473826766
 20
20.4745562627
 30
0.0
 10
27.5627963289
 20
20.4745562627
 30
0.0
 10
27.5957800657
 20
20.469338371
 30
0.0
 10
27.6624108949
 20
20.445250475
 30
0.0
 10
27.7101048742
 20
20.4161663124
 30
0.0
 10
27.7405441462
 20
20.3939813838
 30
0.0
  0
SPLINE
  5
495
100
AcDbEntity
  8
00_COMPONENTS_3
100
AcDbSpline
 62
7
  6
BYLAYER
 70
0
 71
3
 72
11
 73
7
 74
0
 42
0.0000001
 43
0.0000001
 44
0.0000000001
 40
0.0
 40
0.0
 40
0.0
 40
0.0
 40
0.2326342065
 40
0.4594432046
 40
0.7061455313
 40
1.0
 40
1.0
 40
1.0
 40
1.0
 10
28.3206652236
 20
20.3939813838
 30
0.0
 10
28.3219587257
 20
20.4047569261
 30
0.0
 10
28.3272567393
 20
20.4259479323
 30
0.0
 10
28.3469336204
 20
20.4535532286
 30
0.0
 10
28.379187832
 20
20.4714385711
 30
0.0
 10
28.4047461011
 20
20.4745562627
 30
0.0
 10
28.4184550629
 20
20.4745562627
 30
0.0
  0
SPLINE
  5
496
100
AcDbEntity
  8
00_COMPONENTS_3
100
AcDbSpline
 62
7
  6
BYLAYER
 70
0
 71
3
 72
10
 73
6
 74
0
 42
0.0000001
 43
0.0000001
 44
0.0000000001
 40
0.0
 40
0.0
 40
0.0
 40
0.0
 40
0.2257919352
 40
0.476481271
 40
1.0
 40
1.0
 40
1.0
 40
1.0
 10
28.4867860915
 20
20.4745562627
 30
0.0
 10
28.5030985846
 20
20.4745562627
 30
0.0
 10
28.5375419954
 20
20.469519582
 30
0.0
 10
28.6059791635
 20
20.4456958301
 30
0.0
 10
28.6544556392
 20
20.4164254457
 30
0.0
 10
28.6848984617
 20
20.3939813838
 30
0.0
  0
SPLINE
  5
497
100
AcDbEntity
  8
00_COMPONENTS_3
100
AcDbSpline
 62
7
  6
BYLAYER
 70
0
 71
3
 72
11
 73
7
 74
0
 42
0.0000001
 43
0.0000001
 44
0.0000000001
 40
0.0
 40
0.0
 40
0.0
 40
0.0
 40
0.2250796044
 40
0.4530464072
 40
0.7050062065
 40
1.0
 40
1.0
 40
1.0
 40
1.0
 10
29.3052376219
 20
20.3939813838
 30
0.0
 10
29.3078624295
 20
20.4049561489
 30
0.0
 10
29.3161837957
 20
20.4265501516
 30
0.0
 10
29.3401063751
 20
20.4536973209
 30
0.0
 10
29.3757526628
 20
20.4712790586
 30
0.0
 10
29.4034579488
 20
20.4745562627
 30
0.0
 10
29.4182473564
 20
20.4745562627
 30
0.0
  0
SPLINE
  5
498
100
AcDbEntity
  8
00_COMPONENTS_3
100
AcDbSpline
 62
7
  6
BYLAYER
 70
0
 71
3
 72
10
 73
6
 74
0
 42
0.0000001
 43
0.0000001
 44
0.0000000001
 40
0.0
 40
0.0
 40
0.0
 40
0.0
 40
0.2329127067
 40
0.4853378274
 40
1.0
 40
1.0
 40
1.0
 40
1.0
 10
29.4908881358
 20
20.4745562627
 30
0.0
 10
29.5079780232
 20
20.4745562627
 30
0.0
 10
29.5436320657
 20
20.4696804654
 30
0.0
 10
29.6133719489
 20
20.4461090129
 30
0.0
 10
29.6622572676
 20
20.4166714269
 30
0.0
 10
29.692443652
 20
20.3939813838
 30
0.0
  0
SPLINE
  5
499
100
AcDbEntity
  8
00_COMPONENTS_3
100
AcDbSpline
 62
7
  6
BYLAYER
 70
0
 71
3
 72
11
 73
7
 74
0
 42
0.0000001
 43
0.0000001
 44
0.0000000001
 40
0.0
 40
0.0
 40
0.0
 40
0.0
 40
0.2207637577
 40
0.4505869244
 40
0.7061181238
 40
1.0
 40
1.0
 40
1.0
 40
1.0
 10
30.3482797393
 20
20.3939813838
 30
0.0
 10
30.3522552126
 20
20.4051335852
 30
0.0
 10
30.3635449715
 20
20.4269713189
 30
0.0
 10
30.3913575481
 20
20.4537266002
 30
0.0
 10
30.4301782925
 20
20.4711375954
 30
0.0
 10
30.4598883669
 20
20.4745562627
 30
0.0
 10
30.4756492966
 20
20.4745562627
 30
0.0
  0
SPLINE
  5
49A
100
AcDbEntity
  8
00_COMPONENTS_3
100
AcDbSpline
 62
7
  6
BYLAYER
 70
0
 71
3
 72
9
 73
5
 74
0
 42
0.0000001
 43
0.0000001
 44
0.0000000001
 40
0.0
 40
0.0
 40
0.0
 40
0.0
 40
0.4924254951
 40
1.0
 40
1.0
 40
1.0
 40
1.0
 10
30.5520469867
 20
20.4745562627
 30
0.0
 10
30.5884183076
 20
20.4745562627
 30
0.0
 10
30.6621538257
 20
20.4555202891
 30
0.0
 10
30.7258450916
 20
20.4169032478
 30
0.0
 10
30.7555116896
 20
20.3939813838
 30
0.0
  0
SPLINE
  5
49B
100
AcDbEntity
  8
00_COMPONENTS_3
100
AcDbSpline
 62
7
  6
BYLAYER
 70
0
 71
3
 72
11
 73
7
 74
0
 42
0.0000001
 43
0.0000001
 44
0.0000000001
 40
0.0
 40
0.0
 40
0.0
 40
0.0
 40
0.218887623
 40
0.4509124375
 40
0.7087362252
 40
1.0
 40
1.0
 40
1.0
 40
1.0
 10
31.4418533955
 20
20.3939813838
 30
0.0
 10
31.4471746381
 20
20.4052775058
 30
0.0
 10
31.4613052425
 20
20.4272375372
 30
0.0
 10
31.4926994219
 20
20.4536881258
 30
0.0
 10
31.5344593973
 20
20.4710083926
 30
0.0
 10
31.5659979174
 20
20.4745562627
 30
0.0
 10
31.5826134164
 20
20.4745562627
 30
0.0
  0
SPLINE
  5
49C
100
AcDbEntity
  8
00_COMPONENTS_3
100
AcDbSpline
 62
7
  6
BYLAYER
 70
0
 71
3
 72
9
 73
5
 74
0
 42
0.0000001
 43
0.0000001
 44
0.0000000001
 40
0.0
 40
0.0
 40
0.0
 40
0.0
 40
0.5002097396
 40
1.0
 40
1.0
 40
1.0
 40
1.0
 10
31.6621865846
 20
20.4745562627
 30
0.0
 10
31.6992245965
 20
20.4745562627
 30
0.0
 10
31.7733409622
 20
20.4563076526
 30
0.0
 10
31.8371300594
 20
20.4171189905
 30
0.0
 10
31.866011985
 20
20.3939813838
 30
0.0
  0
SPLINE
  5
49D
100
AcDbEntity
  8
00_COMPONENTS_3
100
AcDbSpline
 62
7
  6
BYLAYER
 70
0
 71
3
 72
11
 73
7
 74
0
 42
0.0000001
 43
0.0000001
 44
0.0000000001
 40
0.0
 40
0.0
 40
0.0
 40
0.0
 40
0.2187992313
 40
0.4531750571
 40
0.7123453181
 40
1.0
 40
1.0
 40
1.0
 40
1.0
 10
32.5776358346
 20
20.3939813838
 30
0.0
 10
32.5842732375
 20
20.4053843521
 30
0.0
 10
32.6010755411
 20
20.427383682
 30
0.0
 10
32.6357679606
 20
20.4536094545
 30
0.0
 10
32.6802032516
 20
20.470887299
 30
0.0
 10
32.7133688807
 20
20.4745562627
 30
0.0
 10
32.7307150504
 20
20.4745562627
 30
0.0
  0
SPLINE
  5
49E
100
AcDbEntity
  8
00_COMPONENTS_3
100
AcDbSpline
 62
7
  6
BYLAYER
 70
0
 71
3
 72
9
 73
5
 74
0
 42
0.0000001
 43
0.0000001
 44
0.0000000001
 40
0.0
 40
0.0
 40
0.0
 40
0.0
 40
0.5075647723
 40
1.0
 40
1.0
 40
1.0
 40
1.0
 10
32.8128580968
 20
20.4745562627
 30
0.0
 10
32.8502939072
 20
20.4745562627
 30
0.0
 10
32.9243063731
 20
20.4570538683
 30
0.0
 10
32.987660334
 20
20.4173155108
 30
0.0
 10
33.0154929603
 20
20.3939813838
 30
0.0
  0
SPLINE
  5
49F
100
AcDbEntity
  8
00_COMPONENTS_3
100
AcDbSpline
 62
7
  6
BYLAYER
 70
0
 71
3
 72
9
 73
5
 74
0
 42
0.0000001
 43
0.0000001
 44
0.0000000001
 40
0.0
 40
0.0
 40
0.0
 40
0.0
 40
0.4911008107
 40
1.0
 40
1.0
 40
1.0
 40
1.0
 10
33.3934506285
 20
20.0804168791
 30
0.0
 10
33.4038354942
 20
20.0718941976
 30
0.0
 10
33.4274772034
 20
20.0573721561
 30
0.0
 10
33.4549710772
 20
20.0511816629
 30
0.0
 10
33.4688922415
 20
20.0512232511
 30
0.0
  0
SPLINE
  5
4A0
100
AcDbEntity
  8
00_COMPONENTS_3
100
AcDbSpline
 62
7
  6
BYLAYER
 70
0
 71
3
 72
9
 73
5
 74
0
 42
0.0000001
 43
0.0000001
 44
0.0000000001
 40
0.0
 40
0.0
 40
0.0
 40
0.0
 40
0.5382530298
 40
1.0
 40
1.0
 40
1.0
 40
1.0
 10
34.6267137606
 20
20.0512228456
 30
0.0
 10
34.6396546285
 20
20.051221015
 30
0.0
 10
34.6641715037
 20
20.0562783737
 30
0.0
 10
34.6836989124
 20
20.0717777481
 30
0.0
 10
34.6906708799
 20
20.0804168791
 30
0.0
  0
SPLINE
  5
4A1
100
AcDbEntity
  8
00_COMPONENTS_3
100
AcDbSpline
 62
7
  6
BYLAYER
 70
0
 71
3
 72
11
 73
7
 74
0
 42
0.0000001
 43
0.0000001
 44
0.0000000001
 40
0.0
 40
0.0
 40
0.0
 40
0.0
 40
0.2221525819
 40
0.4613283113
 40
0.7212940313
 40
1.0
 40
1.0
 40
1.0
 40
1.0
 10
34.9409956527
 20
20.3939813838
 30
0.0
 10
34.9500938972
 20
20.4054982496
 30
0.0
 10
34.9716511469
 20
20.427436454
 30
0.0
 10
35.0120985433
 20
20.4533870824
 30
0.0
 10
35.0609781706
 20
20.470658967
 30
0.0
 10
35.0967198861
 20
20.4745562627
 30
0.0
 10
35.1151332925
 20
20.4745562627
 30
0.0
  0
SPLINE
  5
4A2
100
AcDbEntity
  8
00_COMPONENTS_3
100
AcDbSpline
 62
7
  6
BYLAYER
 70
0
 71
3
 72
9
 73
5
 74
0
 42
0.0000001
 43
0.0000001
 44
0.0000000001
 40
0.0
 40
0.0
 40
0.0
 40
0.0
 40
0.5211477129
 40
1.0
 40
1.0
 40
1.0
 40
1.0
 10
35.2005258203
 20
20.4745562627
 30
0.0
 10
35.2379391511
 20
20.4745562627
 30
0.0
 10
35.3103499385
 20
20.4584581468
 30
0.0
 10
35.3712231654
 20
20.4176295319
 30
0.0
 10
35.3961738865
 20
20.3939813838
 30
0.0
  0
SPLINE
  5
4A3
100
AcDbEntity
  8
00_COMPONENTS_3
100
AcDbSpline
 62
7
  6
BYLAYER
 70
0
 71
3
 72
9
 73
5
 74
0
 42
0.0000001
 43
0.0000001
 44
0.0000000001
 40
0.0
 40
0.0
 40
0.0
 40
0.0
 40
0.4667755204
 40
1.0
 40
1.0
 40
1.0
 40
1.0
 10
36.1505864364
 20
20.3939813838
 30
0.0
 10
36.1716527253
 20
20.417776539
 30
0.0
 10
36.2278822869
 20
20.459787907
 30
0.0
 10
36.2969983881
 20
20.4745562627
 30
0.0
 10
36.3333030379
 20
20.4745562627
 30
0.0
  0
SPLINE
  5
4A4
100
AcDbEntity
  8
00_COMPONENTS_3
100
AcDbSpline
 62
7
  6
BYLAYER
 70
0
 71
3
 72
9
 73
5
 74
0
 42
0.0000001
 43
0.0000001
 44
0.0000000001
 40
0.0
 40
0.0
 40
0.0
 40
0.0
 40
0.527391241
 40
1.0
 40
1.0
 40
1.0
 40
1.0
 10
36.4193504384
 20
20.4745562627
 30
0.0
 10
36.4563436852
 20
20.4745562627
 30
0.0
 10
36.5273024309
 20
20.4591300016
 30
0.0
 10
36.5861263087
 20
20.4177301969
 30
0.0
 10
36.6092554181
 20
20.3939813838
 30
0.0
  0
SPLINE
  5
4A5
100
AcDbEntity
  8
00_COMPONENTS_3
100
AcDbSpline
 62
7
  6
BYLAYER
 70
0
 71
3
 72
9
 73
5
 74
0
 42
0.0000001
 43
0.0000001
 44
0.0000000001
 40
0.0
 40
0.0
 40
0.0
 40
0.0
 40
0.4726088869
 40
1.0
 40
1.0
 40
1.0
 40
1.0
 10
37.3665497013
 20
20.3939813838
 30
0.0
 10
37.3896788171
 20
20.4177302034
 30
0.0
 10
37.4485026968
 20
20.4591300085
 30
0.0
 10
37.519461443
 20
20.4745562627
 30
0.0
 10
37.556454681
 20
20.4745562627
 30
0.0
  0
SPLINE
  5
4A6
100
AcDbEntity
  8
00_COMPONENTS_3
100
AcDbSpline
 62
7
  6
BYLAYER
 70
0
 71
3
 72
9
 73
5
 74
0
 42
0.0000001
 43
0.0000001
 44
0.0000000001
 40
0.0
 40
0.0
 40
0.0
 40
0.0
 40
0.5332246062
 40
1.0
 40
1.0
 40
1.0
 40
1.0
 10
37.6425020815
 20
20.4745562627
 30
0.0
 10
37.6788067398
 20
20.4745562627
 30
0.0
 10
37.7479228405
 20
20.4597879001
 30
0.0
 10
37.8041523999
 20
20.4177765325
 30
0.0
 10
37.8252186831
 20
20.3939813838
 30
0.0
  0
SPLINE
  5
4A7
100
AcDbEntity
  8
00_COMPONENTS_3
100
AcDbSpline
 62
7
  6
BYLAYER
 70
0
 71
3
 72
9
 73
5
 74
0
 42
0.0000001
 43
0.0000001
 44
0.0000000001
 40
0.0
 40
0.0
 40
0.0
 40
0.0
 40
0.4788524161
 40
1.0
 40
1.0
 40
1.0
 40
1.0
 10
38.5796312329
 20
20.3939813838
 30
0.0
 10
38.6045819608
 20
20.4176295384
 30
0.0
 10
38.6654551894
 20
20.4584581538
 30
0.0
 10
38.7378659774
 20
20.4745562627
 30
0.0
 10
38.7752792991
 20
20.4745562627
 30
0.0
  0
SPLINE
  5
4A8
100
AcDbEntity
  8
00_COMPONENTS_3
100
AcDbSpline
 62
7
  6
BYLAYER
 70
0
 71
3
 72
11
 73
7
 74
0
 42
0.0000001
 43
0.0000001
 44
0.0000000001
 40
0.0
 40
0.0
 40
0.0
 40
0.0
 40
0.2787063417
 40
0.5386718132
 40
0.7778474438
 40
1.0
 40
1.0
 40
1.0
 40
1.0
 10
38.860671827
 20
20.4745562627
 30
0.0
 10
38.8790852579
 20
20.4745562627
 30
0.0
 10
38.9148269817
 20
20.470658956
 30
0.0
 10
38.9637066055
 20
20.4533870628
 30
0.0
 10
39.0041539813
 20
20.4274364484
 30
0.0
 10
39.0257112233
 20
20.4054982482
 30
0.0
 10
39.0348094667
 20
20.3939813838
 30
0.0
  0
SPLINE
  5
4A9
100
AcDbEntity
  8
00_COMPONENTS_3
100
AcDbSpline
 62
7
  6
BYLAYER
 70
0
 71
3
 72
9
 73
5
 74
0
 42
0.0000001
 43
0.0000001
 44
0.0000000001
 40
0.0
 40
0.0
 40
0.0
 40
0.0
 40
0.4854633634
 40
1.0
 40
1.0
 40
1.0
 40
1.0
 10
39.7805987481
 20
20.3939813838
 30
0.0
 10
39.8071195775
 20
20.4174880253
 30
0.0
 10
39.8695021617
 20
20.4577681539
 30
0.0
 10
39.9429396334
 20
20.4745562627
 30
0.0
 10
39.980500901
 20
20.4745562627
 30
0.0
  0
SPLINE
  5
4AA
100
AcDbEntity
  8
00_COMPONENTS_3
100
AcDbSpline
 62
7
  6
BYLAYER
 70
0
 71
3
 72
11
 73
7
 74
0
 42
0.0000001
 43
0.0000001
 44
0.0000000001
 40
0.0
 40
0.0
 40
0.0
 40
0.0
 40
0.2833965508
 40
0.5432193544
 40
0.7799943513
 40
1.0
 40
1.0
 40
1.0
 40
1.0
 10
40.0645886675
 20
20.4745562627
 30
0.0
 10
40.0825357607
 20
20.4745562627
 30
0.0
 10
40.1171076718
 20
20.4707714959
 30
0.0
 10
40.1639249893
 20
20.4535061639
 30
0.0
 10
40.2016375698
 20
20.4274416375
 30
0.0
 10
40.2209198102
 20
20.4054562692
 30
0.0
 10
40.2288220529
 20
20.3939813838
 30
0.0
  0
SPLINE
  5
4AB
100
AcDbEntity
  8
00_COMPONENTS_3
100
AcDbSpline
 62
7
  6
BYLAYER
 70
0
 71
3
 72
9
 73
5
 74
0
 42
0.0000001
 43
0.0000001
 44
0.0000000001
 40
0.0
 40
0.0
 40
0.0
 40
0.0
 40
0.492435359
 40
1.0
 40
1.0
 40
1.0
 40
1.0
 10
40.9603121591
 20
20.3939813838
 30
0.0
 10
40.9881447929
 20
20.4173155171
 30
0.0
 10
41.051498755
 20
20.4570538754
 30
0.0
 10
41.1255112218
 20
20.4745562627
 30
0.0
 10
41.1629470226
 20
20.4745562627
 30
0.0
  0
SPLINE
  5
4AC
100
AcDbEntity
  8
00_COMPONENTS_3
100
AcDbSpline
 62
7
  6
BYLAYER
 70
0
 71
3
 72
11
 73
7
 74
0
 42
0.0000001
 43
0.0000001
 44
0.0000000001
 40
0.0
 40
0.0
 40
0.0
 40
0.0
 40
0.2876550564
 40
0.5468250641
 40
0.7812007933
 40
1.0
 40
1.0
 40
1.0
 40
1.0
 10
41.245090069
 20
20.4745562627
 30
0.0
 10
41.2624362612
 20
20.4745562627
 30
0.0
 10
41.2956018978
 20
20.4708872884
 30
0.0
 10
41.3400371842
 20
20.4536094344
 30
0.0
 10
41.3747295858
 20
20.4273836764
 30
0.0
 10
41.3915318827
 20
20.4053843508
 30
0.0
 10
41.3981692848
 20
20.3939813838
 30
0.0
  0
SPLINE
  5
4AD
100
AcDbEntity
  8
00_COMPONENTS_3
100
AcDbSpline
 62
7
  6
BYLAYER
 70
0
 71
3
 72
9
 73
5
 74
0
 42
0.0000001
 43
0.0000001
 44
0.0000000001
 40
0.0
 40
0.0
 40
0.0
 40
0.0
 40
0.4997903927
 40
1.0
 40
1.0
 40
1.0
 40
1.0
 10
42.1097931345
 20
20.3939813838
 30
0.0
 10
42.1386750677
 20
20.4171189966
 30
0.0
 10
42.202464166
 20
20.4563076598
 30
0.0
 10
42.2765805326
 20
20.4745562627
 30
0.0
 10
42.3136185348
 20
20.4745562627
 30
0.0
  0
SPLINE
  5
4AE
100
AcDbEntity
  8
00_COMPONENTS_3
100
AcDbSpline
 62
7
  6
BYLAYER
 70
0
 71
3
 72
11
 73
7
 74
0
 42
0.0000001
 43
0.0000001
 44
0.0000000001
 40
0.0
 40
0.0
 40
0.0
 40
0.0
 40
0.2912641486
 40
0.5490876818
 40
0.7811124008
 40
1.0
 40
1.0
 40
1.0
 40
1.0
 10
42.393191703
 20
20.4745562627
 30
0.0
 10
42.4098072232
 20
20.4745562627
 30
0.0
 10
42.4413457505
 20
20.4710083822
 30
0.0
 10
42.4831057205
 20
20.4536881056
 30
0.0
 10
42.5144998837
 20
20.4272375315
 30
0.0
 10
42.5286304819
 20
20.4052775045
 30
0.0
 10
42.5339517239
 20
20.3939813838
 30
0.0
  0
SPLINE
  5
4AF
100
AcDbEntity
  8
00_COMPONENTS_3
100
AcDbSpline
 62
7
  6
BYLAYER
 70
0
 71
3
 72
9
 73
5
 74
0
 42
0.0000001
 43
0.0000001
 44
0.0000000001
 40
0.0
 40
0.0
 40
0.0
 40
0.0
 40
0.5075746382
 40
1.0
 40
1.0
 40
1.0
 40
1.0
 10
43.2202934298
 20
20.3939813838
 30
0.0
 10
43.2499600357
 20
20.4169032539
 30
0.0
 10
43.3136513025
 20
20.4555202963
 30
0.0
 10
43.3873868216
 20
20.4745562627
 30
0.0
 10
43.4237581327
 20
20.4745562627
 30
0.0
  0
SPLINE
  5
4B0
100
AcDbEntity
  8
00_COMPONENTS_3
100
AcDbSpline
 62
7
  6
BYLAYER
 70
0
 71
3
 72
11
 73
7
 74
0
 42
0.0000001
 43
0.0000001
 44
0.0000000001
 40
0.0
 40
0.0
 40
0.0
 40
0.0
 40
0.2938822474
 40
0.5494131926
 40
0.7792362652
 40
1.0
 40
1.0
 40
1.0
 40
1.0
 10
43.5001558228
 20
20.4745562627
 30
0.0
 10
43.5159167723
 20
20.4745562627
 30
0.0
 10
43.5456268535
 20
20.4711375852
 30
0.0
 10
43.5844475915
 20
20.4537265798
 30
0.0
 10
43.6122601538
 20
20.4269713133
 30
0.0
 10
43.6235499073
 20
20.405133584
 30
0.0
 10
43.6275253801
 20
20.3939813838
 30
0.0
  0
SPLINE
  5
4B1
100
AcDbEntity
  8
00_COMPONENTS_3
100
AcDbSpline
 62
7
  6
BYLAYER
 70
0
 71
3
 72
10
 73
6
 74
0
 42
0.0000001
 43
0.0000001
 44
0.0000000001
 40
0.0
 40
0.0
 40
0.0
 40
0.0
 40
0.5146623063
 40
0.7670876408
 40
1.0
 40
1.0
 40
1.0
 40
1.0
 10
44.2833614675
 20
20.3939813838
 30
0.0
 10
44.3135478597
 20
20.4166714328
 30
0.0
 10
44.3624332014
 20
20.4461090306
 30
0.0
 10
44.4321730883
 20
20.4696804781
 30
0.0
 10
44.4678271217
 20
20.4745562627
 30
0.0
 10
44.4849169836
 20
20.4745562627
 30
0.0
  0
SPLINE
  5
4B2
100
AcDbEntity
  8
00_COMPONENTS_3
100
AcDbSpline
 62
7
  6
BYLAYER
 70
0
 71
3
 72
11
 73
7
 74
0
 42
0.0000001
 43
0.0000001
 44
0.0000000001
 40
0.0
 40
0.0
 40
0.0
 40
0.0
 40
0.2949941598
 40
0.5469537072
 40
0.7749204173
 40
1.0
 40
1.0
 40
1.0
 40
1.0
 10
44.557557763
 20
20.4745562627
 30
0.0
 10
44.5723471888
 20
20.4745562627
 30
0.0
 10
44.6000524813
 20
20.4712790484
 30
0.0
 10
44.6356987614
 20
20.4536973003
 30
0.0
 10
44.6596213288
 20
20.426550146
 30
0.0
 10
44.6679426902
 20
20.4049561478
 30
0.0
 10
44.6705674975
 20
20.3939813838
 30
0.0
  0
SPLINE
  5
4B3
100
AcDbEntity
  8
00_COMPONENTS_3
100
AcDbSpline
 62
7
  6
BYLAYER
 70
0
 71
3
 72
10
 73
6
 74
0
 42
0.0000001
 43
0.0000001
 44
0.0000000001
 40
0.0
 40
0.0
 40
0.0
 40
0.0
 40
0.5235188636
 40
0.7742084075
 40
1.0
 40
1.0
 40
1.0
 40
1.0
 10
45.2909066577
 20
20.3939813838
 30
0.0
 10
45.3213494882
 20
20.4164254516
 30
0.0
 10
45.369825986
 20
20.4456958473
 30
0.0
 10
45.4382631577
 20
20.4695195949
 30
0.0
 10
45.4727065596
 20
20.4745562627
 30
0.0
 10
45.4890190279
 20
20.4745562627
 30
0.0
  0
SPLINE
  5
4B4
100
AcDbEntity
  8
00_COMPONENTS_3
100
AcDbSpline
 62
7
  6
BYLAYER
 70
0
 71
3
 72
11
 73
7
 74
0
 42
0.0000001
 43
0.0000001
 44
0.0000000001
 40
0.0
 40
0.0
 40
0.0
 40
0.0
 40
0.2938548269
 40
0.5405569069
 40
0.767365814
 40
1.0
 40
1.0
 40
1.0
 40
1.0
 10
45.5573500565
 20
20.4745562627
 30
0.0
 10
45.5710590348
 20
20.4745562627
 30
0.0
 10
45.5966173101
 20
20.4714385611
 30
0.0
 10
45.6288715127
 20
20.4535532081
 30
0.0
 10
45.6485483842
 20
20.4259479267
 30
0.0
 10
45.6538463938
 20
20.404756925
 30
0.0
 10
45.6551398958
 20
20.3939813838
 30
0.0
  0
SPLINE
  5
4B5
100
AcDbEntity
  8
00_COMPONENTS_3
100
AcDbSpline
 62
7
  6
BYLAYER
 70
0
 71
3
 72
10
 73
6
 74
0
 42
0.0000001
 43
0.0000001
 44
0.0000000001
 40
0.0
 40
0.0
 40
0.0
 40
0.0
 40
0.5330738309
 40
0.7818557648
 40
1.0
 40
1.0
 40
1.0
 40
1.0
 10
46.2352609732
 20
20.3939813838
 30
0.0
 10
46.2657002531
 20
20.4161663182
 30
0.0
 10
46.3133942535
 20
20.4452504917
 30
0.0
 10
46.3800250862
 20
20.4693383842
 30
0.0
 10
46.4130088143
 20
20.4745562627
 30
0.0
 10
46.4284224428
 20
20.4745562627
 30
0.0
  0
SPLINE
  5
4B6
100
AcDbEntity
  8
00_COMPONENTS_3
100
AcDbSpline
 62
7
  6
BYLAYER
 70
0
 71
3
 72
12
 73
8
 74
0
 42
0.0000001
 43
0.0000001
 44
0.0000000001
 40
0.0
 40
0.0
 40
0.0
 40
0.0
 40
0.288960713
 40
0.4133118692
 40
0.5295529912
 40
0.7561151377
 40
1.0
 40
1.0
 40
1.0
 40
1.0
 10
46.4919236802
 20
20.4745562627
 30
0.0
 10
46.5044524478
 20
20.4745562627
 30
0.0
 10
46.5227830177
 20
20.4721464686
 30
0.0
 10
46.5434195899
 20
20.4616617283
 30
0.0
 10
46.5589512397
 20
20.4483510243
 30
0.0
 10
46.5714377164
 20
20.4251771581
 30
0.0
 10
46.5737493845
 20
20.4045557513
 30
0.0
 10
46.5737493845
 20
20.3939813838
 30
0.0
  0
SPLINE
  5
4B7
100
AcDbEntity
  8
00_COMPONENTS_3
100
AcDbSpline
 62
7
  6
BYLAYER
 70
0
 71
3
 72
11
 73
7
 74
0
 42
0.0000001
 43
0.0000001
 44
0.0000000001
 40
0.0
 40
0.0
 40
0.0
 40
0.0
 40
0.2760926988
 40
0.5437945324
 40
0.7903031307
 40
1.0
 40
1.0
 40
1.0
 40
1.0
 10
47.1092373075
 20
20.3939813838
 30
0.0
 10
47.1245801224
 20
20.4051210723
 30
0.0
 10
47.1556896557
 20
20.4258718291
 30
0.0
 10
47.2036737989
 20
20.4514989696
 30
0.0
 10
47.2502963423
 20
20.4691264815
 30
0.0
 10
47.2815771135
 20
20.4745562627
 30
0.0
 10
47.2959778011
 20
20.4745562627
 30
0.0
  0
SPLINE
  5
4B8
100
AcDbEntity
  8
00_COMPONENTS_3
100
AcDbSpline
 62
7
  6
BYLAYER
 70
0
 71
3
 72
11
 73
7
 74
0
 42
0.0000001
 43
0.0000001
 44
0.0000000001
 40
0.0
 40
0.0
 40
0.0
 40
0.0
 40
0.2875715938
 40
0.5248478755
 40
0.7516765581
 40
1.0
 40
1.0
 40
1.0
 40
1.0
 10
47.3541659645
 20
20.4745562627
 30
0.0
 10
47.3642520977
 20
20.4745562627
 30
0.0
 10
47.3829918648
 20
20.4723177594
 30
0.0
 10
47.4062422501
 20
20.4577458499
 30
0.0
 10
47.4185165693
 20
20.4349573257
 30
0.0
 10
47.420371386
 20
20.4181084506
 30
0.0
 10
47.4203714071
 20
20.4093988862
 30
0.0
  0
SPLINE
  5
4B9
100
AcDbEntity
  8
00_COMPONENTS_3
100
AcDbSpline
 62
7
  6
BYLAYER
 70
0
 71
3
 72
11
 73
7
 74
0
 42
0.0000001
 43
0.0000001
 44
0.0000000001
 40
0.0
 40
0.0
 40
0.0
 40
0.0
 40
0.2839711329
 40
0.5552001873
 40
0.7994006395
 40
1.0
 40
1.0
 40
1.0
 40
1.0
 10
47.906184173
 20
20.3939813838
 30
0.0
 10
47.9213790368
 20
20.4050557935
 30
0.0
 10
47.9518746667
 20
20.4256534036
 30
0.0
 10
47.9983372328
 20
20.4512509116
 30
0.0
 10
48.0424448904
 20
20.468882105
 30
0.0
 10
48.0718003962
 20
20.4745562627
 30
0.0
 10
48.0850824825
 20
20.4745562627
 30
0.0
  0
SPLINE
  5
4BA
100
AcDbEntity
  8
00_COMPONENTS_3
100
AcDbSpline
 62
7
  6
BYLAYER
 70
0
 71
3
 72
11
 73
7
 74
0
 42
0.0000001
 43
0.0000001
 44
0.0000000001
 40
0.0
 40
0.0
 40
0.0
 40
0.0
 40
0.2856554169
 40
0.5209636125
 40
0.7476609822
 40
1.0
 40
1.0
 40
1.0
 40
1.0
 10
48.1375147249
 20
20.4745562627
 30
0.0
 10
48.1453960318
 20
20.4745562627
 30
0.0
 10
48.1600163581
 20
20.4728907928
 30
0.0
 10
48.178336559
 20
20.461685705
 30
0.0
 10
48.1880893313
 20
20.4437216744
 30
0.0
 10
48.1895292725
 20
20.4303530546
 30
0.0
 10
48.1895290603
 20
20.4233909558
 30
0.0
  0
SPLINE
  5
4BB
100
AcDbEntity
  8
00_COMPONENTS_3
100
AcDbSpline
 62
7
  6
BYLAYER
 70
0
 71
3
 72
11
 73
7
 74
0
 42
0.0000001
 43
0.0000001
 44
0.0000000001
 40
0.0
 40
0.0
 40
0.0
 40
0.0
 40
0.2927490443
 40
0.5678932545
 40
0.8095216138
 40
1.0
 40
1.0
 40
1.0
 40
1.0
 10
48.6200363227
 20
20.3939813838
 30
0.0
 10
48.6349644512
 20
20.4049871911
 30
0.0
 10
48.6646104412
 20
20.4254197748
 30
0.0
 10
48.7092030731
 20
20.4509805146
 30
0.0
 10
48.7504491285
 20
20.4685895711
 30
0.0
 10
48.7776634937
 20
20.4745562627
 30
0.0
 10
48.7897309241
 20
20.4745562627
 30
0.0
  0
SPLINE
  5
4BC
100
AcDbEntity
  8
00_COMPONENTS_3
100
AcDbSpline
 62
7
  6
BYLAYER
 70
0
 71
3
 72
11
 73
7
 74
0
 42
0.0000001
 43
0.0000001
 44
0.0000000001
 40
0.0
 40
0.0
 40
0.0
 40
0.0
 40
0.2837394035
 40
0.5171961992
 40
0.7436798395
 40
1.0
 40
1.0
 40
1.0
 40
1.0
 10
48.8360082044
 20
20.4745562627
 30
0.0
 10
48.8419386673
 20
20.4745562627
 30
0.0
 10
48.8529251066
 20
20.4733561703
 30
0.0
 10
48.8668181807
 20
20.4650558667
 30
0.0
 10
48.8742895049
 20
20.4514257145
 30
0.0
 10
48.8753687392
 20
20.4412130547
 30
0.0
 10
48.8753689031
 20
20.4358556839
 30
0.0
  0
SPLINE
  5
4BD
100
AcDbEntity
  8
00_COMPONENTS_3
100
AcDbSpline
 62
7
  6
BYLAYER
 70
0
 71
3
 72
12
 73
8
 74
0
 42
0.0000001
 43
0.0000001
 44
0.0000000001
 40
0.0
 40
0.0
 40
0.0
 40
0.0
 40
0.3024622202
 40
0.5818581966
 40
0.8204748465
 40
0.9184504796
 40
1.0
 40
1.0
 40
1.0
 40
1.0
 10
49.2453609109
 20
20.3939813838
 30
0.0
 10
49.2599069908
 20
20.4049151603
 30
0.0
 10
49.2884926608
 20
20.4251847144
 30
0.0
 10
49.3308218187
 20
20.4506369343
 30
0.0
 10
49.3646118353
 20
20.4663065385
 30
0.0
 10
49.3888580086
 20
20.4731873986
 30
0.0
 10
49.3996540334
 20
20.4745562627
 30
0.0
 10
49.4045603257
 20
20.4745562627
 30
0.0
  0
SPLINE
  5
4BE
100
AcDbEntity
  8
00_COMPONENTS_3
100
AcDbSpline
 62
7
  6
BYLAYER
 70
0
 71
3
 72
11
 73
7
 74
0
 42
0.0000001
 43
0.0000001
 44
0.0000000001
 40
0.0
 40
0.0
 40
0.0
 40
0.0
 40
0.281893533
 40
0.5136684611
 40
0.7398762031
 40
1.0
 40
1.0
 40
1.0
 40
1.0
 10
49.4443304459
 20
20.4745562627
 30
0.0
 10
49.4485766464
 20
20.4745562627
 30
0.0
 10
49.4564339619
 20
20.4737278637
 30
0.0
 10
49.4664523083
 20
20.4678727963
 30
0.0
 10
49.4718983152
 20
20.458038178
 30
0.0
 10
49.4726701733
 20
20.4506199658
 30
0.0
 10
49.4726701906
 20
20.4467016858
 30
0.0
  0
SPLINE
  5
4BF
100
AcDbEntity
  8
00_COMPONENTS_3
100
AcDbSpline
 62
7
  6
BYLAYER
 70
0
 71
3
 72
12
 73
8
 74
0
 42
0.0000001
 43
0.0000001
 44
0.0000000001
 40
0.0
 40
0.0
 40
0.0
 40
0.0
 40
0.3136736668
 40
0.5980762802
 40
0.8334428371
 40
0.9261352449
 40
1.0
 40
1.0
 40
1.0
 40
1.0
 10
49.7773988397
 20
20.3939813838
 30
0.0
 10
49.7914520663
 20
20.4048395937
 30
0.0
 10
49.8187521339
 20
20.4249228902
 30
0.0
 10
49.8585541177
 20
20.4502889943
 30
0.0
 10
49.8896106523
 20
20.4660925365
 30
0.0
 10
49.9112960692
 20
20.4731092161
 30
0.0
 10
49.9207094468
 20
20.4745562627
 30
0.0
 10
49.9248914643
 20
20.4745562627
 30
0.0
  0
SPLINE
  5
4C0
100
AcDbEntity
  8
00_COMPONENTS_3
100
AcDbSpline
 62
7
  6
BYLAYER
 70
0
 71
3
 72
11
 73
7
 74
0
 42
0.0000001
 43
0.0000001
 44
0.0000000001
 40
0.0
 40
0.0
 40
0.0
 40
0.0
 40
0.2801864992
 40
0.5104957253
 40
0.7363923815
 40
1.0
 40
1.0
 40
1.0
 40
1.0
 10
49.9578517498
 20
20.4745562627
 30
0.0
 10
49.9606889049
 20
20.4745562627
 30
0.0
 10
49.9659342311
 20
20.4740183649
 30
0.0
 10
49.9726698683
 20
20.4701588621
 30
0.0
 10
49.9763723137
 20
20.4635430986
 30
0.0
 10
49.9768887226
 20
20.4585208008
 30
0.0
 10
49.9768889183
 20
20.4558515226
 30
0.0
  0
SPLINE
  5
4C1
100
AcDbEntity
  8
00_COMPONENTS_3
100
AcDbSpline
 62
7
  6
BYLAYER
 70
0
 71
3
 72
12
 73
8
 74
0
 42
0.0000001
 43
0.0000001
 44
0.0000000001
 40
0.0
 40
0.0
 40
0.0
 40
0.0
 40
0.3265484998
 40
0.6167356387
 40
0.8484421515
 40
0.9350592736
 40
1.0
 40
1.0
 40
1.0
 40
1.0
 10
50.2121009793
 20
20.3939813838
 30
0.0
 10
50.2255561277
 20
20.4047604411
 30
0.0
 10
50.2513729604
 20
20.4246435158
 30
0.0
 10
50.2883571666
 20
20.4498999132
 30
0.0
 10
50.3164355095
 20
20.4658260771
 30
0.0
 10
50.3353734764
 20
20.472996756
 30
0.0
 10
50.3433357193
 20
20.4745562627
 30
0.0
 10
50.3467643058
 20
20.4745562627
 30
0.0
  0
SPLINE
  5
4C2
100
AcDbEntity
  8
00_COMPONENTS_3
100
AcDbSpline
 62
7
  6
BYLAYER
 70
0
 71
3
 72
9
 73
5
 74
0
 42
0.0000001
 43
0.0000001
 44
0.0000000001
 40
0.0
 40
0.0
 40
0.0
 40
0.0
 40
0.5077779917
 40
1.0
 40
1.0
 40
1.0
 40
1.0
 10
50.3726639088
 20
20.4745562627
 30
0.0
 10
50.3757169335
 20
20.4745562627
 30
0.0
 10
50.3826172461
 20
20.4730559394
 30
0.0
 10
50.3841862822
 20
20.4661970416
 30
0.0
 10
50.3841858284
 20
20.4632375477
 30
0.0
  0
SPLINE
  5
4C3
100
AcDbEntity
  8
00_COMPONENTS_3
100
AcDbSpline
 62
7
  6
BYLAYER
 70
0
 71
3
 72
13
 73
9
 74
0
 42
0.0000001
 43
0.0000001
 44
0.0000000001
 40
0.0
 40
0.0
 40
0.0
 40
0.0
 40
0.341411691
 40
0.6383167828
 40
0.7625571992
 40
0.8659968688
 40
0.9455762534
 40
1.0
 40
1.0
 40
1.0
 40
1.0
 10
50.546158984
 20
20.3939813838
 30
0.0
 10
50.5589175176
 20
20.4046777961
 30
0.0
 10
50.5830732244
 20
20.4243147244
 30
0.0
 10
50.6129276653
 20
20.4465401239
 30
0.0
 10
50.6343337951
 20
20.4605464962
 30
0.0
 10
50.6473543956
 20
20.4680275318
 30
0.0
 10
50.6578679017
 20
20.4728187626
 30
0.0
 10
50.6643141395
 20
20.4745562627
 30
0.0
 10
50.6669681431
 20
20.4745562627
 30
0.0
  0
SPLINE
  5
4C4
100
AcDbEntity
  8
00_COMPONENTS_3
100
AcDbSpline
 62
7
  6
BYLAYER
 70
0
 71
3
 72
14
 73
10
 74
0
 42
0.0000001
 43
0.0000001
 44
0.0000000001
 40
0.0
 40
0.0
 40
0.0
 40
0.0
 40
0.3586959494
 40
0.5194144389
 40
0.6635161302
 40
0.7872264282
 40
0.8865811389
 40
0.9580621773
 40
1.0
 40
1.0
 40
1.0
 40
1.0
 10
50.7770304705
 20
20.3939813838
 30
0.0
 10
50.7890016833
 20
20.4045920251
 30
0.0
 10
50.8064847799
 20
20.419795481
 30
0.0
 10
50.8292672949
 20
20.4386761428
 30
0.0
 10
50.8442320304
 20
20.4505769704
 30
0.0
 10
50.8573242875
 20
20.4603822204
 30
0.0
 10
50.8681967601
 20
20.467860709
 30
0.0
 10
50.8763480364
 20
20.4725129752
 30
0.0
 10
50.8811957334
 20
20.4745562627
 30
0.0
 10
50.8830660316
 20
20.4745562627
 30
0.0
  0
SPLINE
  5
4C5
100
AcDbEntity
  8
00_COMPONENTS_3
100
AcDbSpline
 62
7
  6
BYLAYER
 70
0
 71
3
 72
15
 73
11
 74
0
 42
0.0000001
 43
0.0000001
 44
0.0000000001
 40
0.0
 40
0.0
 40
0.0
 40
0.0
 40
0.3921062849
 40
0.5593888236
 40
0.703746964
 40
0.8223148094
 40
0.912414155
 40
0.9718958752
 40
0.9897975112
 40
1.0
 40
1.0
 40
1.0
 40
1.0
 10
50.9399652779
 20
20.4286766297
 30
0.0
 10
50.9467356386
 20
20.4349397138
 30
0.0
 10
50.9564322581
 20
20.4438337669
 30
0.0
 10
50.9687634336
 20
20.4548788926
 30
0.0
 10
50.9763723186
 20
20.4615469946
 30
0.0
 10
50.9826991453
 20
20.4669353367
 30
0.0
 10
50.9876017934
 20
20.4708814417
 30
0.0
 10
50.9907761974
 20
20.4732635137
 30
0.0
 10
50.9925418799
 20
20.4742825148
 30
0.0
 10
50.9931733559
 20
20.4745562627
 30
0.0
 10
50.993413336
 20
20.4745562627
 30
0.0
  0
SPLINE
  5
4C6
100
AcDbEntity
  8
00_COMPONENTS_3
100
AcDbSpline
 62
7
  6
BYLAYER
 70
0
 71
3
 72
13
 73
9
 74
0
 42
0.0000001
 43
0.0000001
 44
0.0000000001
 40
0.0
 40
0.0
 40
0.0
 40
0.0
 40
0.4033545905
 40
0.578373892
 40
0.7294240147
 40
0.8514055911
 40
0.9390590246
 40
1.0
 40
1.0
 40
1.0
 40
1.0
 10
50.5686351558
 20
20.0804163986
 30
0.0
 10
50.5641079787
 20
20.0762161065
 30
0.0
 10
50.5576090327
 20
20.0702522899
 30
0.0
 10
50.5491612055
 20
20.0628200227
 30
0.0
 10
50.544106768
 20
20.0584699657
 30
0.0
 10
50.5393543126
 20
20.054734015
 30
0.0
 10
50.5370875345
 20
20.0529169317
 30
0.0
 10
50.5332506826
 20
20.0506712006
 30
0.0
 10
50.5332514227
 20
20.05160424
 30
0.0
  0
SPLINE
  5
4C7
100
AcDbEntity
  8
00_COMPONENTS_3
100
AcDbSpline
 62
7
  6
BYLAYER
 70
0
 71
3
 72
17
 73
13
 74
0
 42
0.0000001
 43
0.0000001
 44
0.0000000001
 40
0.0
 40
0.0
 40
0.0
 40
0.0
 40
0.009411314
 40
0.0201640018
 40
0.0387912897
 40
0.0665298122
 40
0.1034864479
 40
0.1495168583
 40
0.2671352337
 40
0.4152403891
 40
0.5895013408
 40
1.0
 40
1.0
 40
1.0
 40
1.0
 10
23.4425535313
 20
20.0516044038
 30
0.0
 10
23.4425536353
 20
20.0514914117
 30
0.0
 10
23.442462127
 20
20.0512079744
 30
0.0
 10
23.4419217083
 20
20.0512200916
 30
0.0
 10
23.441306164
 20
20.0514653934
 30
0.0
 10
23.4404088355
 20
20.0519366763
 30
0.0
 10
23.4392920327
 20
20.0526507406
 30
0.0
 10
23.437317919
 20
20.0540350823
 30
0.0
 10
23.4343613985
 20
20.0563307377
 30
0.0
 10
23.4302860817
 20
20.0596929032
 30
0.0
 10
23.4236165487
 20
20.0654322797
 30
0.0
 10
23.4183934987
 20
20.0701248623
 30
0.0
 10
23.4147503269
 20
20.0734440249
 30
0.0
  0
SPLINE
  5
4C8
100
AcDbEntity
  8
00_COMPONENTS_3
100
AcDbSpline
 62
7
  6
BYLAYER
 70
0
 71
3
 72
17
 73
13
 74
0
 42
0.0000001
 43
0.0000001
 44
0.0000000001
 40
0.0
 40
0.0
 40
0.0
 40
0.0
 40
0.2066767596
 40
0.3988901759
 40
0.5719465565
 40
0.7203830109
 40
0.8384697694
 40
0.9209445088
 40
0.9483750581
 40
0.9676120867
 40
0.9825223108
 40
1.0
 40
1.0
 40
1.0
 40
1.0
 10
50.4195296115
 20
20.0804163946
 30
0.0
 10
50.4167794195
 20
20.0780302077
 30
0.0
 10
50.4114377171
 20
20.0734637246
 30
0.0
 10
50.403654888
 20
20.0670617314
 30
0.0
 10
50.3965226962
 20
20.0614921634
 30
0.0
 10
50.3902468995
 20
20.0569399967
 30
0.0
 10
50.3850744877
 20
20.0536359845
 30
0.0
 10
50.3814677721
 20
20.0517755113
 30
0.0
 10
50.3792690209
 20
20.0512028709
 30
0.0
 10
50.3781386396
 20
20.0512036095
 30
0.0
 10
50.3773651816
 20
20.051820983
 30
0.0
 10
50.377288665
 20
20.0524309283
 30
0.0
 10
50.3772883004
 20
20.052738837
 30
0.0
  0
SPLINE
  5
4C9
100
AcDbEntity
  8
00_COMPONENTS_3
100
AcDbSpline
 62
7
  6
BYLAYER
 70
0
 71
3
 72
15
 73
11
 74
0
 42
0.0000001
 43
0.0000001
 44
0.0000000001
 40
0.0
 40
0.0
 40
0.0
 40
0.0
 40
0.2034667888
 40
0.3933245567
 40
0.5643498166
 40
0.7105368117
 40
0.8256323174
 40
0.9053565823
 40
0.953917153
 40
1.0
 40
1.0
 40
1.0
 40
1.0
 10
50.1682012749
 20
20.0804163944
 30
0.0
 10
50.1650340466
 20
20.0778171049
 30
0.0
 10
50.1588541531
 20
20.0728611047
 30
0.0
 10
50.149788078
 20
20.0660066713
 30
0.0
 10
50.1413980823
 20
20.0601750638
 30
0.0
 10
50.1340084326
 20
20.0555808879
 30
0.0
 10
50.1277871991
 20
20.0525571909
 30
0.0
 10
50.1232204872
 20
20.0509669432
 30
0.0
 10
50.1192391281
 20
20.0514833461
 30
0.0
 10
50.1186717816
 20
20.053695363
 30
0.0
 10
50.118672365
 20
20.0546233471
 30
0.0
  0
SPLINE
  5
4CA
100
AcDbEntity
  8
00_COMPONENTS_3
100
AcDbSpline
 62
7
  6
BYLAYER
 70
0
 71
3
 72
15
 73
11
 74
0
 42
0.0000001
 43
0.0000001
 44
0.0000000001
 40
0.0
 40
0.0
 40
0.0
 40
0.0
 40
0.0401950922
 40
0.0842153398
 40
0.1585562265
 40
0.267764339
 40
0.4104186655
 40
0.5827424868
 40
0.7805946469
 40
1.0
 40
1.0
 40
1.0
 40
1.0
 10
23.5985167453
 20
20.052738907
 30
0.0
 10
23.5985161381
 20
20.0523069813
 30
0.0
 10
23.5982069234
 20
20.0512525234
 30
0.0
 10
23.5962490708
 20
20.0511512535
 30
0.0
 10
23.5940129759
 20
20.0519887922
 30
0.0
 10
23.5908511862
 20
20.0535829337
 30
0.0
 10
23.5870009615
 20
20.0560085523
 30
0.0
 10
23.5824710212
 20
20.059155293
 30
0.0
 10
23.5774002516
 20
20.062953024
 30
0.0
 10
23.5738773297
 20
20.0657277021
 30
0.0
 10
23.572038728
 20
20.0672035638
 30
0.0
  0
LINE
  5
4CB
100
AcDbEntity
  8
00_COMPONENTS_3
100
AcDbLine
 62
7
  6
BYLAYER
 10
23.572038728
 20
20.0672035638
 11
23.5562754742
 21
20.0804168791
  0
SPLINE
  5
4CC
100
AcDbEntity
  8
00_COMPONENTS_3
100
AcDbSpline
 62
7
  6
BYLAYER
 70
0
 71
3
 72
16
 73
12
 74
0
 42
0.0000001
 43
0.0000001
 44
0.0000000001
 40
0.0
 40
0.0
 40
0.0
 40
0.0
 40
0.1983069759
 40
0.3841853862
 40
0.5519628438
 40
0.6951894997
 40
0.8073680402
 40
0.8508257031
 40
0.8862573028
 40
0.9407392082
 40
1.0
 40
1.0
 40
1.0
 40
1.0
 10
49.8165629065
 20
20.080416398
 30
0.0
 10
49.8129681205
 20
20.0775973452
 30
0.0
 10
49.8059198835
 20
20.0722408192
 30
0.0
 10
49.7954991427
 20
20.0649496885
 30
0.0
 10
49.785782836
 20
20.0588780388
 30
0.0
 10
49.777135394
 20
20.0543681589
 30
0.0
 10
49.7706583447
 20
20.0518996312
 30
0.0
 10
49.7662939732
 20
20.0511829983
 30
0.0
 10
49.7632156208
 20
20.0512071073
 30
0.0
 10
49.7598141441
 20
20.0529858631
 30
0.0
 10
49.7593690965
 20
20.0558744514
 30
0.0
 10
49.7593681569
 20
20.0572396186
 30
0.0
  0
SPLINE
  5
4CD
100
AcDbEntity
  8
00_COMPONENTS_3
100
AcDbSpline
 62
7
  6
BYLAYER
 70
0
 71
3
 72
15
 73
11
 74
0
 42
0.0000001
 43
0.0000001
 44
0.0000000001
 40
0.0
 40
0.0
 40
0.0
 40
0.0
 40
0.373898068
 40
0.5382543672
 40
0.6786034869
 40
0.7885331113
 40
0.8674470308
 40
0.8993261628
 40
0.9301098603
 40
1.0
 40
1.0
 40
1.0
 40
1.0
 10
49.3672906867
 20
20.0804164054
 30
0.0
 10
49.3594676716
 20
20.0744995058
 30
0.0
 10
49.3478856197
 20
20.0663567294
 30
0.0
 10
49.3323587152
 20
20.0576264854
 30
0.0
 10
49.3223594416
 20
20.0532442553
 30
0.0
 10
49.3140029378
 20
20.0510111335
 30
0.0
 10
49.3079685503
 20
20.0512332834
 30
0.0
 10
49.3046907408
 20
20.053150662
 30
0.0
 10
49.3025174522
 20
20.0559622347
 30
0.0
 10
49.3021107429
 20
20.0587346311
 30
0.0
 10
49.3021108286
 20
20.0605680899
 30
0.0
  0
SPLINE
  5
4CE
100
AcDbEntity
  8
00_COMPONENTS_3
100
AcDbSpline
 62
7
  6
BYLAYER
 70
0
 71
3
 72
13
 73
9
 74
0
 42
0.0000001
 43
0.0000001
 44
0.0000000001
 40
0.0
 40
0.0
 40
0.0
 40
0.0
 40
0.0665102653
 40
0.1232977502
 40
0.1946975522
 40
0.2951811753
 40
0.5917619166
 40
1.0
 40
1.0
 40
1.0
 40
1.0
 10
23.8571328954
 20
20.054623226
 30
0.0
 10
23.8571333209
 20
20.0539550408
 30
0.0
 10
23.856978471
 20
20.0526404593
 30
0.0
 10
23.8553801195
 20
20.0512458815
 30
0.0
 10
23.8529837794
 20
20.0511411962
 30
0.0
 10
23.848406649
 20
20.0522354506
 30
0.0
 10
23.8411079715
 20
20.055931301
 30
0.0
 10
23.835152513
 20
20.0597314124
 30
0.0
 10
23.831764596
 20
20.0620428406
 30
0.0
  0
SPLINE
  5
4CF
100
AcDbEntity
  8
00_COMPONENTS_3
100
AcDbSpline
 62
7
  6
BYLAYER
 70
0
 71
3
 72
9
 73
5
 74
0
 42
0.0000001
 43
0.0000001
 44
0.0000000001
 40
0.0
 40
0.0
 40
0.0
 40
0.0
 40
0.2290689754
 40
1.0
 40
1.0
 40
1.0
 40
1.0
 10
23.831764596
 20
20.0620428406
 30
0.0
 10
23.82984967
 20
20.0633493112
 30
0.0
 10
23.8215880209
 20
20.0691962252
 30
0.0
 10
23.8136346017
 20
20.0754675064
 30
0.0
 10
23.8076038037
 20
20.0804168791
 30
0.0
  0
SPLINE
  5
4D0
100
AcDbEntity
  8
00_COMPONENTS_3
100
AcDbSpline
 62
7
  6
BYLAYER
 70
0
 71
3
 72
14
 73
10
 74
0
 42
0.0000001
 43
0.0000001
 44
0.0000000001
 40
0.0
 40
0.0
 40
0.0
 40
0.0
 40
0.3640578182
 40
0.5253868288
 40
0.6633725038
 40
0.7719286709
 40
0.8526849395
 40
0.9216370895
 40
1.0
 40
1.0
 40
1.0
 40
1.0
 10
48.8238038487
 20
20.0804164166
 30
0.0
 10
48.8151107493
 20
20.074020001
 30
0.0
 10
48.8021298673
 20
20.0653037106
 30
0.0
 10
48.784562907
 20
20.0564125227
 30
0.0
 10
48.7731422701
 20
20.0522743764
 30
0.0
 10
48.7635118184
 20
20.0507090564
 30
0.0
 10
48.7556131609
 20
20.0522516261
 30
0.0
 10
48.7509097308
 20
20.057747746
 30
0.0
 10
48.750382381
 20
20.0622613976
 30
0.0
 10
48.7503825249
 20
20.0645845278
 30
0.0
  0
SPLINE
  5
4D1
100
AcDbEntity
  8
00_COMPONENTS_3
100
AcDbSpline
 62
7
  6
BYLAYER
 70
0
 71
3
 72
9
 73
5
 74
0
 42
0.0000001
 43
0.0000001
 44
0.0000000001
 40
0.0
 40
0.0
 40
0.0
 40
0.0
 40
0.4922222394
 40
1.0
 40
1.0
 40
1.0
 40
1.0
 10
23.5916192958
 20
20.4632375434
 30
0.0
 10
23.5916188417
 20
20.4661970392
 30
0.0
 10
23.5931878717
 20
20.4730559409
 30
0.0
 10
23.600088187
 20
20.4745562627
 30
0.0
 10
23.6031412106
 20
20.4745562627
 30
0.0
  0
SPLINE
  5
4D2
100
AcDbEntity
  8
00_COMPONENTS_3
100
AcDbSpline
 62
7
  6
BYLAYER
 70
0
 71
3
 72
14
 73
10
 74
0
 42
0.0000001
 43
0.0000001
 44
0.0000000001
 40
0.0
 40
0.0
 40
0.0
 40
0.0
 40
0.1818724031
 40
0.355688465
 40
0.5147284181
 40
0.6511610865
 40
0.8390175077
 40
0.9148180507
 40
1.0
 40
1.0
 40
1.0
 40
1.0
 10
48.1902386555
 20
20.0804164314
 30
0.0
 10
48.185345717
 20
20.0768852172
 30
0.0
 10
48.1755636536
 20
20.0702534301
 30
0.0
 10
48.160798545
 20
20.0617039644
 30
0.0
 10
48.1464619249
 20
20.0552553404
 30
0.0
 10
48.1314558078
 20
20.0507079234
 30
0.0
 10
48.1160363412
 20
20.0509191956
 30
0.0
 10
48.1089775631
 20
20.0609828733
 30
0.0
 10
48.1083803276
 20
20.0664299362
 30
0.0
 10
48.1083802034
 20
20.069256072
 30
0.0
  0
SPLINE
  5
4D3
100
AcDbEntity
  8
00_COMPONENTS_3
100
AcDbSpline
 62
7
  6
BYLAYER
 70
0
 71
3
 72
12
 73
8
 74
0
 42
0.0000001
 43
0.0000001
 44
0.0000000001
 40
0.0
 40
0.0
 40
0.0
 40
0.0
 40
0.162396682
 40
0.3332620818
 40
0.4571065363
 40
0.6105729451
 40
1.0
 40
1.0
 40
1.0
 40
1.0
 10
24.2164369696
 20
20.0572396198
 30
0.0
 10
24.2164359413
 20
20.0556228607
 30
0.0
 10
24.2155024622
 20
20.0517968806
 30
0.0
 10
24.210307218
 20
20.05095497
 30
0.0
 10
24.2060041371
 20
20.0517840554
 30
0.0
 10
24.1996472323
 20
20.0538686183
 30
0.0
 10
24.1948290675
 20
20.0563443877
 30
0.0
 10
24.1914437688
 20
20.058234039
 30
0.0
  0
SPLINE
  5
4D4
100
AcDbEntity
  8
00_COMPONENTS_3
100
AcDbSpline
 62
7
  6
BYLAYER
 70
0
 71
3
 72
9
 73
5
 74
0
 42
0.0000001
 43
0.0000001
 44
0.0000000001
 40
0.0
 40
0.0
 40
0.0
 40
0.0
 40
0.2230877506
 40
1.0
 40
1.0
 40
1.0
 40
1.0
 10
24.1914437688
 20
20.058234039
 30
0.0
 10
24.1889032515
 20
20.0596521389
 30
0.0
 10
24.1777337987
 20
20.0663990634
 30
0.0
 10
24.1672153581
 20
20.0741642515
 30
0.0
 10
24.1592421652
 20
20.0804168791
 30
0.0
  0
SPLINE
  5
4D5
100
AcDbEntity
  8
00_COMPONENTS_3
100
AcDbSpline
 62
7
  6
BYLAYER
 70
0
 71
3
 72
11
 73
7
 74
0
 42
0.0000001
 43
0.0000001
 44
0.0000000001
 40
0.0
 40
0.0
 40
0.0
 40
0.0
 40
0.2636079822
 40
0.4895046772
 40
0.7198135638
 40
1.0
 40
1.0
 40
1.0
 40
1.0
 10
23.9989162006
 20
20.455851523
 30
0.0
 10
23.9989163971
 20
20.4585208049
 30
0.0
 10
23.999432818
 20
20.4635431043
 30
0.0
 10
24.0031352544
 20
20.4701588731
 30
0.0
 10
24.0098708936
 20
20.474018369
 30
0.0
 10
24.0151162151
 20
20.4745562627
 30
0.0
 10
24.0179533697
 20
20.4745562627
 30
0.0
  0
SPLINE
  5
4D6
100
AcDbEntity
  8
00_COMPONENTS_3
100
AcDbSpline
 62
7
  6
BYLAYER
 70
0
 71
3
 72
15
 73
11
 74
0
 42
0.0000001
 43
0.0000001
 44
0.0000000001
 40
0.0
 40
0.0
 40
0.0
 40
0.0
 40
0.1756033139
 40
0.3448238808
 40
0.5006934472
 40
0.6349845817
 40
0.7426144811
 40
0.8290435353
 40
0.9102433453
 40
1.0
 40
1.0
 40
1.0
 40
1.0
 10
47.471416921
 20
20.0804164498
 30
0.0
 10
47.4661057777
 20
20.0766272324
 30
0.0
 10
47.4554158324
 20
20.0695398018
 30
0.0
 10
47.439068651
 20
20.0606056835
 30
0.0
 10
47.423210657
 20
20.0541471448
 30
0.0
 10
47.4087090954
 20
20.0508773939
 30
0.0
 10
47.396280655
 20
20.0512830147
 30
0.0
 10
47.3867597062
 20
20.0561730427
 30
0.0
 10
47.3817097806
 20
20.0647761534
 30
0.0
 10
47.3809904162
 20
20.0712122499
 30
0.0
 10
47.3809905263
 20
20.0745470321
 30
0.0
  0
SPLINE
  5
4D7
100
AcDbEntity
  8
00_COMPONENTS_3
100
AcDbSpline
 62
7
  6
BYLAYER
 70
0
 71
3
 72
13
 73
9
 74
0
 42
0.0000001
 43
0.0000001
 44
0.0000000001
 40
0.0
 40
0.0
 40
0.0
 40
0.0
 40
0.1795675374
 40
0.2626280392
 40
0.3592418789
 40
0.4796624874
 40
0.6275120718
 40
1.0
 40
1.0
 40
1.0
 40
1.0
 10
24.6736942487
 20
20.0605680984
 30
0.0
 10
24.673694354
 20
20.0583008269
 30
0.0
 10
24.6729876935
 20
20.0546365039
 30
0.0
 10
24.6691908118
 20
20.0518388502
 30
0.0
 10
24.6654024391
 20
20.0510619299
 30
0.0
 10
24.6607746612
 20
20.0513943295
 30
0.0
 10
24.6529022047
 20
20.0533650495
 30
0.0
 10
24.6468746898
 20
20.0560970605
 30
0.0
 10
24.6426850682
 20
20.0582340202
 30
0.0
  0
SPLINE
  5
4D8
100
AcDbEntity
  8
00_COMPONENTS_3
100
AcDbSpline
 62
7
  6
BYLAYER
 70
0
 71
3
 72
9
 73
5
 74
0
 42
0.0000001
 43
0.0000001
 44
0.0000000001
 40
0.0
 40
0.0
 40
0.0
 40
0.0
 40
0.2275224644
 40
1.0
 40
1.0
 40
1.0
 40
1.0
 10
24.6426850682
 20
20.0582340202
 30
0.0
 10
24.6399306043
 20
20.0596389629
 30
0.0
 10
24.6280509161
 20
20.0662571638
 30
0.0
 10
24.6168873079
 20
20.0740840521
 30
0.0
 10
24.6085143785
 20
20.0804168791
 30
0.0
  0
SPLINE
  5
4D9
100
AcDbEntity
  8
00_COMPONENTS_3
100
AcDbSpline
 62
7
  6
BYLAYER
 70
0
 71
3
 72
15
 73
11
 74
0
 42
0.0000001
 43
0.0000001
 44
0.0000000001
 40
0.0
 40
0.0
 40
0.0
 40
0.0
 40
0.1702794662
 40
0.3358843267
 40
0.4895838332
 40
0.6227320315
 40
0.7308220658
 40
0.8205357905
 40
0.9065956064
 40
1.0
 40
1.0
 40
1.0
 40
1.0
 10
46.6728093126
 20
20.0804164716
 30
0.0
 10
46.6670986143
 20
20.0763576972
 30
0.0
 10
46.655503768
 20
20.0687991991
 30
0.0
 10
46.6375907438
 20
20.0594988442
 30
0.0
 10
46.6200176387
 20
20.0531257352
 30
0.0
 10
46.6038507175
 20
20.0505091569
 30
0.0
 10
46.590026113
 20
20.0522781673
 30
0.0
 10
46.5798515256
 20
20.0589574959
 30
0.0
 10
46.5745674363
 20
20.0691164076
 30
0.0
 10
46.5737493852
 20
20.076573328
 30
0.0
 10
46.5737493845
 20
20.0804164363
 30
0.0
  0
SPLINE
  5
4DA
100
AcDbEntity
  8
00_COMPONENTS_3
100
AcDbSpline
 62
7
  6
BYLAYER
 70
0
 71
3
 72
11
 73
7
 74
0
 42
0.0000001
 43
0.0000001
 44
0.0000000001
 40
0.0
 40
0.0
 40
0.0
 40
0.0
 40
0.2601239223
 40
0.4863319961
 40
0.7181066701
 40
1.0
 40
1.0
 40
1.0
 40
1.0
 10
24.5031349271
 20
20.4467016871
 30
0.0
 10
24.5031349441
 20
20.450619969
 30
0.0
 10
24.5039068096
 20
20.4580381869
 30
0.0
 10
24.5093528176
 20
20.4678728096
 30
0.0
 10
24.5193711684
 20
20.4737278662
 30
0.0
 10
24.5272284761
 20
20.4745562627
 30
0.0
 10
24.5314746735
 20
20.4745562627
 30
0.0
  0
SPLINE
  5
4DB
100
AcDbEntity
  8
00_COMPONENTS_3
100
AcDbSpline
 62
7
  6
BYLAYER
 70
0
 71
3
 72
13
 73
9
 74
0
 42
0.0000001
 43
0.0000001
 44
0.0000000001
 40
0.0
 40
0.0
 40
0.0
 40
0.0
 40
0.1916714744
 40
0.2795343859
 40
0.3775116843
 40
0.4961712314
 40
0.6402829538
 40
1.0
 40
1.0
 40
1.0
 40
1.0
 10
25.2254225701
 20
20.0645845066
 30
0.0
 10
25.2254227356
 20
20.0615980963
 30
0.0
 10
25.2245978442
 20
20.056899871
 30
0.0
 10
25.2201507976
 20
20.0527613125
 30
0.0
 10
25.2155440318
 20
20.0512308614
 30
0.0
 10
25.2098722459
 20
20.0511148721
 30
0.0
 10
25.2002894508
 20
20.052850258
 30
0.0
 10
25.192947542
 20
20.0558380833
 30
0.0
 10
25.1878807875
 20
20.0582340701
 30
0.0
  0
SPLINE
  5
4DC
100
AcDbEntity
  8
00_COMPONENTS_3
100
AcDbSpline
 62
7
  6
BYLAYER
 70
0
 71
3
 72
9
 73
5
 74
0
 42
0.0000001
 43
0.0000001
 44
0.0000000001
 40
0.0
 40
0.0
 40
0.0
 40
0.0
 40
0.2316092794
 40
1.0
 40
1.0
 40
1.0
 40
1.0
 10
25.1878807875
 20
20.0582340701
 30
0.0
 10
25.184934002
 20
20.0596275576
 30
0.0
 10
25.1724408443
 20
20.0661293641
 30
0.0
 10
25.16071163
 20
20.0740077165
 30
0.0
 10
25.1520012107
 20
20.0804168791
 30
0.0
  0
SPLINE
  5
4DD
100
AcDbEntity
  8
00_COMPONENTS_3
100
AcDbSpline
 62
7
  6
BYLAYER
 70
0
 71
3
 72
14
 73
10
 74
0
 42
0.0000001
 43
0.0000001
 44
0.0000000001
 40
0.0
 40
0.0
 40
0.0
 40
0.0
 40
0.3231793236
 40
0.4752123879
 40
0.6106106184
 40
0.7242293355
 40
0.8198384392
 40
0.9084666539
 40
1.0
 40
1.0
 40
1.0
 40
1.0
 10
45.8004937166
 20
20.0804164966
 30
0.0
 10
45.7891525652
 20
20.0723251915
 30
0.0
 10
45.7713585987
 20
20.0617328559
 30
0.0
 10
45.7464036845
 20
20.0530577749
 30
0.0
 10
45.7291645318
 20
20.0504980241
 30
0.0
 10
45.7141510265
 20
20.0523421129
 30
0.0
 10
45.7026011098
 20
20.058821487
 30
0.0
 10
45.6955707082
 20
20.0688268133
 30
0.0
 10
45.6936573683
 20
20.0764999631
 30
0.0
 10
45.693177096
 20
20.0804164557
 30
0.0
  0
SPLINE
  5
4DE
100
AcDbEntity
  8
00_COMPONENTS_3
100
AcDbSpline
 62
7
  6
BYLAYER
 70
0
 71
3
 72
11
 73
7
 74
0
 42
0.0000001
 43
0.0000001
 44
0.0000000001
 40
0.0
 40
0.0
 40
0.0
 40
0.0
 40
0.2563202413
 40
0.4828041974
 40
0.7162608776
 40
1.0
 40
1.0
 40
1.0
 40
1.0
 10
25.1004362172
 20
20.4358556834
 30
0.0
 10
25.10043638
 20
20.4412130557
 30
0.0
 10
25.1015156095
 20
20.4514257264
 30
0.0
 10
25.1089869577
 20
20.4650558726
 30
0.0
 10
25.1228800262
 20
20.4733561747
 30
0.0
 10
25.1338664582
 20
20.4745562627
 30
0.0
 10
25.139796915
 20
20.4745562627
 30
0.0
  0
SPLINE
  5
4DF
100
AcDbEntity
  8
00_COMPONENTS_3
100
AcDbSpline
 62
7
  6
BYLAYER
 70
0
 71
3
 72
14
 73
10
 74
0
 42
0.0000001
 43
0.0000001
 44
0.0000000001
 40
0.0
 40
0.0
 40
0.0
 40
0.0
 40
0.3108887085
 40
0.4607493352
 40
0.5975377387
 40
0.7156736885
 40
0.8167098975
 40
0.9086805098
 40
1.0
 40
1.0
 40
1.0
 40
1.0
 10
44.8611089814
 20
20.0804165246
 30
0.0
 10
44.8497715509
 20
20.072234349
 30
0.0
 10
44.831706832
 20
20.0615796583
 30
0.0
 10
44.8061339093
 20
20.0529989014
 30
0.0
 10
44.7879578264
 20
20.0504900164
 30
0.0
 10
44.7718227086
 20
20.052398412
 30
0.0
 10
44.7589851329
 20
20.0587593962
 30
0.0
 10
44.7503603131
 20
20.0686008802
 30
0.0
 10
44.7473271521
 20
20.0764269144
 30
0.0
 10
44.7463524104
 20
20.0804164784
 30
0.0
  0
SPLINE
  5
4E0
100
AcDbEntity
  8
00_COMPONENTS_3
100
AcDbSpline
 62
7
  6
BYLAYER
 70
0
 71
3
 72
14
 73
10
 74
0
 42
0.0000001
 43
0.0000001
 44
0.0000000001
 40
0.0
 40
0.0
 40
0.0
 40
0.0
 40
0.29889
 40
0.4462773979
 40
0.5838386185
 40
0.7057183143
 40
0.8117496244
 40
0.9075495395
 40
1.0
 40
1.0
 40
1.0
 40
1.0
 10
43.8618043921
 20
20.0804165555
 30
0.0
 10
43.8505673551
 20
20.0721483052
 30
0.0
 10
43.8323726057
 20
20.0614378108
 30
0.0
 10
43.8063673811
 20
20.0529460304
 30
0.0
 10
43.787390634
 20
20.0504844863
 30
0.0
 10
43.7702265332
 20
20.0524483104
 30
0.0
 10
43.7561805483
 20
20.0587422703
 30
0.0
 10
43.7460932617
 20
20.068441993
 30
0.0
 10
43.7419578179
 20
20.0763617205
 30
0.0
 10
43.7404812355
 20
20.0804165043
 30
0.0
  0
SPLINE
  5
4E1
100
AcDbEntity
  8
00_COMPONENTS_3
100
AcDbSpline
 62
7
  6
BYLAYER
 70
0
 71
3
 72
13
 73
9
 74
0
 42
0.0000001
 43
0.0000001
 44
0.0000000001
 40
0.0
 40
0.0
 40
0.0
 40
0.0
 40
0.1998290337
 40
0.2918216307
 40
0.3914834623
 40
0.5093222925
 40
0.6507275472
 40
1.0
 40
1.0
 40
1.0
 40
1.0
 10
25.8674249279
 20
20.0692561209
 30
0.0
 10
25.8674247334
 20
20.0654941369
 30
0.0
 10
25.8664564761
 20
20.0596596089
 30
0.0
 10
25.8613427379
 20
20.0540767759
 30
0.0
 10
25.8558995525
 20
20.0516428223
 30
0.0
 10
25.8490990022
 20
20.0509533968
 30
0.0
 10
25.8376683754
 20
20.0523316751
 30
0.0
 10
25.8288919122
 20
20.0555661911
 30
0.0
 10
25.8228820271
 20
20.0582340117
 30
0.0
  0
SPLINE
  5
4E2
100
AcDbEntity
  8
00_COMPONENTS_3
100
AcDbSpline
 62
7
  6
BYLAYER
 70
0
 71
3
 72
9
 73
5
 74
0
 42
0.0000001
 43
0.0000001
 44
0.0000000001
 40
0.0
 40
0.0
 40
0.0
 40
0.0
 40
0.2353848395
 40
1.0
 40
1.0
 40
1.0
 40
1.0
 10
25.8228820271
 20
20.0582340117
 30
0.0
 10
25.8197655464
 20
20.0596174344
 30
0.0
 10
25.8067563929
 20
20.0660137056
 30
0.0
 10
25.7945477732
 20
20.0739350534
 30
0.0
 10
25.7855663989
 20
20.0804168791
 30
0.0
  0
SPLINE
  5
4E3
100
AcDbEntity
  8
00_COMPONENTS_3
100
AcDbSpline
 62
7
  6
BYLAYER
 70
0
 71
3
 72
14
 73
10
 74
0
 42
0.0000001
 43
0.0000001
 44
0.0000000001
 40
0.0
 40
0.0
 40
0.0
 40
0.0
 40
0.2872717206
 40
0.4319800973
 40
0.5698363767
 40
0.6948419366
 40
0.805475039
 40
0.9053840326
 40
1.0
 40
1.0
 40
1.0
 40
1.0
 10
42.8101852599
 20
20.080416589
 30
0.0
 10
42.7991463883
 20
20.0720673976
 30
0.0
 10
42.7809634829
 20
20.0613054653
 30
0.0
 10
42.7547134275
 20
20.0528978708
 30
0.0
 10
42.7350766421
 20
20.0504805767
 30
0.0
 10
42.7169929168
 20
20.0524937233
 30
0.0
 10
42.7018236049
 20
20.0587515637
 30
0.0
 10
42.6903878503
 20
20.0683407585
 30
0.0
 10
42.6851955794
 20
20.0763088204
 30
0.0
 10
42.6832188581
 20
20.0804165332
 30
0.0
  0
SPLINE
  5
4E4
100
AcDbEntity
  8
00_COMPONENTS_3
100
AcDbSpline
 62
7
  6
BYLAYER
 70
0
 71
3
 72
11
 73
7
 74
0
 42
0.0000001
 43
0.0000001
 44
0.0000000001
 40
0.0
 40
0.0
 40
0.0
 40
0.0
 40
0.2523391871
 40
0.4790366711
 40
0.7143449309
 40
1.0
 40
1.0
 40
1.0
 40
1.0
 10
25.7862760597
 20
20.4233909555
 30
0.0
 10
25.7862758487
 20
20.4303530589
 30
0.0
 10
25.7877157842
 20
20.443721689
 30
0.0
 10
25.7974685817
 20
20.4616857176
 30
0.0
 10
25.8157887784
 20
20.472890799
 30
0.0
 10
25.8304090973
 20
20.4745562627
 30
0.0
 10
25.8382903945
 20
20.4745562627
 30
0.0
  0
SPLINE
  5
4E5
100
AcDbEntity
  8
00_COMPONENTS_3
100
AcDbSpline
 62
7
  6
BYLAYER
 70
0
 71
3
 72
13
 73
9
 74
0
 42
0.0000001
 43
0.0000001
 44
0.0000000001
 40
0.0
 40
0.0
 40
0.0
 40
0.0
 40
0.2764235836
 40
0.5551545131
 40
0.6829549996
 40
0.7979978272
 40
0.9023066709
 40
1.0
 40
1.0
 40
1.0
 40
1.0
 10
41.7142550414
 20
20.0804166248
 30
0.0
 10
41.7035125364
 20
20.0719922948
 30
0.0
 10
41.6797328832
 20
20.0576984325
 30
0.0
 10
41.6459997056
 20
20.0497235885
 30
0.0
 10
41.6201429036
 20
20.0525350146
 30
0.0
 10
41.6039449376
 20
20.0587766684
 30
0.0
 10
41.5912653135
 20
20.0682840809
 30
0.0
 10
41.5850776044
 20
20.0762695343
 30
0.0
 10
41.5826116836
 20
20.0804165649
 30
0.0
  0
SPLINE
  5
4E6
100
AcDbEntity
  8
00_COMPONENTS_3
100
AcDbSpline
 62
7
  6
BYLAYER
 70
0
 71
3
 72
11
 73
7
 74
0
 42
0.0000001
 43
0.0000001
 44
0.0000000001
 40
0.0
 40
0.0
 40
0.0
 40
0.0
 40
0.2665053364
 40
0.5428141704
 40
0.7908956072
 40
1.0
 40
1.0
 40
1.0
 40
1.0
 10
40.5823544271
 20
20.0804166627
 30
0.0
 10
40.5720062605
 20
20.0719241095
 30
0.0
 10
40.5483920999
 20
20.0574527421
 30
0.0
 10
40.5087531566
 20
20.0483378907
 30
0.0
 10
40.4712229229
 20
20.0560580367
 30
0.0
 10
40.4530795435
 20
20.0718259044
 30
0.0
 10
40.447035997
 20
20.0804165991
 30
0.0
  0
SPLINE
  5
4E7
100
AcDbEntity
  8
00_COMPONENTS_3
100
AcDbSpline
 62
7
  6
BYLAYER
 70
0
 71
3
 72
11
 73
7
 74
0
 42
0.0000001
 43
0.0000001
 44
0.0000000001
 40
0.0
 40
0.0
 40
0.0
 40
0.0
 40
0.2559805603
 40
0.5284761781
 40
0.7822931498
 40
1.0
 40
1.0
 40
1.0
 40
1.0
 10
39.4230978643
 20
20.0804167024
 30
0.0
 10
39.4132410988
 20
20.0718645511
 30
0.0
 10
39.3900413662
 20
20.0572035493
 30
0.0
 10
39.3501240781
 20
20.0483265141
 30
0.0
 10
39.3116690161
 20
20.05627571
 30
0.0
 10
39.2921043361
 20
20.0717797838
 30
0.0
 10
39.2851342153
 20
20.0804166355
 30
0.0
  0
SPLINE
  5
4E8
100
AcDbEntity
  8
00_COMPONENTS_3
100
AcDbSpline
 62
7
  6
BYLAYER
 70
0
 71
3
 72
13
 73
9
 74
0
 42
0.0000001
 43
0.0000001
 44
0.0000000001
 40
0.0
 40
0.0
 40
0.0
 40
0.0
 40
0.2051987847
 40
0.3006018907
 40
0.4021389234
 40
0.5198212839
 40
0.6593225756
 40
1.0
 40
1.0
 40
1.0
 40
1.0
 10
26.5948146159
 20
20.0745472363
 30
0.0
 10
26.5948147722
 20
20.0699648328
 30
0.0
 10
26.59367624
 20
20.0629137791
 30
0.0
 10
26.5878863476
 20
20.0557837891
 30
0.0
 10
26.5815910291
 20
20.052320051
 30
0.0
 10
26.5735928191
 20
20.0509265023
 30
0.0
 10
26.5601909144
 20
20.0518111995
 30
0.0
 10
26.549866675
 20
20.0552803099
 30
0.0
 10
26.5428556232
 20
20.0582340403
 30
0.0
  0
SPLINE
  5
4E9
100
AcDbEntity
  8
00_COMPONENTS_3
100
AcDbSpline
 62
7
  6
BYLAYER
 70
0
 71
3
 72
9
 73
5
 74
0
 42
0.0000001
 43
0.0000001
 44
0.0000000001
 40
0.0
 40
0.0
 40
0.0
 40
0.0
 40
0.2388875693
 40
1.0
 40
1.0
 40
1.0
 40
1.0
 10
26.5428556232
 20
20.0582340403
 30
0.0
 10
26.5395931104
 20
20.059608525
 30
0.0
 10
26.5261666339
 20
20.0659086242
 30
0.0
 10
26.5135701997
 20
20.0738659576
 30
0.0
 10
26.5043881294
 20
20.0804168791
 30
0.0
  0
SPLINE
  5
4EA
100
AcDbEntity
  8
00_COMPONENTS_3
100
AcDbSpline
 62
7
  6
BYLAYER
 70
0
 71
3
 72
11
 73
7
 74
0
 42
0.0000001
 43
0.0000001
 44
0.0000000001
 40
0.0
 40
0.0
 40
0.0
 40
0.0
 40
0.2458567374
 40
0.5142158093
 40
0.7732762138
 40
1.0
 40
1.0
 40
1.0
 40
1.0
 10
38.245307995
 20
20.0804167436
 30
0.0
 10
38.2360380294
 20
20.0718161266
 30
0.0
 10
38.2134488365
 20
20.0569631357
 30
0.0
 10
38.1735235704
 20
20.0483192387
 30
0.0
 10
38.1343457267
 20
20.0564999994
 30
0.0
 10
38.1135710478
 20
20.0717679267
 30
0.0
 10
38.1057491126
 20
20.080416674
 30
0.0
  0
SPLINE
  5
4EB
100
AcDbEntity
  8
00_COMPONENTS_3
100
AcDbSpline
 62
7
  6
BYLAYER
 70
0
 71
3
 72
11
 73
7
 74
0
 42
0.0000001
 43
0.0000001
 44
0.0000000001
 40
0.0
 40
0.0
 40
0.0
 40
0.0
 40
0.2483235862
 40
0.4751522878
 40
0.7124287646
 40
1.0
 40
1.0
 40
1.0
 40
1.0
 10
26.5554337114
 20
20.4093988866
 30
0.0
 10
26.5554337323
 20
20.4181084562
 30
0.0
 10
26.5572885544
 20
20.434957337
 30
0.0
 10
26.5695628842
 20
20.4577458699
 30
0.0
 10
26.5928132739
 20
20.4723177675
 30
0.0
 10
26.6115530342
 20
20.4745562627
 30
0.0
 10
26.621639155
 20
20.4745562627
 30
0.0
  0
SPLINE
  5
4EC
100
AcDbEntity
  8
00_COMPONENTS_3
100
AcDbSpline
 62
7
  6
BYLAYER
 70
0
 71
3
 72
15
 73
11
 74
0
 42
0.0000001
 43
0.0000001
 44
0.0000000001
 40
0.0
 40
0.0
 40
0.0
 40
0.0
 40
0.0102024831
 40
0.0281041658
 40
0.0875860499
 40
0.1776857304
 40
0.2962535455
 40
0.4406116562
 40
0.6078941877
 40
1.0
 40
1.0
 40
1.0
 40
1.0
 10
22.9823917834
 20
20.4745562627
 30
0.0
 10
22.9826317668
 20
20.4745562627
 30
0.0
 10
22.9832632521
 20
20.4742825075
 30
0.0
 10
22.9850289621
 20
20.4732634868
 30
0.0
 10
22.9882034205
 20
20.4708813692
 30
0.0
 10
22.9931061436
 20
20.4669351953
 30
0.0
 10
22.9994330644
 20
20.4615467683
 30
0.0
 10
23.0070420539
 20
20.454878566
 30
0.0
 10
23.0193733944
 20
20.4438332834
 30
0.0
 10
23.0290701427
 20
20.434939106
 30
0.0
 10
23.035840591
 20
20.4286759365
 30
0.0
  0
SPLINE
  5
4ED
100
AcDbEntity
  8
00_COMPONENTS_3
100
AcDbSpline
 62
7
  6
BYLAYER
 70
0
 71
3
 72
14
 73
10
 74
0
 42
0.0000001
 43
0.0000001
 44
0.0000000001
 40
0.0
 40
0.0
 40
0.0
 40
0.0
 40
0.0419378996
 40
0.1134191287
 40
0.2127737735
 40
0.3364840207
 40
0.480585734
 40
0.6413040822
 40
1.0
 40
1.0
 40
1.0
 40
1.0
 10
23.0927390878
 20
20.4745562627
 30
0.0
 10
23.0946093894
 20
20.4745562627
 30
0.0
 10
23.0994570968
 20
20.4725129665
 30
0.0
 10
23.1076083794
 20
20.4678606948
 30
0.0
 10
23.1184808557
 20
20.4603822055
 30
0.0
 10
23.131573107
 20
20.4505769549
 30
0.0
 10
23.1465378371
 20
20.4386761328
 30
0.0
 10
23.1693203465
 20
20.419795475
 30
0.0
 10
23.1868034372
 20
20.4045920241
 30
0.0
 10
23.1987746489
 20
20.3939813838
 30
0.0
  0
SPLINE
  5
4EE
100
AcDbEntity
  8
00_COMPONENTS_3
100
AcDbSpline
 62
7
  6
BYLAYER
 70
0
 71
3
 72
13
 73
9
 74
0
 42
0.0000001
 43
0.0000001
 44
0.0000000001
 40
0.0
 40
0.0
 40
0.0
 40
0.0
 40
0.0544238312
 40
0.1340034113
 40
0.2374430115
 40
0.3616833651
 40
0.65858834
 40
1.0
 40
1.0
 40
1.0
 40
1.0
 10
23.3088369763
 20
20.4745562627
 30
0.0
 10
23.311490984
 20
20.4745562627
 30
0.0
 10
23.3179372346
 20
20.4728187549
 30
0.0
 10
23.3284507481
 20
20.4680275168
 30
0.0
 10
23.3414713525
 20
20.4605464819
 30
0.0
 10
23.362877468
 20
20.4465401098
 30
0.0
 10
23.3927319029
 20
20.4243147203
 30
0.0
 10
23.416887603
 20
20.4046777951
 30
0.0
 10
23.4296461355
 20
20.3939813838
 30
0.0
  0
SPLINE
  5
4EF
100
AcDbEntity
  8
00_COMPONENTS_3
100
AcDbSpline
 62
7
  6
BYLAYER
 70
0
 71
3
 72
12
 73
8
 74
0
 42
0.0000001
 43
0.0000001
 44
0.0000000001
 40
0.0
 40
0.0
 40
0.0
 40
0.0
 40
0.0649408179
 40
0.1515581402
 40
0.3832645065
 40
0.6734515307
 40
1.0
 40
1.0
 40
1.0
 40
1.0
 10
23.6290408136
 20
20.4745562627
 30
0.0
 10
23.6324694049
 20
20.4745562627
 30
0.0
 10
23.6404316626
 20
20.4729967488
 30
0.0
 10
23.6593696343
 20
20.4658260624
 30
0.0
 10
23.6874479734
 20
20.449899899
 30
0.0
 10
23.7244321669
 20
20.4246435106
 30
0.0
 10
23.7502489931
 20
20.40476044
 30
0.0
 10
23.7637041401
 20
20.3939813838
 30
0.0
  0
SPLINE
  5
4F0
100
AcDbEntity
  8
00_COMPONENTS_3
100
AcDbSpline
 62
7
  6
BYLAYER
 70
0
 71
3
 72
15
 73
11
 74
0
 42
0.0000001
 43
0.0000001
 44
0.0000000001
 40
0.0
 40
0.0
 40
0.0
 40
0.0
 40
0.0934040665
 40
0.179463119
 40
0.2691742392
 40
0.3772686965
 40
0.5104099724
 40
0.6641106167
 40
0.8297167129
 40
1.0
 40
1.0
 40
1.0
 40
1.0
 10
27.4020557349
 20
20.0804168791
 30
0.0
 10
27.4020557349
 20
20.0765737616
 30
0.0
 10
27.4012378236
 20
20.0691168202
 30
0.0
 10
27.3959538586
 20
20.0589579876
 30
0.0
 10
27.3857795171
 20
20.0522781111
 30
0.0
 10
27.3719549225
 20
20.050509182
 30
0.0
 10
27.3557880197
 20
20.0531257038
 30
0.0
 10
27.3382148715
 20
20.0594985168
 30
0.0
 10
27.3203015044
 20
20.0687990637
 30
0.0
 10
27.3087065936
 20
20.0763579878
 30
0.0
 10
27.3029957349
 20
20.0804168791
 30
0.0
  0
SPLINE
  5
4F1
100
AcDbEntity
  8
00_COMPONENTS_3
100
AcDbSpline
 62
7
  6
BYLAYER
 70
0
 71
3
 72
14
 73
10
 74
0
 42
0.0000001
 43
0.0000001
 44
0.0000000001
 40
0.0
 40
0.0
 40
0.0
 40
0.0
 40
0.0915327787
 40
0.1801600588
 40
0.2757663881
 40
0.3893898704
 40
0.5247811842
 40
0.6768156973
 40
1.0
 40
1.0
 40
1.0
 40
1.0
 10
28.2826280238
 20
20.0804168791
 30
0.0
 10
28.2821477523
 20
20.0765003905
 30
0.0
 10
28.2802346214
 20
20.0688272103
 30
0.0
 10
28.2732043506
 20
20.0588219674
 30
0.0
 10
28.2616546297
 20
20.052342059
 30
0.0
 10
28.2466411561
 20
20.0504980451
 30
0.0
 10
28.2294020033
 20
20.0530577582
 30
0.0
 10
28.2044467902
 20
20.0617324417
 30
0.0
 10
28.1866527108
 20
20.0723254032
 30
0.0
 10
28.1753113292
 20
20.0804168791
 30
0.0
  0
SPLINE
  5
4F2
100
AcDbEntity
  8
00_COMPONENTS_3
100
AcDbSpline
 62
7
  6
BYLAYER
 70
0
 71
3
 72
12
 73
8
 74
0
 42
0.0000001
 43
0.0000001
 44
0.0000000001
 40
0.0
 40
0.0
 40
0.0
 40
0.0
 40
0.0738648526
 40
0.1665574649
 40
0.401923863
 40
0.6863263633
 40
1.0
 40
1.0
 40
1.0
 40
1.0
 10
24.0509136551
 20
20.4745562627
 30
0.0
 10
24.0550956781
 20
20.4745562627
 30
0.0
 10
24.0645090724
 20
20.4731092093
 30
0.0
 10
24.0861944948
 20
20.4660925216
 30
0.0
 10
24.1172510246
 20
20.4502889796
 30
0.0
 10
24.1570529941
 20
20.4249228849
 30
0.0
 10
24.1843530545
 20
20.4048395927
 30
0.0
 10
24.1984062797
 20
20.3939813838
 30
0.0
  0
SPLINE
  5
4F3
100
AcDbEntity
  8
00_COMPONENTS_3
100
AcDbSpline
 62
7
  6
BYLAYER
 70
0
 71
3
 72
11
 73
7
 74
0
 42
0.0000001
 43
0.0000001
 44
0.0000000001
 40
0.0
 40
0.0
 40
0.0
 40
0.0
 40
0.2361074307
 40
0.499999376
 40
0.7638882207
 40
1.0
 40
1.0
 40
1.0
 40
1.0
 10
37.0579485112
 20
20.0804167859
 30
0.0
 10
37.0493581502
 20
20.0717823922
 30
0.0
 10
37.027576787
 20
20.0567291398
 30
0.0
 10
36.9879027893
 20
20.0483167608
 30
0.0
 10
36.9482286008
 20
20.0567290135
 30
0.0
 10
36.9264470304
 20
20.0717821507
 30
0.0
 10
36.9178565218
 20
20.0804167141
 30
0.0
  0
SPLINE
  5
4F4
100
AcDbEntity
  8
00_COMPONENTS_3
100
AcDbSpline
 62
7
  6
BYLAYER
 70
0
 71
3
 72
11
 73
7
 74
0
 42
0.0000001
 43
0.0000001
 44
0.0000000001
 40
0.0
 40
0.0
 40
0.0
 40
0.0
 40
0.2267195969
 40
0.4857833109
 40
0.7541387249
 40
1.0
 40
1.0
 40
1.0
 40
1.0
 10
35.8700559749
 20
20.0804168791
 30
0.0
 10
35.8622341685
 20
20.0717682838
 30
0.0
 10
35.8414597342
 20
20.0565001019
 30
0.0
 10
35.8022820173
 20
20.0483192635
 30
0.0
 10
35.7623564476
 20
20.0569629305
 30
0.0
 10
35.739767216
 20
20.0718160854
 30
0.0
 10
35.7304970718
 20
20.0804168791
 30
0.0
  0
SPLINE
  5
4F5
100
AcDbEntity
  8
00_COMPONENTS_3
100
AcDbSpline
 62
7
  6
BYLAYER
 70
0
 71
3
 72
14
 73
10
 74
0
 42
0.0000001
 43
0.0000001
 44
0.0000000001
 40
0.0
 40
0.0
 40
0.0
 40
0.0
 40
0.0913186171
 40
0.1832881476
 40
0.2843214988
 40
0.4024625
 40
0.5392440196
 40
0.6891063452
 40
1.0
 40
1.0
 40
1.0
 40
1.0
 10
29.2294527084
 20
20.0804168791
 30
0.0
 10
29.2284779714
 20
20.0764273351
 30
0.0
 10
29.2254450756
 20
20.0686012513
 30
0.0
 10
29.2168203918
 20
20.0587598659
 30
0.0
 10
29.2039829738
 20
20.0523983618
 30
0.0
 10
29.1878479028
 20
20.0504900342
 30
0.0
 10
29.1696717985
 20
20.0529988922
 30
0.0
 10
29.1440985847
 20
20.061579237
 30
0.0
 10
29.1260337228
 20
20.0722345313
 30
0.0
 10
29.1146960639
 20
20.0804168791
 30
0.0
  0
SPLINE
  5
4F6
100
AcDbEntity
  8
00_COMPONENTS_3
100
AcDbSpline
 62
7
  6
BYLAYER
 70
0
 71
3
 72
11
 73
7
 74
0
 42
0.0000001
 43
0.0000001
 44
0.0000000001
 40
0.0
 40
0.0
 40
0.0
 40
0.0
 40
0.2200056739
 40
0.4567807686
 40
0.7166038234
 40
1.0
 40
1.0
 40
1.0
 40
1.0
 10
33.7469830665
 20
20.3939813838
 30
0.0
 10
33.7548853101
 20
20.4054562706
 30
0.0
 10
33.7741675579
 20
20.4274416432
 30
0.0
 10
33.8118801576
 20
20.4535061837
 30
0.0
 10
33.8586974792
 20
20.4707715067
 30
0.0
 10
33.8932693823
 20
20.4745562627
 30
0.0
 10
33.9112164519
 20
20.4745562627
 30
0.0
  0
SPLINE
  5
4F7
100
AcDbEntity
  8
00_COMPONENTS_3
100
AcDbSpline
 62
7
  6
BYLAYER
 70
0
 71
3
 72
9
 73
5
 74
0
 42
0.0000001
 43
0.0000001
 44
0.0000000001
 40
0.0
 40
0.0
 40
0.0
 40
0.0
 40
0.5145367667
 40
1.0
 40
1.0
 40
1.0
 40
1.0
 10
33.9953042184
 20
20.4745562627
 30
0.0
 10
34.0328654954
 20
20.4745562627
 30
0.0
 10
34.1063029663
 20
20.4577681469
 30
0.0
 10
34.1686855491
 20
20.4174880189
 30
0.0
 10
34.1952063713
 20
20.3939813838
 30
0.0
  0
SPLINE
  5
4F8
100
AcDbEntity
  8
00_COMPONENTS_3
100
AcDbSpline
 62
7
  6
BYLAYER
 70
0
 71
3
 72
9
 73
5
 74
0
 42
0.0000001
 43
0.0000001
 44
0.0000000001
 40
0.0
 40
0.0
 40
0.0
 40
0.0
 40
0.4844235112
 40
1.0
 40
1.0
 40
1.0
 40
1.0
 10
34.5527071966
 20
20.0804168791
 30
0.0
 10
34.5625633504
 20
20.071865248
 30
0.0
 10
34.5857096291
 20
20.0571990641
 30
0.0
 10
34.6128256789
 20
20.0512248103
 30
0.0
 10
34.6267137606
 20
20.0512228456
 30
0.0
  0
SPLINE
  5
4F9
100
AcDbEntity
  8
00_COMPONENTS_3
100
AcDbSpline
 62
7
  6
BYLAYER
 70
0
 71
3
 72
9
 73
5
 74
0
 42
0.0000001
 43
0.0000001
 44
0.0000000001
 40
0.0
 40
0.0
 40
0.0
 40
0.0
 40
0.5424381853
 40
1.0
 40
1.0
 40
1.0
 40
1.0
 10
33.4688922415
 20
20.0512232511
 30
0.0
 10
33.4813010967
 20
20.0512602134
 30
0.0
 10
33.5047383952
 20
20.0561474911
 30
0.0
 10
33.5227464312
 20
20.0718558624
 30
0.0
 10
33.528769105
 20
20.0804168791
 30
0.0
  0
SPLINE
  5
4FA
100
AcDbEntity
  8
00_COMPONENTS_3
100
AcDbSpline
 62
7
  6
BYLAYER
 70
0
 71
3
 72
14
 73
10
 74
0
 42
0.0000001
 43
0.0000001
 44
0.0000000001
 40
0.0
 40
0.0
 40
0.0
 40
0.0
 40
0.0924492562
 40
0.1882479692
 40
0.2942763889
 40
0.4161613863
 40
0.5537157737
 40
0.7011050893
 40
1.0
 40
1.0
 40
1.0
 40
1.0
 10
30.2353238811
 20
20.0804168791
 30
0.0
 10
30.2338473113
 20
20.0763621323
 30
0.0
 10
30.2297121732
 20
20.0684423341
 30
0.0
 10
30.2196250325
 20
20.0587427319
 30
0.0
 10
30.2055791761
 20
20.0524482646
 30
0.0
 10
30.1884151324
 20
20.050484501
 30
0.0
 10
30.1694383451
 20
20.0529460274
 30
0.0
 10
30.1434328365
 20
20.0614373837
 30
0.0
 10
30.1252379162
 20
20.072148455
 30
0.0
 10
30.1140006541
 20
20.0804168791
 30
0.0
  0
SPLINE
  5
4FB
100
AcDbEntity
  8
00_COMPONENTS_3
100
AcDbSpline
 62
7
  6
BYLAYER
 70
0
 71
3
 72
12
 73
8
 74
0
 42
0.0000001
 43
0.0000001
 44
0.0000000001
 40
0.0
 40
0.0
 40
0.0
 40
0.0
 40
0.0815496233
 40
0.1795254645
 40
0.4181419448
 40
0.6975378096
 40
1.0
 40
1.0
 40
1.0
 40
1.0
 10
24.5712447937
 20
20.4745562627
 30
0.0
 10
24.5761510922
 20
20.4745562627
 30
0.0
 10
24.5869471353
 20
20.473187392
 30
0.0
 10
24.6111933147
 20
20.4663065234
 30
0.0
 10
24.6449833257
 20
20.450636919
 30
0.0
 10
24.6873124678
 20
20.4251847091
 30
0.0
 10
24.7158981301
 20
20.4049151592
 30
0.0
 10
24.7304442085
 20
20.3939813838
 30
0.0
  0
SPLINE
  5
4FC
100
AcDbEntity
  8
00_COMPONENTS_3
100
AcDbSpline
 62
7
  6
BYLAYER
 70
0
 71
3
 72
14
 73
10
 74
0
 42
0.0000001
 43
0.0000001
 44
0.0000000001
 40
0.0
 40
0.0
 40
0.0
 40
0.0
 40
0.0946144344
 40
0.1945221303
 40
0.3051523481
 40
0.4301634265
 40
0.5680129367
 40
0.7127234179
 40
1.0
 40
1.0
 40
1.0
 40
1.0
 10
31.2925862548
 20
20.0804168791
 30
0.0
 10
31.2906095576
 20
20.0763092195
 30
0.0
 10
31.2854176182
 20
20.0683410694
 30
0.0
 10
31.273982025
 20
20.0587520185
 30
0.0
 10
31.2588128172
 20
20.052493682
 30
0.0
 10
31.2407291559
 20
20.0504805884
 30
0.0
 10
31.2210923137
 20
20.0528978734
 30
0.0
 10
31.1948419818
 20
20.0613050338
 30
0.0
 10
31.17665888
 20
20.0720675125
 30
0.0
 10
31.1656197883
 20
20.0804168791
 30
0.0
  0
SPLINE
  5
4FD
100
AcDbEntity
  8
00_COMPONENTS_3
100
AcDbSpline
 62
7
  6
BYLAYER
 70
0
 71
3
 72
11
 73
7
 74
0
 42
0.0000001
 43
0.0000001
 44
0.0000000001
 40
0.0
 40
0.0
 40
0.0
 40
0.0
 40
0.1904787043
 40
0.4321068847
 40
0.7072509849
 40
1.0
 40
1.0
 40
1.0
 40
1.0
 10
25.1860741953
 20
20.4745562627
 30
0.0
 10
25.1981416458
 20
20.4745562627
 30
0.0
 10
25.2253560184
 20
20.4685895571
 30
0.0
 10
25.2666020733
 20
20.4509804994
 30
0.0
 10
25.3111946878
 20
20.4254197693
 30
0.0
 10
25.3408406698
 20
20.40498719
 30
0.0
 10
25.3557687967
 20
20.3939813838
 30
0.0
  0
SPLINE
  5
4FE
100
AcDbEntity
  8
00_COMPONENTS_3
100
AcDbSpline
 62
7
  6
BYLAYER
 70
0
 71
3
 72
13
 73
9
 74
0
 42
0.0000001
 43
0.0000001
 44
0.0000000001
 40
0.0
 40
0.0
 40
0.0
 40
0.0
 40
0.0976914695
 40
0.2019989233
 40
0.3170388818
 40
0.4448450602
 40
0.7235716616
 40
1.0
 40
1.0
 40
1.0
 40
1.0
 10
32.3931934245
 20
20.0804168791
 30
0.0
 10
32.3907275416
 20
20.0762699158
 30
0.0
 10
32.384540177
 20
20.0682843635
 30
0.0
 10
32.3718607352
 20
20.0587771177
 30
0.0
 10
32.3556628471
 20
20.0525349706
 30
0.0
 10
32.3298059755
 20
20.0497236391
 30
0.0
 10
32.2960723578
 20
20.0576981536
 30
0.0
 10
32.2722927278
 20
20.0719923728
 30
0.0
 10
32.2615500101
 20
20.0804168791
 30
0.0
  0
SPLINE
  5
4FF
100
AcDbEntity
  8
00_COMPONENTS_3
100
AcDbSpline
 62
7
  6
BYLAYER
 70
0
 71
3
 72
11
 73
7
 74
0
 42
0.0000001
 43
0.0000001
 44
0.0000000001
 40
0.0
 40
0.0
 40
0.0
 40
0.0
 40
0.2005996856
 40
0.4447999506
 40
0.7160288961
 40
1.0
 40
1.0
 40
1.0
 40
1.0
 10
25.8907226369
 20
20.4745562627
 30
0.0
 10
25.9040047447
 20
20.4745562627
 30
0.0
 10
25.9333602584
 20
20.4688820914
 30
0.0
 10
25.9774679154
 20
20.4512508959
 30
0.0
 10
26.0239304628
 20
20.4256533981
 30
0.0
 10
26.0544260842
 20
20.4050557924
 30
0.0
 10
26.0696209464
 20
20.3939813838
 30
0.0
  0
SPLINE
  5
500
100
AcDbEntity
  8
00_COMPONENTS_2
100
AcDbSpline
 62
7
  6
BYLAYER
 70
0
 71
3
 72
22
 73
18
 74
0
 42
0.0000001
 43
0.0000001
 44
0.0000000001
 40
0.0
 40
0.0
 40
0.0
 40
0.0
 40
0.1975900107
 40
0.3864061346
 40
0.5590979298
 40
0.7097476041
 40
0.7751248631
 40
0.8330171527
 40
0.8829081825
 40
0.9243892038
 40
0.9570578661
 40
0.9699831262
 40
0.9806086683
 40
0.9889194831
 40
0.9949041472
 40
0.9985640879
 40
1.0
 40
1.0
 40
1.0
 40
1.0
 10
34.595537661
 20
8.5855088827
 30
0.0
 10
34.5962842767
 20
8.569676999
 30
0.0
 10
34.5976979099
 20
8.5387140262
 30
0.0
 10
34.5996030406
 20
8.4939069678
 30
0.0
 10
34.601200147
 20
8.4528557217
 30
0.0
 10
34.6022751938
 20
8.4216934671
 30
0.0
 10
34.6029272353
 20
8.3997308736
 30
0.0
 10
34.6032849775
 20
8.3858457358
 30
0.0
 10
34.6035329548
 20
8.3738745627
 30
0.0
 10
34.603669485
 20
8.3639272548
 30
0.0
 10
34.6036952499
 20
8.3569386369
 30
0.0
 10
34.6036461811
 20
8.3524350112
 30
0.0
 10
34.6035850752
 20
8.3498676636
 30
0.0
 10
34.6034972135
 20
8.3479021979
 30
0.0
 10
34.6033889119
 20
8.3463927848
 30
0.0
 10
34.6032616046
 20
8.3456442505
 30
0.0
 10
34.6031419015
 20
8.3450999722
 30
0.0
 10
34.6030268538
 20
8.3450944487
 30
0.0
  0
SPLINE
  5
501
100
AcDbEntity
  8
00_COMPONENTS_2
100
AcDbSpline
 62
7
  6
BYLAYER
 70
0
 71
3
 72
18
 73
14
 74
0
 42
0.0000001
 43
0.0000001
 44
0.0000000001
 40
0.0
 40
0.0
 40
0.0
 40
0.0
 40
0.0071693173
 40
0.0224072488
 40
0.0466026255
 40
0.0797858346
 40
0.1216926567
 40
0.1719477269
 40
0.2957153782
 40
0.4463868907
 40
0.6184103701
 40
0.8055348294
 40
1.0
 40
1.0
 40
1.0
 40
1.0
 10
33.4422711839
 20
8.9786332842
 30
0.0
 10
33.4425731981
 20
8.9781101804
 30
0.0
 10
33.4448929627
 20
8.9779599135
 30
0.0
 10
33.4484356442
 20
8.9788495741
 30
0.0
 10
33.4544056338
 20
8.9807563725
 30
0.0
 10
33.4621172985
 20
8.9838469894
 30
0.0
 10
33.4718266778
 20
8.9880595801
 30
0.0
 10
33.4883233916
 20
8.9957082921
 30
0.0
 10
33.5128485496
 20
9.0078497913
 30
0.0
 10
33.5462191749
 20
9.0252054699
 30
0.0
 10
33.584025782
 20
9.0455976002
 30
0.0
 10
33.6248031162
 20
9.0682434165
 30
0.0
 10
33.6527395762
 20
9.0841558023
 30
0.0
 10
33.6669331259
 20
9.0923399513
 30
0.0
  0
SPLINE
  5
502
100
AcDbEntity
  8
00_COMPONENTS_2
100
AcDbSpline
 62
7
  6
BYLAYER
 70
0
 71
3
 72
22
 73
18
 74
0
 42
0.0000001
 43
0.0000001
 44
0.0000000001
 40
0.0
 40
0.0
 40
0.0
 40
0.0
 40
0.0014350857
 40
0.0050923444
 40
0.0110728438
 40
0.0193783276
 40
0.0299976787
 40
0.0429161911
 40
0.0755637551
 40
0.11700976
 40
0.166871211
 40
0.2247488653
 40
0.2901010985
 40
0.4407363654
 40
0.6134847303
 40
0.8023848545
 40
1.0
 40
1.0
 40
1.0
 40
1.0
 10
50.0790059696
 20
9.0881067144
 30
0.0
 10
50.0791209511
 20
9.0881122347
 30
0.0
 10
50.0792407956
 20
9.0886560017
 30
0.0
 10
50.0793680105
 20
9.0894041122
 30
0.0
 10
50.079476388
 20
9.0909124377
 30
0.0
 10
50.0795642356
 20
9.0928766888
 30
0.0
 10
50.0796253579
 20
9.0954425549
 30
0.0
 10
50.0796743981
 20
9.0999434592
 30
0.0
 10
50.0796486856
 20
9.1069270302
 30
0.0
 10
50.0795124518
 20
9.1168674725
 30
0.0
 10
50.0792646997
 20
9.1288322959
 30
0.0
 10
50.0789071091
 20
9.142711885
 30
0.0
 10
50.0782555449
 20
9.1646701587
 30
0.0
 10
50.0771805048
 20
9.1958337969
 30
0.0
 10
50.0755831749
 20
9.2368951713
 30
0.0
 10
50.07367746
 20
9.2817155194
 30
0.0
 10
50.0722634877
 20
9.3126872471
 30
0.0
 10
50.0715167768
 20
9.3285211484
 30
0.0
  0
SPLINE
  5
503
100
AcDbEntity
  8
00_COMPONENTS_2
100
AcDbSpline
 62
7
  6
BYLAYER
 70
0
 71
3
 72
18
 73
14
 74
0
 42
0.0000001
 43
0.0000001
 44
0.0000000001
 40
0.0
 40
0.0
 40
0.0
 40
0.0
 40
0.1949395353
 40
0.3822139046
 40
0.5542274872
 40
0.7048397979
 40
0.8285062293
 40
0.8787111277
 40
0.9205725932
 40
0.9536968821
 40
0.9778248465
 40
0.9929805109
 40
1.0
 40
1.0
 40
1.0
 40
1.0
 10
51.0387940491
 20
10.3433522066
 30
0.0
 10
51.0550747336
 20
10.34336795
 30
0.0
 10
51.086996103
 20
10.3435594388
 30
0.0
 10
51.1332776642
 20
10.3443167695
 30
0.0
 10
51.1758482054
 20
10.3455149693
 30
0.0
 10
51.2130856329
 20
10.3471026639
 30
0.0
 10
51.240143917
 20
10.348775438
 30
0.0
 10
51.2580843053
 20
10.3503288443
 30
0.0
 10
51.2685011776
 20
10.3514816599
 30
0.0
 10
51.2766394873
 20
10.3526079023
 30
0.0
 10
51.2827130916
 20
10.3538819573
 30
0.0
 10
51.2861601486
 20
10.3548332119
 30
0.0
 10
51.2881025597
 20
10.3560592955
 30
0.0
 10
51.2881025597
 20
10.3566455395
 30
0.0
  0
SPLINE
  5
504
100
AcDbEntity
  8
0
100
AcDbSpline
 62
7
  6
BYLAYER
 70
0
 71
3
 72
16
 73
12
 74
0
 42
0.0000001
 43
0.0000001
 44
0.0000000001
 40
0.0
 40
0.0
 40
0.0
 40
0.0
 40
0.180580069
 40
0.3463949369
 40
0.49563748
 40
0.6274159419
 40
0.7416009451
 40
0.8392620499
 40
0.923454459
 40
0.9622684253
 40
1.0
 40
1.0
 40
1.0
 40
1.0
 10
50.2703073253
 20
84.6822790986
 30
0.0
 10
50.3614995684
 20
84.6251393227
 30
0.0
 10
50.5395191943
 20
84.5203301728
 30
0.0
 10
50.8036401175
 20
84.3875492479
 30
0.0
 10
51.0507049789
 20
84.2872660008
 30
0.0
 10
51.2771868419
 20
84.2208701962
 30
0.0
 10
51.4803054312
 20
84.1892507934
 30
0.0
 10
51.6578466263
 20
84.1931346438
 30
0.0
 10
51.7865857914
 20
84.2286904567
 30
0.0
 10
51.8701236421
 20
84.2764210243
 30
0.0
 10
51.9054008821
 20
84.3057952843
 30
0.0
 10
51.9213007222
 20
84.3216951245
 30
0.0
  0
SPLINE
  5
505
100
AcDbEntity
  8
0
100
AcDbSpline
 62
7
  6
BYLAYER
 70
0
 71
3
 72
16
 73
12
 74
0
 42
0.0000001
 43
0.0000001
 44
0.0000000001
 40
0.0
 40
0.0
 40
0.0
 40
0.0
 40
0.0377315747
 40
0.076545541
 40
0.1607379501
 40
0.2583990549
 40
0.3725840581
 40
0.50436252
 40
0.6536050631
 40
0.819419931
 40
1.0
 40
1.0
 40
1.0
 40
1.0
 10
47.377291125
 20
88.8657047217
 30
0.0
 10
47.3613912848
 20
88.8498048816
 30
0.0
 10
47.3320170249
 20
88.8145276416
 30
0.0
 10
47.2842864572
 20
88.7309897909
 30
0.0
 10
47.2487306443
 20
88.6022506258
 30
0.0
 10
47.2448467939
 20
88.4247094307
 30
0.0
 10
47.2764661967
 20
88.2215908414
 30
0.0
 10
47.3428620013
 20
87.9951089784
 30
0.0
 10
47.4431452484
 20
87.748044117
 30
0.0
 10
47.5759261733
 20
87.4839231938
 30
0.0
 10
47.6807353232
 20
87.3059035679
 30
0.0
 10
47.7378750991
 20
87.2147113248
 30
0.0
  0
SPLINE
  5
506
100
AcDbEntity
  8
0
100
AcDbSpline
 62
7
  6
BYLAYER
 70
0
 71
3
 72
16
 73
12
 74
0
 42
0.0000001
 43
0.0000001
 44
0.0000000001
 40
0.0
 40
0.0
 40
0.0
 40
0.0
 40
0.0377315747
 40
0.076545541
 40
0.1607379501
 40
0.2583990549
 40
0.3725840581
 40
0.50436252
 40
0.6536050631
 40
0.819419931
 40
1.0
 40
1.0
 40
1.0
 40
1.0
 10
51.2747222815
 20
80.0111721864
 30
0.0
 10
51.2588224414
 20
79.9952723462
 30
0.0
 10
51.2294481814
 20
79.9599951062
 30
0.0
 10
51.1817176137
 20
79.8764572555
 30
0.0
 10
51.1461618008
 20
79.7477180904
 30
0.0
 10
51.1422779505
 20
79.5701768953
 30
0.0
 10
51.1738973532
 20
79.367058306
 30
0.0
 10
51.2402931579
 20
79.140576443
 30
0.0
 10
51.3405764049
 20
78.8935115816
 30
0.0
 10
51.4733573298
 20
78.6293906585
 30
0.0
 10
51.5781664798
 20
78.4513710325
 30
0.0
 10
51.6353062557
 20
78.3601787894
 30
0.0
  0
SPLINE
  5
507
100
AcDbEntity
  8
0
100
AcDbSpline
 62
7
  6
BYLAYER
 70
0
 71
3
 72
16
 73
12
 74
0
 42
0.0000001
 43
0.0000001
 44
0.0000000001
 40
0.0
 40
0.0
 40
0.0
 40
0.0
 40
0.180580069
 40
0.3463949369
 40
0.49563748
 40
0.6274159419
 40
0.7416009451
 40
0.8392620499
 40
0.923454459
 40
0.9622684253
 40
1.0
 40
1.0
 40
1.0
 40
1.0
 10
25.7487300203
 20
87.2147113248
 30
0.0
 10
25.8058697962
 20
87.3059035679
 30
0.0
 10
25.9106789461
 20
87.4839231938
 30
0.0
 10
26.043459871
 20
87.748044117
 30
0.0
 10
26.1437431181
 20
87.9951089784
 30
0.0
 10
26.2101389227
 20
88.2215908414
 30
0.0
 10
26.2417583255
 20
88.4247094307
 30
0.0
 10
26.2378744751
 20
88.6022506258
 30
0.0
 10
26.2023186622
 20
88.7309897909
 30
0.0
 10
26.1545880946
 20
88.8145276416
 30
0.0
 10
26.1252138346
 20
88.8498048816
 30
0.0
 10
26.1093139944
 20
88.8657047217
 30
0.0
  0
SPLINE
  5
508
100
AcDbEntity
  8
0
100
AcDbSpline
 62
7
  6
BYLAYER
 70
0
 71
3
 72
16
 73
12
 74
0
 42
0.0000001
 43
0.0000001
 44
0.0000000001
 40
0.0
 40
0.0
 40
0.0
 40
0.0
 40
0.180580069
 40
0.3463949369
 40
0.49563748
 40
0.6274159419
 40
0.7416009451
 40
0.8392620499
 40
0.923454459
 40
0.9622684253
 40
1.0
 40
1.0
 40
1.0
 40
1.0
 10
54.1677384818
 20
75.8277465633
 30
0.0
 10
54.2589307249
 20
75.7706067874
 30
0.0
 10
54.4369503509
 20
75.6657976374
 30
0.0
 10
54.701071274
 20
75.5330167125
 30
0.0
 10
54.9481361355
 20
75.4327334655
 30
0.0
 10
55.1746179984
 20
75.3663376608
 30
0.0
 10
55.3777365877
 20
75.334718258
 30
0.0
 10
55.5552777828
 20
75.3386021084
 30
0.0
 10
55.684016948
 20
75.3741579213
 30
0.0
 10
55.7675547987
 20
75.421888489
 30
0.0
 10
55.8028320386
 20
75.4512627489
 30
0.0
 10
55.8187318788
 20
75.4671625891
 30
0.0
  0
SPLINE
  5
509
100
AcDbEntity
  8
0
100
AcDbSpline
 62
7
  6
BYLAYER
 70
0
 71
3
 72
16
 73
12
 74
0
 42
0.0000001
 43
0.0000001
 44
0.0000000001
 40
0.0
 40
0.0
 40
0.0
 40
0.0
 40
0.0377315747
 40
0.076545541
 40
0.1607379501
 40
0.2583990549
 40
0.3725840581
 40
0.50436252
 40
0.6536050631
 40
0.819419931
 40
1.0
 40
1.0
 40
1.0
 40
1.0
 10
17.6678732406
 20
75.4671625891
 30
0.0
 10
17.6837730808
 20
75.4512627489
 30
0.0
 10
17.7190503208
 20
75.421888489
 30
0.0
 10
17.8025881715
 20
75.3741579213
 30
0.0
 10
17.9313273366
 20
75.3386021084
 30
0.0
 10
18.1088685317
 20
75.334718258
 30
0.0
 10
18.311987121
 20
75.3663376608
 30
0.0
 10
18.538468984
 20
75.4327334655
 30
0.0
 10
18.7855338454
 20
75.5330167125
 30
0.0
 10
19.0496547685
 20
75.6657976374
 30
0.0
 10
19.2276743945
 20
75.7706067874
 30
0.0
 10
19.3188666376
 20
75.8277465633
 30
0.0
  0
SPLINE
  5
50A
100
AcDbEntity
  8
0
100
AcDbSpline
 62
7
  6
BYLAYER
 70
0
 71
3
 72
16
 73
12
 74
0
 42
0.0000001
 43
0.0000001
 44
0.0000000001
 40
0.0
 40
0.0
 40
0.0
 40
0.0
 40
0.180580069
 40
0.3463949369
 40
0.49563748
 40
0.6274159419
 40
0.7416009451
 40
0.8392620499
 40
0.923454459
 40
0.9622684253
 40
1.0
 40
1.0
 40
1.0
 40
1.0
 10
21.8512988637
 20
78.3601787894
 30
0.0
 10
21.9084386396
 20
78.4513710325
 30
0.0
 10
22.0132477896
 20
78.6293906585
 30
0.0
 10
22.1460287145
 20
78.8935115816
 30
0.0
 10
22.2463119615
 20
79.140576443
 30
0.0
 10
22.3127077662
 20
79.367058306
 30
0.0
 10
22.344327169
 20
79.5701768953
 30
0.0
 10
22.3404433186
 20
79.7477180904
 30
0.0
 10
22.3048875057
 20
79.8764572555
 30
0.0
 10
22.257156938
 20
79.9599951062
 30
0.0
 10
22.2277826781
 20
79.9952723462
 30
0.0
 10
22.2118828379
 20
80.0111721864
 30
0.0
  0
SPLINE
  5
50B
100
AcDbEntity
  8
0
100
AcDbSpline
 62
7
  6
BYLAYER
 70
0
 71
3
 72
16
 73
12
 74
0
 42
0.0000001
 43
0.0000001
 44
0.0000000001
 40
0.0
 40
0.0
 40
0.0
 40
0.0
 40
0.0377315747
 40
0.076545541
 40
0.1607379501
 40
0.2583990549
 40
0.3725840581
 40
0.50436252
 40
0.6536050631
 40
0.819419931
 40
1.0
 40
1.0
 40
1.0
 40
1.0
 10
21.5653043972
 20
84.3216951245
 30
0.0
 10
21.5812042373
 20
84.3057952843
 30
0.0
 10
21.6164814773
 20
84.2764210243
 30
0.0
 10
21.700019328
 20
84.2286904567
 30
0.0
 10
21.8287584931
 20
84.1931346438
 30
0.0
 10
22.0062996883
 20
84.1892507934
 30
0.0
 10
22.2094182775
 20
84.2208701962
 30
0.0
 10
22.4359001405
 20
84.2872660008
 30
0.0
 10
22.6829650019
 20
84.3875492479
 30
0.0
 10
22.9470859251
 20
84.5203301728
 30
0.0
 10
23.125105551
 20
84.6251393227
 30
0.0
 10
23.2162977941
 20
84.6822790986
 30
0.0
  0
SPLINE
  5
50C
100
AcDbEntity
  8
0
100
AcDbSpline
 62
7
  6
BYLAYER
 70
0
 71
3
 72
19
 73
15
 74
0
 42
0.0000001
 43
0.0000001
 44
0.0000000001
 40
0.0
 40
0.0
 40
0.0
 40
0.0
 40
0.1795025625
 40
0.348966001
 40
0.5042008494
 40
0.6418113283
 40
0.7032263409
 40
0.7594342888
 40
0.8103972211
 40
0.8562249606
 40
0.8972651983
 40
0.9341697973
 40
0.9679523204
 40
1.0
 40
1.0
 40
1.0
 40
1.0
 10
18.7319830772
 20
78.0551853304
 30
0.0
 10
18.615561333
 20
77.9216511589
 30
0.0
 10
18.3968424547
 20
77.6552702446
 30
0.0
 10
18.106613206
 20
77.2505558575
 30
0.0
 10
17.86913303
 20
76.8604164749
 30
0.0
 10
17.7150530093
 20
76.5457127461
 30
0.0
 10
17.6260796264
 20
76.309856482
 30
0.0
 10
17.5788372999
 20
76.1501351882
 30
0.0
 10
17.5487605729
 20
76.0019228993
 30
0.0
 10
17.5361316694
 20
75.8661546584
 30
0.0
 10
17.5411569008
 20
75.7436541498
 30
0.0
 10
17.5641273325
 20
75.6351394078
 30
0.0
 10
17.6053645659
 20
75.5416246282
 30
0.0
 10
17.6455079392
 20
75.4895278906
 30
0.0
 10
17.6678732406
 20
75.4671625891
 30
0.0
  0
SPLINE
  5
50D
100
AcDbEntity
  8
0
100
AcDbSpline
 62
7
  6
BYLAYER
 70
0
 71
3
 72
19
 73
15
 74
0
 42
0.0000001
 43
0.0000001
 44
0.0000000001
 40
0.0
 40
0.0
 40
0.0
 40
0.0
 40
0.0320476796
 40
0.0658302027
 40
0.1027348017
 40
0.1437750394
 40
0.1896027789
 40
0.2405657112
 40
0.2967736591
 40
0.3581886717
 40
0.4957991506
 40
0.651033999
 40
0.8204974375
 40
1.0
 40
1.0
 40
1.0
 40
1.0
 10
26.1093139944
 20
88.8657047217
 30
0.0
 10
26.086948693
 20
88.8880700232
 30
0.0
 10
26.0348519554
 20
88.9282133964
 30
0.0
 10
25.9413371758
 20
88.9694506299
 30
0.0
 10
25.8328224338
 20
88.9924210615
 30
0.0
 10
25.7103219251
 20
88.9974462929
 30
0.0
 10
25.5745536842
 20
88.9848173895
 30
0.0
 10
25.4263413953
 20
88.9547406624
 30
0.0
 10
25.2666201015
 20
88.907498336
 30
0.0
 10
25.0307638374
 20
88.818524953
 30
0.0
 10
24.7160601087
 20
88.6644449324
 30
0.0
 10
24.325920726
 20
88.4269647563
 30
0.0
 10
23.9212063389
 20
88.1367355077
 30
0.0
 10
23.6548254246
 20
87.9180166293
 30
0.0
 10
23.5212912531
 20
87.8015948851
 30
0.0
  0
SPLINE
  5
50E
100
AcDbEntity
  8
0
100
AcDbSpline
 62
7
  6
BYLAYER
 70
0
 71
3
 72
19
 73
15
 74
0
 42
0.0000001
 43
0.0000001
 44
0.0000000001
 40
0.0
 40
0.0
 40
0.0
 40
0.0
 40
0.1795025625
 40
0.348966001
 40
0.5042008494
 40
0.6418113283
 40
0.7032263409
 40
0.7594342888
 40
0.8103972211
 40
0.8562249606
 40
0.8972651983
 40
0.9341697973
 40
0.9679523204
 40
1.0
 40
1.0
 40
1.0
 40
1.0
 10
49.9653138663
 20
87.8015948851
 30
0.0
 10
49.8317796948
 20
87.9180166293
 30
0.0
 10
49.5653987805
 20
88.1367355077
 30
0.0
 10
49.1606843934
 20
88.4269647563
 30
0.0
 10
48.7705450107
 20
88.6644449324
 30
0.0
 10
48.455841282
 20
88.818524953
 30
0.0
 10
48.2199850179
 20
88.907498336
 30
0.0
 10
48.0602637241
 20
88.9547406624
 30
0.0
 10
47.9120514352
 20
88.9848173895
 30
0.0
 10
47.7762831943
 20
88.9974462929
 30
0.0
 10
47.6537826856
 20
88.9924210615
 30
0.0
 10
47.5452679436
 20
88.9694506299
 30
0.0
 10
47.451753164
 20
88.9282133964
 30
0.0
 10
47.3996564265
 20
88.8880700232
 30
0.0
 10
47.377291125
 20
88.8657047217
 30
0.0
  0
SPLINE
  5
50F
100
AcDbEntity
  8
0
100
AcDbSpline
 62
7
  6
BYLAYER
 70
0
 71
3
 72
19
 73
15
 74
0
 42
0.0000001
 43
0.0000001
 44
0.0000000001
 40
0.0
 40
0.0
 40
0.0
 40
0.0
 40
0.0320476796
 40
0.0658302027
 40
0.1027348017
 40
0.1437750394
 40
0.1896027789
 40
0.2405657112
 40
0.2967736591
 40
0.3581886717
 40
0.4957991506
 40
0.651033999
 40
0.8204974375
 40
1.0
 40
1.0
 40
1.0
 40
1.0
 10
51.9213007222
 20
84.3216951245
 30
0.0
 10
51.9436660237
 20
84.344060426
 30
0.0
 10
51.9838093969
 20
84.3961571635
 30
0.0
 10
52.0250466304
 20
84.4896719431
 30
0.0
 10
52.048017062
 20
84.5981866851
 30
0.0
 10
52.0530422934
 20
84.7206871938
 30
0.0
 10
52.04041339
 20
84.8564554347
 30
0.0
 10
52.010336663
 20
85.0046677236
 30
0.0
 10
51.9630943365
 20
85.1643890174
 30
0.0
 10
51.8741209535
 20
85.4002452815
 30
0.0
 10
51.7200409329
 20
85.7149490102
 30
0.0
 10
51.4825607568
 20
86.1050883929
 30
0.0
 10
51.1923315082
 20
86.50980278
 30
0.0
 10
50.9736126298
 20
86.7761836943
 30
0.0
 10
50.8571908856
 20
86.9097178658
 30
0.0
  0
SPLINE
  5
510
100
AcDbEntity
  8
0
100
AcDbSpline
 62
7
  6
BYLAYER
 70
0
 71
3
 72
19
 73
15
 74
0
 42
0.0000001
 43
0.0000001
 44
0.0000000001
 40
0.0
 40
0.0
 40
0.0
 40
0.0
 40
0.0320476796
 40
0.0658302027
 40
0.1027348017
 40
0.1437750394
 40
0.1896027789
 40
0.2405657112
 40
0.2967736591
 40
0.3581886717
 40
0.4957991506
 40
0.651033999
 40
0.8204974375
 40
1.0
 40
1.0
 40
1.0
 40
1.0
 10
22.2118828379
 20
80.0111721864
 30
0.0
 10
22.1895175364
 20
80.0335374878
 30
0.0
 10
22.1374207988
 20
80.0736808611
 30
0.0
 10
22.0439060192
 20
80.1149180945
 30
0.0
 10
21.9353912772
 20
80.1378885262
 30
0.0
 10
21.8128907686
 20
80.1429137576
 30
0.0
 10
21.6771225277
 20
80.1302848541
 30
0.0
 10
21.5289102388
 20
80.1002081271
 30
0.0
 10
21.369188945
 20
80.0529658006
 30
0.0
 10
21.1333326809
 20
79.9639924177
 30
0.0
 10
20.8186289521
 20
79.809912397
 30
0.0
 10
20.4284895695
 20
79.572432221
 30
0.0
 10
20.0237751824
 20
79.2822029723
 30
0.0
 10
19.7573942681
 20
79.063484094
 30
0.0
 10
19.6238600966
 20
78.9470623498
 30
0.0
  0
SPLINE
  5
511
100
AcDbEntity
  8
0
100
AcDbSpline
 62
7
  6
BYLAYER
 70
0
 71
3
 72
19
 73
15
 74
0
 42
0.0000001
 43
0.0000001
 44
0.0000000001
 40
0.0
 40
0.0
 40
0.0
 40
0.0
 40
0.1795025625
 40
0.348966001
 40
0.5042008494
 40
0.6418113283
 40
0.7032263409
 40
0.7594342888
 40
0.8103972211
 40
0.8562249606
 40
0.8972651983
 40
0.9341697973
 40
0.9679523204
 40
1.0
 40
1.0
 40
1.0
 40
1.0
 10
22.6294142338
 20
86.9097178658
 30
0.0
 10
22.5129924896
 20
86.7761836943
 30
0.0
 10
22.2942736112
 20
86.50980278
 30
0.0
 10
22.0040443626
 20
86.1050883929
 30
0.0
 10
21.7665641865
 20
85.7149490102
 30
0.0
 10
21.6124841659
 20
85.4002452815
 30
0.0
 10
21.5235107829
 20
85.1643890174
 30
0.0
 10
21.4762684565
 20
85.0046677236
 30
0.0
 10
21.4461917294
 20
84.8564554347
 30
0.0
 10
21.433562826
 20
84.7206871938
 30
0.0
 10
21.4385880574
 20
84.5981866851
 30
0.0
 10
21.4615584891
 20
84.4896719431
 30
0.0
 10
21.5027957225
 20
84.3961571635
 30
0.0
 10
21.5429390957
 20
84.344060426
 30
0.0
 10
21.5653043972
 20
84.3216951245
 30
0.0
  0
SPLINE
  5
512
100
AcDbEntity
  8
0
100
AcDbSpline
 62
7
  6
BYLAYER
 70
0
 71
3
 72
19
 73
15
 74
0
 42
0.0000001
 43
0.0000001
 44
0.0000000001
 40
0.0
 40
0.0
 40
0.0
 40
0.0
 40
0.0320476796
 40
0.0658302027
 40
0.1027348017
 40
0.1437750394
 40
0.1896027789
 40
0.2405657112
 40
0.2967736591
 40
0.3581886717
 40
0.4957991506
 40
0.651033999
 40
0.8204974375
 40
1.0
 40
1.0
 40
1.0
 40
1.0
 10
55.8187318788
 20
75.4671625891
 30
0.0
 10
55.8410971803
 20
75.4895278906
 30
0.0
 10
55.8812405535
 20
75.5416246282
 30
0.0
 10
55.9224777869
 20
75.6351394078
 30
0.0
 10
55.9454482186
 20
75.7436541498
 30
0.0
 10
55.95047345
 20
75.8661546584
 30
0.0
 10
55.9378445465
 20
76.0019228993
 30
0.0
 10
55.9077678195
 20
76.1501351882
 30
0.0
 10
55.8605254931
 20
76.309856482
 30
0.0
 10
55.7715521101
 20
76.5457127461
 30
0.0
 10
55.6174720894
 20
76.8604164749
 30
0.0
 10
55.3799919134
 20
77.2505558575
 30
0.0
 10
55.0897626648
 20
77.6552702446
 30
0.0
 10
54.8710437864
 20
77.9216511589
 30
0.0
 10
54.7546220422
 20
78.0551853304
 30
0.0
  0
SPLINE
  5
513
100
AcDbEntity
  8
0
100
AcDbSpline
 62
7
  6
BYLAYER
 70
0
 71
3
 72
19
 73
15
 74
0
 42
0.0000001
 43
0.0000001
 44
0.0000000001
 40
0.0
 40
0.0
 40
0.0
 40
0.0
 40
0.1795025625
 40
0.348966001
 40
0.5042008494
 40
0.6418113283
 40
0.7032263409
 40
0.7594342888
 40
0.8103972211
 40
0.8562249606
 40
0.8972651983
 40
0.9341697973
 40
0.9679523204
 40
1.0
 40
1.0
 40
1.0
 40
1.0
 10
53.8627450229
 20
78.9470623498
 30
0.0
 10
53.7292108514
 20
79.063484094
 30
0.0
 10
53.462829937
 20
79.2822029723
 30
0.0
 10
53.05811555
 20
79.572432221
 30
0.0
 10
52.6679761673
 20
79.809912397
 30
0.0
 10
52.3532724385
 20
79.9639924177
 30
0.0
 10
52.1174161745
 20
80.0529658006
 30
0.0
 10
51.9576948806
 20
80.1002081271
 30
0.0
 10
51.8094825917
 20
80.1302848541
 30
0.0
 10
51.6737143508
 20
80.1429137576
 30
0.0
 10
51.5512138422
 20
80.1378885262
 30
0.0
 10
51.4426991002
 20
80.1149180945
 30
0.0
 10
51.3491843206
 20
80.0736808611
 30
0.0
 10
51.297087583
 20
80.0335374878
 30
0.0
 10
51.2747222815
 20
80.0111721864
 30
0.0
  0
SPLINE
  5
514
100
AcDbEntity
  8
00_COMPONENTS
100
AcDbSpline
 62
7
  6
BYLAYER
 70
0
 71
3
 72
15
 73
11
 74
0
 42
0.0000001
 43
0.0000001
 44
0.0000000001
 40
0.0
 40
0.0
 40
0.0
 40
0.0
 40
0.1262633288
 40
0.251511948
 40
0.3759715474
 40
0.5
 40
0.6240284526
 40
0.748488052
 40
0.8737366712
 40
1.0
 40
1.0
 40
1.0
 40
1.0
 10
19.5254025597
 20
40.1836074684
 30
0.0
 10
19.9432481992
 20
40.0530475394
 30
0.0
 10
20.7836408447
 20
39.8177288073
 30
0.0
 10
22.0612550518
 20
39.5534235235
 30
0.0
 10
23.3481189491
 20
39.3898784953
 30
0.0
 10
24.6400503932
 20
39.334508101
 30
0.0
 10
25.9319818373
 20
39.3898784953
 30
0.0
 10
27.2188457347
 20
39.5534235235
 30
0.0
 10
28.4964599418
 20
39.8177288073
 30
0.0
 10
29.3368525873
 20
40.0530475394
 30
0.0
 10
29.7546982268
 20
40.1836074684
 30
0.0
  0
SPLINE
  5
515
100
AcDbEntity
  8
00_COMPONENTS
100
AcDbSpline
 62
7
  6
BYLAYER
 70
0
 71
3
 72
11
 73
7
 74
0
 42
0.0000001
 43
0.0000001
 44
0.0000000001
 40
0.0
 40
0.0
 40
0.0
 40
0.0
 40
0.2500016435
 40
0.5000014209
 40
0.750000971
 40
1.0
 40
1.0
 40
1.0
 40
1.0
 10
29.7546982268
 20
40.1836074684
 30
0.0
 10
30.3482583523
 20
40.05246488
 30
0.0
 10
31.5414245148
 20
39.8165570806
 30
0.0
 10
33.3466840055
 20
39.5525654978
 30
0.0
 10
35.163994511
 20
39.3898647489
 30
0.0
 10
36.3800339287
 20
39.3529310291
 30
0.0
 10
36.9879025597
 20
39.3529310291
 30
0.0
  0
SPLINE
  5
516
100
AcDbEntity
  8
00_COMPONENTS
100
AcDbSpline
 62
7
  6
BYLAYER
 70
0
 71
3
 72
15
 73
11
 74
0
 42
0.0000001
 43
0.0000001
 44
0.0000000001
 40
0.0
 40
0.0
 40
0.0
 40
0.0
 40
0.1262633288
 40
0.251511948
 40
0.3759715474
 40
0.5
 40
0.6240284526
 40
0.748488052
 40
0.8737366712
 40
1.0
 40
1.0
 40
1.0
 40
1.0
 10
44.2211068926
 20
40.1836074684
 30
0.0
 10
44.6389525321
 20
40.0530475394
 30
0.0
 10
45.4793451776
 20
39.8177288073
 30
0.0
 10
46.7569593848
 20
39.5534235235
 30
0.0
 10
48.0438232821
 20
39.3898784953
 30
0.0
 10
49.3357547262
 20
39.334508101
 30
0.0
 10
50.6276861703
 20
39.3898784953
 30
0.0
 10
51.9145500676
 20
39.5534235235
 30
0.0
 10
53.1921642747
 20
39.8177288073
 30
0.0
 10
54.0325569202
 20
40.0530475394
 30
0.0
 10
54.4504025597
 20
40.1836074684
 30
0.0
  0
SPLINE
  5
517
100
AcDbEntity
  8
00_COMPONENTS
100
AcDbSpline
 62
7
  6
BYLAYER
 70
0
 71
3
 72
11
 73
7
 74
0
 42
0.0000001
 43
0.0000001
 44
0.0000000001
 40
0.0
 40
0.0
 40
0.0
 40
0.0
 40
0.2499990294
 40
0.499998599
 40
0.7499983587
 40
1.0
 40
1.0
 40
1.0
 40
1.0
 10
36.9879025597
 20
39.3529310291
 30
0.0
 10
37.5957711925
 20
39.3529310291
 30
0.0
 10
38.8118107029
 20
39.3898636263
 30
0.0
 10
40.6291211375
 20
39.5525657054
 30
0.0
 10
42.4343805148
 20
39.8165577823
 30
0.0
 10
43.6275467714
 20
40.052464881
 30
0.0
 10
44.2211068926
 20
40.1836074684
 30
0.0
  0
ELLIPSE
  5
518
100
AcDbEntity
  8
00_COMPONENTS_2
100
AcDbEllipse
 62
7
  6
BYLAYER
 10
43.1999069357
 20
9.0121290685
 30
0.0
 11
0.2569812701
 21
-0.0298763297
 31
0.0
 40
0.9812844277
 41
-0.6452130412
 42
0.113591836
  0
ELLIPSE
  5
519
100
AcDbEntity
  8
00_COMPONENTS_2
100
AcDbEllipse
 62
7
  6
BYLAYER
 10
36.0891209323
 20
8.6707354042
 30
0.0
 11
0.2569812701
 21
-0.0298763297
 31
0.0
 40
0.9812844277
 41
-0.6452130412
 42
0.113591836
  0
ELLIPSE
  5
51A
100
AcDbEntity
  8
00_COMPONENTS_2
100
AcDbEllipse
 62
7
  6
BYLAYER
 10
43.1999069357
 20
9.0121290685
 30
0.0
 11
0.1643857061
 21
0.2076942792
 31
0.0
 40
0.9021812245
 41
2.2909247613
 42
3.0497296385
  0
ELLIPSE
  5
51B
100
AcDbEntity
  8
00_COMPONENTS_2
100
AcDbEllipse
 62
7
  6
BYLAYER
 10
36.9879025597
 20
148.2866374697
 30
0.0
 11
-7.1487486972
 21
272.7375899309
 31
0.0
 40
0.0271218407
 41
-2.0654802721
 42
-2.0625134441
  0
ELLIPSE
  5
51C
100
AcDbEntity
  8
00_COMPONENTS_2
100
AcDbEllipse
 62
7
  6
BYLAYER
 10
39.644513934
 20
8.8414322363
 30
0.0
 11
0.2569812701
 21
-0.0298763297
 31
0.0
 40
0.9812844277
 41
-0.6452130412
 42
0.113591836
  0
ELLIPSE
  5
51D
100
AcDbEntity
  8
00_COMPONENTS_2
100
AcDbEllipse
 62
7
  6
BYLAYER
 10
46.8216297525
 20
9.1860104401
 30
0.0
 11
0.2569812701
 21
-0.0298763297
 31
0.0
 40
0.9812844277
 41
-0.6452130412
 42
0.113591836
  0
ELLIPSE
  5
51E
100
AcDbEntity
  8
00_COMPONENTS_2
100
AcDbEllipse
 62
7
  6
BYLAYER
 10
36.0891209323
 20
8.6707354042
 30
0.0
 11
0.1643857061
 21
0.2076942792
 31
0.0
 40
0.9021812245
 41
2.2909247613
 42
3.0497296385
  0
ELLIPSE
  5
51F
100
AcDbEntity
  8
00_COMPONENTS_2
100
AcDbEllipse
 62
7
  6
BYLAYER
 10
39.644513934
 20
8.8414322363
 30
0.0
 11
0.1643857061
 21
0.2076942792
 31
0.0
 40
0.9021812245
 41
2.2909247613
 42
3.0497296385
  0
ELLIPSE
  5
520
100
AcDbEntity
  8
00_COMPONENTS_2
100
AcDbEllipse
 62
7
  6
BYLAYER
 10
46.8216297525
 20
9.1860104401
 30
0.0
 11
0.1643857061
 21
0.2076942792
 31
0.0
 40
0.9021812245
 41
2.2909247613
 42
3.0497296385
  0
ENDSEC
  0
SECTION
  2
OBJECTS
  0
DICTIONARY
  5
C
100
AcDbDictionary
280
0
281
1
  3
ACAD_GROUP
350
D
  3
ACAD_MLINESTYLE
350
17
  3
ACAD_LAYOUT
350
1A
  3
ACAD_PLOTSETTINGS
350
19
  3
ACAD_PLOTSTYLENAME
350
E
  0
DICTIONARY
  5
D
102
{ACAD_REACTORS
330
C
102
}
100
AcDbDictionary
280
0
281
1
  0
ACDBDICTIONARYWDFLT
  5
E
102
{ACAD_REACTORS
330
C
102
}
100
AcDbDictionary
281
1
  3
Normal
350
F
100
AcDbDictionaryWithDefault
340
F
  0
DICTIONARY
  5
17
102
{ACAD_REACTORS
330
C
102
}
100
AcDbDictionary
280
0
281
1
  3
Standard
350
18
  0
DICTIONARY
  5
19
102
{ACAD_REACTORS
330
C
102
}
100
AcDbDictionary
281
1
  0
DICTIONARY
  5
1A
102
{ACAD_REACTORS
330
C
102
}
100
AcDbDictionary
281
1
  3
Model
350
521
  3
Layout1
350
522
  0
ACDBPLACEHOLDER
  5
F
102
{ACAD_REACTORS
330
E
102
}
  0
MLINESTYLE
  5
18
102
{ACAD_REACTORS
330
17
102
}
100
AcDbMlineStyle
  2
STANDARD
 70
0
  3

 62
256
 51
90.0
 52
90.0
 71
2
 49
0.5
 62
256
  6
BYLAYER
 49
-0.5
 62
256
  6
BYLAYER
  0
LAYOUT
  5
521
102
{ACAD_REACTORS
330
1A
102
}
100
AcDbPlotSettings
  1

  2
none_device
  4

  6

 40
0.0
 41
0.0
 42
0.0
 43
0.0
 44
210.0
 45
297.0
 46
0.0
 47
0.0
 48
0.0
 49
0.0
140
0.0
141
0.0
142
1.0
143
1.0
 70
1024
 72
1
 73
0
 74
0
  7

 75
0
147
1.0
148
0.0
149
0.0
100
AcDbLayout
  1
Model
 70
0
 71
0
 10
0.0
 20
0.0
 11
210.0
 21
297.0
 12
0.0
 22
0.0
 32
0.0
 14
0.0
 24
0.0
 34
0.0
 15
0.0
 25
0.0
 35
0.0
146
0.0
 13
0.0
 23
0.0
 33
0.0
 16
1.0
 26
0.0
 36
0.0
 17
0.0
 27
1.0
 37
0.0
 76
0
330
221
345
0
346
0
  0
LAYOUT
  5
522
102
{ACAD_REACTORS
330
1A
102
}
100
AcDbPlotSettings
  1

  2
none_device
  4

  6

 40
0.0
 41
0.0
 42
0.0
 43
0.0
 44
210.0
 45
297.0
 46
0.0
 47
0.0
 48
0.0
 49
0.0
140
0.0
141
0.0
142
1.0
143
1.0
 70
0
 72
1
 73
0
 74
0
  7

 75
0
147
1.0
148
0.0
149
0.0
100
AcDbLayout
  1
Layout1
 70
0
 71
1
 10
0.0
 20
0.0
 11
210.0
 21
297.0
 12
0.0
 22
0.0
 32
0.0
 14
0.0
 24
0.0
 34
0.0
 15
0.0
 25
0.0
 35
0.0
146
0.0
 13
0.0
 23
0.0
 33
0.0
 16
1.0
 26
0.0
 36
0.0
 17
0.0
 27
1.0
 37
0.0
 76
0
330
222
345
0
346
0
  0
ENDSEC
  0
EOF
