999
DXF file: C:\Users\sesa63760\Dev\_Creo\CAD\MCADUE0001292_3D-CAD\drw0001_6.dxf
999
Pro/ENGINEER 2019471 by Parametric Technology Corporation
  0
SECTION
  2
HEADER
  9
$ACADVER
  1
AC1024
  9
$DWGCODEPAGE
  3
ANSI_1252
  9
$EXTMAX
 10
265.7060660097
 20
375.7842933565
 30
0.0
  9
$EXTMIN
 10
0.0
 20
0.0
 30
0.0
  9
$LIMMIN
 10
0.0
 20
0.0
  9
$LIMMAX
 10
265.7060660097
 20
375.7842933565
  9
$VIEWCTR
 10
132.8530330048
 20
187.8921466783
  9
$VIEWSIZE
 40
375.7842933565
  9
$CLAYER
  8
0
  9
$LTSCALE
 40
24.4955687521
  9
$CELTYPE
  6
BYLAYER
  9
$DIMSCALE
 40
1.0
  9
$DIMASZ
 40
3.1631674525
  9
$DIMEXO
 40
1.0
  9
$DIMDLI
 40
16.9242111378
  9
$DIMEXE
 40
1.0
  9
$DIMCEN
 40
4.0083657958
  9
$DIMLFAC
 40
1.0
  9
$DIMBLK
  1
_FILLED
  9
$DIMALT
 70
0
  9
$DIMALTF
 40
0.0393700787
  9
$DIMTXT
 40
4.4284344335
  9
$DIMTOL
 70
1
  9
$DIMLIM
 70
0
  9
$DIMTFAC
 40
1.0
  9
$DIMTP
 40
0.01
  9
$DIMTM
 40
0.01
  9
$DIMGAP
 40
0.625
  9
$DIMDSEP
 70
46
  9
$AUNITS
 70
0
  9
$PDMODE
 70
3
  9
$PDSIZE
 40
0.3125
  9
$HANDSEED
  5
310
  9
$TILEMODE
 70
1
  9
$MEASUREMENT
 70
1
  9
$INSUNITS
 70
4
  0
ENDSEC
  0
SECTION
  2
CLASSES
  0
CLASS
  1
ACDBDICTIONARYWDFLT
  2
AcDbDictionaryWithDefault
  3
AutoCAD 2000
 90
0
 91
1
280
0
281
0
  0
CLASS
  1
ACDBPLACEHOLDER
  2
AcDbPlaceHolder
  3
AutoCAD 2000
 90
0
 91
1
280
0
281
0
  0
CLASS
  1
LAYOUT
  2
AcDbLayout
  3
AutoCAD 2000
 90
0
 91
0
280
0
281
0
  0
ENDSEC
  0
SECTION
  2
TABLES
  0
TABLE
  2
VPORT
  5
8
100
AcDbSymbolTable
 70
2
  0
VPORT
  5
1F4
100
AcDbSymbolTableRecord
100
AcDbViewportTableRecord
  2
*ACTIVE
 70
0
 10
0.0
 20
0.0
 11
1.0
 21
1.0
 12
132.8530330048
 22
187.8921466783
 13
0.0
 23
0.0
 14
1.0
 24
1.0
 15
0.0
 25
0.0
 16
0.0
 26
0.0
 36
1.0
 17
0.0
 27
0.0
 37
0.0
 40
375.7842933565
 41
0.7070707071
 42
50.0
 43
0.0
 44
0.0
 50
0.0
 51
0.0
 71
0
 72
100
 73
1
 74
1
 75
0
 76
0
 77
0
 78
0
  0
ENDTAB
  0
TABLE
  2
LTYPE
  5
5
100
AcDbSymbolTable
 70
6
  0
LTYPE
  5
14
100
AcDbSymbolTableRecord
100
AcDbLinetypeTableRecord
  2
BYBLOCK
 70
0
  3

 72
65
 73
0
 40
0.0
  0
LTYPE
  5
15
100
AcDbSymbolTableRecord
100
AcDbLinetypeTableRecord
  2
BYLAYER
 70
0
  3

 72
65
 73
0
 40
0.0
  0
LTYPE
  5
16
100
AcDbSymbolTableRecord
100
AcDbLinetypeTableRecord
  2
CONTINUOUS
 70
64
  3
Solid line
 72
65
 73
0
 40
0.0
  0
LTYPE
  5
1F5
100
AcDbSymbolTableRecord
100
AcDbLinetypeTableRecord
  2
CENTER
 70
64
  3
____ _ ____ _ ____ _ ____ _ ____ _ ____ _ ____
 72
65
 73
4
 40
0.6
 49
0.375
 74
0
 49
-0.075
 74
0
 49
0.075
 74
0
 49
-0.075
 74
0
  0
LTYPE
  5
1F6
100
AcDbSymbolTableRecord
100
AcDbLinetypeTableRecord
  2
HIDDEN
 70
64
  3
- - - - - - - - - - - - - - - - - - - -
 72
65
 73
2
 40
0.2
 49
0.1
 74
0
 49
-0.1
 74
0
  0
LTYPE
  5
1F7
100
AcDbSymbolTableRecord
100
AcDbLinetypeTableRecord
  2
PHANTOM
 70
64
  3
_____ _ _ _____ _ _ _____ _ _ _____
 72
65
 73
6
 40
0.8
 49
0.45
 74
0
 49
-0.05
 74
0
 49
0.1
 74
0
 49
-0.05
 74
0
 49
0.1
 74
0
 49
-0.05
 74
0
  0
LTYPE
  5
1F8
100
AcDbSymbolTableRecord
100
AcDbLinetypeTableRecord
  2
DOT
 70
64
  3
. . . . . . . . . . . . . . . . . . . .
 72
65
 73
2
 40
0.2
 49
0.1
 74
0
 49
-0.1
 74
0
  0
LTYPE
  5
1F9
100
AcDbSymbolTableRecord
100
AcDbLinetypeTableRecord
  2
DASHED
 70
64
  3
- - - - - - - - - - - - - - - - - - - -
 72
65
 73
2
 40
0.2
 49
0.1
 74
0
 49
-0.1
 74
0
  0
ENDTAB
  0
TABLE
  2
LAYER
  5
2
100
AcDbSymbolTable
 70
36
  0
LAYER
  5
10
100
AcDbSymbolTableRecord
100
AcDbLayerTableRecord
  2
0
 70
0
 62
7
  6
CONTINUOUS
370
-3
390
F
  0
LAYER
  5
1FA
100
AcDbSymbolTableRecord
100
AcDbLayerTableRecord
  2
DEFAULT_1
 70
0
 62
7
  6
CENTER
370
-3
390
F
  0
LAYER
  5
1FB
100
AcDbSymbolTableRecord
100
AcDbLayerTableRecord
  2
DEFAULT_2
 70
0
 62
8
  6
HIDDEN
370
-3
390
F
  0
LAYER
  5
1FC
100
AcDbSymbolTableRecord
100
AcDbLayerTableRecord
  2
DEFAULT_3
 70
0
 62
7
  6
PHANTOM
370
-3
390
F
  0
LAYER
  5
1FD
100
AcDbSymbolTableRecord
100
AcDbLayerTableRecord
  2
00_COMPONENTS
 70
0
 62
7
  6
CONTINUOUS
370
-3
390
F
  0
LAYER
  5
1FE
100
AcDbSymbolTableRecord
100
AcDbLayerTableRecord
  2
01_1_DEFAULT_DATUMS
 70
0
 62
7
  6
CONTINUOUS
370
-3
390
F
  0
LAYER
  5
1FF
100
AcDbSymbolTableRecord
100
AcDbLayerTableRecord
  2
01_PLANES
 70
0
 62
7
  6
CONTINUOUS
370
-3
390
F
  0
LAYER
  5
200
100
AcDbSymbolTableRecord
100
AcDbLayerTableRecord
  2
02_COORD_SYS
 70
0
 62
7
  6
CONTINUOUS
370
-3
390
F
  0
LAYER
  5
201
100
AcDbSymbolTableRecord
100
AcDbLayerTableRecord
  2
03_AXES
 70
0
 62
7
  6
CONTINUOUS
370
-3
390
F
  0
LAYER
  5
202
100
AcDbSymbolTableRecord
100
AcDbLayerTableRecord
  2
04_POINTS
 70
0
 62
7
  6
CONTINUOUS
370
-3
390
F
  0
LAYER
  5
203
100
AcDbSymbolTableRecord
100
AcDbLayerTableRecord
  2
05_CURVES
 70
0
 62
7
  6
CONTINUOUS
370
-3
390
F
  0
LAYER
  5
204
100
AcDbSymbolTableRecord
100
AcDbLayerTableRecord
  2
06_SURFS
 70
0
 62
7
  6
CONTINUOUS
370
-3
390
F
  0
LAYER
  5
205
100
AcDbSymbolTableRecord
100
AcDbLayerTableRecord
  2
07_COSMETICS
 70
0
 62
7
  6
CONTINUOUS
370
-3
390
F
  0
LAYER
  5
206
100
AcDbSymbolTableRecord
100
AcDbLayerTableRecord
  2
10_NOTES
 70
0
 62
7
  6
CONTINUOUS
370
-3
390
F
  0
LAYER
  5
207
100
AcDbSymbolTableRecord
100
AcDbLayerTableRecord
  2
11_NOTES_PUB
 70
0
 62
7
  6
CONTINUOUS
370
-3
390
F
  0
LAYER
  5
208
100
AcDbSymbolTableRecord
100
AcDbLayerTableRecord
  2
13_REF_GTOL
 70
0
 62
7
  6
CONTINUOUS
370
-3
390
F
  0
LAYER
  5
209
100
AcDbSymbolTableRecord
100
AcDbLayerTableRecord
  2
16_MISC
 70
0
 62
7
  6
CONTINUOUS
370
-3
390
F
  0
LAYER
  5
20A
100
AcDbSymbolTableRecord
100
AcDbLayerTableRecord
  2
17_NO_PRINT
 70
0
 62
7
  6
CONTINUOUS
370
-3
390
F
  0
LAYER
  5
20B
100
AcDbSymbolTableRecord
100
AcDbLayerTableRecord
  2
18_DATUM_CAMS_JOINTS
 70
0
 62
7
  6
CONTINUOUS
370
-3
390
F
  0
LAYER
  5
20C
100
AcDbSymbolTableRecord
100
AcDbLayerTableRecord
  2
19_DATUM_FUNCTIONAL
 70
0
 62
7
  6
CONTINUOUS
370
-3
390
F
  0
LAYER
  5
20D
100
AcDbSymbolTableRecord
100
AcDbLayerTableRecord
  2
20_DATUM_KINEMATIC_SCHEME
 70
0
 62
7
  6
CONTINUOUS
370
-3
390
F
  0
ENDTAB
  0
TABLE
  2
STYLE
  5
3
100
AcDbSymbolTable
 70
1
  0
STYLE
  5
11
100
AcDbSymbolTableRecord
100
AcDbTextStyleTableRecord
  2
STANDARD
 70
0
 40
0.0
 41
0.8
 50
0.0
 71
0
 42
0.2
  3
txt
  4

  0
STYLE
  5
20E
100
AcDbSymbolTableRecord
100
AcDbTextStyleTableRecord
  2
TEXTSTYLE_1
 70
0
 40
0.0
 41
0.8
 50
0.0
 71
0
 42
0.2
  3
gdt
  4

  0
ENDTAB
  0
TABLE
  2
VIEW
  5
6
100
AcDbSymbolTable
 70
0
  0
ENDTAB
  0
TABLE
  2
UCS
  5
7
100
AcDbSymbolTable
 70
0
  0
ENDTAB
  0
TABLE
  2
APPID
  5
9
100
AcDbSymbolTable
 70
1
  0
APPID
  5
20F
100
AcDbSymbolTableRecord
100
AcDbRegAppTableRecord
  2
ACAD
 70
0
  0
ENDTAB
  0
TABLE
  2
BLOCK_RECORD
  5
1
100
AcDbSymbolTable
 70
0
  0
BLOCK_RECORD
  5
210
100
AcDbSymbolTableRecord
100
AcDbBlockTableRecord
  2
*Model_Space
  0
BLOCK_RECORD
  5
211
100
AcDbSymbolTableRecord
100
AcDbBlockTableRecord
  2
*Paper_Space
  0
BLOCK_RECORD
  5
212
100
AcDbSymbolTableRecord
100
AcDbBlockTableRecord
  2
_FILLED
  0
ENDTAB
  0
TABLE
  2
DIMSTYLE
  5
A
100
AcDbSymbolTable
 70
1
100
AcDbDimStyleTable
 71
0
  0
DIMSTYLE
105
213
100
AcDbSymbolTableRecord
100
AcDbDimStyleTableRecord
  2
STANDARD
 70
0
  3

  4

 40
1.0
 41
3.1631674525
 42
1.0
 43
0.38
 44
1.0
 45
0.0
 46
0.0
 47
0.01
 48
0.01
140
4.4284344335
141
0.09
142
0.0
143
25.4
144
1.0
145
0.0
146
1.0
147
0.625
 71
1
 72
0
 73
0
 74
0
 75
0
 76
0
 77
1
 78
8
 79
2
170
0
171
1
172
0
173
0
174
0
175
0
176
0
177
0
178
0
270
2
179
2
271
2
272
2
273
2
274
2
275
0
280
0
281
0
282
0
283
1
284
8
285
0
286
0
287
3
288
0
340
11
278
46
341
212
342
212
343
212
344
212
  0
ENDTAB
  0
ENDSEC
  0
SECTION
  2
BLOCKS
  0
BLOCK
  5
20
100
AcDbEntity
  8
0
100
AcDbBlockBegin
  2
*Model_Space
 70
0
 10
0.0
 20
0.0
 30
0.0
  3
*Model_Space
  1

  0
ENDBLK
  5
21
100
AcDbEntity
  8
0
100
AcDbBlockEnd
  0
BLOCK
  5
1C
100
AcDbEntity
  8
0
100
AcDbBlockBegin
  2
*Paper_Space
 70
0
 10
0.0
 20
0.0
 30
0.0
  3
*Paper_Space
  1

  0
ENDBLK
  5
1D
100
AcDbEntity
  8
0
100
AcDbBlockEnd
  0
BLOCK
  5
214
100
AcDbEntity
  8
0
100
AcDbBlockBegin
  2
_FILLED
 70
64
 10
0.0
 20
0.0
  3
_FILLED
  1

  0
SOLID
  5
215
100
AcDbEntity
  8
0
  6
BYBLOCK
 62
0
100
AcDbTrace
 10
0.0
 20
0.0
 11
-1.0
 21
0.25
 12
-1.0
 22
-0.25
 13
-1.0
 23
-0.25
  0
ENDBLK
  5
216
100
AcDbEntity
  8
0
  6
BYBLOCK
 62
0
100
AcDbBlockEnd
  0
ENDSEC
  0
SECTION
  2
ENTITIES
  0
LINE
  5
217
100
AcDbEntity
  8
0
100
AcDbLine
 62
7
  6
CONTINUOUS
 10
36.6212448318
 20
41.6165819848
 11
39.2425313736
 21
40.8921466783
  0
LINE
  5
218
100
AcDbEntity
  8
0
100
AcDbLine
 62
7
  6
CONTINUOUS
 10
65.252827985
 20
37.8921466857
 11
236.852827985
 21
37.8921466834
  0
LINE
  5
219
100
AcDbEntity
  8
0
100
AcDbLine
 62
7
  6
CONTINUOUS
 10
65.252827985
 20
38.8921466783
 11
236.852827985
 21
38.8921466783
  0
LINE
  5
21A
100
AcDbEntity
  8
0
100
AcDbLine
 62
7
  6
CONTINUOUS
 10
54.9425313736
 20
39.8921466783
 11
39.2425313736
 21
39.8921466783
  0
LINE
  5
21B
100
AcDbEntity
  8
0
100
AcDbLine
 62
7
  6
CONTINUOUS
 10
54.9425313736
 20
40.8921466783
 11
39.2425313736
 21
40.8921466783
  0
LINE
  5
21C
100
AcDbEntity
  8
0
100
AcDbLine
 62
7
  6
CONTINUOUS
 10
239.252827985
 20
53.3921466783
 11
239.052827985
 21
53.3921466783
  0
LINE
  5
21D
100
AcDbEntity
  8
0
100
AcDbLine
 62
7
  6
CONTINUOUS
 10
239.252827985
 20
66.3921466783
 11
239.052827985
 21
66.3921466783
  0
LINE
  5
21E
100
AcDbEntity
  8
0
100
AcDbLine
 62
7
  6
CONTINUOUS
 10
59.6712099942
 20
57.429207037
 11
56.0425313736
 21
56.7238633649
  0
LINE
  5
21F
100
AcDbEntity
  8
0
100
AcDbLine
 62
7
  6
CONTINUOUS
 10
56.0425313736
 20
57.7054905484
 11
59.6712099942
 21
58.4108342205
  0
LWPOLYLINE
  5
220
100
AcDbEntity
  8
0
100
AcDbPolyline
 62
7
  6
CONTINUOUS
 90
4
 70
0
 10
30.3836844393
 20
166.1311907537
 10
30.4029027223
 20
165.9493287373
 10
30.4370630314
 20
165.527257473
 10
30.4425311195
 20
165.3427285799
  0
LINE
  5
221
100
AcDbEntity
  8
0
100
AcDbLine
 62
7
  6
CONTINUOUS
 10
30.4240331466
 20
165.792242205
 11
30.3918658348
 21
166.102339497
  0
LWPOLYLINE
  5
222
100
AcDbEntity
  8
0
100
AcDbPolyline
 62
7
  6
CONTINUOUS
 90
3
 70
0
 10
30.052971324
 20
166.2975933065
 10
30.1404734029
 20
165.2976534664
 10
30.252122392
 20
164.5396466713
  0
LWPOLYLINE
  5
223
100
AcDbEntity
  8
0
100
AcDbPolyline
 62
7
  6
CONTINUOUS
 90
3
 70
0
 10
30.0530378284
 20
164.8678090941
 10
30.086413113
 20
164.438730221
 10
30.2369302017
 20
163.4894349406
  0
LINE
  5
224
100
AcDbEntity
  8
0
100
AcDbLine
 62
7
  6
CONTINUOUS
 10
30.0622584041
 20
166.306695793
 11
30.0627936265
 21
166.2985138817
  0
LINE
  5
225
100
AcDbEntity
  8
0
100
AcDbLine
 62
7
  6
CONTINUOUS
 10
30.0628416086
 20
164.8686571623
 11
30.0622590275
 21
164.8780918587
  0
LWPOLYLINE
  5
226
100
AcDbEntity
  8
0
100
AcDbPolyline
 62
7
  6
CONTINUOUS
 90
4
 70
0
 10
30.2385893218
 20
168.3507837489
 10
30.281657799
 20
167.3440524732
 10
30.3156494963
 20
166.8584852422
 10
30.3836874758
 20
166.1311012263
  0
LINE
  5
227
100
AcDbEntity
  8
0
100
AcDbLine
 62
7
  6
CONTINUOUS
 10
30.2486821348
 20
168.3510333332
 11
30.2488648136
 21
168.3444011776
  0
LINE
  5
228
100
AcDbEntity
  8
0
100
AcDbLine
 62
7
  6
CONTINUOUS
 10
30.4425304036
 20
202.8431597855
 11
30.4425313736
 21
202.8420574771
  0
LINE
  5
229
100
AcDbEntity
  8
0
100
AcDbLine
 62
7
  6
CONTINUOUS
 10
30.442531316
 20
163.3435059861
 11
30.4425313736
 21
163.343248873
  0
LINE
  5
22A
100
AcDbEntity
  8
0
100
AcDbLine
 62
7
  6
CONTINUOUS
 10
30.4425313736
 20
165.3411952404
 11
30.4425311364
 21
165.3423619407
  0
LINE
  5
22B
100
AcDbEntity
  8
0
100
AcDbLine
 62
7
  6
CONTINUOUS
 10
30.0527646714
 20
201.3062016968
 11
30.0527646714
 21
191.5800074405
  0
LINE
  5
22C
100
AcDbEntity
  8
0
100
AcDbLine
 62
7
  6
CONTINUOUS
 10
30.0527646714
 20
184.204285916
 11
30.0527646714
 21
166.3066827223
  0
LINE
  5
22D
100
AcDbEntity
  8
0
100
AcDbLine
 62
7
  6
CONTINUOUS
 10
30.0527646714
 20
166.2975920114
 11
30.0527646714
 21
164.8780916597
  0
LINE
  5
22E
100
AcDbEntity
  8
0
100
AcDbLine
 62
7
  6
CONTINUOUS
 10
30.062252752
 20
200.0363393629
 11
30.062252752
 21
201.3062016968
  0
LINE
  5
22F
100
AcDbEntity
  8
0
100
AcDbLine
 62
7
  6
CONTINUOUS
 10
30.0622590277
 20
164.8780916597
 11
30.0622590277
 21
166.191457029
  0
LINE
  5
230
100
AcDbEntity
  8
0
100
AcDbLine
 62
7
  6
CONTINUOUS
 10
30.0622584042
 20
166.3066827223
 11
30.0622584042
 21
184.3311751784
  0
LINE
  5
231
100
AcDbEntity
  8
0
100
AcDbLine
 62
7
  6
CONTINUOUS
 10
30.0622559479
 20
191.4531346012
 11
30.0622559479
 21
199.8776359954
  0
LINE
  5
232
100
AcDbEntity
  8
0
100
AcDbLine
 62
7
  6
CONTINUOUS
 10
33.9029332087
 20
167.8617117633
 11
33.9029332087
 21
198.3225830783
  0
LINE
  5
233
100
AcDbEntity
  8
0
100
AcDbLine
 62
7
  6
CONTINUOUS
 10
34.4614641816
 20
158.2925791987
 11
34.4614641816
 21
161.1418122565
  0
LINE
  5
234
100
AcDbEntity
  8
0
100
AcDbLine
 62
7
  6
CONTINUOUS
 10
34.4614641816
 20
205.0424851066
 11
34.4614641816
 21
207.8917141579
  0
LINE
  5
235
100
AcDbEntity
  8
0
100
AcDbLine
 62
7
  6
CONTINUOUS
 10
35.2039160897
 20
158.1214317693
 11
35.2039160897
 21
160.9903285149
  0
LINE
  5
236
100
AcDbEntity
  8
0
100
AcDbLine
 62
7
  6
CONTINUOUS
 10
35.2039160897
 20
205.1939695305
 11
35.2039160897
 21
208.0628615873
  0
LINE
  5
237
100
AcDbEntity
  8
0
100
AcDbLine
 62
7
  6
CONTINUOUS
 10
36.0425313736
 20
332.6921466783
 11
36.0425313736
 21
43.0921466783
  0
LINE
  5
238
100
AcDbEntity
  8
0
100
AcDbLine
 62
7
  6
CONTINUOUS
 10
36.6212448318
 20
41.6165819848
 11
36.6212448318
 21
334.1677113718
  0
LINE
  5
239
100
AcDbEntity
  8
0
100
AcDbLine
 62
7
  6
CONTINUOUS
 10
30.4425313736
 20
200.843342764
 11
30.4425310367
 21
200.8419754326
  0
LWPOLYLINE
  5
23A
100
AcDbEntity
  8
0
100
AcDbPolyline
 62
7
  6
CONTINUOUS
 90
3
 70
0
 10
30.2385993705
 20
197.8335018443
 10
30.0753379295
 20
183.0981538499
 10
30.2385992443
 20
168.3507920672
  0
LINE
  5
23B
100
AcDbEntity
  8
0
100
AcDbLine
 62
7
  6
CONTINUOUS
 10
30.2488648259
 20
197.8398938485
 11
30.2487029343
 21
197.8332554473
  0
LWPOLYLINE
  5
23C
100
AcDbEntity
  8
0
100
AcDbPolyline
 62
7
  6
CONTINUOUS
 90
4
 70
0
 10
30.4425338088
 20
200.841463392
 10
30.4371305312
 20
200.6583724708
 10
30.4033293945
 20
200.2392332168
 10
30.3836859404
 20
200.0531215698
  0
LWPOLYLINE
  5
23D
100
AcDbEntity
  8
0
100
AcDbPolyline
 62
7
  6
CONTINUOUS
 90
9
 70
0
 10
30.4425184804
 20
202.8431601539
 10
30.4408548016
 20
202.8012115085
 10
30.419773245
 20
202.6227458449
 10
30.3695851811
 20
202.3181356923
 10
30.3327783009
 20
202.1100307779
 10
30.2428433814
 20
201.5884552558
 10
30.1471327294
 20
200.9391771557
 10
30.0711191274
 20
200.1889094839
 10
30.054126483
 20
199.8965047874
  0
LWPOLYLINE
  5
23E
100
AcDbEntity
  8
0
100
AcDbPolyline
 62
7
  6
CONTINUOUS
 90
4
 70
0
 10
30.3836896814
 20
200.0532120754
 10
30.316222923
 20
199.3330572087
 10
30.2821230201
 20
198.8478352097
 10
30.2385892948
 20
197.8335101639
  0
LINE
  5
23F
100
AcDbEntity
  8
0
100
AcDbLine
 62
7
  6
CONTINUOUS
 10
30.0538134929
 20
199.8970608514
 11
30.0532516531
 21
199.8915589497
  0
LINE
  5
240
100
AcDbEntity
  8
0
100
AcDbLine
 62
7
  6
CONTINUOUS
 10
30.3836859404
 20
200.0531215698
 11
30.3836964264
 21
200.0532162937
  0
LINE
  5
241
100
AcDbEntity
  8
0
100
AcDbLine
 62
7
  6
CONTINUOUS
 10
59.671209997
 20
318.355086334
 11
59.4804009989
 21
317.3734591361
  0
LWPOLYLINE
  5
242
100
AcDbEntity
  8
0
100
AcDbPolyline
 62
7
  6
CONTINUOUS
 90
4
 70
0
 10
30.3205220468
 20
203.0544070278
 10
30.237348685
 20
202.696826203
 10
30.0870633393
 20
201.751855341
 10
30.0530349615
 20
201.316470593
  0
LINE
  5
243
100
AcDbEntity
  8
0
100
AcDbLine
 62
7
  6
CONTINUOUS
 10
30.4343699918
 20
203.4676068883
 11
30.3205220468
 21
203.0544070278
  0
LINE
  5
244
100
AcDbEntity
  8
0
100
AcDbLine
 62
7
  6
CONTINUOUS
 10
30.4358359573
 20
203.4727551477
 11
30.4343699918
 21
203.4676068883
  0
LINE
  5
245
100
AcDbEntity
  8
0
100
AcDbLine
 62
7
  6
CONTINUOUS
 10
30.4352632629
 20
203.467430571
 11
30.4504349982
 21
203.520640155
  0
LINE
  5
246
100
AcDbEntity
  8
0
100
AcDbLine
 62
7
  6
CONTINUOUS
 10
30.4437701979
 20
203.4987028308
 11
30.4537200981
 21
203.5314693893
  0
LINE
  5
247
100
AcDbEntity
  8
0
100
AcDbLine
 62
7
  6
CONTINUOUS
 10
30.4434397645
 20
162.6866651397
 11
30.4537115559
 21
162.6528891538
  0
LINE
  5
248
100
AcDbEntity
  8
0
100
AcDbLine
 62
7
  6
CONTINUOUS
 10
30.4352193542
 20
162.7168794555
 11
30.4498845664
 21
162.6654051773
  0
LINE
  5
249
100
AcDbEntity
  8
0
100
AcDbLine
 62
7
  6
CONTINUOUS
 10
30.3206467822
 20
163.1294095449
 11
30.4354401189
 21
162.7128179227
  0
LINE
  5
24A
100
AcDbEntity
  8
0
100
AcDbLine
 62
7
  6
CONTINUOUS
 10
30.2369302017
 20
163.4894349406
 11
30.3206467822
 21
163.1294095449
  0
LINE
  5
24B
100
AcDbEntity
  8
0
100
AcDbLine
 62
7
  6
CONTINUOUS
 10
59.671209997
 20
57.4292070225
 11
59.4804009988
 21
58.4108342204
  0
LWPOLYLINE
  5
24C
100
AcDbEntity
  8
0
100
AcDbPolyline
 62
7
  6
CONTINUOUS
 90
4
 70
0
 10
30.252122392
 20
164.5396466713
 10
30.4042131921
 20
163.6620066702
 10
30.4338828293
 20
163.4557396526
 10
30.4425217307
 20
163.3422554195
  0
LINE
  5
24D
100
AcDbEntity
  8
0
100
AcDbLine
 62
7
  6
CONTINUOUS
 10
30.0622584041
 20
166.306695793
 11
30.0632441171
 21
166.2988890996
  0
LINE
  5
24E
100
AcDbEntity
  8
0
100
AcDbLine
 62
7
  6
CONTINUOUS
 10
30.052972221
 20
166.297573566
 11
30.0530487897
 21
166.2969556018
  0
LINE
  5
24F
100
AcDbEntity
  8
0
100
AcDbLine
 62
7
  6
CONTINUOUS
 10
30.0633494124
 20
164.8690557814
 11
30.0622590275
 21
164.8780918587
  0
LINE
  5
250
100
AcDbEntity
  8
0
100
AcDbLine
 62
7
  6
CONTINUOUS
 10
30.3836942581
 20
166.1311020364
 11
30.3836844393
 21
166.1311907537
  0
LINE
  5
251
100
AcDbEntity
  8
0
100
AcDbLine
 62
7
  6
CONTINUOUS
 10
39.2425313736
 20
39.8921466798
 11
39.2425313736
 21
40.8921466806
  0
LINE
  5
252
100
AcDbEntity
  8
0
100
AcDbLine
 62
7
  6
CONTINUOUS
 10
39.2425313736
 20
334.8921466783
 11
39.2425313736
 21
335.8921466768
  0
LINE
  5
253
100
AcDbEntity
  8
0
100
AcDbLine
 62
7
  6
CONTINUOUS
 10
42.0891347757
 20
334.8921466783
 11
42.0891347757
 21
40.8921466783
  0
LINE
  5
254
100
AcDbEntity
  8
0
100
AcDbLine
 62
7
  6
CONTINUOUS
 10
42.90828682
 20
335.8921466783
 11
42.90828682
 21
334.8921466783
  0
LINE
  5
255
100
AcDbEntity
  8
0
100
AcDbLine
 62
7
  6
CONTINUOUS
 10
42.90828682
 20
40.8921466783
 11
42.90828682
 21
39.8921466783
  0
LINE
  5
256
100
AcDbEntity
  8
0
100
AcDbLine
 62
7
  6
CONTINUOUS
 10
44.7104213174
 20
39.8921466783
 11
44.7104213174
 21
335.8921466783
  0
LINE
  5
257
100
AcDbEntity
  8
0
100
AcDbLine
 62
7
  6
CONTINUOUS
 10
61.852827985
 20
101.8921466783
 11
62.052827985
 21
101.8921466783
  0
LINE
  5
258
100
AcDbEntity
  8
0
100
AcDbLine
 62
7
  6
CONTINUOUS
 10
54.9425313736
 20
335.8921466783
 11
54.9425313736
 21
39.8921466783
  0
LINE
  5
259
100
AcDbEntity
  8
0
100
AcDbLine
 62
7
  6
CONTINUOUS
 10
56.0425313736
 20
334.0003933944
 11
56.0425313736
 21
41.7838999622
  0
LINE
  5
25A
100
AcDbEntity
  8
0
100
AcDbLine
 62
7
  6
CONTINUOUS
 10
59.6712099942
 20
317.3734591361
 11
59.6712099942
 21
58.4108342205
  0
LINE
  5
25B
100
AcDbEntity
  8
0
100
AcDbLine
 62
7
  6
CONTINUOUS
 10
60.852827985
 20
106.142147679
 11
60.852827985
 21
107.6421143896
  0
LINE
  5
25C
100
AcDbEntity
  8
0
100
AcDbLine
 62
7
  6
CONTINUOUS
 10
60.852827985
 20
268.142147679
 11
60.852827985
 21
269.6421143896
  0
LINE
  5
25D
100
AcDbEntity
  8
0
100
AcDbLine
 62
7
  6
CONTINUOUS
 10
61.852827985
 20
101.8921466783
 11
61.852827985
 21
111.8921466752
  0
LINE
  5
25E
100
AcDbEntity
  8
0
100
AcDbLine
 62
7
  6
CONTINUOUS
 10
61.852827985
 20
263.8921466783
 11
61.852827985
 21
273.8921466752
  0
LINE
  5
25F
100
AcDbEntity
  8
0
100
AcDbLine
 62
7
  6
CONTINUOUS
 10
62.052827985
 20
334.6921466783
 11
62.052827985
 21
41.0921466783
  0
LINE
  5
260
100
AcDbEntity
  8
0
100
AcDbLine
 62
7
  6
CONTINUOUS
 10
61.852827985
 20
111.8921466783
 11
62.052827985
 21
111.8921466783
  0
LINE
  5
261
100
AcDbEntity
  8
0
100
AcDbLine
 62
7
  6
CONTINUOUS
 10
65.252827985
 20
37.8921466857
 11
65.252827985
 21
337.8921466709
  0
LINE
  5
262
100
AcDbEntity
  8
0
100
AcDbLine
 62
7
  6
CONTINUOUS
 10
35.2039160897
 20
158.1214317693
 11
34.4614697974
 21
158.2925767028
  0
LINE
  5
263
100
AcDbEntity
  8
0
100
AcDbLine
 62
7
  6
CONTINUOUS
 10
30.0622590277
 20
164.8780916597
 11
30.0527646714
 21
164.8780916597
  0
LINE
  5
264
100
AcDbEntity
  8
0
100
AcDbLine
 62
7
  6
CONTINUOUS
 10
35.2039160897
 20
158.1214317693
 11
36.0425313736
 21
158.0921466783
  0
LINE
  5
265
100
AcDbEntity
  8
0
100
AcDbLine
 62
7
  6
CONTINUOUS
 10
30.0622584042
 20
166.3066827223
 11
30.0527646714
 21
166.3066827223
  0
LINE
  5
266
100
AcDbEntity
  8
0
100
AcDbLine
 62
7
  6
CONTINUOUS
 10
30.05358432
 20
199.8776106343
 11
30.0622559479
 21
199.8776359954
  0
LINE
  5
267
100
AcDbEntity
  8
0
100
AcDbLine
 62
7
  6
CONTINUOUS
 10
30.0527646714
 20
201.3062016968
 11
30.062252752
 21
201.3062016968
  0
LINE
  5
268
100
AcDbEntity
  8
0
100
AcDbLine
 62
7
  6
CONTINUOUS
 10
36.0425313736
 20
208.0921466783
 11
35.2039160897
 21
208.0628615873
  0
LINE
  5
269
100
AcDbEntity
  8
0
100
AcDbLine
 62
7
  6
CONTINUOUS
 10
30.05358432
 20
199.8776106343
 11
30.0527646714
 21
199.8775934815
  0
LINE
  5
26A
100
AcDbEntity
  8
0
100
AcDbLine
 62
7
  6
CONTINUOUS
 10
35.2039160897
 20
208.0628615872
 11
34.4614697974
 21
207.8917166537
  0
LINE
  5
26B
100
AcDbEntity
  8
0
100
AcDbLine
 62
7
  6
CONTINUOUS
 10
36.9897575675
 20
41.5147374774
 11
36.6212448318
 21
41.256702082
  0
LINE
  5
26C
100
AcDbEntity
  8
0
100
AcDbLine
 62
7
  6
CONTINUOUS
 10
36.9897575675
 20
334.2695558792
 11
36.621244832
 21
334.5275912745
  0
LINE
  5
26D
100
AcDbEntity
  8
0
100
AcDbLine
 62
7
  6
CONTINUOUS
 10
61.852827985
 20
263.8921466783
 11
62.052827985
 21
263.8921466783
  0
LINE
  5
26E
100
AcDbEntity
  8
0
100
AcDbLine
 62
7
  6
CONTINUOUS
 10
61.852827985
 20
273.8921466783
 11
62.052827985
 21
273.8921466783
  0
LINE
  5
26F
100
AcDbEntity
  8
0
100
AcDbLine
 62
7
  6
CONTINUOUS
 10
236.852827985
 20
337.8921466732
 11
236.852827985
 21
37.8921466834
  0
LINE
  5
270
100
AcDbEntity
  8
0
100
AcDbLine
 62
7
  6
CONTINUOUS
 10
239.052827985
 20
40.0921466783
 11
239.052827985
 21
335.6921466783
  0
LINE
  5
271
100
AcDbEntity
  8
0
100
AcDbLine
 62
7
  6
CONTINUOUS
 10
239.252827985
 20
322.3921466783
 11
239.252827985
 21
309.3921466783
  0
LINE
  5
272
100
AcDbEntity
  8
0
100
AcDbLine
 62
7
  6
CONTINUOUS
 10
239.252827985
 20
66.3921466783
 11
239.252827985
 21
53.3921466783
  0
LINE
  5
273
100
AcDbEntity
  8
0
100
AcDbLine
 62
7
  6
CONTINUOUS
 10
239.252827985
 20
309.3921466783
 11
239.052827985
 21
309.3921466783
  0
LINE
  5
274
100
AcDbEntity
  8
0
100
AcDbLine
 62
7
  6
CONTINUOUS
 10
59.6712099942
 20
317.3734591361
 11
56.0425313736
 21
318.0788028081
  0
LINE
  5
275
100
AcDbEntity
  8
0
100
AcDbLine
 62
7
  6
CONTINUOUS
 10
56.0425313736
 20
319.0604299916
 11
59.6712099942
 21
318.3550863196
  0
LINE
  5
276
100
AcDbEntity
  8
0
100
AcDbLine
 62
7
  6
CONTINUOUS
 10
239.252827985
 20
322.3921466783
 11
239.052827985
 21
322.3921466783
  0
LINE
  5
277
100
AcDbEntity
  8
0
100
AcDbLine
 62
7
  6
CONTINUOUS
 10
39.2425313736
 20
334.8921466783
 11
54.9425313736
 21
334.8921466783
  0
LINE
  5
278
100
AcDbEntity
  8
0
100
AcDbLine
 62
7
  6
CONTINUOUS
 10
39.2425313736
 20
335.8921466783
 11
54.9425313736
 21
335.8921466783
  0
LINE
  5
279
100
AcDbEntity
  8
0
100
AcDbLine
 62
7
  6
CONTINUOUS
 10
65.252827985
 20
336.8921466783
 11
236.852827985
 21
336.8921466783
  0
LINE
  5
27A
100
AcDbEntity
  8
0
100
AcDbLine
 62
7
  6
CONTINUOUS
 10
65.252827985
 20
337.8921466783
 11
236.852827985
 21
337.8921466783
  0
LINE
  5
27B
100
AcDbEntity
  8
0
100
AcDbLine
 62
7
  6
CONTINUOUS
 10
39.2425313737
 20
334.8921466783
 11
36.6212448318
 21
334.1677113718
  0
ARC
  5
27C
100
AcDbEntity
  8
0
100
AcDbCircle
 62
7
  6
CONTINUOUS
 10
99.6739754091
 20
105.6470049997
 40
61.8990301984
100
AcDbArc
 50
229.7943759828
 51
230.2012471765
  0
ARC
  5
27D
100
AcDbEntity
  8
0
100
AcDbCircle
 62
7
  6
CONTINUOUS
 10
77.8948101776
 20
79.8280361551
 40
28.1210978156
100
AcDbArc
 50
229.6060006592
 51
229.7260646584
  0
ARC
  5
27E
100
AcDbEntity
  8
0
100
AcDbCircle
 62
7
  6
CONTINUOUS
 10
49.8451059262
 20
167.8442202708
 40
19.8685891453
100
AcDbArc
 50
188.1978958052
 51
189.1582104062
  0
ARC
  5
27F
100
AcDbEntity
  8
0
100
AcDbCircle
 62
7
  6
CONTINUOUS
 10
46.2723195364
 20
167.324661488
 40
16.2582268647
100
AcDbArc
 50
186.8214690732
 51
188.1809913133
  0
ARC
  5
280
100
AcDbEntity
  8
0
100
AcDbCircle
 62
7
  6
CONTINUOUS
 10
73.571577985
 20
106.8921466783
 40
12.7408438324
100
AcDbArc
 50
156.8936731546
 51
176.6252870295
  0
ARC
  5
281
100
AcDbEntity
  8
0
100
AcDbCircle
 62
7
  6
CONTINUOUS
 10
73.571577985
 20
106.8921466783
 40
12.7408438324
100
AcDbArc
 50
183.3747129705
 51
203.1063268454
  0
ARC
  5
282
100
AcDbEntity
  8
0
100
AcDbCircle
 62
7
  6
CONTINUOUS
 10
40.0752379563
 20
165.5944864435
 40
10.0611413896
100
AcDbArc
 50
194.7318090971
 51
196.3830246199
  0
ARC
  5
283
100
AcDbEntity
  8
0
100
AcDbCircle
 62
7
  6
CONTINUOUS
 10
39.8604930983
 20
165.5391369893
 40
9.8393808734
100
AcDbArc
 50
193.3722297151
 51
194.7380898281
  0
ARC
  5
284
100
AcDbEntity
  8
0
100
AcDbCircle
 62
7
  6
CONTINUOUS
 10
39.6967845374
 20
165.4790182487
 40
9.6654862978
100
AcDbArc
 50
196.3591092843
 51
196.7920756648
  0
ARC
  5
285
100
AcDbEntity
  8
0
100
AcDbCircle
 62
7
  6
CONTINUOUS
 10
39.6476662093
 20
165.4891848059
 40
9.620771388
100
AcDbArc
 50
191.4114481165
 51
193.3759456023
  0
ARC
  5
286
100
AcDbEntity
  8
0
100
AcDbCircle
 62
7
  6
CONTINUOUS
 10
39.2230780567
 20
165.4058295301
 40
9.1880848169
100
AcDbArc
 50
188.6870313814
 51
191.4257821869
  0
ARC
  5
287
100
AcDbEntity
  8
0
100
AcDbCircle
 62
7
  6
CONTINUOUS
 10
38.5331341747
 20
165.3103345841
 40
8.4916382895
100
AcDbArc
 50
182.9890475228
 51
188.753206852
  0
ARC
  5
288
100
AcDbEntity
  8
0
100
AcDbCircle
 62
7
  6
CONTINUOUS
 10
37.4833647069
 20
165.0921466783
 40
7.4408333333
100
AcDbArc
 50
199.1332403462
 51
246.0384220125
  0
ARC
  5
289
100
AcDbEntity
  8
0
100
AcDbCircle
 62
7
  6
CONTINUOUS
 10
24.5209087885
 20
165.6193960199
 40
5.8908225307
100
AcDbArc
 50
4.9760848674
 51
5.6333572519
  0
ARC
  5
28A
100
AcDbEntity
  8
0
100
AcDbCircle
 62
7
  6
CONTINUOUS
 10
26.424351112
 20
165.7874719346
 40
3.9799760948
100
AcDbArc
 50
4.5375288009
 51
4.9424271475
  0
ARC
  5
28B
100
AcDbEntity
  8
0
100
AcDbCircle
 62
7
  6
CONTINUOUS
 10
39.2425313736
 20
43.0921466783
 40
3.2
100
AcDbArc
 50
180.0
 51
270.0000000002
  0
ARC
  5
28C
100
AcDbEntity
  8
0
100
AcDbCircle
 62
7
  6
CONTINUOUS
 10
65.252827985
 20
41.0921466783
 40
3.2
100
AcDbArc
 50
180.0
 51
270.0
  0
ARC
  5
28D
100
AcDbEntity
  8
0
100
AcDbCircle
 62
7
  6
CONTINUOUS
 10
39.2425313736
 20
43.0921466783
 40
2.2
100
AcDbArc
 50
242.0584693174
 51
270.0000000002
  0
ARC
  5
28E
100
AcDbEntity
  8
0
100
AcDbCircle
 62
7
  6
CONTINUOUS
 10
65.252827985
 20
41.0921466783
 40
2.2
100
AcDbArc
 50
222.0003408019
 51
270.0
  0
ARC
  5
28F
100
AcDbEntity
  8
0
100
AcDbCircle
 62
7
  6
CONTINUOUS
 10
60.052827985
 20
55.4659526701
 40
2.0
100
AcDbArc
 50
0.0000000001
 51
101.0
  0
ARC
  5
290
100
AcDbEntity
  8
0
100
AcDbCircle
 62
7
  6
CONTINUOUS
 10
54.9425313736
 20
40.9921466783
 40
1.1
100
AcDbArc
 50
270.0
 51
30.167346121
  0
ARC
  5
291
100
AcDbEntity
  8
0
100
AcDbCircle
 62
7
  6
CONTINUOUS
 10
30.9116076003
 20
184.2038132467
 40
0.8588452238
100
AcDbArc
 50
171.4719029139
 51
179.9685069893
  0
ARC
  5
292
100
AcDbEntity
  8
0
100
AcDbCircle
 62
7
  6
CONTINUOUS
 10
30.2527646715
 20
164.8780916597
 40
0.2
100
AcDbArc
 50
180.0
 51
182.9466546195
  0
ARC
  5
293
100
AcDbEntity
  8
0
100
AcDbCircle
 62
7
  6
CONTINUOUS
 10
30.2527646714
 20
166.3066827223
 40
0.2
100
AcDbArc
 50
180.0
 51
182.6051944205
  0
ARC
  5
294
100
AcDbEntity
  8
0
100
AcDbCircle
 62
7
  6
CONTINUOUS
 10
99.6818847488
 20
270.1278428293
 40
61.9113498936
100
AcDbArc
 50
129.7987812446
 51
130.2054952801
  0
ARC
  5
295
100
AcDbEntity
  8
0
100
AcDbCircle
 62
7
  6
CONTINUOUS
 10
-30.9745803478
 20
206.5744162426
 40
61.7089388721
100
AcDbArc
 50
353.9607293707
 51
354.1215030163
  0
ARC
  5
296
100
AcDbEntity
  8
0
100
AcDbCircle
 62
7
  6
CONTINUOUS
 10
77.8965601142
 20
295.9541976998
 40
28.1238003739
100
AcDbArc
 50
130.2737753214
 51
130.3939955166
  0
ARC
  5
297
100
AcDbEntity
  8
0
100
AcDbCircle
 62
7
  6
CONTINUOUS
 10
53.2736224291
 20
197.767182556
 40
23.3452617296
100
AcDbArc
 50
169.7594686218
 51
170.1520289317
  0
ARC
  5
298
100
AcDbEntity
  8
0
100
AcDbCircle
 62
7
  6
CONTINUOUS
 10
49.9357734343
 20
198.3624862986
 40
19.9549693627
100
AcDbArc
 50
171.4608697563
 51
172.3887704335
  0
ARC
  5
299
100
AcDbEntity
  8
0
100
AcDbCircle
 62
7
  6
CONTINUOUS
 10
49.5421253727
 20
198.4145821312
 40
19.5580179998
100
AcDbArc
 50
170.2606687273
 51
170.7682722705
  0
ARC
  5
29A
100
AcDbEntity
  8
0
100
AcDbCircle
 62
7
  6
CONTINUOUS
 10
48.1764006641
 20
198.6337278502
 40
18.1748258831
100
AcDbArc
 50
170.7594675518
 51
171.4829200737
  0
ARC
  5
29B
100
AcDbEntity
  8
0
100
AcDbCircle
 62
7
  6
CONTINUOUS
 10
47.3755627707
 20
198.7068977971
 40
17.3716977984
100
AcDbArc
 50
172.3962755658
 51
172.7136300401
  0
ARC
  5
29C
100
AcDbEntity
  8
0
100
AcDbCircle
 62
7
  6
CONTINUOUS
 10
45.3184063239
 20
198.96654463
 40
15.2982233391
100
AcDbArc
 50
172.7010599414
 51
173.4863380205
  0
ARC
  5
29D
100
AcDbEntity
  8
0
100
AcDbCircle
 62
7
  6
CONTINUOUS
 10
73.571577985
 20
268.8921466783
 40
12.7408438324
100
AcDbArc
 50
156.8936731546
 51
176.6252870295
  0
ARC
  5
29E
100
AcDbEntity
  8
0
100
AcDbCircle
 62
7
  6
CONTINUOUS
 10
73.571577985
 20
268.8921466783
 40
12.7408438324
100
AcDbArc
 50
183.3747129705
 51
203.1063268454
  0
ARC
  5
29F
100
AcDbEntity
  8
0
100
AcDbCircle
 62
7
  6
CONTINUOUS
 10
40.0152042518
 20
200.6082705937
 40
9.9983636596
100
AcDbArc
 50
163.630328917
 51
165.2674256671
  0
ARC
  5
2A0
100
AcDbEntity
  8
0
100
AcDbCircle
 62
7
  6
CONTINUOUS
 10
39.9629884824
 20
200.6189550211
 40
9.9451478738
100
AcDbArc
 50
165.2504548474
 51
166.6061119164
  0
ARC
  5
2A1
100
AcDbEntity
  8
0
100
AcDbCircle
 62
7
  6
CONTINUOUS
 10
39.5961344298
 20
200.7057619634
 40
9.5681637295
100
AcDbArc
 50
166.6029157674
 51
168.6154518858
  0
ARC
  5
2A2
100
AcDbEntity
  8
0
100
AcDbCircle
 62
7
  6
CONTINUOUS
 10
39.3754959559
 20
200.7967319695
 40
9.3314720999
100
AcDbArc
 50
163.1687063232
 51
163.6175468353
  0
ARC
  5
2A3
100
AcDbEntity
  8
0
100
AcDbCircle
 62
7
  6
CONTINUOUS
 10
39.2187163156
 20
200.7794852807
 40
9.1836193319
100
AcDbArc
 50
168.601558384
 51
171.3667487023
  0
ARC
  5
2A4
100
AcDbEntity
  8
0
100
AcDbCircle
 62
7
  6
CONTINUOUS
 10
38.5273093468
 20
200.8744665101
 40
8.4857945994
100
AcDbArc
 50
171.3000293867
 51
177.0123735938
  0
ARC
  5
2A5
100
AcDbEntity
  8
0
100
AcDbCircle
 62
7
  6
CONTINUOUS
 10
37.4833647069
 20
201.0921466783
 40
7.4408333333
100
AcDbArc
 50
113.9615779875
 51
160.8665539307
  0
ARC
  5
2A6
100
AcDbEntity
  8
0
100
AcDbCircle
 62
7
  6
CONTINUOUS
 10
36.9299330233
 20
200.9459534883
 40
6.8868737078
100
AcDbArc
 50
174.3537148579
 51
176.913654403
  0
ARC
  5
2A7
100
AcDbEntity
  8
0
100
AcDbCircle
 62
7
  6
CONTINUOUS
 10
36.5007681399
 20
200.989648479
 40
6.4554921378
100
AcDbArc
 50
172.2967592372
 51
174.3648874943
  0
ARC
  5
2A8
100
AcDbEntity
  8
0
100
AcDbCircle
 62
7
  6
CONTINUOUS
 10
27.034651135
 20
200.9073880855
 40
3.4190443003
100
AcDbArc
 50
358.0507735088
 51
359.2728994064
  0
ARC
  5
2A9
100
AcDbEntity
  8
0
100
AcDbCircle
 62
7
  6
CONTINUOUS
 10
39.2425313736
 20
332.6921466783
 40
3.2
100
AcDbArc
 50
89.9999999998
 51
180.0
  0
ARC
  5
2AA
100
AcDbEntity
  8
0
100
AcDbCircle
 62
7
  6
CONTINUOUS
 10
65.252827985
 20
334.6921466783
 40
3.2
100
AcDbArc
 50
90.0
 51
172.9766848192
  0
ARC
  5
2AB
100
AcDbEntity
  8
0
100
AcDbCircle
 62
7
  6
CONTINUOUS
 10
39.2425313736
 20
332.6921466783
 40
2.2
100
AcDbArc
 50
89.9999999998
 51
117.9415306838
  0
ARC
  5
2AC
100
AcDbEntity
  8
0
100
AcDbCircle
 62
7
  6
CONTINUOUS
 10
65.252827985
 20
334.6921466783
 40
2.2
100
AcDbArc
 50
90.0
 51
137.9919890002
  0
ARC
  5
2AD
100
AcDbEntity
  8
0
100
AcDbCircle
 62
7
  6
CONTINUOUS
 10
60.052827985
 20
320.3183406865
 40
2.0
100
AcDbArc
 50
258.9999999986
 51
360.0
  0
ARC
  5
2AE
100
AcDbEntity
  8
0
100
AcDbCircle
 62
7
  6
CONTINUOUS
 10
54.9425313736
 20
334.7921466783
 40
1.1
100
AcDbArc
 50
329.9640126369
 51
90.0
  0
ARC
  5
2AF
100
AcDbEntity
  8
0
100
AcDbCircle
 62
7
  6
CONTINUOUS
 10
29.44878783
 20
200.1338589094
 40
0.9444980572
100
AcDbArc
 50
355.3611090993
 51
356.8535465326
  0
ARC
  5
2B0
100
AcDbEntity
  8
0
100
AcDbCircle
 62
7
  6
CONTINUOUS
 10
30.911594711
 20
191.5804789489
 40
0.8588322988
100
AcDbArc
 50
180.0314179212
 51
188.5270401846
  0
ARC
  5
2B1
100
AcDbEntity
  8
0
100
AcDbCircle
 62
7
  6
CONTINUOUS
 10
30.2527646714
 20
199.8776106343
 40
0.2
100
AcDbArc
 50
176.000855591
 51
180.0000000001
  0
ARC
  5
2B2
100
AcDbEntity
  8
0
100
AcDbCircle
 62
7
  6
CONTINUOUS
 10
30.2527646714
 20
201.3062016968
 40
0.2
100
AcDbArc
 50
177.0561905549
 51
180.0
  0
ARC
  5
2B3
100
AcDbEntity
  8
0
100
AcDbCircle
 62
7
  6
CONTINUOUS
 10
246.7877128885
 20
174.197461918
 40
216.6179414706
100
AcDbArc
 50
181.3423797916
 51
181.546577178
  0
ARC
  5
2B4
100
AcDbEntity
  8
0
100
AcDbCircle
 62
7
  6
CONTINUOUS
 10
218.627827985
 20
59.8921466783
 40
21.625
100
AcDbArc
 50
342.5076754749
 51
17.4923245251
  0
ARC
  5
2B5
100
AcDbEntity
  8
0
100
AcDbCircle
 62
7
  6
CONTINUOUS
 10
236.852827985
 20
40.0921466783
 40
2.2
100
AcDbArc
 50
270.0
 51
360.0
  0
ARC
  5
2B6
100
AcDbEntity
  8
0
100
AcDbCircle
 62
7
  6
CONTINUOUS
 10
236.852827985
 20
40.0921466783
 40
1.2
100
AcDbArc
 50
270.0
 51
307.8469501902
  0
ARC
  5
2B7
100
AcDbEntity
  8
0
100
AcDbCircle
 62
7
  6
CONTINUOUS
 10
305.7684360495
 20
190.4764875475
 40
275.6179502557
100
AcDbArc
 50
178.4704841476
 51
178.6283625997
  0
ARC
  5
2B8
100
AcDbEntity
  8
0
100
AcDbCircle
 62
7
  6
CONTINUOUS
 10
218.627827985
 20
315.8921466783
 40
21.625
100
AcDbArc
 50
342.5076754749
 51
17.4923245251
  0
ARC
  5
2B9
100
AcDbEntity
  8
0
100
AcDbCircle
 62
7
  6
CONTINUOUS
 10
236.852827985
 20
335.6921466783
 40
2.2
100
AcDbArc
 50
0.0
 51
90.0
  0
ARC
  5
2BA
100
AcDbEntity
  8
0
100
AcDbCircle
 62
7
  6
CONTINUOUS
 10
236.852827985
 20
335.6921466783
 40
1.2
100
AcDbArc
 50
52.1511339888
 51
90.0
  0
SPLINE
  5
2BB
100
AcDbEntity
  8
0
100
AcDbSpline
 62
7
  6
CONTINUOUS
 70
0
 71
3
 72
8
 73
4
 74
0
 42
0.0000001
 43
0.0000001
 44
0.0000000001
 40
0.0
 40
0.0
 40
0.0
 40
0.0
 40
1.0
 40
1.0
 40
1.0
 40
1.0
 10
30.3918655231
 20
166.1023394139
 30
0.0
 10
30.3876383528
 20
166.1113655432
 30
0.0
 10
30.3847954041
 20
166.1211961152
 30
0.0
 10
30.3836941324
 20
166.1311020315
 30
0.0
  0
SPLINE
  5
2BC
100
AcDbEntity
  8
0
100
AcDbSpline
 62
7
  6
CONTINUOUS
 70
0
 71
3
 72
9
 73
5
 74
0
 42
0.0000001
 43
0.0000001
 44
0.0000000001
 40
0.0
 40
0.0
 40
0.0
 40
0.0
 40
0.206820126
 40
1.0
 40
1.0
 40
1.0
 40
1.0
 10
30.0530487897
 20
166.2969556018
 30
0.0
 10
30.0530943968
 20
166.2974968795
 30
0.0
 10
30.053734143
 20
166.3000866028
 30
0.0
 10
30.0557229635
 20
166.3020922051
 30
0.0
 10
30.0573345268
 20
166.3034123072
 30
0.0
  0
SPLINE
  5
2BD
100
AcDbEntity
  8
0
100
AcDbSpline
 62
7
  6
CONTINUOUS
 70
0
 71
3
 72
8
 73
4
 74
0
 42
0.0000001
 43
0.0000001
 44
0.0000000001
 40
0.0
 40
0.0
 40
0.0
 40
0.0
 40
1.0
 40
1.0
 40
1.0
 40
1.0
 10
30.0573345268
 20
166.3034123072
 30
0.0
 10
30.0588512434
 20
166.3046547162
 30
0.0
 10
30.0605153917
 20
166.3057199758
 30
0.0
 10
30.0622234313
 20
166.3066825817
 30
0.0
  0
SPLINE
  5
2BE
100
AcDbEntity
  8
0
100
AcDbSpline
 62
7
  6
CONTINUOUS
 70
0
 71
3
 72
9
 73
5
 74
0
 42
0.0000001
 43
0.0000001
 44
0.0000000001
 40
0.0
 40
0.0
 40
0.0
 40
0.0
 40
0.2099293538
 40
1.0
 40
1.0
 40
1.0
 40
1.0
 10
30.0530488004
 20
164.867533362
 30
0.0
 10
30.053043074
 20
164.8681116507
 30
0.0
 10
30.0534692088
 20
164.8708834962
 30
0.0
 10
30.0554914544
 20
164.8731039948
 30
0.0
 10
30.0571365779
 20
164.874529029
 30
0.0
  0
SPLINE
  5
2BF
100
AcDbEntity
  8
0
100
AcDbSpline
 62
7
  6
CONTINUOUS
 70
0
 71
3
 72
8
 73
4
 74
0
 42
0.0000001
 43
0.0000001
 44
0.0000000001
 40
0.0
 40
0.0
 40
0.0
 40
0.0
 40
1.0
 40
1.0
 40
1.0
 40
1.0
 10
30.0571365779
 20
164.874529029
 30
0.0
 10
30.0587059057
 20
164.8758884077
 30
0.0
 10
30.0604515639
 20
164.8770469933
 30
0.0
 10
30.0622460424
 20
164.8780912857
 30
0.0
  0
SPLINE
  5
2C0
100
AcDbEntity
  8
0
100
AcDbSpline
 62
7
  6
CONTINUOUS
 70
0
 71
3
 72
23
 73
19
 74
0
 42
0.0000001
 43
0.0000001
 44
0.0000000001
 40
0.0
 40
0.0
 40
0.0
 40
0.0
 40
0.2291048881
 40
0.4399425471
 40
0.6136027056
 40
0.6804751394
 40
0.7317213806
 40
0.7670566182
 40
0.7794947388
 40
0.7892251891
 40
0.7973185802
 40
0.8053180939
 40
0.8146268166
 40
0.8260280154
 40
0.8560795316
 40
0.8957913892
 40
0.9441513705
 40
1.0
 40
1.0
 40
1.0
 40
1.0
 10
30.0627936265
 20
166.2985138817
 30
0.0
 10
30.0712754804
 20
166.1693161036
 30
0.0
 10
30.0897706313
 20
165.9212598606
 30
0.0
 10
30.1396087003
 20
165.5777632402
 30
0.0
 10
30.1981993684
 20
165.3289457699
 30
0.0
 10
30.2524637064
 20
165.1729641345
 30
0.0
 10
30.2887262619
 20
165.0941719765
 30
0.0
 10
30.3196623996
 20
165.0467357026
 30
0.0
 10
30.3440384886
 20
165.0249341836
 30
0.0
 10
30.3595197512
 20
165.0169919475
 30
0.0
 10
30.3746174214
 20
165.0159443698
 30
0.0
 10
30.3880970878
 20
165.0222113414
 30
0.0
 10
30.399318917
 20
165.0342660072
 30
0.0
 10
30.4134514052
 20
165.0594082403
 30
0.0
 10
30.4260694829
 20
165.1039630492
 30
0.0
 10
30.4359278053
 20
165.1699849706
 30
0.0
 10
30.4415206279
 20
165.2512185506
 30
0.0
 10
30.4425409059
 20
165.3101118526
 30
0.0
 10
30.4425357371
 20
165.3416740393
 30
0.0
  0
SPLINE
  5
2C1
100
AcDbEntity
  8
0
100
AcDbSpline
 62
7
  6
CONTINUOUS
 70
0
 71
3
 72
9
 73
5
 74
0
 42
0.0000001
 43
0.0000001
 44
0.0000000001
 40
0.0
 40
0.0
 40
0.0
 40
0.0
 40
0.5825075334
 40
1.0
 40
1.0
 40
1.0
 40
1.0
 10
30.3745290795
 20
202.3344444814
 30
0.0
 10
30.392352921
 20
202.434997416
 30
0.0
 10
30.422227725
 20
202.6076609388
 30
0.0
 10
30.4468653353
 20
202.7815121111
 30
0.0
 10
30.4517611555
 20
202.8545395298
 30
0.0
  0
SPLINE
  5
2C2
100
AcDbEntity
  8
0
100
AcDbSpline
 62
7
  6
CONTINUOUS
 70
0
 71
3
 72
20
 73
16
 74
0
 42
0.0000001
 43
0.0000001
 44
0.0000000001
 40
0.0
 40
0.0
 40
0.0
 40
0.0
 40
0.1648061883
 40
0.2300312483
 40
0.2835338181
 40
0.32540906
 40
0.3564336689
 40
0.3793215946
 40
0.401020474
 40
0.4297663024
 40
0.4698502504
 40
0.5229290173
 40
0.5897174632
 40
0.7658249592
 40
1.0
 40
1.0
 40
1.0
 40
1.0
 10
30.4517611555
 20
202.8545395298
 30
0.0
 10
30.4530266634
 20
202.8734161978
 30
0.0
 10
30.4542412447
 20
202.8998333994
 30
0.0
 10
30.4531446068
 20
202.9323817199
 30
0.0
 10
30.451182616
 20
202.9507362445
 30
0.0
 10
30.4479284384
 20
202.9649376643
 30
0.0
 10
30.4435125968
 20
202.9750886882
 30
0.0
 10
30.4367263401
 20
202.9813961189
 30
0.0
 10
30.4276547212
 20
202.9812651082
 30
0.0
 10
30.4186351754
 20
202.9756496318
 30
0.0
 10
30.4086687394
 20
202.9657849346
 30
0.0
 10
30.3975434313
 20
202.9511110481
 30
0.0
 10
30.3794400519
 20
202.9223369846
 30
0.0
 10
30.3548415034
 20
202.8732877506
 30
0.0
 10
30.3366378699
 20
202.8298330222
 30
0.0
 10
30.3268308213
 20
202.8048034574
 30
0.0
  0
SPLINE
  5
2C3
100
AcDbEntity
  8
0
100
AcDbSpline
 62
7
  6
CONTINUOUS
 70
0
 71
3
 72
10
 73
6
 74
0
 42
0.0000001
 43
0.0000001
 44
0.0000000001
 40
0.0
 40
0.0
 40
0.0
 40
0.0
 40
0.1827491834
 40
0.4160499782
 40
1.0
 40
1.0
 40
1.0
 40
1.0
 10
30.3268308213
 20
202.8048034574
 30
0.0
 10
30.3051093373
 20
202.7493658518
 30
0.0
 10
30.2617974901
 20
202.6207582518
 30
0.0
 10
30.1765685304
 20
202.3061871607
 30
0.0
 10
30.129097176
 20
202.0434874098
 30
0.0
 10
30.1035328187
 20
201.8549570872
 30
0.0
  0
SPLINE
  5
2C4
100
AcDbEntity
  8
0
100
AcDbSpline
 62
7
  6
CONTINUOUS
 70
0
 71
3
 72
9
 73
5
 74
0
 42
0.0000001
 43
0.0000001
 44
0.0000000001
 40
0.0
 40
0.0
 40
0.0
 40
0.0
 40
0.5320252864
 40
1.0
 40
1.0
 40
1.0
 40
1.0
 10
30.3002485965
 20
201.9175247067
 30
0.0
 10
30.3132865213
 20
201.9914863507
 30
0.0
 10
30.3395486603
 20
202.130192042
 30
0.0
 10
30.363059252
 20
202.2693873579
 30
0.0
 10
30.3745290795
 20
202.3344444814
 30
0.0
  0
LINE
  5
2C5
100
AcDbEntity
  8
0
100
AcDbLine
 62
7
  6
CONTINUOUS
 10
30.2659858288
 20
201.7231335307
 11
30.2723520878
 21
201.7600271447
  0
SPLINE
  5
2C6
100
AcDbEntity
  8
0
100
AcDbSpline
 62
7
  6
CONTINUOUS
 70
0
 71
3
 72
9
 73
5
 74
0
 42
0.0000001
 43
0.0000001
 44
0.0000000001
 40
0.0
 40
0.0
 40
0.0
 40
0.0
 40
0.2536079825
 40
1.0
 40
1.0
 40
1.0
 40
1.0
 10
30.0535717154
 20
199.8970795271
 30
0.0
 10
30.0567057747
 20
199.9652820512
 30
0.0
 10
30.0716091665
 20
200.23409244
 30
0.0
 10
30.0961767656
 20
200.5023317818
 30
0.0
 10
30.1189355479
 20
200.7019769873
 30
0.0
  0
LINE
  5
2C7
100
AcDbEntity
  8
0
100
AcDbLine
 62
7
  6
CONTINUOUS
 10
30.0622527516
 20
201.3060961884
 11
30.0628232974
 21
201.315647002
  0
SPLINE
  5
2C8
100
AcDbEntity
  8
0
100
AcDbSpline
 62
7
  6
CONTINUOUS
 70
0
 71
3
 72
26
 73
22
 74
0
 42
0.0000001
 43
0.0000001
 44
0.0000000001
 40
0.0
 40
0.0
 40
0.0
 40
0.0
 40
0.2271539294
 40
0.4386426758
 40
0.5350547903
 40
0.6235955173
 40
0.7032973478
 40
0.7731714089
 40
0.8319961613
 40
0.8786303699
 40
0.9132488572
 40
0.9263547763
 40
0.9368098536
 40
0.9446960252
 40
0.9502667749
 40
0.9543996549
 40
0.9590437028
 40
0.9656872247
 40
0.9747298081
 40
0.9861966887
 40
1.0
 40
1.0
 40
1.0
 40
1.0
 10
30.0628232974
 20
201.315647002
 30
0.0
 10
30.0707777078
 20
201.4477079056
 30
0.0
 10
30.0910478733
 20
201.7025007744
 30
0.0
 10
30.1344748312
 20
202.0113326694
 30
0.0
 10
30.1781554676
 20
202.2380979933
 30
0.0
 10
30.2122248635
 20
202.3884559802
 30
0.0
 10
30.2473210504
 20
202.5226548103
 30
0.0
 10
30.2820757164
 20
202.638974454
 30
0.0
 10
30.3152298493
 20
202.7356097676
 30
0.0
 10
30.3460339
 20
202.8111948211
 30
0.0
 10
30.3706399443
 20
202.8604672763
 30
0.0
 10
30.3885944783
 20
202.8892124677
 30
0.0
 10
30.3994844789
 20
202.9040128441
 30
0.0
 10
30.4091558892
 20
202.9140190746
 30
0.0
 10
30.4178549277
 20
202.9199394139
 30
0.0
 10
30.4269992117
 20
202.919851125
 30
0.0
 10
30.4333434785
 20
202.9125430337
 30
0.0
 10
30.4373883664
 20
202.9014460654
 30
0.0
 10
30.4404151463
 20
202.8858381168
 30
0.0
 10
30.4421640442
 20
202.8659254467
 30
0.0
 10
30.4425148878
 20
202.8511995272
 30
0.0
 10
30.442530404
 20
202.8431601414
 30
0.0
  0
SPLINE
  5
2C9
100
AcDbEntity
  8
0
100
AcDbSpline
 62
7
  6
CONTINUOUS
 70
0
 71
3
 72
12
 73
8
 74
0
 42
0.0000001
 43
0.0000001
 44
0.0000000001
 40
0.0
 40
0.0
 40
0.0
 40
0.0
 40
0.249154191
 40
0.4989548046
 40
0.6242116054
 40
0.7495604455
 40
1.0
 40
1.0
 40
1.0
 40
1.0
 10
30.3918750107
 20
200.0820134929
 30
0.0
 10
30.5445693946
 20
200.6083829934
 30
0.0
 10
30.9509249403
 20
201.6362857128
 30
0.0
 10
31.7017669571
 20
202.7977077231
 30
0.0
 10
32.4376831865
 20
203.6189963181
 30
0.0
 10
33.2582489198
 20
204.3569920994
 30
0.0
 10
33.9646054923
 20
204.8045373541
 30
0.0
 10
34.4614641816
 20
205.0424851066
 30
0.0
  0
SPLINE
  5
2CA
100
AcDbEntity
  8
0
100
AcDbSpline
 62
7
  6
CONTINUOUS
 70
0
 71
3
 72
11
 73
7
 74
0
 42
0.0000001
 43
0.0000001
 44
0.0000000001
 40
0.0
 40
0.0
 40
0.0
 40
0.0
 40
0.3073959383
 40
0.5880323797
 40
0.8243622162
 40
1.0
 40
1.0
 40
1.0
 40
1.0
 10
30.0530485817
 20
164.867537592
 30
0.0
 10
30.0614214373
 20
164.7122546021
 30
0.0
 10
30.0872322368
 20
164.4156277395
 30
0.0
 10
30.1521306628
 20
164.0032952448
 30
0.0
 10
30.2315802414
 20
163.6617943058
 30
0.0
 10
30.2943210494
 20
163.4626282383
 30
0.0
 10
30.3266995121
 20
163.3798842699
 30
0.0
  0
SPLINE
  5
2CB
100
AcDbEntity
  8
0
100
AcDbSpline
 62
7
  6
CONTINUOUS
 70
0
 71
3
 72
19
 73
15
 74
0
 42
0.0000001
 43
0.0000001
 44
0.0000000001
 40
0.0
 40
0.0
 40
0.0
 40
0.0
 40
0.2349317005
 40
0.41187656
 40
0.5315282201
 40
0.5713181358
 40
0.5998142227
 40
0.6214126732
 40
0.6443161324
 40
0.6753293229
 40
0.7171280836
 40
0.7704923758
 40
0.8355448172
 40
1.0
 40
1.0
 40
1.0
 40
1.0
 10
30.3266995121
 20
163.3798842699
 30
0.0
 10
30.336531024
 20
163.3547595962
 30
0.0
 10
30.3547456374
 20
163.3110265676
 30
0.0
 10
30.3822181488
 20
163.2565854885
 30
0.0
 10
30.4032082424
 20
163.2237405681
 30
0.0
 10
30.4185826156
 20
163.2085242788
 30
0.0
 10
30.4275947164
 20
163.2030065915
 30
0.0
 10
30.4366241591
 20
163.2029954672
 30
0.0
 10
30.4433605836
 20
163.2093249942
 30
0.0
 10
30.447772988
 20
163.2194710115
 30
0.0
 10
30.4510274817
 20
163.2336517854
 30
0.0
 10
30.4529986464
 20
163.2519675819
 30
0.0
 10
30.4541068987
 20
163.2844525553
 30
0.0
 10
30.4529014563
 20
163.3108204257
 30
0.0
 10
30.4516407331
 20
163.3296644806
 30
0.0
  0
SPLINE
  5
2CC
100
AcDbEntity
  8
0
100
AcDbSpline
 62
7
  6
CONTINUOUS
 70
0
 71
3
 72
9
 73
5
 74
0
 42
0.0000001
 43
0.0000001
 44
0.0000000001
 40
0.0
 40
0.0
 40
0.0
 40
0.0
 40
0.2308590448
 40
1.0
 40
1.0
 40
1.0
 40
1.0
 10
30.4516407331
 20
163.3296644806
 30
0.0
 10
30.4512730217
 20
163.3351606692
 30
0.0
 10
30.449506151
 20
163.358956584
 30
0.0
 10
30.4471341153
 20
163.382704675
 30
0.0
 10
30.4451005
 20
163.4009439526
 30
0.0
  0
SPLINE
  5
2CD
100
AcDbEntity
  8
0
100
AcDbSpline
 62
7
  6
CONTINUOUS
 70
0
 71
3
 72
12
 73
8
 74
0
 42
0.0000001
 43
0.0000001
 44
0.0000000001
 40
0.0
 40
0.0
 40
0.0
 40
0.0
 40
0.250439427
 40
0.3757882708
 40
0.5010449827
 40
0.7508452864
 40
1.0
 40
1.0
 40
1.0
 40
1.0
 10
34.4614641816
 20
161.1418122565
 30
0.0
 10
33.9646014898
 20
161.3797620076
 30
0.0
 10
33.2582370063
 20
161.827308008
 30
0.0
 10
32.4376669914
 20
162.5653129238
 30
0.0
 10
31.7017474674
 20
163.386609809
 30
0.0
 10
30.9508997823
 20
164.5480442488
 30
0.0
 10
30.5445595741
 20
165.5759636884
 30
0.0
 10
30.3918658348
 20
166.102339497
 30
0.0
  0
LINE
  5
2CE
100
AcDbEntity
  8
0
100
AcDbLine
 62
7
  6
CONTINUOUS
 10
30.4221413142
 20
203.4261455637
 11
30.422877922
 21
203.4286517804
  0
SPLINE
  5
2CF
100
AcDbEntity
  8
0
100
AcDbSpline
 62
7
  6
CONTINUOUS
 70
0
 71
3
 72
9
 73
5
 74
0
 42
0.0000001
 43
0.0000001
 44
0.0000000001
 40
0.0
 40
0.0
 40
0.0
 40
0.0
 40
0.3054816516
 40
1.0
 40
1.0
 40
1.0
 40
1.0
 10
30.0622537077
 20
201.306188876
 30
0.0
 10
30.0612950519
 20
201.3067468035
 30
0.0
 10
30.0582454675
 20
201.3086762514
 30
0.0
 10
30.0553323515
 20
201.3111090603
 30
0.0
 10
30.0540590695
 20
201.3132857682
 30
0.0
  0
SPLINE
  5
2D0
100
AcDbEntity
  8
0
100
AcDbSpline
 62
7
  6
CONTINUOUS
 70
0
 71
3
 72
8
 73
4
 74
0
 42
0.0000001
 43
0.0000001
 44
0.0000000001
 40
0.0
 40
0.0
 40
0.0
 40
0.0
 40
1.0
 40
1.0
 40
1.0
 40
1.0
 10
30.0540590695
 20
201.3132857682
 30
0.0
 10
30.0534527481
 20
201.31432229
 30
0.0
 10
30.0530378556
 20
201.3155427643
 30
0.0
 10
30.0530482546
 20
201.3167435536
 30
0.0
  0
SPLINE
  5
2D1
100
AcDbEntity
  8
0
100
AcDbSpline
 62
7
  6
CONTINUOUS
 70
0
 71
3
 72
8
 73
4
 74
0
 42
0.0000001
 43
0.0000001
 44
0.0000000001
 40
0.0
 40
0.0
 40
0.0
 40
0.0
 40
1.0
 40
1.0
 40
1.0
 40
1.0
 10
30.3836963011
 20
200.0532163029
 30
0.0
 10
30.3847994458
 20
200.0631338348
 30
0.0
 10
30.3876447632
 20
200.0729757998
 30
0.0
 10
30.3918748665
 20
200.0820135314
 30
0.0
  0
SPLINE
  5
2D2
100
AcDbEntity
  8
0
100
AcDbSpline
 62
7
  6
CONTINUOUS
 70
0
 71
3
 72
9
 73
5
 74
0
 42
0.0000001
 43
0.0000001
 44
0.0000000001
 40
0.0
 40
0.0
 40
0.0
 40
0.0
 40
0.2492553489
 40
1.0
 40
1.0
 40
1.0
 40
1.0
 10
34.4614710232
 20
161.141839123
 30
0.0
 10
34.5202186258
 20
161.1187260347
 30
0.0
 10
34.7600447586
 20
161.0368363512
 30
0.0
 10
35.013860318
 20
160.9962018144
 30
0.0
 10
35.2039160987
 20
160.9903204368
 30
0.0
  0
SPLINE
  5
2D3
100
AcDbEntity
  8
0
100
AcDbSpline
 62
7
  6
CONTINUOUS
 70
0
 71
3
 72
9
 73
5
 74
0
 42
0.0000001
 43
0.0000001
 44
0.0000000001
 40
0.0
 40
0.0
 40
0.0
 40
0.0
 40
0.2576679626
 40
1.0
 40
1.0
 40
1.0
 40
1.0
 10
30.3568545233
 20
166.4617768664
 30
0.0
 10
30.358983293
 20
166.4390776872
 30
0.0
 10
30.367374793
 20
166.3509946328
 30
0.0
 10
30.3768474613
 20
166.2630193075
 30
0.0
 10
30.3832811155
 20
166.1976526995
 30
0.0
  0
SPLINE
  5
2D4
100
AcDbEntity
  8
0
100
AcDbSpline
 62
7
  6
CONTINUOUS
 70
0
 71
3
 72
11
 73
7
 74
0
 42
0.0000001
 43
0.0000001
 44
0.0000000001
 40
0.0
 40
0.0
 40
0.0
 40
0.0
 40
0.2606393035
 40
0.5175433468
 40
0.7648898009
 40
1.0
 40
1.0
 40
1.0
 40
1.0
 10
30.2488404917
 20
168.3443981604
 30
0.0
 10
30.2512397857
 20
168.1805568023
 30
0.0
 10
30.2622908328
 20
167.8553083752
 30
0.0
 10
30.2898991455
 20
167.375220457
 30
0.0
 10
30.3181399662
 20
166.9112737255
 30
0.0
 10
30.3415823639
 20
166.6087950306
 30
0.0
 10
30.3568545233
 20
166.4617768664
 30
0.0
  0
SPLINE
  5
2D5
100
AcDbEntity
  8
0
100
AcDbSpline
 62
7
  6
CONTINUOUS
 70
0
 71
3
 72
9
 73
5
 74
0
 42
0.0000001
 43
0.0000001
 44
0.0000000001
 40
0.0
 40
0.0
 40
0.0
 40
0.0
 40
0.2489601895
 40
1.0
 40
1.0
 40
1.0
 40
1.0
 10
30.2692656435
 20
198.4336246385
 30
0.0
 10
30.2667497893
 20
198.3843868519
 30
0.0
 10
30.2573500462
 20
198.1865791524
 30
0.0
 10
30.251109682
 20
197.9886095861
 30
0.0
 10
30.2488405016
 20
197.8398971763
 30
0.0
  0
SPLINE
  5
2D6
100
AcDbEntity
  8
0
100
AcDbSpline
 62
7
  6
CONTINUOUS
 70
0
 71
3
 72
14
 73
10
 74
0
 42
0.0000001
 43
0.0000001
 44
0.0000000001
 40
0.0
 40
0.0
 40
0.0
 40
0.0
 40
0.052623902
 40
0.1086543905
 40
0.2252744596
 40
0.3474065586
 40
0.4726049886
 40
0.731391575
 40
1.0
 40
1.0
 40
1.0
 40
1.0
 10
30.3901919117
 20
200.0574721628
 30
0.0
 10
30.3879174388
 20
200.0289955773
 30
0.0
 10
30.381498716
 20
199.9703509197
 30
0.0
 10
30.3689899259
 20
199.8487053946
 30
0.0
 10
30.3535407521
 20
199.6894246309
 30
0.0
 10
30.3356110792
 20
199.4926630428
 30
0.0
 10
30.3149735302
 20
199.2186789892
 30
0.0
 10
30.293549214
 20
198.8650605412
 30
0.0
 10
30.2761098706
 20
198.5792799935
 30
0.0
 10
30.2692656435
 20
198.4336246385
 30
0.0
  0
SPLINE
  5
2D7
100
AcDbEntity
  8
0
100
AcDbSpline
 62
7
  6
CONTINUOUS
 70
0
 71
3
 72
14
 73
10
 74
0
 42
0.0000001
 43
0.0000001
 44
0.0000000001
 40
0.0
 40
0.0
 40
0.0
 40
0.0
 40
0.1609617509
 40
0.3160863453
 40
0.5981972214
 40
0.7206929052
 40
0.8281412644
 40
0.9205448514
 40
1.0
 40
1.0
 40
1.0
 40
1.0
 10
36.042531394
 20
203.9919519614
 30
0.0
 10
35.9420705946
 20
204.0237761038
 30
0.0
 10
35.7452401353
 20
204.0879564025
 30
0.0
 10
35.3801948933
 20
204.2300695135
 30
0.0
 10
35.0524966266
 20
204.3984957947
 30
0.0
 10
34.7786382372
 20
204.5928293144
 30
0.0
 10
34.62374786
 20
204.7376242594
 30
0.0
 10
34.5135877954
 20
204.8845277294
 30
0.0
 10
34.4694645412
 20
204.9910763375
 30
0.0
 10
34.4614539975
 20
205.0424747985
 30
0.0
  0
SPLINE
  5
2D8
100
AcDbEntity
  8
0
100
AcDbSpline
 62
7
  6
CONTINUOUS
 70
0
 71
3
 72
14
 73
10
 74
0
 42
0.0000001
 43
0.0000001
 44
0.0000000001
 40
0.0
 40
0.0
 40
0.0
 40
0.0
 40
0.0668718635
 40
0.1557357386
 40
0.2661363909
 40
0.3950449745
 40
0.5383872214
 40
0.6907088782
 40
1.0
 40
1.0
 40
1.0
 40
1.0
 10
30.2488404742
 20
197.8398971618
 30
0.0
 10
30.3218676384
 20
197.878530361
 30
0.0
 10
30.5015094382
 20
197.9498840385
 30
0.0
 10
30.8182222428
 20
198.0389276132
 30
0.0
 10
31.2158289481
 20
198.1198749981
 30
0.0
 10
31.6834110296
 20
198.1904422233
 30
0.0
 10
32.2050346684
 20
198.2469303711
 30
0.0
 10
32.9504294993
 20
198.3026736936
 30
0.0
 10
33.5208283172
 20
198.3202100901
 30
0.0
 10
33.9029332925
 20
198.3225692729
 30
0.0
  0
SPLINE
  5
2D9
100
AcDbEntity
  8
0
100
AcDbSpline
 62
7
  6
CONTINUOUS
 70
0
 71
3
 72
9
 73
5
 74
0
 42
0.0000001
 43
0.0000001
 44
0.0000000001
 40
0.0
 40
0.0
 40
0.0
 40
0.0
 40
0.6583494492
 40
1.0
 40
1.0
 40
1.0
 40
1.0
 10
30.2488648657
 20
197.8398925215
 30
0.0
 10
30.2462643267
 20
197.8391300194
 30
0.0
 10
30.2425264971
 20
197.8380493998
 30
0.0
 10
30.2387818384
 20
197.8349104653
 30
0.0
 10
30.2387231857
 20
197.8335053232
 30
0.0
  0
SPLINE
  5
2DA
100
AcDbEntity
  8
0
100
AcDbSpline
 62
7
  6
CONTINUOUS
 70
0
 71
3
 72
10
 73
6
 74
0
 42
0.0000001
 43
0.0000001
 44
0.0000000001
 40
0.0
 40
0.0
 40
0.0
 40
0.0
 40
0.4995594253
 40
0.7497519731
 40
1.0
 40
1.0
 40
1.0
 40
1.0
 10
30.2294608846
 20
197.0740377144
 30
0.0
 10
30.1747592253
 20
194.8052092443
 30
0.0
 10
30.1155918004
 20
191.3994734941
 30
0.0
 10
30.0834117071
 20
186.8565941478
 30
0.0
 10
30.0779046264
 20
184.5831011613
 30
0.0
 10
30.0774307094
 20
183.4462298157
 30
0.0
  0
LINE
  5
2DB
100
AcDbEntity
  8
0
100
AcDbLine
 62
7
  6
CONTINUOUS
 10
30.0774307094
 20
183.4462298157
 11
30.0774377625
 21
182.7227749848
  0
SPLINE
  5
2DC
100
AcDbEntity
  8
0
100
AcDbSpline
 62
7
  6
CONTINUOUS
 70
0
 71
3
 72
11
 73
7
 74
0
 42
0.0000001
 43
0.0000001
 44
0.0000000001
 40
0.0
 40
0.0
 40
0.0
 40
0.0
 40
0.2502455392
 40
0.5004358458
 40
0.7504514276
 40
1.0
 40
1.0
 40
1.0
 40
1.0
 10
30.0774377625
 20
182.7227749848
 30
0.0
 10
30.0779298577
 20
181.5882331971
 30
0.0
 10
30.0834487219
 20
179.3193994442
 30
0.0
 10
30.1076344583
 20
175.9171339096
 30
0.0
 10
30.154851724
 20
172.5182605815
 30
0.0
 10
30.2021346426
 20
170.2538536582
 30
0.0
 10
30.2292211784
 20
169.1227959001
 30
0.0
  0
SPLINE
  5
2DD
100
AcDbEntity
  8
0
100
AcDbSpline
 62
7
  6
CONTINUOUS
 70
0
 71
3
 72
12
 73
8
 74
0
 42
0.0000001
 43
0.0000001
 44
0.0000000001
 40
0.0
 40
0.0
 40
0.0
 40
0.0
 40
0.2657014157
 40
0.5220098005
 40
0.6462711242
 40
0.7674604744
 40
1.0
 40
1.0
 40
1.0
 40
1.0
 10
33.9029320844
 20
167.8617121951
 30
0.0
 10
33.9029335492
 20
167.4044443502
 30
0.0
 10
33.9825128365
 20
166.5035389521
 30
0.0
 10
34.310495322
 20
165.4295724666
 30
0.0
 10
34.7188301591
 20
164.6653632965
 30
0.0
 10
35.2069639097
 20
164.0014876371
 30
0.0
 10
35.6887157908
 20
163.6008321714
 30
0.0
 10
36.0425325025
 20
163.413826323
 30
0.0
  0
SPLINE
  5
2DE
100
AcDbEntity
  8
0
100
AcDbSpline
 62
7
  6
CONTINUOUS
 70
0
 71
3
 72
12
 73
8
 74
0
 42
0.0000001
 43
0.0000001
 44
0.0000000001
 40
0.0
 40
0.0
 40
0.0
 40
0.0
 40
0.2325395296
 40
0.3537288809
 40
0.4779902054
 40
0.7342985904
 40
1.0
 40
1.0
 40
1.0
 40
1.0
 10
36.042532511
 20
202.7704670379
 30
0.0
 10
35.6887158928
 20
202.583461241
 30
0.0
 10
35.2069641249
 20
202.1828059158
 30
0.0
 10
34.7188304372
 20
201.5189304885
 30
0.0
 10
34.3104956178
 20
200.754721585
 30
0.0
 10
33.9825130633
 20
199.6807554662
 30
0.0
 10
33.9029336365
 20
198.7798503509
 30
0.0
 10
33.9029320797
 20
198.3225826466
 30
0.0
  0
SPLINE
  5
2DF
100
AcDbEntity
  8
0
100
AcDbSpline
 62
7
  6
CONTINUOUS
 70
0
 71
3
 72
9
 73
5
 74
0
 42
0.0000001
 43
0.0000001
 44
0.0000000001
 40
0.0
 40
0.0
 40
0.0
 40
0.0
 40
0.2730028948
 40
1.0
 40
1.0
 40
1.0
 40
1.0
 10
30.4098512667
 20
200.2542349088
 30
0.0
 10
30.4148360439
 20
200.3029875923
 30
0.0
 10
30.4325831033
 20
200.4815975541
 30
0.0
 10
30.447306727
 20
200.6606642024
 30
0.0
 10
30.451717044
 20
200.7910931981
 30
0.0
  0
SPLINE
  5
2E0
100
AcDbEntity
  8
0
100
AcDbSpline
 62
7
  6
CONTINUOUS
 70
0
 71
3
 72
25
 73
21
 74
0
 42
0.0000001
 43
0.0000001
 44
0.0000000001
 40
0.0
 40
0.0
 40
0.0
 40
0.0
 40
0.0574028491
 40
0.1072597485
 40
0.1485123008
 40
0.1802779821
 40
0.1925261057
 40
0.202561632
 40
0.2109872403
 40
0.2190292122
 40
0.2283107946
 40
0.2401462842
 40
0.2740863544
 40
0.3234933425
 40
0.3886296992
 40
0.4681478414
 40
0.5598790865
 40
0.6611856949
 40
0.7697655201
 40
1.0
 40
1.0
 40
1.0
 40
1.0
 10
30.4534201312
 20
200.8640005544
 30
0.0
 10
30.4538249862
 20
200.8977798617
 30
0.0
 10
30.4535187742
 20
200.9609133235
 30
0.0
 10
30.44886307
 20
201.0482687921
 30
0.0
 10
30.4395704819
 20
201.1200020134
 30
0.0
 10
30.4271328692
 20
201.1690017586
 30
0.0
 10
30.4130658253
 20
201.1976875655
 30
0.0
 10
30.4018031043
 20
201.2120640203
 30
0.0
 10
30.3882892226
 20
201.2207555937
 30
0.0
 10
30.3725782244
 20
201.2220335472
 30
0.0
 10
30.3562383759
 20
201.2155362936
 30
0.0
 10
30.3307649617
 20
201.1951077277
 30
0.0
 10
30.2982806735
 20
201.1485235873
 30
0.0
 10
30.2597974616
 20
201.0700793887
 30
0.0
 10
30.2201519166
 20
200.9627377565
 30
0.0
 10
30.181361703
 20
200.8290833219
 30
0.0
 10
30.1453816228
 20
200.6726874487
 30
0.0
 10
30.1137902524
 20
200.4979627133
 30
0.0
 10
30.0781380798
 20
200.2413608367
 30
0.0
 10
30.0616278864
 20
200.0424626312
 30
0.0
 10
30.0541245649
 20
199.9071769291
 30
0.0
  0
LINE
  5
2E1
100
AcDbEntity
  8
0
100
AcDbLine
 62
7
  6
CONTINUOUS
 10
30.0541245649
 20
199.9071769291
 11
30.0535717154
 21
199.8970795271
  0
LINE
  5
2E2
100
AcDbEntity
  8
0
100
AcDbLine
 62
7
  6
CONTINUOUS
 10
30.0622559479
 20
199.87763084
 11
30.0630657618
 21
199.8908315276
  0
SPLINE
  5
2E3
100
AcDbEntity
  8
0
100
AcDbSpline
 62
7
  6
CONTINUOUS
 70
0
 71
3
 72
23
 73
19
 74
0
 42
0.0000001
 43
0.0000001
 44
0.0000000001
 40
0.0
 40
0.0
 40
0.0
 40
0.0
 40
0.2292162125
 40
0.4399916666
 40
0.6134895154
 40
0.6801549246
 40
0.7312597368
 40
0.766601873
 40
0.7790401275
 40
0.7887522419
 40
0.796838072
 40
0.8048897489
 40
0.8143028273
 40
0.8258160342
 40
0.8559753793
 40
0.8956713473
 40
0.944037389
 40
1.0
 40
1.0
 40
1.0
 40
1.0
 10
30.0630657618
 20
199.8908315276
 30
0.0
 10
30.0710470553
 20
200.0197582519
 30
0.0
 10
30.0900151117
 20
200.267127854
 30
0.0
 10
30.1403148293
 20
200.6094760902
 30
0.0
 10
30.1986906408
 20
200.8573607786
 30
0.0
 10
30.2530167067
 20
201.0125308116
 30
0.0
 10
30.2892816209
 20
201.0908346467
 30
0.0
 10
30.3200741005
 20
201.1380732802
 30
0.0
 10
30.3443418645
 20
201.1598413056
 30
0.0
 10
30.359789432
 20
201.1677475888
 30
0.0
 10
30.3748944119
 20
201.1685967697
 30
0.0
 10
30.3882943862
 20
201.1620604734
 30
0.0
 10
30.3994370305
 20
201.1498079285
 30
0.0
 10
30.4134775098
 20
201.1245045175
 30
0.0
 10
30.4260946938
 20
201.0799827361
 30
0.0
 10
30.4359480718
 20
201.0140863816
 30
0.0
 10
30.441523647
 20
200.9330253406
 30
0.0
 10
30.4425386926
 20
200.8742299069
 30
0.0
 10
30.4425377666
 20
200.8426924863
 30
0.0
  0
SPLINE
  5
2E4
100
AcDbEntity
  8
0
100
AcDbSpline
 62
7
  6
CONTINUOUS
 70
0
 71
3
 72
9
 73
5
 74
0
 42
0.0000001
 43
0.0000001
 44
0.0000000001
 40
0.0
 40
0.0
 40
0.0
 40
0.0
 40
0.3760889613
 40
1.0
 40
1.0
 40
1.0
 40
1.0
 10
30.0538134929
 20
199.8970608514
 30
0.0
 10
30.0536828519
 20
199.8949546234
 30
0.0
 10
30.0534835913
 20
199.8895448616
 30
0.0
 10
30.0542758116
 20
199.8830467374
 30
0.0
 10
30.0569092664
 20
199.8807400643
 30
0.0
  0
SPLINE
  5
2E5
100
AcDbEntity
  8
0
100
AcDbSpline
 62
7
  6
CONTINUOUS
 70
0
 71
3
 72
8
 73
4
 74
0
 42
0.0000001
 43
0.0000001
 44
0.0000000001
 40
0.0
 40
0.0
 40
0.0
 40
0.0
 40
1.0
 40
1.0
 40
1.0
 40
1.0
 10
30.0569092664
 20
199.8807400643
 30
0.0
 10
30.0584765604
 20
199.8793672536
 30
0.0
 10
30.0602777169
 20
199.878048148
 30
0.0
 10
30.0623116277
 20
199.8775962337
 30
0.0
  0
SPLINE
  5
2E6
100
AcDbEntity
  8
0
100
AcDbSpline
 62
7
  6
CONTINUOUS
 70
0
 71
3
 72
9
 73
5
 74
0
 42
0.0000001
 43
0.0000001
 44
0.0000000001
 40
0.0
 40
0.0
 40
0.0
 40
0.0
 40
0.2492552785
 40
1.0
 40
1.0
 40
1.0
 40
1.0
 10
34.4614710894
 20
205.0424587488
 30
0.0
 10
34.520218688
 20
205.0655717032
 30
0.0
 10
34.7600448593
 20
205.1474608457
 30
0.0
 10
35.0138603907
 20
205.1880947356
 30
0.0
 10
35.2039160992
 20
205.1939756254
 30
0.0
  0
SPLINE
  5
2E7
100
AcDbEntity
  8
0
100
AcDbSpline
 62
7
  6
CONTINUOUS
 70
0
 71
3
 72
25
 73
21
 74
0
 42
0.0000001
 43
0.0000001
 44
0.0000000001
 40
0.0
 40
0.0
 40
0.0
 40
0.0
 40
0.0136344412
 40
0.0248755869
 40
0.0337345228
 40
0.0403312243
 40
0.0450969871
 40
0.0492608186
 40
0.0545974934
 40
0.0621512744
 40
0.0853844267
 40
0.1204461973
 40
0.1674443121
 40
0.2261475335
 40
0.2958398306
 40
0.3755758871
 40
0.4642784497
 40
0.5607880228
 40
0.7724671036
 40
1.0
 40
1.0
 40
1.0
 40
1.0
 10
30.4425281218
 20
163.3419483256
 30
0.0
 10
30.442531483
 20
163.3340119024
 30
0.0
 10
30.4422282674
 20
163.3195237934
 30
0.0
 10
30.4405126018
 20
163.299953647
 30
0.0
 10
30.4375365445
 20
163.2846258768
 30
0.0
 10
30.4333965505
 20
163.273600174
 30
0.0
 10
30.4272794514
 20
163.2662434959
 30
0.0
 10
30.4183590584
 20
163.2650415478
 30
0.0
 10
30.4093517042
 20
163.2700416025
 30
0.0
 10
30.3942253882
 20
163.2846654171
 30
0.0
 10
30.3735473551
 20
163.3174502946
 30
0.0
 10
30.3465214605
 20
163.3723542305
 30
0.0
 10
30.3158124549
 20
163.4484481513
 30
0.0
 10
30.282428966
 20
163.5449365438
 30
0.0
 10
30.2475591588
 20
163.6610017335
 30
0.0
 10
30.2125050873
 20
163.7951339484
 30
0.0
 10
30.1784899596
 20
163.9455878764
 30
0.0
 10
30.1346506365
 20
164.1724488082
 30
0.0
 10
30.0910289245
 20
164.4814756886
 30
0.0
 10
30.0710594813
 20
164.736468538
 30
0.0
 10
30.0628416086
 20
164.8686571623
 30
0.0
  0
SPLINE
  5
2E8
100
AcDbEntity
  8
0
100
AcDbSpline
 62
7
  6
CONTINUOUS
 70
0
 71
3
 72
14
 73
10
 74
0
 42
0.0000001
 43
0.0000001
 44
0.0000000001
 40
0.0
 40
0.0
 40
0.0
 40
0.0
 40
0.3092924037
 40
0.461614314
 40
0.6049565367
 40
0.7338648508
 40
0.8442650874
 40
0.933128513
 40
1.0
 40
1.0
 40
1.0
 40
1.0
 10
33.9029332925
 20
167.861725432
 30
0.0
 10
33.5208267248
 20
167.8640846924
 30
0.0
 10
32.9504259976
 20
167.881621302
 30
0.0
 10
32.2050293124
 20
167.9373651112
 30
0.0
 10
31.6834057418
 20
167.9938535474
 30
0.0
 10
31.2158245613
 20
168.0644209506
 30
0.0
 10
30.8182192832
 20
168.145368358
 30
0.0
 10
30.5015080129
 20
168.2344117579
 30
0.0
 10
30.3218672177
 20
168.3057651808
 30
0.0
 10
30.2488404681
 20
168.3443981729
 30
0.0
  0
SPLINE
  5
2E9
100
AcDbEntity
  8
0
100
AcDbSpline
 62
7
  6
CONTINUOUS
 70
0
 71
3
 72
14
 73
10
 74
0
 42
0.0000001
 43
0.0000001
 44
0.0000000001
 40
0.0
 40
0.0
 40
0.0
 40
0.0
 40
0.0794514571
 40
0.1719183244
 40
0.2793698898
 40
0.4017774537
 40
0.5374971143
 40
0.6841235709
 40
1.0
 40
1.0
 40
1.0
 40
1.0
 10
34.4614540909
 20
161.1418225188
 30
0.0
 10
34.4696846174
 20
161.1931925798
 30
0.0
 10
34.5128713303
 20
161.3001198331
 30
0.0
 10
34.6241692322
 20
161.446477379
 30
0.0
 10
34.7788077884
 20
161.5913498758
 30
0.0
 10
34.9741850053
 20
161.7305333451
 30
0.0
 10
35.2038750885
 20
161.8633350622
 30
0.0
 10
35.557700552
 20
162.0325111627
 30
0.0
 10
35.8456909472
 20
162.1287965887
 30
0.0
 10
36.0425313897
 20
162.1923230457
 30
0.0
  0
SPLINE
  5
2EA
100
AcDbEntity
  8
0
100
AcDbSpline
 62
7
  6
CONTINUOUS
 70
0
 71
3
 72
14
 73
10
 74
0
 42
0.0000001
 43
0.0000001
 44
0.0000000001
 40
0.0
 40
0.0
 40
0.0
 40
0.0
 40
0.0789114456
 40
0.1648218436
 40
0.2643058808
 40
0.3804219521
 40
0.5136417659
 40
0.6627360302
 40
1.0
 40
1.0
 40
1.0
 40
1.0
 10
35.203934643
 20
205.1939698372
 30
0.0
 10
35.2039486171
 20
205.1672665094
 30
0.0
 10
35.2146915092
 20
205.1110217918
 30
0.0
 10
35.2620265371
 20
205.0333662484
 30
0.0
 10
35.3381270765
 20
204.9639458794
 30
0.0
 10
35.4397828564
 20
204.9028896866
 30
0.0
 10
35.5647120486
 20
204.8512175607
 30
0.0
 10
35.7661485406
 20
204.7921150442
 30
0.0
 10
35.9292248912
 20
204.7656499294
 30
0.0
 10
36.0425318417
 20
204.7519778218
 30
0.0
  0
SPLINE
  5
2EB
100
AcDbEntity
  8
0
100
AcDbSpline
 62
7
  6
CONTINUOUS
 70
0
 71
3
 72
9
 73
5
 74
0
 42
0.0000001
 43
0.0000001
 44
0.0000000001
 40
0.0
 40
0.0
 40
0.0
 40
0.0
 40
0.6583440548
 40
1.0
 40
1.0
 40
1.0
 40
1.0
 10
30.2488384676
 20
168.3443978726
 30
0.0
 10
30.2462409376
 20
168.3451605138
 30
0.0
 10
30.2425062732
 20
168.3462401474
 30
0.0
 10
30.2387703887
 20
168.3493831744
 30
0.0
 10
30.2387145697
 20
168.3507869864
 30
0.0
  0
SPLINE
  5
2EC
100
AcDbEntity
  8
0
100
AcDbSpline
 62
7
  6
CONTINUOUS
 70
0
 71
3
 72
14
 73
10
 74
0
 42
0.0000001
 43
0.0000001
 44
0.0000000001
 40
0.0
 40
0.0
 40
0.0
 40
0.0
 40
0.3372630964
 40
0.4863571758
 40
0.6195770916
 40
0.7356934541
 40
0.835177892
 40
0.9210886285
 40
1.0
 40
1.0
 40
1.0
 40
1.0
 10
36.0425318467
 20
161.4323154792
 30
0.0
 10
35.9292257145
 20
161.4186434536
 30
0.0
 10
35.7661504832
 20
161.3921785231
 30
0.0
 10
35.5647151508
 20
161.3330766734
 30
0.0
 10
35.4397863107
 20
161.2814051805
 30
0.0
 10
35.3381304074
 20
161.2203497703
 30
0.0
 10
35.2620293014
 20
161.1509302634
 30
0.0
 10
35.2146931764
 20
161.0732756854
 30
0.0
 10
35.2039491282
 20
161.0170313815
 30
0.0
 10
35.2039346242
 20
160.9903282024
 30
0.0
  0
SPLINE
  5
2ED
100
AcDbEntity
  8
0
100
AcDbSpline
 62
7
  6
CONTINUOUS
 70
0
 71
3
 72
9
 73
5
 74
0
 42
0.0000001
 43
0.0000001
 44
0.0000000001
 40
0.0
 40
0.0
 40
0.0
 40
0.0
 40
0.2537039038
 40
1.0
 40
1.0
 40
1.0
 40
1.0
 10
30.0530493156
 20
166.2969454801
 30
0.0
 10
30.0546086462
 20
166.2671281346
 30
0.0
 10
30.0614899854
 20
166.1496406782
 30
0.0
 10
30.0713988197
 20
166.0323220389
 30
0.0
 10
30.0807937691
 20
165.9449953153
 30
0.0
  0
SPLINE
  5
2EE
100
AcDbEntity
  8
0
100
AcDbSpline
 62
7
  6
CONTINUOUS
 70
0
 71
3
 72
24
 73
20
 74
0
 42
0.0000001
 43
0.0000001
 44
0.0000000001
 40
0.0
 40
0.0
 40
0.0
 40
0.0
 40
0.2389351384
 40
0.3470907707
 40
0.4446118527
 40
0.5292128388
 40
0.5989960056
 40
0.6529949739
 40
0.6913292507
 40
0.7052517129
 40
0.7163583054
 40
0.7256234695
 40
0.7344872897
 40
0.7443662297
 40
0.7561475373
 40
0.7867425407
 40
0.8271357516
 40
0.8767064572
 40
1.0
 40
1.0
 40
1.0
 40
1.0
 10
30.0807937691
 20
165.9449953153
 30
0.0
 10
30.0931604501
 20
165.8300461361
 30
0.0
 10
30.1160790741
 20
165.6634770985
 30
0.0
 10
30.1582392406
 20
165.4524642519
 30
0.0
 10
30.1920462731
 20
165.3160706775
 30
0.0
 10
30.2277931971
 20
165.1994842049
 30
0.0
 10
30.2639920899
 20
165.105208138
 30
0.0
 10
30.2990250642
 20
165.0349778335
 30
0.0
 10
30.328631369
 20
164.9922904913
 30
0.0
 10
30.3517648673
 20
164.9719152093
 30
0.0
 10
30.3666024246
 20
164.9639953451
 30
0.0
 10
30.3810427975
 20
164.9620688423
 30
0.0
 10
30.3942839198
 20
164.9665796134
 30
0.0
 10
30.4055980743
 20
164.9764637023
 30
0.0
 10
30.4198575236
 20
164.9975456126
 30
0.0
 10
30.4331566145
 20
165.0358214271
 30
0.0
 10
30.4439990452
 20
165.0931554736
 30
0.0
 10
30.4538399021
 20
165.1960075714
 30
0.0
 10
30.4541775896
 20
165.2797815645
 30
0.0
 10
30.4530405168
 20
165.3394282308
 30
0.0
  0
SPLINE
  5
2EF
100
AcDbEntity
  8
0
100
AcDbSpline
 62
7
  6
CONTINUOUS
 70
0
 71
3
 72
9
 73
5
 74
0
 42
0.0000001
 43
0.0000001
 44
0.0000000001
 40
0.0
 40
0.0
 40
0.0
 40
0.0
 40
0.2244318102
 40
1.0
 40
1.0
 40
1.0
 40
1.0
 10
30.4530405168
 20
165.3394282308
 30
0.0
 10
30.45239344
 20
165.3733715009
 30
0.0
 10
30.4471284008
 20
165.5245674968
 30
0.0
 10
30.4349337412
 20
165.6754307658
 30
0.0
 10
30.4240331466
 20
165.792242205
 30
0.0
  0
SPLINE
  5
2F0
100
AcDbEntity
  8
0
100
AcDbSpline
 62
7
  6
CONTINUOUS
 70
0
 71
3
 72
11
 73
7
 74
0
 42
0.0000001
 43
0.0000001
 44
0.0000000001
 40
0.0
 40
0.0
 40
0.0
 40
0.0
 40
0.1796902956
 40
0.4129100434
 40
0.6892366849
 40
1.0
 40
1.0
 40
1.0
 40
1.0
 10
30.4451005
 20
163.4009439526
 30
0.0
 10
30.4364786562
 20
163.4782723468
 30
0.0
 10
30.4091302132
 20
163.6550626397
 30
0.0
 10
30.3571041214
 20
163.9489066999
 30
0.0
 10
30.2939181345
 20
164.2984543008
 30
0.0
 10
30.2511845078
 20
164.5490609189
 30
0.0
 10
30.2297893481
 20
164.6819125431
 30
0.0
  0
SPLINE
  5
2F1
100
AcDbEntity
  8
0
100
AcDbSpline
 62
7
  6
CONTINUOUS
 70
0
 71
3
 72
9
 73
5
 74
0
 42
0.0000001
 43
0.0000001
 44
0.0000000001
 40
0.0
 40
0.0
 40
0.0
 40
0.0
 40
0.2435692238
 40
1.0
 40
1.0
 40
1.0
 40
1.0
 10
30.1291834936
 20
165.393573844
 30
0.0
 10
30.1204784153
 20
165.4666703281
 30
0.0
 10
30.0869880311
 20
165.7670318879
 30
0.0
 10
30.0635017754
 20
166.0685713455
 30
0.0
 10
30.0530493156
 20
166.2969454801
 30
0.0
  0
SPLINE
  5
2F2
100
AcDbEntity
  8
0
100
AcDbSpline
 62
7
  6
CONTINUOUS
 70
0
 71
3
 72
10
 73
6
 74
0
 42
0.0000001
 43
0.0000001
 44
0.0000000001
 40
0.0
 40
0.0
 40
0.0
 40
0.0
 40
0.1938250836
 40
0.5438999083
 40
1.0
 40
1.0
 40
1.0
 40
1.0
 10
56.0424560983
 20
41.7839231326
 30
0.0
 10
56.0424533713
 20
41.7416894219
 30
0.0
 10
56.0148641796
 20
41.6224852413
 30
0.0
 10
55.8724564086
 20
41.4494793313
 30
0.0
 10
55.7318952848
 20
41.344042149
 30
0.0
 10
55.6495096903
 20
41.288459125
 30
0.0
  0
SPLINE
  5
2F3
100
AcDbEntity
  8
0
100
AcDbSpline
 62
7
  6
CONTINUOUS
 70
0
 71
3
 72
9
 73
5
 74
0
 42
0.0000001
 43
0.0000001
 44
0.0000000001
 40
0.0
 40
0.0
 40
0.0
 40
0.0
 40
0.2383883971
 40
1.0
 40
1.0
 40
1.0
 40
1.0
 10
55.6495096903
 20
41.288459125
 30
0.0
 10
55.6311607758
 20
41.2760796773
 30
0.0
 10
55.5535332924
 20
41.2251227002
 30
0.0
 10
55.473734798
 20
41.1775369794
 30
0.0
 10
55.412324773
 20
41.1424721155
 30
0.0
  0
SPLINE
  5
2F4
100
AcDbEntity
  8
0
100
AcDbSpline
 62
7
  6
CONTINUOUS
 70
0
 71
3
 72
9
 73
5
 74
0
 42
0.0000001
 43
0.0000001
 44
0.0000000001
 40
0.0
 40
0.0
 40
0.0
 40
0.0
 40
0.242161132
 40
1.0
 40
1.0
 40
1.0
 40
1.0
 10
55.412324773
 20
41.1424721155
 30
0.0
 10
55.3750078551
 20
41.1211643135
 30
0.0
 10
55.2198578542
 20
41.0350088738
 30
0.0
 10
55.062033545
 20
40.9538228531
 30
0.0
 10
54.9425313736
 20
40.8921466783
 30
0.0
  0
SPLINE
  5
2F5
100
AcDbEntity
  8
0
100
AcDbSpline
 62
7
  6
CONTINUOUS
 70
0
 71
3
 72
9
 73
5
 74
0
 42
0.0000001
 43
0.0000001
 44
0.0000000001
 40
0.0
 40
0.0
 40
0.0
 40
0.0
 40
0.4133798404
 40
1.0
 40
1.0
 40
1.0
 40
1.0
 10
56.0424258256
 20
334.0003731485
 30
0.0
 10
56.0424216078
 20
334.0894928707
 30
0.0
 10
55.9317719051
 20
334.297203437
 30
0.0
 10
55.7567420622
 20
334.4235115176
 30
0.0
 10
55.6519451985
 20
334.4943058398
 30
0.0
  0
SPLINE
  5
2F6
100
AcDbEntity
  8
0
100
AcDbSpline
 62
7
  6
CONTINUOUS
 70
0
 71
3
 72
9
 73
5
 74
0
 42
0.0000001
 43
0.0000001
 44
0.0000000001
 40
0.0
 40
0.0
 40
0.0
 40
0.0
 40
0.2384560843
 40
1.0
 40
1.0
 40
1.0
 40
1.0
 10
55.6519451985
 20
334.4943058398
 30
0.0
 10
55.6339343697
 20
334.5064728491
 30
0.0
 10
55.5577615849
 20
334.5565477453
 30
0.0
 10
55.4794683198
 20
334.6033345061
 30
0.0
 10
55.4192285094
 20
334.6378252391
 30
0.0
  0
SPLINE
  5
2F7
100
AcDbEntity
  8
0
100
AcDbSpline
 62
7
  6
CONTINUOUS
 70
0
 71
3
 72
9
 73
5
 74
0
 42
0.0000001
 43
0.0000001
 44
0.0000000001
 40
0.0
 40
0.0
 40
0.0
 40
0.0
 40
0.2418921056
 40
1.0
 40
1.0
 40
1.0
 40
1.0
 10
55.4192285094
 20
334.6378252391
 30
0.0
 10
55.3814201628
 20
334.6594726776
 30
0.0
 10
55.2240287433
 20
334.7470680687
 30
0.0
 10
55.063866569
 20
334.8295244628
 30
0.0
 10
54.9425313736
 20
334.8921466783
 30
0.0
  0
SPLINE
  5
2F8
100
AcDbEntity
  8
0
100
AcDbSpline
 62
7
  6
CONTINUOUS
 70
0
 71
3
 72
9
 73
5
 74
0
 42
0.0000001
 43
0.0000001
 44
0.0000000001
 40
0.0
 40
0.0
 40
0.0
 40
0.0
 40
0.2600646559
 40
1.0
 40
1.0
 40
1.0
 40
1.0
 10
36.6212448318
 20
334.1677113718
 30
0.0
 10
36.5905358956
 20
334.1272969531
 30
0.0
 10
36.4751823064
 20
333.9698785691
 30
0.0
 10
36.371349974
 20
333.803732281
 30
0.0
 10
36.3042394219
 20
333.6758564596
 30
0.0
  0
SPLINE
  5
2F9
100
AcDbEntity
  8
0
100
AcDbSpline
 62
7
  6
CONTINUOUS
 70
0
 71
3
 72
9
 73
5
 74
0
 42
0.0000001
 43
0.0000001
 44
0.0000000001
 40
0.0
 40
0.0
 40
0.0
 40
0.0
 40
0.2647057265
 40
1.0
 40
1.0
 40
1.0
 40
1.0
 10
36.3042394219
 20
333.6758564596
 30
0.0
 10
36.2622768322
 20
333.5958988306
 30
0.0
 10
36.117787841
 20
333.287064998
 30
0.0
 10
36.0425313736
 20
332.9429800795
 30
0.0
 10
36.0425313736
 20
332.6921466783
 30
0.0
  0
SPLINE
  5
2FA
100
AcDbEntity
  8
0
100
AcDbSpline
 62
7
  6
CONTINUOUS
 70
0
 71
3
 72
9
 73
5
 74
0
 42
0.0000001
 43
0.0000001
 44
0.0000000001
 40
0.0
 40
0.0
 40
0.0
 40
0.0
 40
0.240649044
 40
1.0
 40
1.0
 40
1.0
 40
1.0
 10
36.0425313736
 20
43.0921466783
 30
0.0
 10
36.0425313736
 20
43.0100117045
 30
0.0
 10
36.0655342904
 20
42.668567469
 30
0.0
 10
36.183802045
 20
42.3379243325
 30
0.0
 10
36.3042394219
 20
42.108436897
 30
0.0
  0
SPLINE
  5
2FB
100
AcDbEntity
  8
0
100
AcDbSpline
 62
7
  6
CONTINUOUS
 70
0
 71
3
 72
9
 73
5
 74
0
 42
0.0000001
 43
0.0000001
 44
0.0000000001
 40
0.0
 40
0.0
 40
0.0
 40
0.0
 40
0.2403080807
 40
1.0
 40
1.0
 40
1.0
 40
1.0
 10
36.3042394219
 20
42.108436897
 30
0.0
 10
36.3260361338
 20
42.0669043457
 30
0.0
 10
36.4210084578
 20
41.8963178213
 30
0.0
 10
36.5315336627
 20
41.7346461444
 30
0.0
 10
36.6212448318
 20
41.6165819848
 30
0.0
  0
LINE
  5
2FC
100
AcDbEntity
  8
0
100
AcDbLine
 62
7
  6
CONTINUOUS
 10
60.0528409672
 20
58.0901375141
 11
60.1774243535
 21
57.9860154512
  0
SPLINE
  5
2FD
100
AcDbEntity
  8
0
100
AcDbSpline
 62
7
  6
CONTINUOUS
 70
0
 71
3
 72
9
 73
5
 74
0
 42
0.0000001
 43
0.0000001
 44
0.0000000001
 40
0.0
 40
0.0
 40
0.0
 40
0.0
 40
0.2596861376
 40
1.0
 40
1.0
 40
1.0
 40
1.0
 10
60.1774243535
 20
57.9860154512
 30
0.0
 10
60.2719614683
 20
57.9068997966
 30
0.0
 10
60.6351131265
 20
57.6013966356
 30
0.0
 10
60.9912943331
 20
57.2859236481
 30
0.0
 10
61.2354372944
 20
57.0331436479
 30
0.0
  0
SPLINE
  5
2FE
100
AcDbEntity
  8
0
100
AcDbSpline
 62
7
  6
CONTINUOUS
 70
0
 71
3
 72
9
 73
5
 74
0
 42
0.0000001
 43
0.0000001
 44
0.0000000001
 40
0.0
 40
0.0
 40
0.0
 40
0.0
 40
0.5485384179
 40
1.0
 40
1.0
 40
1.0
 40
1.0
 10
61.2354372944
 20
57.0331436479
 30
0.0
 10
61.4641580313
 20
56.7963314636
 30
0.0
 10
61.8588878597
 20
56.3361094808
 30
0.0
 10
62.052827985
 20
55.7369186329
 30
0.0
 10
62.052827985
 20
55.4659526701
 30
0.0
  0
SPLINE
  5
2FF
100
AcDbEntity
  8
0
100
AcDbSpline
 62
7
  6
CONTINUOUS
 70
0
 71
3
 72
9
 73
5
 74
0
 42
0.0000001
 43
0.0000001
 44
0.0000000001
 40
0.0
 40
0.0
 40
0.0
 40
0.0
 40
0.2536476482
 40
1.0
 40
1.0
 40
1.0
 40
1.0
 10
236.852827985
 20
38.8921466782
 30
0.0
 10
236.9183897206
 20
38.914912804
 30
0.0
 10
237.1768561264
 20
39.0046834326
 30
0.0
 10
237.4349495354
 20
39.0956129823
 30
0.0
 10
237.6264157674
 20
39.1666337674
 30
0.0
  0
SPLINE
  5
300
100
AcDbEntity
  8
0
100
AcDbSpline
 62
7
  6
CONTINUOUS
 70
0
 71
3
 72
9
 73
5
 74
0
 42
0.0000001
 43
0.0000001
 44
0.0000000001
 40
0.0
 40
0.0
 40
0.0
 40
0.0
 40
0.2677931156
 40
1.0
 40
1.0
 40
1.0
 40
1.0
 10
237.6264157674
 20
39.1666337674
 30
0.0
 10
237.6898340975
 20
39.1901576
 30
0.0
 10
237.9260942014
 20
39.2794148186
 30
0.0
 10
238.1601667337
 20
39.3750833274
 30
0.0
 10
238.3276865648
 20
39.4534521726
 30
0.0
  0
SPLINE
  5
301
100
AcDbEntity
  8
0
100
AcDbSpline
 62
7
  6
CONTINUOUS
 70
0
 71
3
 72
10
 73
6
 74
0
 42
0.0000001
 43
0.0000001
 44
0.0000000001
 40
0.0
 40
0.0
 40
0.0
 40
0.0
 40
0.346786814
 40
0.6272508575
 40
1.0
 40
1.0
 40
1.0
 40
1.0
 10
238.3276865648
 20
39.4534521726
 30
0.0
 10
238.4319987513
 20
39.502251324
 30
0.0
 10
238.6194218533
 20
39.5985673532
 30
0.0
 10
238.8914932707
 20
39.7744101408
 30
0.0
 10
239.052827985
 20
39.9683625492
 30
0.0
 10
239.052827985
 20
40.0921466783
 30
0.0
  0
SPLINE
  5
302
100
AcDbEntity
  8
0
100
AcDbSpline
 62
7
  6
CONTINUOUS
 70
0
 71
3
 72
10
 73
6
 74
0
 42
0.0000001
 43
0.0000001
 44
0.0000000001
 40
0.0
 40
0.0
 40
0.0
 40
0.0
 40
0.3727548981
 40
0.6532162464
 40
1.0
 40
1.0
 40
1.0
 40
1.0
 10
239.052827985
 20
335.6921466782
 30
0.0
 10
239.052827985
 20
335.8159191733
 30
0.0
 10
238.8915217094
 20
336.0098566126
 30
0.0
 10
238.6194840921
 20
336.1856894419
 30
0.0
 10
238.4320858887
 20
336.2819985255
 30
0.0
 10
238.3277870722
 20
336.3307941189
 30
0.0
  0
SPLINE
  5
303
100
AcDbEntity
  8
0
100
AcDbSpline
 62
7
  6
CONTINUOUS
 70
0
 71
3
 72
9
 73
5
 74
0
 42
0.0000001
 43
0.0000001
 44
0.0000000001
 40
0.0
 40
0.0
 40
0.0
 40
0.0
 40
0.2306002679
 40
1.0
 40
1.0
 40
1.0
 40
1.0
 10
238.3277870722
 20
336.3307941189
 30
0.0
 10
238.2750239624
 20
336.3554790323
 30
0.0
 10
238.0444059494
 20
336.4586620061
 30
0.0
 10
237.8087079837
 20
336.5500409482
 30
0.0
 10
237.6264824231
 20
336.6176348503
 30
0.0
  0
SPLINE
  5
304
100
AcDbEntity
  8
0
100
AcDbSpline
 62
7
  6
CONTINUOUS
 70
0
 71
3
 72
9
 73
5
 74
0
 42
0.0000001
 43
0.0000001
 44
0.0000000001
 40
0.0
 40
0.0
 40
0.0
 40
0.0
 40
0.2442271008
 40
1.0
 40
1.0
 40
1.0
 40
1.0
 10
237.6264824231
 20
336.6176348503
 30
0.0
 10
237.5638236116
 20
336.6408772184
 30
0.0
 10
237.306726731
 20
336.7345988545
 30
0.0
 10
237.0481951296
 20
336.8243059944
 30
0.0
 10
236.852827985
 20
336.8921466783
 30
0.0
  0
SPLINE
  5
305
100
AcDbEntity
  8
0
100
AcDbSpline
 62
7
  6
CONTINUOUS
 70
0
 71
3
 72
9
 73
5
 74
0
 42
0.0000001
 43
0.0000001
 44
0.0000000001
 40
0.0
 40
0.0
 40
0.0
 40
0.0
 40
0.4514446792
 40
1.0
 40
1.0
 40
1.0
 40
1.0
 10
62.052827985
 20
320.3183406864
 30
0.0
 10
62.052827985
 20
320.0472926305
 30
0.0
 10
61.8587582956
 20
319.4479049975
 30
0.0
 10
61.4638353941
 20
318.9875810951
 30
0.0
 10
61.2350062678
 20
318.7507036743
 30
0.0
  0
SPLINE
  5
306
100
AcDbEntity
  8
0
100
AcDbSpline
 62
7
  6
CONTINUOUS
 70
0
 71
3
 72
9
 73
5
 74
0
 42
0.0000001
 43
0.0000001
 44
0.0000000001
 40
0.0
 40
0.0
 40
0.0
 40
0.0
 40
0.2378160315
 40
1.0
 40
1.0
 40
1.0
 40
1.0
 10
61.2350062678
 20
318.7507036743
 30
0.0
 10
61.1565953593
 20
318.669534926
 30
0.0
 10
60.8177181671
 20
318.3370373961
 30
0.0
 10
60.4548319165
 20
318.030433282
 30
0.0
 10
60.1774515533
 20
317.7983006774
 30
0.0
  0
LINE
  5
307
100
AcDbEntity
  8
0
100
AcDbLine
 62
7
  6
CONTINUOUS
 10
60.1774515533
 20
317.7983006774
 11
60.0528409617
 21
317.6941558477
  0
SPLINE
  5
308
100
AcDbEntity
  8
0
100
AcDbSpline
 62
7
  6
CONTINUOUS
 70
0
 71
3
 72
10
 73
6
 74
0
 42
0.0000001
 43
0.0000001
 44
0.0000000001
 40
0.0
 40
0.0
 40
0.0
 40
0.0
 40
0.2019734172
 40
0.5532178306
 40
1.0
 40
1.0
 40
1.0
 40
1.0
 10
62.052827985
 20
41.0921466783
 30
0.0
 10
62.052827985
 20
41.0177152977
 30
0.0
 10
62.0926008376
 20
40.8127213924
 30
0.0
 10
62.3061445093
 20
40.5010034446
 30
0.0
 10
62.5319779078
 20
40.3104078346
 30
0.0
 10
62.6640505097
 20
40.2120922925
 30
0.0
  0
SPLINE
  5
309
100
AcDbEntity
  8
0
100
AcDbSpline
 62
7
  6
CONTINUOUS
 70
0
 71
3
 72
9
 73
5
 74
0
 42
0.0000001
 43
0.0000001
 44
0.0000000001
 40
0.0
 40
0.0
 40
0.0
 40
0.0
 40
0.2238720951
 40
1.0
 40
1.0
 40
1.0
 40
1.0
 10
62.6640505097
 20
40.2120922925
 30
0.0
 10
62.7304153164
 20
40.1626899801
 30
0.0
 10
63.0346243044
 20
39.9524391272
 30
0.0
 10
63.3598716356
 20
39.7746259071
 30
0.0
 10
63.6154506914
 20
39.6444429746
 30
0.0
  0
SPLINE
  5
30A
100
AcDbEntity
  8
0
100
AcDbSpline
 62
7
  6
CONTINUOUS
 70
0
 71
3
 72
9
 73
5
 74
0
 42
0.0000001
 43
0.0000001
 44
0.0000000001
 40
0.0
 40
0.0
 40
0.0
 40
0.0
 40
0.2366443627
 40
1.0
 40
1.0
 40
1.0
 40
1.0
 10
63.6154506914
 20
39.6444429746
 30
0.0
 10
63.742118839
 20
39.5799226999
 30
0.0
 10
64.2819206696
 20
39.3161513052
 30
0.0
 10
64.8327489411
 20
39.0760052341
 30
0.0
 10
65.252827985
 20
38.8921466792
 30
0.0
  0
SPLINE
  5
30B
100
AcDbEntity
  8
0
100
AcDbSpline
 62
7
  6
CONTINUOUS
 70
0
 71
3
 72
9
 73
5
 74
0
 42
0.0000001
 43
0.0000001
 44
0.0000000001
 40
0.0
 40
0.0
 40
0.0
 40
0.0
 40
0.2592742174
 40
1.0
 40
1.0
 40
1.0
 40
1.0
 10
65.252827985
 20
336.8921466783
 30
0.0
 10
65.1101760119
 20
336.82971132
 30
0.0
 10
64.5601176122
 20
336.5887512475
 30
0.0
 10
64.0120940167
 20
336.3418763475
 30
0.0
 10
63.6156813314
 20
336.1399678441
 30
0.0
  0
SPLINE
  5
30C
100
AcDbEntity
  8
0
100
AcDbSpline
 62
7
  6
CONTINUOUS
 70
0
 71
3
 72
9
 73
5
 74
0
 42
0.0000001
 43
0.0000001
 44
0.0000000001
 40
0.0
 40
0.0
 40
0.0
 40
0.0
 40
0.2748870513
 40
1.0
 40
1.0
 40
1.0
 40
1.0
 10
63.6156813314
 20
336.1399678441
 30
0.0
 10
63.5251411285
 20
336.0938521734
 30
0.0
 10
63.1980599469
 20
335.9220457122
 30
0.0
 10
62.8789045643
 20
335.7321554845
 30
0.0
 10
62.6639142793
 20
335.5720996259
 30
0.0
  0
SPLINE
  5
30D
100
AcDbEntity
  8
0
100
AcDbSpline
 62
7
  6
CONTINUOUS
 70
0
 71
3
 72
10
 73
6
 74
0
 42
0.0000001
 43
0.0000001
 44
0.0000000001
 40
0.0
 40
0.0
 40
0.0
 40
0.0
 40
0.3099653799
 40
0.6907341602
 40
1.0
 40
1.0
 40
1.0
 40
1.0
 10
62.6639142793
 20
335.5720996259
 30
0.0
 10
62.5723967281
 20
335.5039666856
 30
0.0
 10
62.3760045751
 20
335.3422157149
 30
0.0
 10
62.1312286149
 20
335.0604169911
 30
0.0
 10
62.052827985
 20
334.805983707
 30
0.0
 10
62.052827985
 20
334.6921466783
 30
0.0
  0
ENDSEC
  0
SECTION
  2
OBJECTS
  0
DICTIONARY
  5
C
100
AcDbDictionary
280
0
281
1
  3
ACAD_GROUP
350
D
  3
ACAD_MLINESTYLE
350
17
  3
ACAD_LAYOUT
350
1A
  3
ACAD_PLOTSETTINGS
350
19
  3
ACAD_PLOTSTYLENAME
350
E
  0
DICTIONARY
  5
D
102
{ACAD_REACTORS
330
C
102
}
100
AcDbDictionary
280
0
281
1
  0
ACDBDICTIONARYWDFLT
  5
E
102
{ACAD_REACTORS
330
C
102
}
100
AcDbDictionary
281
1
  3
Normal
350
F
100
AcDbDictionaryWithDefault
340
F
  0
DICTIONARY
  5
17
102
{ACAD_REACTORS
330
C
102
}
100
AcDbDictionary
280
0
281
1
  3
Standard
350
18
  0
DICTIONARY
  5
19
102
{ACAD_REACTORS
330
C
102
}
100
AcDbDictionary
281
1
  0
DICTIONARY
  5
1A
102
{ACAD_REACTORS
330
C
102
}
100
AcDbDictionary
281
1
  3
Model
350
30E
  3
Layout1
350
30F
  0
ACDBPLACEHOLDER
  5
F
102
{ACAD_REACTORS
330
E
102
}
  0
MLINESTYLE
  5
18
102
{ACAD_REACTORS
330
17
102
}
100
AcDbMlineStyle
  2
STANDARD
 70
0
  3

 62
256
 51
90.0
 52
90.0
 71
2
 49
0.5
 62
256
  6
BYLAYER
 49
-0.5
 62
256
  6
BYLAYER
  0
LAYOUT
  5
30E
102
{ACAD_REACTORS
330
1A
102
}
100
AcDbPlotSettings
  1

  2
none_device
  4

  6

 40
0.0
 41
0.0
 42
0.0
 43
0.0
 44
210.0
 45
297.0
 46
0.0
 47
0.0
 48
0.0
 49
0.0
140
0.0
141
0.0
142
1.0
143
1.0
 70
1024
 72
1
 73
0
 74
0
  7

 75
0
147
1.0
148
0.0
149
0.0
100
AcDbLayout
  1
Model
 70
0
 71
0
 10
0.0
 20
0.0
 11
210.0
 21
297.0
 12
0.0
 22
0.0
 32
0.0
 14
0.0
 24
0.0
 34
0.0
 15
0.0
 25
0.0
 35
0.0
146
0.0
 13
0.0
 23
0.0
 33
0.0
 16
1.0
 26
0.0
 36
0.0
 17
0.0
 27
1.0
 37
0.0
 76
0
330
210
345
0
346
0
  0
LAYOUT
  5
30F
102
{ACAD_REACTORS
330
1A
102
}
100
AcDbPlotSettings
  1

  2
none_device
  4

  6

 40
0.0
 41
0.0
 42
0.0
 43
0.0
 44
210.0
 45
297.0
 46
0.0
 47
0.0
 48
0.0
 49
0.0
140
0.0
141
0.0
142
1.0
143
1.0
 70
0
 72
1
 73
0
 74
0
  7

 75
0
147
1.0
148
0.0
149
0.0
100
AcDbLayout
  1
Layout1
 70
0
 71
1
 10
0.0
 20
0.0
 11
210.0
 21
297.0
 12
0.0
 22
0.0
 32
0.0
 14
0.0
 24
0.0
 34
0.0
 15
0.0
 25
0.0
 35
0.0
146
0.0
 13
0.0
 23
0.0
 33
0.0
 16
1.0
 26
0.0
 36
0.0
 17
0.0
 27
1.0
 37
0.0
 76
0
330
211
345
0
346
0
  0
ENDSEC
  0
EOF
