999
DXF file: C:\Users\sesa63760\Dev\_Creo\CAD\MCADID0005353_3D-CAD\drw0001_1.dxf
999
Pro/ENGINEER 2019471 by Parametric Technology Corporation
  0
SECTION
  2
HEADER
  9
$ACADVER
  1
AC1024
  9
$DWGCODEPAGE
  3
ANSI_1252
  9
$EXTMAX
 10
38.4380157756
 20
54.3623365969
 30
0.0
  9
$EXTMIN
 10
0.0
 20
0.0
 30
0.0
  9
$LIMMIN
 10
0.0
 20
0.0
  9
$LIMMAX
 10
38.4380157756
 20
54.3623365969
  9
$VIEWCTR
 10
19.2190078878
 20
27.1811682985
  9
$VIEWSIZE
 40
54.3623365969
  9
$CLAYER
  8
0
  9
$LTSCALE
 40
3.5436189782
  9
$CELTYPE
  6
BYLAYER
  9
$DIMSCALE
 40
1.0
  9
$DIMASZ
 40
0.4575954259
  9
$DIMEXO
 40
1.0
  9
$DIMDLI
 40
2.4483185667
  9
$DIMEXE
 40
1.0
  9
$DIMCEN
 40
0.5798649237
  9
$DIMLFAC
 40
1.0
  9
$DIMBLK
  1
_FILLED
  9
$DIMALT
 70
0
  9
$DIMALTF
 40
0.0393700787
  9
$DIMTXT
 40
0.6406335963
  9
$DIMTOL
 70
1
  9
$DIMLIM
 70
0
  9
$DIMTFAC
 40
1.0
  9
$DIMTP
 40
0.01
  9
$DIMTM
 40
0.01
  9
$DIMGAP
 40
0.625
  9
$DIMDSEP
 70
46
  9
$AUNITS
 70
0
  9
$PDMODE
 70
3
  9
$PDSIZE
 40
0.3125
  9
$HANDSEED
  5
2A1
  9
$TILEMODE
 70
1
  9
$MEASUREMENT
 70
1
  9
$INSUNITS
 70
4
  0
ENDSEC
  0
SECTION
  2
CLASSES
  0
CLASS
  1
ACDBDICTIONARYWDFLT
  2
AcDbDictionaryWithDefault
  3
AutoCAD 2000
 90
0
 91
1
280
0
281
0
  0
CLASS
  1
ACDBPLACEHOLDER
  2
AcDbPlaceHolder
  3
AutoCAD 2000
 90
0
 91
1
280
0
281
0
  0
CLASS
  1
LAYOUT
  2
AcDbLayout
  3
AutoCAD 2000
 90
0
 91
0
280
0
281
0
  0
ENDSEC
  0
SECTION
  2
TABLES
  0
TABLE
  2
VPORT
  5
8
100
AcDbSymbolTable
 70
2
  0
VPORT
  5
1F4
100
AcDbSymbolTableRecord
100
AcDbViewportTableRecord
  2
*ACTIVE
 70
0
 10
0.0
 20
0.0
 11
1.0
 21
1.0
 12
19.2190078878
 22
27.1811682985
 13
0.0
 23
0.0
 14
1.0
 24
1.0
 15
0.0
 25
0.0
 16
0.0
 26
0.0
 36
1.0
 17
0.0
 27
0.0
 37
0.0
 40
54.3623365969
 41
0.7070707071
 42
50.0
 43
0.0
 44
0.0
 50
0.0
 51
0.0
 71
0
 72
100
 73
1
 74
1
 75
0
 76
0
 77
0
 78
0
  0
ENDTAB
  0
TABLE
  2
LTYPE
  5
5
100
AcDbSymbolTable
 70
6
  0
LTYPE
  5
14
100
AcDbSymbolTableRecord
100
AcDbLinetypeTableRecord
  2
BYBLOCK
 70
0
  3

 72
65
 73
0
 40
0.0
  0
LTYPE
  5
15
100
AcDbSymbolTableRecord
100
AcDbLinetypeTableRecord
  2
BYLAYER
 70
0
  3

 72
65
 73
0
 40
0.0
  0
LTYPE
  5
16
100
AcDbSymbolTableRecord
100
AcDbLinetypeTableRecord
  2
CONTINUOUS
 70
64
  3
Solid line
 72
65
 73
0
 40
0.0
  0
LTYPE
  5
1F5
100
AcDbSymbolTableRecord
100
AcDbLinetypeTableRecord
  2
CENTER
 70
64
  3
____ _ ____ _ ____ _ ____ _ ____ _ ____ _ ____
 72
65
 73
4
 40
0.6
 49
0.375
 74
0
 49
-0.075
 74
0
 49
0.075
 74
0
 49
-0.075
 74
0
  0
LTYPE
  5
1F6
100
AcDbSymbolTableRecord
100
AcDbLinetypeTableRecord
  2
HIDDEN
 70
64
  3
- - - - - - - - - - - - - - - - - - - -
 72
65
 73
2
 40
0.2
 49
0.1
 74
0
 49
-0.1
 74
0
  0
LTYPE
  5
1F7
100
AcDbSymbolTableRecord
100
AcDbLinetypeTableRecord
  2
PHANTOM
 70
64
  3
_____ _ _ _____ _ _ _____ _ _ _____
 72
65
 73
6
 40
0.8
 49
0.45
 74
0
 49
-0.05
 74
0
 49
0.1
 74
0
 49
-0.05
 74
0
 49
0.1
 74
0
 49
-0.05
 74
0
  0
LTYPE
  5
1F8
100
AcDbSymbolTableRecord
100
AcDbLinetypeTableRecord
  2
DOT
 70
64
  3
. . . . . . . . . . . . . . . . . . . .
 72
65
 73
2
 40
0.2
 49
0.1
 74
0
 49
-0.1
 74
0
  0
LTYPE
  5
1F9
100
AcDbSymbolTableRecord
100
AcDbLinetypeTableRecord
  2
DASHED
 70
64
  3
- - - - - - - - - - - - - - - - - - - -
 72
65
 73
2
 40
0.2
 49
0.1
 74
0
 49
-0.1
 74
0
  0
ENDTAB
  0
TABLE
  2
LAYER
  5
2
100
AcDbSymbolTable
 70
36
  0
LAYER
  5
10
100
AcDbSymbolTableRecord
100
AcDbLayerTableRecord
  2
0
 70
0
 62
7
  6
CONTINUOUS
370
-3
390
F
  0
LAYER
  5
1FA
100
AcDbSymbolTableRecord
100
AcDbLayerTableRecord
  2
DEFAULT_1
 70
0
 62
7
  6
CENTER
370
-3
390
F
  0
LAYER
  5
1FB
100
AcDbSymbolTableRecord
100
AcDbLayerTableRecord
  2
DEFAULT_2
 70
0
 62
7
  6
HIDDEN
370
-3
390
F
  0
LAYER
  5
1FC
100
AcDbSymbolTableRecord
100
AcDbLayerTableRecord
  2
DEFAULT_3
 70
0
 62
7
  6
PHANTOM
370
-3
390
F
  0
LAYER
  5
1FD
100
AcDbSymbolTableRecord
100
AcDbLayerTableRecord
  2
00_COMPONENTS
 70
0
 62
7
  6
CONTINUOUS
370
-3
390
F
  0
LAYER
  5
1FE
100
AcDbSymbolTableRecord
100
AcDbLayerTableRecord
  2
01_1_DEFAULT_DATUMS
 70
0
 62
7
  6
CONTINUOUS
370
-3
390
F
  0
LAYER
  5
1FF
100
AcDbSymbolTableRecord
100
AcDbLayerTableRecord
  2
01_PLANES
 70
0
 62
7
  6
CONTINUOUS
370
-3
390
F
  0
LAYER
  5
200
100
AcDbSymbolTableRecord
100
AcDbLayerTableRecord
  2
02_COORD_SYS
 70
0
 62
7
  6
CONTINUOUS
370
-3
390
F
  0
LAYER
  5
201
100
AcDbSymbolTableRecord
100
AcDbLayerTableRecord
  2
03_AXES
 70
0
 62
7
  6
CONTINUOUS
370
-3
390
F
  0
LAYER
  5
202
100
AcDbSymbolTableRecord
100
AcDbLayerTableRecord
  2
04_POINTS
 70
0
 62
7
  6
CONTINUOUS
370
-3
390
F
  0
LAYER
  5
203
100
AcDbSymbolTableRecord
100
AcDbLayerTableRecord
  2
05_CURVES
 70
0
 62
7
  6
CONTINUOUS
370
-3
390
F
  0
LAYER
  5
204
100
AcDbSymbolTableRecord
100
AcDbLayerTableRecord
  2
06_SURFS
 70
0
 62
7
  6
CONTINUOUS
370
-3
390
F
  0
LAYER
  5
205
100
AcDbSymbolTableRecord
100
AcDbLayerTableRecord
  2
07_COSMETICS
 70
0
 62
7
  6
CONTINUOUS
370
-3
390
F
  0
LAYER
  5
206
100
AcDbSymbolTableRecord
100
AcDbLayerTableRecord
  2
10_NOTES
 70
0
 62
7
  6
CONTINUOUS
370
-3
390
F
  0
LAYER
  5
207
100
AcDbSymbolTableRecord
100
AcDbLayerTableRecord
  2
11_NOTES_PUB
 70
0
 62
7
  6
CONTINUOUS
370
-3
390
F
  0
LAYER
  5
208
100
AcDbSymbolTableRecord
100
AcDbLayerTableRecord
  2
13_REF_GTOL
 70
0
 62
7
  6
CONTINUOUS
370
-3
390
F
  0
LAYER
  5
209
100
AcDbSymbolTableRecord
100
AcDbLayerTableRecord
  2
16_MISC
 70
0
 62
7
  6
CONTINUOUS
370
-3
390
F
  0
LAYER
  5
20A
100
AcDbSymbolTableRecord
100
AcDbLayerTableRecord
  2
17_NO_PRINT
 70
0
 62
7
  6
CONTINUOUS
370
-3
390
F
  0
LAYER
  5
20B
100
AcDbSymbolTableRecord
100
AcDbLayerTableRecord
  2
18_DATUM_CAMS_JOINTS
 70
0
 62
7
  6
CONTINUOUS
370
-3
390
F
  0
LAYER
  5
20C
100
AcDbSymbolTableRecord
100
AcDbLayerTableRecord
  2
19_DATUM_FUNCTIONAL
 70
0
 62
7
  6
CONTINUOUS
370
-3
390
F
  0
LAYER
  5
20D
100
AcDbSymbolTableRecord
100
AcDbLayerTableRecord
  2
20_DATUM_KINEMATIC_SCHEME
 70
0
 62
7
  6
CONTINUOUS
370
-3
390
F
  0
ENDTAB
  0
TABLE
  2
STYLE
  5
3
100
AcDbSymbolTable
 70
1
  0
STYLE
  5
11
100
AcDbSymbolTableRecord
100
AcDbTextStyleTableRecord
  2
STANDARD
 70
0
 40
0.0
 41
1.0
 50
0.0
 71
0
 42
0.2
  3
ARIAL.TTF
  4

  0
STYLE
  5
20E
100
AcDbSymbolTableRecord
100
AcDbTextStyleTableRecord
  2
TEXTSTYLE_1
 70
0
 40
0.0
 41
0.8
 50
0.0
 71
0
 42
0.2
  3
gdt
  4

  0
ENDTAB
  0
TABLE
  2
VIEW
  5
6
100
AcDbSymbolTable
 70
0
  0
ENDTAB
  0
TABLE
  2
UCS
  5
7
100
AcDbSymbolTable
 70
0
  0
ENDTAB
  0
TABLE
  2
APPID
  5
9
100
AcDbSymbolTable
 70
1
  0
APPID
  5
20F
100
AcDbSymbolTableRecord
100
AcDbRegAppTableRecord
  2
ACAD
 70
0
  0
ENDTAB
  0
TABLE
  2
BLOCK_RECORD
  5
1
100
AcDbSymbolTable
 70
0
  0
BLOCK_RECORD
  5
210
100
AcDbSymbolTableRecord
100
AcDbBlockTableRecord
  2
*Model_Space
  0
BLOCK_RECORD
  5
211
100
AcDbSymbolTableRecord
100
AcDbBlockTableRecord
  2
*Paper_Space
  0
BLOCK_RECORD
  5
212
100
AcDbSymbolTableRecord
100
AcDbBlockTableRecord
  2
_FILLED
  0
ENDTAB
  0
TABLE
  2
DIMSTYLE
  5
A
100
AcDbSymbolTable
 70
1
100
AcDbDimStyleTable
 71
0
  0
DIMSTYLE
105
213
100
AcDbSymbolTableRecord
100
AcDbDimStyleTableRecord
  2
STANDARD
 70
0
  3

  4

 40
1.0
 41
0.4575954259
 42
1.0
 43
0.38
 44
1.0
 45
0.0
 46
0.0
 47
0.01
 48
0.01
140
0.6406335963
141
0.09
142
0.0
143
25.4
144
1.0
145
0.0
146
1.0
147
0.625
 71
1
 72
0
 73
0
 74
0
 75
0
 76
0
 77
1
 78
8
 79
2
170
0
171
1
172
0
173
0
174
0
175
0
176
0
177
0
178
0
270
2
179
2
271
2
272
2
273
2
274
2
275
0
280
0
281
0
282
0
283
1
284
8
285
0
286
0
287
3
288
0
340
11
278
46
341
212
342
212
343
212
344
212
  0
ENDTAB
  0
ENDSEC
  0
SECTION
  2
BLOCKS
  0
BLOCK
  5
20
100
AcDbEntity
  8
0
100
AcDbBlockBegin
  2
*Model_Space
 70
0
 10
0.0
 20
0.0
 30
0.0
  3
*Model_Space
  1

  0
ENDBLK
  5
21
100
AcDbEntity
  8
0
100
AcDbBlockEnd
  0
BLOCK
  5
1C
100
AcDbEntity
  8
0
100
AcDbBlockBegin
  2
*Paper_Space
 70
0
 10
0.0
 20
0.0
 30
0.0
  3
*Paper_Space
  1

  0
ENDBLK
  5
1D
100
AcDbEntity
  8
0
100
AcDbBlockEnd
  0
BLOCK
  5
214
100
AcDbEntity
  8
0
100
AcDbBlockBegin
  2
_FILLED
 70
64
 10
0.0
 20
0.0
  3
_FILLED
  1

  0
SOLID
  5
215
100
AcDbEntity
  8
0
  6
BYBLOCK
 62
0
100
AcDbTrace
 10
0.0
 20
0.0
 11
-1.0
 21
0.25
 12
-1.0
 22
-0.25
 13
-1.0
 23
-0.25
  0
ENDBLK
  5
216
100
AcDbEntity
  8
0
  6
BYBLOCK
 62
0
100
AcDbBlockEnd
  0
ENDSEC
  0
SECTION
  2
ENTITIES
  0
LINE
  5
217
100
AcDbEntity
  8
0
100
AcDbLine
 62
7
  6
BYLAYER
 10
5.3043312547
 20
47.3214642253
 11
4.4592520698
 21
46.8335604429
  0
LINE
  5
218
100
AcDbEntity
  8
0
100
AcDbLine
 62
7
  6
BYLAYER
 10
19.0209826817
 20
7.3095003528
 11
18.0310290665
 21
7.8810374091
  0
LINE
  5
219
100
AcDbEntity
  8
0
100
AcDbLine
 62
7
  6
BYLAYER
 10
8.9093136121
 20
13.1473431424
 11
7.9193599969
 21
13.7188801987
  0
LINE
  5
21A
100
AcDbEntity
  8
0
100
AcDbLine
 62
7
  6
BYLAYER
 10
7.2876674187
 20
15.1151279496
 11
8.2776210339
 21
14.5435908932
  0
LINE
  5
21B
100
AcDbEntity
  8
0
100
AcDbLine
 62
7
  6
BYLAYER
 10
17.3993364883
 20
9.2772851599
 11
18.3892901035
 21
8.7057481036
  0
LINE
  5
21C
100
AcDbEntity
  8
0
100
AcDbLine
 62
7
  6
BYLAYER
 10
4.4592520698
 20
46.8335604429
 11
4.4592520698
 21
32.3828253959
  0
LINE
  5
21D
100
AcDbEntity
  8
0
100
AcDbLine
 62
7
  6
BYLAYER
 10
18.3892901035
 20
9.719571775
 11
17.3993364883
 21
10.2911088313
  0
LINE
  5
21E
100
AcDbEntity
  8
0
100
AcDbLine
 62
7
  6
BYLAYER
 10
8.2776210339
 20
15.5574145646
 11
7.2876674187
 21
16.128951621
  0
LINE
  5
21F
100
AcDbEntity
  8
0
100
AcDbLine
 62
7
  6
BYLAYER
 10
5.4492056851
 20
38.4715908215
 11
5.4492056851
 21
31.8112883396
  0
LINE
  5
220
100
AcDbEntity
  8
0
100
AcDbLine
 62
7
  6
BYLAYER
 10
6.6871134472
 20
36.6506845543
 11
7.6451383495
 21
37.2037971879
  0
LINE
  5
221
100
AcDbEntity
  8
0
100
AcDbLine
 62
7
  6
BYLAYER
 10
7.7119314874
 20
36.5891425399
 11
6.6871134472
 21
35.9974671003
  0
LINE
  5
222
100
AcDbEntity
  8
0
100
AcDbLine
 62
7
  6
BYLAYER
 10
16.4059539395
 20
40.9120843794
 11
15.5608747547
 21
40.4241805969
  0
LINE
  5
223
100
AcDbEntity
  8
0
100
AcDbLine
 62
7
  6
BYLAYER
 10
7.3475645752
 20
35.4806393222
 11
7.2881517089
 21
35.4463374926
  0
LINE
  5
224
100
AcDbEntity
  8
0
100
AcDbLine
 62
7
  6
BYLAYER
 10
6.6871134472
 20
32.3232217436
 11
6.6871134472
 21
36.6506845543
  0
LINE
  5
225
100
AcDbEntity
  8
0
100
AcDbLine
 62
7
  6
BYLAYER
 10
7.2876674187
 20
16.128951621
 11
7.2876674187
 21
15.1151279496
  0
LINE
  5
226
100
AcDbEntity
  8
0
100
AcDbLine
 62
7
  6
BYLAYER
 10
7.2881517089
 20
35.4463374926
 11
7.2881517089
 21
33.4050814498
  0
LINE
  5
227
100
AcDbEntity
  8
0
100
AcDbLine
 62
7
  6
BYLAYER
 10
7.995261434
 20
35.0380967381
 11
7.995261434
 21
37.0016581038
  0
LINE
  5
228
100
AcDbEntity
  8
0
100
AcDbLine
 62
7
  6
BYLAYER
 10
7.2881517089
 20
33.8133129052
 11
6.6871134472
 21
33.4663053744
  0
LINE
  5
229
100
AcDbEntity
  8
0
100
AcDbLine
 62
7
  6
BYLAYER
 10
8.2776210339
 20
15.5574145646
 11
8.2776210339
 21
14.5435908932
  0
LINE
  5
22A
100
AcDbEntity
  8
0
100
AcDbLine
 62
7
  6
BYLAYER
 10
9.5077356395
 20
28.8631871785
 11
7.2876674187
 21
16.128951621
  0
LINE
  5
22B
100
AcDbEntity
  8
0
100
AcDbLine
 62
7
  6
BYLAYER
 10
7.9245614588
 20
33.0376584215
 11
6.6871134472
 21
32.3232217436
  0
LINE
  5
22C
100
AcDbEntity
  8
0
100
AcDbLine
 62
7
  6
BYLAYER
 10
6.6871134472
 20
35.3450480909
 11
6.9369639308
 21
34.1004614404
  0
LINE
  5
22D
100
AcDbEntity
  8
0
100
AcDbLine
 62
7
  6
BYLAYER
 10
9.7630357469
 20
31.9762388089
 11
9.7630357469
 21
35.9810562175
  0
LINE
  5
22E
100
AcDbEntity
  8
0
100
AcDbLine
 62
7
  6
BYLAYER
 10
10.6110843045
 20
35.491446231
 11
10.6110843045
 21
32.4658569493
  0
LINE
  5
22F
100
AcDbEntity
  8
0
100
AcDbLine
 62
7
  6
BYLAYER
 10
8.2776210339
 20
15.5574145646
 11
10.4976892547
 21
28.2916501223
  0
LINE
  5
230
100
AcDbEntity
  8
0
100
AcDbLine
 62
7
  6
BYLAYER
 10
10.6110843045
 20
32.4658569493
 11
9.7630357469
 21
31.9762388089
  0
LINE
  5
231
100
AcDbEntity
  8
0
100
AcDbLine
 62
7
  6
BYLAYER
 10
7.8847179409
 20
37.0654789755
 11
7.995261434
 21
36.5655307462
  0
LINE
  5
232
100
AcDbEntity
  8
0
100
AcDbLine
 62
7
  6
BYLAYER
 10
16.9430912628
 20
21.1906783948
 11
19.0840587449
 21
19.9546182061
  0
LINE
  5
233
100
AcDbEntity
  8
0
100
AcDbLine
 62
7
  6
BYLAYER
 10
13.9349831253
 20
29.5676183573
 11
13.9349831253
 21
33.5724357658
  0
LINE
  5
234
100
AcDbEntity
  8
0
100
AcDbLine
 62
7
  6
BYLAYER
 10
14.5709211394
 20
33.2052850882
 11
14.5709211394
 21
26.5449826063
  0
LINE
  5
235
100
AcDbEntity
  8
0
100
AcDbLine
 62
7
  6
BYLAYER
 10
15.5608747547
 20
40.4241805969
 11
15.5608747547
 21
25.97344555
  0
LINE
  5
236
100
AcDbEntity
  8
0
100
AcDbLine
 62
7
  6
BYLAYER
 10
16.7987825168
 20
30.8128417647
 11
18.7079628773
 21
31.9151009802
  0
LINE
  5
237
100
AcDbEntity
  8
0
100
AcDbLine
 62
7
  6
BYLAYER
 10
17.2579157209
 20
30.6696498997
 11
17.6114676395
 21
30.8737719766
  0
LINE
  5
238
100
AcDbEntity
  8
0
100
AcDbLine
 62
7
  6
BYLAYER
 10
17.2471007273
 20
29.7652687589
 11
18.3892883371
 21
30.4247071466
  0
LINE
  5
239
100
AcDbEntity
  8
0
100
AcDbLine
 62
7
  6
BYLAYER
 10
17.8430759925
 20
22.7495329379
 11
19.4132761429
 21
21.8429979669
  0
LINE
  5
23A
100
AcDbEntity
  8
0
100
AcDbLine
 62
7
  6
BYLAYER
 10
20.6093583243
 20
22.4538073326
 11
19.6194047091
 21
23.025344389
  0
LINE
  5
23B
100
AcDbEntity
  8
0
100
AcDbLine
 62
7
  6
BYLAYER
 10
10.4976892547
 20
28.2916501223
 11
9.5077356395
 21
28.8631871786
  0
LINE
  5
23C
100
AcDbEntity
  8
0
100
AcDbLine
 62
7
  6
BYLAYER
 10
15.8715432357
 20
25.2867663282
 11
14.8815896205
 21
25.8583033846
  0
LINE
  5
23D
100
AcDbEntity
  8
0
100
AcDbLine
 62
7
  6
BYLAYER
 10
5.7598741661
 20
31.1246091179
 11
4.7699205509
 21
31.6961461742
  0
LINE
  5
23E
100
AcDbEntity
  8
0
100
AcDbLine
 62
7
  6
BYLAYER
 10
16.7987825168
 20
26.4853789539
 11
16.7987825168
 21
30.8128417647
  0
LINE
  5
23F
100
AcDbEntity
  8
0
100
AcDbLine
 62
7
  6
BYLAYER
 10
17.3993364883
 20
10.2911088313
 11
17.3993364883
 21
9.2772851599
  0
LINE
  5
240
100
AcDbEntity
  8
0
100
AcDbLine
 62
7
  6
BYLAYER
 10
16.8365000828
 20
28.3850908771
 11
16.7987825168
 21
28.3633147602
  0
LINE
  5
241
100
AcDbEntity
  8
0
100
AcDbLine
 62
7
  6
BYLAYER
 10
18.5665338668
 20
28.6490682103
 11
18.3892883371
 21
28.5467360669
  0
LINE
  5
242
100
AcDbEntity
  8
0
100
AcDbLine
 62
7
  6
BYLAYER
 10
17.4729098328
 20
28.0176678489
 11
16.7987825168
 21
27.6284625848
  0
LINE
  5
243
100
AcDbEntity
  8
0
100
AcDbLine
 62
7
  6
BYLAYER
 10
18.3892883371
 20
28.3834511038
 11
17.6143207805
 21
27.9360260471
  0
LINE
  5
244
100
AcDbEntity
  8
0
100
AcDbLine
 62
7
  6
BYLAYER
 10
19.7180012925
 20
24.5107903195
 11
16.0321667806
 21
25.2272723603
  0
LINE
  5
245
100
AcDbEntity
  8
0
100
AcDbLine
 62
7
  6
BYLAYER
 10
20.0392461642
 20
24.3917985405
 11
19.7180012925
 21
24.5107903195
  0
LINE
  5
246
100
AcDbEntity
  8
0
100
AcDbLine
 62
7
  6
BYLAYER
 10
16.0321667806
 20
25.2272723603
 11
15.8715568655
 21
25.2867899571
  0
LINE
  5
247
100
AcDbEntity
  8
0
100
AcDbLine
 62
7
  6
BYLAYER
 10
4.4592520698
 20
32.3828253959
 11
5.4492056851
 21
31.8112883396
  0
LINE
  5
248
100
AcDbEntity
  8
0
100
AcDbLine
 62
7
  6
BYLAYER
 10
14.5709211394
 20
26.5449826063
 11
15.5608747547
 21
25.97344555
  0
LINE
  5
249
100
AcDbEntity
  8
0
100
AcDbLine
 62
7
  6
BYLAYER
 10
16.7987825168
 20
28.5729743604
 11
16.8365000828
 21
28.3850908771
  0
LINE
  5
24A
100
AcDbEntity
  8
0
100
AcDbLine
 62
7
  6
BYLAYER
 10
17.6143207805
 20
27.9360260471
 11
17.2471007273
 21
29.7652687589
  0
LINE
  5
24B
100
AcDbEntity
  8
0
100
AcDbLine
 62
7
  6
BYLAYER
 10
18.3892883371
 20
30.4247071466
 11
18.3892883371
 21
28.3834511038
  0
LINE
  5
24C
100
AcDbEntity
  8
0
100
AcDbLine
 62
7
  6
BYLAYER
 10
18.3892901035
 20
9.719571775
 11
18.3892901035
 21
8.7057481036
  0
LINE
  5
24D
100
AcDbEntity
  8
0
100
AcDbLine
 62
7
  6
BYLAYER
 10
19.556487482
 20
28.077531154
 11
16.7987825168
 21
26.4853789539
  0
LINE
  5
24E
100
AcDbEntity
  8
0
100
AcDbLine
 62
7
  6
BYLAYER
 10
9.9275770946
 20
30.2296413302
 11
9.606332223
 21
30.3486331091
  0
LINE
  5
24F
100
AcDbEntity
  8
0
100
AcDbLine
 62
7
  6
BYLAYER
 10
5.9204977111
 20
31.0651151499
 11
5.7598877959
 21
31.1246327467
  0
LINE
  5
250
100
AcDbEntity
  8
0
100
AcDbLine
 62
7
  6
BYLAYER
 10
34.3636563854
 20
17.6427134126
 11
33.7979686053
 21
17.9693060162
  0
LINE
  5
251
100
AcDbEntity
  8
0
100
AcDbLine
 62
7
  6
BYLAYER
 10
34.5136538404
 20
17.657571778
 11
33.9479660603
 21
17.9841643816
  0
LINE
  5
252
100
AcDbEntity
  8
0
100
AcDbLine
 62
7
  6
BYLAYER
 10
14.5709211394
 20
29.2004676796
 11
13.9349831253
 21
29.5676183573
  0
LINE
  5
253
100
AcDbEntity
  8
0
100
AcDbLine
 62
7
  6
BYLAYER
 10
9.7630357469
 20
31.9762388089
 11
7.2881517089
 21
33.4050814498
  0
LINE
  5
254
100
AcDbEntity
  8
0
100
AcDbLine
 62
7
  6
BYLAYER
 10
17.6143207805
 20
27.9360260471
 11
16.8365000828
 21
28.3850908771
  0
LINE
  5
255
100
AcDbEntity
  8
0
100
AcDbLine
 62
7
  6
BYLAYER
 10
6.9369639308
 20
34.1004614404
 11
7.2881517089
 21
33.8977076691
  0
LINE
  5
256
100
AcDbEntity
  8
0
100
AcDbLine
 62
7
  6
BYLAYER
 10
17.9421439638
 20
31.4729578635
 11
18.1424069161
 21
30.567240977
  0
LINE
  5
257
100
AcDbEntity
  8
0
100
AcDbLine
 62
7
  6
BYLAYER
 10
18.3892883371
 20
29.4506856209
 11
18.5665338668
 21
28.6490682103
  0
LINE
  5
258
100
AcDbEntity
  8
0
100
AcDbLine
 62
7
  6
BYLAYER
 10
19.556487482
 20
28.077531154
 11
18.7079628773
 21
31.9151009802
  0
LINE
  5
259
100
AcDbEntity
  8
0
100
AcDbLine
 62
7
  6
BYLAYER
 10
16.4059539395
 20
40.9120843794
 11
17.3180023007
 21
36.17448354
  0
LINE
  5
25A
100
AcDbEntity
  8
0
100
AcDbLine
 62
7
  6
BYLAYER
 10
19.6194047091
 20
23.0253443889
 11
17.3993364883
 21
10.2911088313
  0
LINE
  5
25B
100
AcDbEntity
  8
0
100
AcDbLine
 62
7
  6
BYLAYER
 10
9.606332223
 20
30.3486331091
 11
5.9204977111
 21
31.0651151499
  0
LINE
  5
25C
100
AcDbEntity
  8
0
100
AcDbLine
 62
7
  6
BYLAYER
 10
19.556487482
 20
28.077531154
 11
18.5665338668
 21
28.6490682103
  0
LINE
  5
25D
100
AcDbEntity
  8
0
100
AcDbLine
 62
7
  6
BYLAYER
 10
7.995261434
 20
35.0380967381
 11
7.2881517089
 21
35.4463374926
  0
LINE
  5
25E
100
AcDbEntity
  8
0
100
AcDbLine
 62
7
  6
BYLAYER
 10
17.2471007273
 20
29.7652687589
 11
16.7987825168
 21
30.0240995429
  0
LINE
  5
25F
100
AcDbEntity
  8
0
100
AcDbLine
 62
7
  6
BYLAYER
 10
6.6871134472
 20
35.8619423325
 11
7.3475645752
 21
35.4806393222
  0
LINE
  5
260
100
AcDbEntity
  8
0
100
AcDbLine
 62
7
  6
BYLAYER
 10
17.2579157209
 20
30.6696498997
 11
16.9043376417
 21
30.8737836807
  0
LINE
  5
261
100
AcDbEntity
  8
0
100
AcDbLine
 62
7
  6
BYLAYER
 10
18.3892901035
 20
9.719571775
 11
20.6093583243
 21
22.4538073326
  0
LINE
  5
262
100
AcDbEntity
  8
0
100
AcDbLine
 62
7
  6
BYLAYER
 10
18.3892883371
 20
30.4247071466
 11
17.6114676395
 21
30.8737719766
  0
LINE
  5
263
100
AcDbEntity
  8
0
100
AcDbLine
 62
7
  6
BYLAYER
 10
7.7119314874
 20
36.5891425399
 11
7.995261434
 21
36.4255656195
  0
LINE
  5
264
100
AcDbEntity
  8
0
100
AcDbLine
 62
7
  6
BYLAYER
 10
5.4492056851
 20
38.4715908215
 11
14.5709211394
 21
33.2052850882
  0
LINE
  5
265
100
AcDbEntity
  8
0
100
AcDbLine
 62
7
  6
BYLAYER
 10
17.3180023007
 20
36.17448354
 11
17.7382560325
 21
35.8517296528
  0
LINE
  5
266
100
AcDbEntity
  8
0
100
AcDbLine
 62
7
  6
BYLAYER
 10
18.7618218848
 20
18.1062785729
 11
10.4342877374
 21
13.2984031903
  0
LINE
  5
267
100
AcDbEntity
  8
0
100
AcDbLine
 62
7
  6
BYLAYER
 10
19.9479303002
 20
35.7783731887
 11
18.957976685
 21
36.3499102451
  0
LINE
  5
268
100
AcDbEntity
  8
0
100
AcDbLine
 62
7
  6
BYLAYER
 10
20.3162094741
 20
35.7661473354
 11
19.3262558589
 21
36.3376843917
  0
LINE
  5
269
100
AcDbEntity
  8
0
100
AcDbLine
 62
7
  6
BYLAYER
 10
20.3161940421
 20
35.7661206391
 11
20.4102169717
 21
35.6860267469
  0
LINE
  5
26A
100
AcDbEntity
  8
0
100
AcDbLine
 62
7
  6
BYLAYER
 10
30.6867164319
 20
18.1958358214
 11
31.5352410366
 21
16.0097367971
  0
LINE
  5
26B
100
AcDbEntity
  8
0
100
AcDbLine
 62
7
  6
BYLAYER
 10
29.8967997653
 20
21.0790542617
 11
30.4038784298
 21
19.7726405555
  0
LINE
  5
26C
100
AcDbEntity
  8
0
100
AcDbLine
 62
7
  6
BYLAYER
 10
15.5608747547
 20
40.4241805969
 11
4.4592520698
 21
46.8335604429
  0
LINE
  5
26D
100
AcDbEntity
  8
0
100
AcDbLine
 62
7
  6
BYLAYER
 10
30.6867164319
 20
18.1958358214
 11
30.4038784298
 21
19.7726405555
  0
LINE
  5
26E
100
AcDbEntity
  8
0
100
AcDbLine
 62
7
  6
BYLAYER
 10
30.4038784298
 20
19.7726405555
 11
30.4038784298
 21
13.1520001299
  0
LINE
  5
26F
100
AcDbEntity
  8
0
100
AcDbLine
 62
7
  6
BYLAYER
 10
30.6867164319
 20
18.1958358214
 11
30.6867164319
 21
13.8051887365
  0
LINE
  5
270
100
AcDbEntity
  8
0
100
AcDbLine
 62
7
  6
BYLAYER
 10
16.4059539395
 20
40.9120843794
 11
5.3043312547
 21
47.3214642253
  0
LINE
  5
271
100
AcDbEntity
  8
0
100
AcDbLine
 62
7
  6
BYLAYER
 10
34.5757875366
 20
16.2954823079
 11
34.5757875366
 21
17.5202359336
  0
LINE
  5
272
100
AcDbEntity
  8
0
100
AcDbLine
 62
7
  6
BYLAYER
 10
33.7979686053
 20
17.9693060162
 11
31.3281222063
 21
16.5433480447
  0
LINE
  5
273
100
AcDbEntity
  8
0
100
AcDbLine
 62
7
  6
BYLAYER
 10
30.4038784298
 20
13.1520001299
 11
30.6867164319
 21
13.8051887365
  0
LINE
  5
274
100
AcDbEntity
  8
0
100
AcDbLine
 62
7
  6
BYLAYER
 10
34.3636563854
 20
17.6427134126
 11
31.5352410366
 21
16.0097367971
  0
LINE
  5
275
100
AcDbEntity
  8
0
100
AcDbLine
 62
7
  6
BYLAYER
 10
30.6867164319
 20
13.8051887365
 11
34.3636563854
 21
15.9280583366
  0
LINE
  5
276
100
AcDbEntity
  8
0
100
AcDbLine
 62
7
  6
BYLAYER
 10
30.4038784298
 20
13.1520001299
 11
20.545956807
 21
7.4605604007
  0
ARC
  5
277
100
AcDbEntity
  8
0
100
AcDbCircle
 62
7
  6
BYLAYER
 10
-28.0818528463
 20
7.1352810649
 40
51.7228061198
100
AcDbArc
 50
27.0773517328
 51
27.8610008049
  0
SPLINE
  5
278
100
AcDbEntity
  8
0
100
AcDbSpline
 62
7
  6
BYLAYER
 70
0
 71
3
 72
13
 73
9
 74
0
 42
0.0000001
 43
0.0000001
 44
0.0000000001
 40
0.0
 40
0.0
 40
0.0
 40
0.0
 40
0.1081040887
 40
0.2182391431
 40
0.3322401274
 40
0.4516646903
 40
0.7106947514
 40
1.0
 40
1.0
 40
1.0
 40
1.0
 10
10.7306124118
 20
16.7990380741
 30
0.0
 10
10.7125768692
 20
16.8094506548
 30
0.0
 10
10.6742760142
 20
16.8273621131
 30
0.0
 10
10.6123293392
 20
16.8445005656
 30
0.0
 10
10.5462925549
 20
16.8518837341
 30
0.0
 10
10.451191445
 20
16.8485697792
 30
0.0
 10
10.3248547749
 20
16.818107407
 30
0.0
 10
10.2288905095
 20
16.7724283887
 30
0.0
 10
10.1806244881
 20
16.7445621546
 30
0.0
  0
SPLINE
  5
279
100
AcDbEntity
  8
0
100
AcDbSpline
 62
7
  6
BYLAYER
 70
0
 71
3
 72
14
 73
10
 74
0
 42
0.0000001
 43
0.0000001
 44
0.0000000001
 40
0.0
 40
0.0
 40
0.0
 40
0.0
 40
0.1484971279
 40
0.2895508865
 40
0.5484435584
 40
0.6678209504
 40
0.7817738566
 40
0.8918756576
 40
1.0
 40
1.0
 40
1.0
 40
1.0
 10
4.4592520698
 20
32.3828253959
 30
0.0
 10
4.4592520698
 20
32.3438015652
 30
0.0
 10
4.4624311764
 20
32.2676351235
 30
0.0
 10
4.4818110375
 20
32.1247250004
 30
0.0
 10
4.5209164115
 20
31.9923746011
 30
0.0
 10
4.5818167257
 20
31.8778298802
 30
0.0
 10
4.6355515603
 20
31.8048698824
 30
0.0
 10
4.698011502
 20
31.7433583899
 30
0.0
 10
4.7453163279
 20
31.7103588095
 30
0.0
 10
4.7699296811
 20
31.6961620069
 30
0.0
  0
SPLINE
  5
27A
100
AcDbEntity
  8
0
100
AcDbSpline
 62
7
  6
BYLAYER
 70
0
 71
3
 72
14
 73
10
 74
0
 42
0.0000001
 43
0.0000001
 44
0.0000000001
 40
0.0
 40
0.0
 40
0.0
 40
0.0
 40
0.1485929534
 40
0.289631589
 40
0.5484429836
 40
0.6678470431
 40
0.7818419996
 40
0.8919399179
 40
1.0
 40
1.0
 40
1.0
 40
1.0
 10
7.2876674187
 20
15.1151279496
 30
0.0
 10
7.2876674187
 20
15.0357276446
 30
0.0
 10
7.2941081458
 20
14.8808096956
 30
0.0
 10
7.3335368745
 20
14.5902277248
 30
0.0
 10
7.4130324614
 20
14.3211392076
 30
0.0
 10
7.5369324171
 20
14.0882789355
 30
0.0
 10
7.6461647979
 20
13.9398580054
 30
0.0
 10
7.7732253371
 20
13.814859359
 30
0.0
 10
7.8693565744
 20
13.7477550461
 30
0.0
 10
7.9193626004
 20
13.7188847081
 30
0.0
  0
SPLINE
  5
27B
100
AcDbEntity
  8
0
100
AcDbSpline
 62
7
  6
BYLAYER
 70
0
 71
3
 72
11
 73
7
 74
0
 42
0.0000001
 43
0.0000001
 44
0.0000000001
 40
0.0
 40
0.0
 40
0.0
 40
0.0
 40
0.2467594103
 40
0.4999995469
 40
0.7532399177
 40
1.0
 40
1.0
 40
1.0
 40
1.0
 10
9.909304978
 20
16.4892247124
 30
0.0
 10
9.8894141633
 20
16.4222806939
 30
0.0
 10
9.8404194999
 20
16.2890975822
 30
0.0
 10
9.744166973
 20
16.0984008925
 30
0.0
 10
9.6271497901
 20
15.9196920897
 30
0.0
 10
9.5363099969
 20
15.8106672208
 30
0.0
 10
9.488281468
 20
15.759967782
 30
0.0
  0
SPLINE
  5
27C
100
AcDbEntity
  8
0
100
AcDbSpline
 62
7
  6
BYLAYER
 70
0
 71
3
 72
13
 73
9
 74
0
 42
0.0000001
 43
0.0000001
 44
0.0000000001
 40
0.0
 40
0.0
 40
0.0
 40
0.0
 40
0.1081040887
 40
0.2182391431
 40
0.3322401274
 40
0.4516646903
 40
0.7106947514
 40
1.0
 40
1.0
 40
1.0
 40
1.0
 10
20.8422814814
 20
10.9611952844
 30
0.0
 10
20.8242459388
 20
10.9716078651
 30
0.0
 10
20.7859450838
 20
10.9895193235
 30
0.0
 10
20.7239984088
 20
11.006657776
 30
0.0
 10
20.6579616245
 20
11.0140409445
 30
0.0
 10
20.5628605146
 20
11.0107269895
 30
0.0
 10
20.4365238445
 20
10.9802646173
 30
0.0
 10
20.3405595791
 20
10.9345855991
 30
0.0
 10
20.2922935577
 20
10.9067193649
 30
0.0
  0
SPLINE
  5
27D
100
AcDbEntity
  8
0
100
AcDbSpline
 62
7
  6
BYLAYER
 70
0
 71
3
 72
11
 73
7
 74
0
 42
0.0000001
 43
0.0000001
 44
0.0000000001
 40
0.0
 40
0.0
 40
0.0
 40
0.0
 40
0.2284084006
 40
0.4664065204
 40
0.7222041431
 40
1.0
 40
1.0
 40
1.0
 40
1.0
 10
19.3262432892
 20
36.3376626508
 30
0.0
 10
19.3012120852
 20
36.352134702
 30
0.0
 10
19.2459340549
 20
36.3749971773
 30
0.0
 10
19.1545839636
 20
36.3878561648
 30
0.0
 10
19.0565763112
 20
36.3797773295
 30
0.0
 10
18.9910800581
 20
36.3617753787
 30
0.0
 10
18.957976685
 20
36.3499102451
 30
0.0
  0
SPLINE
  5
27E
100
AcDbEntity
  8
0
100
AcDbSpline
 62
7
  6
BYLAYER
 70
0
 71
3
 72
13
 73
9
 74
0
 42
0.0000001
 43
0.0000001
 44
0.0000000001
 40
0.0
 40
0.0
 40
0.0
 40
0.0
 40
0.1048627427
 40
0.2149015805
 40
0.3306917819
 40
0.4525576793
 40
0.7146486827
 40
1.0
 40
1.0
 40
1.0
 40
1.0
 10
9.3054794966
 20
30.442590633
 30
0.0
 10
9.3360512692
 20
30.3946644906
 30
0.0
 10
9.3921088565
 20
30.2921110407
 30
0.0
 10
9.4585275288
 20
30.1252003491
 30
0.0
 10
9.508805836
 20
29.9431804029
 30
0.0
 10
9.5549092839
 20
29.6758406078
 30
0.0
 10
9.5675332786
 20
29.3114742939
 30
0.0
 10
9.5343034519
 20
29.0155792441
 30
0.0
 10
9.5077356395
 20
28.8631871785
 30
0.0
  0
SPLINE
  5
27F
100
AcDbEntity
  8
0
100
AcDbSpline
 62
7
  6
BYLAYER
 70
0
 71
3
 72
13
 73
9
 74
0
 42
0.0000001
 43
0.0000001
 44
0.0000000001
 40
0.0
 40
0.0
 40
0.0
 40
0.0
 40
0.1048627427
 40
0.2149015805
 40
0.3306917819
 40
0.4525576793
 40
0.7146486827
 40
1.0
 40
1.0
 40
1.0
 40
1.0
 10
19.4171485662
 20
24.6047478434
 30
0.0
 10
19.4477203388
 20
24.556821701
 30
0.0
 10
19.5037779261
 20
24.4542682511
 30
0.0
 10
19.5701965983
 20
24.2873575595
 30
0.0
 10
19.6204749055
 20
24.1053376133
 30
0.0
 10
19.6665783535
 20
23.8379978182
 30
0.0
 10
19.6792023482
 20
23.4736315043
 30
0.0
 10
19.6459725215
 20
23.1777364545
 30
0.0
 10
19.6194047091
 20
23.0253443889
 30
0.0
  0
SPLINE
  5
280
100
AcDbEntity
  8
0
100
AcDbSpline
 62
7
  6
BYLAYER
 70
0
 71
3
 72
14
 73
10
 74
0
 42
0.0000001
 43
0.0000001
 44
0.0000000001
 40
0.0
 40
0.0
 40
0.0
 40
0.0
 40
0.1485921396
 40
0.2896301358
 40
0.5484410137
 40
0.6678452279
 40
0.7818406108
 40
0.8919391656
 40
1.0
 40
1.0
 40
1.0
 40
1.0
 10
10.4342877374
 20
13.2984031903
 30
0.0
 10
10.3655280594
 20
13.2587050087
 30
0.0
 10
10.2281507967
 20
13.1868274028
 30
0.0
 10
9.9567966323
 20
13.075687931
 30
0.0
 10
9.6840227738
 20
13.0099916862
 30
0.0
 10
9.4204203791
 20
13.0008615012
 30
0.0
 10
9.2372744096
 20
13.0212470414
 30
0.0
 10
9.0654975154
 20
13.0687817699
 30
0.0
 10
8.9593206076
 20
13.1184782633
 30
0.0
 10
8.9093162156
 20
13.1473476518
 30
0.0
  0
SPLINE
  5
281
100
AcDbEntity
  8
0
100
AcDbSpline
 62
7
  6
BYLAYER
 70
0
 71
3
 72
13
 73
9
 74
0
 42
0.0000001
 43
0.0000001
 44
0.0000000001
 40
0.0
 40
0.0
 40
0.0
 40
0.0
 40
0.2893067043
 40
0.5483372018
 40
0.6677616121
 40
0.7817621933
 40
0.8918966414
 40
1.0
 40
1.0
 40
1.0
 40
1.0
 10
9.4028102671
 20
15.3973409265
 30
0.0
 10
9.4028102671
 20
15.341605716
 30
0.0
 10
9.4112333185
 20
15.2356541147
 30
0.0
 10
9.448022029
 20
15.1110068546
 30
0.0
 10
9.4927046579
 20
15.0269867194
 30
0.0
 10
9.532118885
 20
14.9734871013
 30
0.0
 10
9.5779366375
 20
14.9284078684
 30
0.0
 10
9.6126004276
 20
14.9041938411
 30
0.0
 10
9.6306365643
 20
14.8937809174
 30
0.0
  0
SPLINE
  5
282
100
AcDbEntity
  8
0
100
AcDbSpline
 62
7
  6
BYLAYER
 70
0
 71
3
 72
15
 73
11
 74
0
 42
0.0000001
 43
0.0000001
 44
0.0000000001
 40
0.0
 40
0.0
 40
0.0
 40
0.0
 40
0.1141229605
 40
0.2373462928
 40
0.366971064
 40
0.4999983279
 40
0.633025824
 40
0.762651271
 40
0.8858756957
 40
1.0
 40
1.0
 40
1.0
 40
1.0
 10
10.1806244881
 20
16.7445621546
 30
0.0
 10
10.1273917026
 20
16.713828375
 30
0.0
 10
10.0222238432
 20
16.6400774482
 30
0.0
 10
9.877488474
 20
16.5047145344
 30
0.0
 10
9.744136846
 20
16.3446429309
 30
0.0
 10
9.6271387664
 20
16.1659736782
 30
0.0
 10
9.530906444
 20
15.9753149591
 30
0.0
 10
9.4589566013
 20
15.779791965
 30
0.0
 10
9.4140966767
 20
15.5867642666
 30
0.0
 10
9.4028102671
 20
15.4588094846
 30
0.0
 10
9.4028102671
 20
15.3973409265
 30
0.0
  0
SPLINE
  5
283
100
AcDbEntity
  8
0
100
AcDbSpline
 62
7
  6
BYLAYER
 70
0
 71
3
 72
11
 73
7
 74
0
 42
0.0000001
 43
0.0000001
 44
0.0000000001
 40
0.0
 40
0.0
 40
0.0
 40
0.0
 40
0.2177456295
 40
0.4508837762
 40
0.7104602913
 40
1.0
 40
1.0
 40
1.0
 40
1.0
 10
33.9479576676
 20
17.9841498445
 30
0.0
 10
33.938063935
 20
17.9898618627
 30
0.0
 10
33.9153390113
 20
17.998137812
 30
0.0
 10
33.8775600463
 20
17.9990864961
 30
0.0
 10
33.8373173266
 20
17.9893455706
 30
0.0
 10
33.8111243977
 20
17.9769014712
 30
0.0
 10
33.7979686053
 20
17.9693060162
 30
0.0
  0
SPLINE
  5
284
100
AcDbEntity
  8
0
100
AcDbSpline
 62
7
  6
BYLAYER
 70
0
 71
3
 72
11
 73
7
 74
0
 42
0.0000001
 43
0.0000001
 44
0.0000000001
 40
0.0
 40
0.0
 40
0.0
 40
0.0
 40
0.2177442246
 40
0.4508817658
 40
0.7104588047
 40
1.0
 40
1.0
 40
1.0
 40
1.0
 10
34.5136454475
 20
17.657557241
 30
0.0
 10
34.5235395051
 20
17.6518450281
 30
0.0
 10
34.5420700384
 20
17.6363023274
 30
0.0
 10
34.5617819913
 20
17.6040579772
 30
0.0
 10
34.5734679423
 20
17.564334642
 30
0.0
 10
34.5757875366
 20
17.5354275913
 30
0.0
 10
34.5757875366
 20
17.5202359336
 30
0.0
  0
SPLINE
  5
285
100
AcDbEntity
  8
0
100
AcDbSpline
 62
7
  6
BYLAYER
 70
0
 71
3
 72
15
 73
11
 74
0
 42
0.0000001
 43
0.0000001
 44
0.0000000001
 40
0.0
 40
0.0
 40
0.0
 40
0.0
 40
0.1141229605
 40
0.2373462928
 40
0.366971064
 40
0.4999983279
 40
0.633025824
 40
0.762651271
 40
0.8858756957
 40
1.0
 40
1.0
 40
1.0
 40
1.0
 10
20.2922935577
 20
10.9067193649
 30
0.0
 10
20.2390607722
 20
10.8759855854
 30
0.0
 10
20.1338929128
 20
10.8022346586
 30
0.0
 10
19.9891575436
 20
10.6668717447
 30
0.0
 10
19.8558059156
 20
10.5068001412
 30
0.0
 10
19.738807836
 20
10.3281308885
 30
0.0
 10
19.6425755136
 20
10.1374721695
 30
0.0
 10
19.5706256709
 20
9.9419491754
 30
0.0
 10
19.5257657463
 20
9.748921477
 30
0.0
 10
19.5144793367
 20
9.6209666949
 30
0.0
 10
19.5144793367
 20
9.5594981368
 30
0.0
  0
SPLINE
  5
286
100
AcDbEntity
  8
0
100
AcDbSpline
 62
7
  6
BYLAYER
 70
0
 71
3
 72
13
 73
9
 74
0
 42
0.0000001
 43
0.0000001
 44
0.0000000001
 40
0.0
 40
0.0
 40
0.0
 40
0.0
 40
0.2893067043
 40
0.5483372018
 40
0.6677616121
 40
0.7817621933
 40
0.8918966414
 40
1.0
 40
1.0
 40
1.0
 40
1.0
 10
19.5144793367
 20
9.5594981368
 30
0.0
 10
19.5144793367
 20
9.5037629264
 30
0.0
 10
19.5229023881
 20
9.397811325
 30
0.0
 10
19.5596910986
 20
9.273164065
 30
0.0
 10
19.6043737275
 20
9.1891439298
 30
0.0
 10
19.6437879546
 20
9.1356443116
 30
0.0
 10
19.6896057071
 20
9.0905650788
 30
0.0
 10
19.7242694972
 20
9.0663510514
 30
0.0
 10
19.7423056339
 20
9.0559381278
 30
0.0
  0
SPLINE
  5
287
100
AcDbEntity
  8
0
100
AcDbSpline
 62
7
  6
BYLAYER
 70
0
 71
3
 72
11
 73
7
 74
0
 42
0.0000001
 43
0.0000001
 44
0.0000000001
 40
0.0
 40
0.0
 40
0.0
 40
0.0
 40
0.2719307899
 40
0.5279380481
 40
0.7696917283
 40
1.0
 40
1.0
 40
1.0
 40
1.0
 10
18.957976685
 20
36.3499102451
 30
0.0
 10
18.815808459
 20
36.2989533536
 30
0.0
 10
18.5340934666
 20
36.2148624845
 30
0.0
 10
18.1111351089
 20
36.1447627665
 30
0.0
 10
17.7054345069
 20
36.1358457153
 30
0.0
 10
17.4442947984
 20
36.1718284479
 30
0.0
 10
17.3196064222
 20
36.2003474993
 30
0.0
  0
SPLINE
  5
288
100
AcDbEntity
  8
0
100
AcDbSpline
 62
7
  6
BYLAYER
 70
0
 71
3
 72
15
 73
11
 74
0
 42
0.0000001
 43
0.0000001
 44
0.0000000001
 40
0.0
 40
0.0
 40
0.0
 40
0.0
 40
0.1210472503
 40
0.242274433
 40
0.3640842819
 40
0.4870173764
 40
0.611835081
 40
0.7393106066
 40
0.8690458429
 40
1.0
 40
1.0
 40
1.0
 40
1.0
 10
20.4102169717
 20
35.686026747
 30
0.0
 10
20.8597563342
 20
35.1417976821
 30
0.0
 10
21.7638222578
 20
34.0561164464
 30
0.0
 10
23.1091457387
 20
32.4135099405
 30
0.0
 10
24.4214020961
 20
30.7300328212
 30
0.0
 10
25.6783576391
 20
28.9785717918
 30
0.0
 10
26.8568174084
 20
27.1331026614
 30
0.0
 10
27.9277811043
 20
25.1781587494
 30
0.0
 10
28.9293004627
 20
23.1478883034
 30
0.0
 10
29.573292753
 20
21.7707998672
 30
0.0
 10
29.8967997654
 20
21.0790542617
 30
0.0
  0
SPLINE
  5
289
100
AcDbEntity
  8
0
100
AcDbSpline
 62
7
  6
BYLAYER
 70
0
 71
3
 72
14
 73
10
 74
0
 42
0.0000001
 43
0.0000001
 44
0.0000000001
 40
0.0
 40
0.0
 40
0.0
 40
0.0
 40
0.1484971279
 40
0.2895508865
 40
0.5484435584
 40
0.6678209504
 40
0.7817738566
 40
0.8918756576
 40
1.0
 40
1.0
 40
1.0
 40
1.0
 10
14.5709211394
 20
26.5449826063
 30
0.0
 10
14.5709211394
 20
26.5059587755
 30
0.0
 10
14.574100246
 20
26.4297923338
 30
0.0
 10
14.5934801071
 20
26.2868822107
 30
0.0
 10
14.6325854811
 20
26.1545318115
 30
0.0
 10
14.6934857953
 20
26.0399870906
 30
0.0
 10
14.7472206299
 20
25.9670270927
 30
0.0
 10
14.8096805716
 20
25.9055156002
 30
0.0
 10
14.8569853975
 20
25.8725160199
 30
0.0
 10
14.8815987507
 20
25.8583192172
 30
0.0
  0
SPLINE
  5
28A
100
AcDbEntity
  8
0
100
AcDbSpline
 62
7
  6
BYLAYER
 70
0
 71
3
 72
14
 73
10
 74
0
 42
0.0000001
 43
0.0000001
 44
0.0000000001
 40
0.0
 40
0.0
 40
0.0
 40
0.0
 40
0.1485929534
 40
0.289631589
 40
0.5484429836
 40
0.6678470431
 40
0.7818419996
 40
0.8919399179
 40
1.0
 40
1.0
 40
1.0
 40
1.0
 10
17.3993364883
 20
9.2772851599
 30
0.0
 10
17.3993364883
 20
9.197884855
 30
0.0
 10
17.4057772154
 20
9.042966906
 30
0.0
 10
17.4452059441
 20
8.7523849351
 30
0.0
 10
17.524701531
 20
8.483296418
 30
0.0
 10
17.6486014867
 20
8.2504361458
 30
0.0
 10
17.7578338675
 20
8.1020152158
 30
0.0
 10
17.8848944067
 20
7.9770165693
 30
0.0
 10
17.981025644
 20
7.9099122565
 30
0.0
 10
18.03103167
 20
7.8810419185
 30
0.0
  0
SPLINE
  5
28B
100
AcDbEntity
  8
0
100
AcDbSpline
 62
7
  6
BYLAYER
 70
0
 71
3
 72
14
 73
10
 74
0
 42
0.0000001
 43
0.0000001
 44
0.0000000001
 40
0.0
 40
0.0
 40
0.0
 40
0.0
 40
0.1485921396
 40
0.2896301358
 40
0.5484410137
 40
0.6678452279
 40
0.7818406108
 40
0.8919391656
 40
1.0
 40
1.0
 40
1.0
 40
1.0
 10
20.545956807
 20
7.4605604007
 30
0.0
 10
20.477197129
 20
7.420862219
 30
0.0
 10
20.3398198663
 20
7.3489846132
 30
0.0
 10
20.0684657019
 20
7.2378451413
 30
0.0
 10
19.7956918434
 20
7.1721488965
 30
0.0
 10
19.5320894487
 20
7.1630187116
 30
0.0
 10
19.3489434793
 20
7.1834042517
 30
0.0
 10
19.177166585
 20
7.2309389803
 30
0.0
 10
19.0709896772
 20
7.2806354736
 30
0.0
 10
19.0209852852
 20
7.3095048622
 30
0.0
  0
SPLINE
  5
28C
100
AcDbEntity
  8
0
100
AcDbSpline
 62
7
  6
BYLAYER
 70
0
 71
3
 72
11
 73
7
 74
0
 42
0.0000001
 43
0.0000001
 44
0.0000000001
 40
0.0
 40
0.0
 40
0.0
 40
0.0
 40
0.2467594103
 40
0.4999995469
 40
0.7532399177
 40
1.0
 40
1.0
 40
1.0
 40
1.0
 10
20.0209740476
 20
10.6513819228
 30
0.0
 10
20.0010832329
 20
10.5844379043
 30
0.0
 10
19.9520885695
 20
10.4512547926
 30
0.0
 10
19.8558360426
 20
10.2605581029
 30
0.0
 10
19.7388188597
 20
10.0818493001
 30
0.0
 10
19.6479790665
 20
9.9728244312
 30
0.0
 10
19.5999505376
 20
9.9221249924
 30
0.0
  0
SPLINE
  5
28D
100
AcDbEntity
  8
0
100
AcDbSpline
 62
7
  6
BYLAYER
 70
0
 71
3
 72
13
 73
9
 74
0
 42
0.0000001
 43
0.0000001
 44
0.0000000001
 40
0.0
 40
0.0
 40
0.0
 40
0.0
 40
0.114176888
 40
0.2375715548
 40
0.5000017735
 40
0.762431024
 40
0.8858245003
 40
1.0
 40
1.0
 40
1.0
 40
1.0
 10
34.5757875366
 20
16.2954823079
 30
0.0
 10
34.5757875366
 20
16.2787255117
 30
0.0
 10
34.5726991173
 20
16.243826146
 30
0.0
 10
34.5560552172
 20
16.1721768185
 30
0.0
 10
34.5172743676
 20
16.0843152965
 30
0.0
 10
34.4605749568
 20
16.0067991888
 30
0.0
 10
34.4068472786
 20
15.9565606937
 30
0.0
 10
34.3781680419
 20
15.9364365954
 30
0.0
 10
34.3636563854
 20
15.9280583366
 30
0.0
  0
SPLINE
  5
28E
100
AcDbEntity
  8
0
100
AcDbSpline
 62
7
  6
BYLAYER
 70
0
 71
3
 72
15
 73
11
 74
0
 42
0.0000001
 43
0.0000001
 44
0.0000000001
 40
0.0
 40
0.0
 40
0.0
 40
0.0
 40
0.154159715
 40
0.2999898714
 40
0.4366129394
 40
0.5639324295
 40
0.6823990638
 40
0.7931468312
 40
0.8981142934
 40
1.0
 40
1.0
 40
1.0
 40
1.0
 10
10.4976892547
 20
28.2916501223
 30
0.0
 10
10.5166127902
 20
28.4001948761
 30
0.0
 10
10.5442273233
 20
28.6131895148
 30
0.0
 10
10.5537073203
 20
28.9256532737
 30
0.0
 10
10.5298214362
 20
29.2182551323
 30
0.0
 10
10.4728026227
 20
29.4864350048
 30
0.0
 10
10.3833004513
 20
29.7261662315
 30
0.0
 10
10.2621184943
 20
29.9335616363
 30
0.0
 10
10.1108836002
 20
30.1048598662
 30
0.0
 10
9.99064882
 20
30.1932440372
 30
0.0
 10
9.9275778859
 20
30.2296427009
 30
0.0
  0
SPLINE
  5
28F
100
AcDbEntity
  8
0
100
AcDbSpline
 62
7
  6
BYLAYER
 70
0
 71
3
 72
12
 73
8
 74
0
 42
0.0000001
 43
0.0000001
 44
0.0000000001
 40
0.0
 40
0.0
 40
0.0
 40
0.0
 40
0.1081685848
 40
0.2183551812
 40
0.4513108057
 40
0.7105884283
 40
1.0
 40
1.0
 40
1.0
 40
1.0
 10
17.8430666115
 20
22.7495165677
 30
0.0
 10
17.8283072834
 20
22.7580298626
 30
0.0
 10
17.7969759497
 20
22.7726905156
 30
0.0
 10
17.7282011081
 20
22.7917726905
 30
0.0
 10
17.6318087916
 20
22.7943304116
 30
0.0
 10
17.5111522308
 20
22.7650973705
 30
0.0
 10
17.4325638856
 20
22.7277516432
 30
0.0
 10
17.3930836276
 20
22.7049578417
 30
0.0
  0
SPLINE
  5
290
100
AcDbEntity
  8
0
100
AcDbSpline
 62
7
  6
BYLAYER
 70
0
 71
3
 72
13
 73
9
 74
0
 42
0.0000001
 43
0.0000001
 44
0.0000000001
 40
0.0
 40
0.0
 40
0.0
 40
0.0
 40
0.2893067043
 40
0.5483372018
 40
0.6677616121
 40
0.7817621933
 40
0.8918966414
 40
1.0
 40
1.0
 40
1.0
 40
1.0
 10
21.0701077786
 20
10.4576352754
 30
0.0
 10
21.0701077786
 20
10.5133704858
 30
0.0
 10
21.0616847272
 20
10.6193220871
 30
0.0
 10
21.0248960167
 20
10.7439693472
 30
0.0
 10
20.9802133878
 20
10.8279894824
 30
0.0
 10
20.9407991607
 20
10.8814891006
 30
0.0
 10
20.8949814082
 20
10.9265683334
 30
0.0
 10
20.8603176181
 20
10.9507823608
 30
0.0
 10
20.8422814814
 20
10.9611952844
 30
0.0
  0
SPLINE
  5
291
100
AcDbEntity
  8
0
100
AcDbSpline
 62
7
  6
BYLAYER
 70
0
 71
3
 72
14
 73
10
 74
0
 42
0.0000001
 43
0.0000001
 44
0.0000000001
 40
0.0
 40
0.0
 40
0.0
 40
0.0
 40
0.1081243424
 40
0.2182261434
 40
0.3321790496
 40
0.4515564416
 40
0.7104491135
 40
0.8515028721
 40
1.0
 40
1.0
 40
1.0
 40
1.0
 10
15.8715523659
 20
25.2867821609
 30
0.0
 10
15.8469390128
 20
25.3009789636
 30
0.0
 10
15.7996341868
 20
25.3339785439
 30
0.0
 10
15.7371742451
 20
25.3954900364
 30
0.0
 10
15.6834394105
 20
25.4684500342
 30
0.0
 10
15.6225390963
 20
25.5829947551
 30
0.0
 10
15.5834337223
 20
25.7153451544
 30
0.0
 10
15.5640538612
 20
25.8582552775
 30
0.0
 10
15.5608747547
 20
25.9344217192
 30
0.0
 10
15.5608747547
 20
25.97344555
 30
0.0
  0
SPLINE
  5
292
100
AcDbEntity
  8
0
100
AcDbSpline
 62
7
  6
BYLAYER
 70
0
 71
3
 72
15
 73
11
 74
0
 42
0.0000001
 43
0.0000001
 44
0.0000000001
 40
0.0
 40
0.0
 40
0.0
 40
0.0
 40
0.1141229605
 40
0.2373462928
 40
0.366971064
 40
0.4999983279
 40
0.633025824
 40
0.762651271
 40
0.8858756957
 40
1.0
 40
1.0
 40
1.0
 40
1.0
 10
20.2922935577
 20
9.1104140472
 30
0.0
 10
20.3455263431
 20
9.1411478268
 30
0.0
 10
20.4506942025
 20
9.2148987536
 30
0.0
 10
20.5954295717
 20
9.3502616674
 30
0.0
 10
20.7287811997
 20
9.510333271
 30
0.0
 10
20.8457792793
 20
9.6890025236
 30
0.0
 10
20.9420116017
 20
9.8796612427
 30
0.0
 10
21.0139614444
 20
10.0751842368
 30
0.0
 10
21.0588213691
 20
10.2682119352
 30
0.0
 10
21.0701077786
 20
10.3961667172
 30
0.0
 10
21.0701077786
 20
10.4576352754
 30
0.0
  0
SPLINE
  5
293
100
AcDbEntity
  8
0
100
AcDbSpline
 62
7
  6
BYLAYER
 70
0
 71
3
 72
13
 73
9
 74
0
 42
0.0000001
 43
0.0000001
 44
0.0000000001
 40
0.0
 40
0.0
 40
0.0
 40
0.0
 40
0.1081040887
 40
0.2182391431
 40
0.3322401274
 40
0.4516646903
 40
0.7106947514
 40
1.0
 40
1.0
 40
1.0
 40
1.0
 10
9.6306365643
 20
14.8937809174
 30
0.0
 10
9.6486721069
 20
14.8833683367
 30
0.0
 10
9.6869729619
 20
14.8654568784
 30
0.0
 10
9.7489196369
 20
14.8483184259
 30
0.0
 10
9.8149564212
 20
14.8409352573
 30
0.0
 10
9.9100575311
 20
14.8442492123
 30
0.0
 10
10.0363942012
 20
14.8747115845
 30
0.0
 10
10.1323584666
 20
14.9203906027
 30
0.0
 10
10.1806244881
 20
14.9482568369
 30
0.0
  0
SPLINE
  5
294
100
AcDbEntity
  8
0
100
AcDbSpline
 62
7
  6
BYLAYER
 70
0
 71
3
 72
15
 73
11
 74
0
 42
0.0000001
 43
0.0000001
 44
0.0000000001
 40
0.0
 40
0.0
 40
0.0
 40
0.0
 40
0.1141229605
 40
0.2373462928
 40
0.366971064
 40
0.4999983279
 40
0.633025824
 40
0.762651271
 40
0.8858756957
 40
1.0
 40
1.0
 40
1.0
 40
1.0
 10
10.1806244881
 20
14.9482568369
 30
0.0
 10
10.2338572735
 20
14.9789906165
 30
0.0
 10
10.3390251329
 20
15.0527415432
 30
0.0
 10
10.4837605021
 20
15.1881044571
 30
0.0
 10
10.6171121301
 20
15.3481760606
 30
0.0
 10
10.7341102097
 20
15.5268453133
 30
0.0
 10
10.8303425321
 20
15.7175040323
 30
0.0
 10
10.9022923748
 20
15.9130270264
 30
0.0
 10
10.9471522995
 20
16.1060547248
 30
0.0
 10
10.958438709
 20
16.2340095069
 30
0.0
 10
10.958438709
 20
16.295478065
 30
0.0
  0
SPLINE
  5
295
100
AcDbEntity
  8
0
100
AcDbSpline
 62
7
  6
BYLAYER
 70
0
 71
3
 72
13
 73
9
 74
0
 42
0.0000001
 43
0.0000001
 44
0.0000000001
 40
0.0
 40
0.0
 40
0.0
 40
0.0
 40
0.2893067043
 40
0.5483372018
 40
0.6677616121
 40
0.7817621933
 40
0.8918966414
 40
1.0
 40
1.0
 40
1.0
 40
1.0
 10
10.958438709
 20
16.295478065
 30
0.0
 10
10.958438709
 20
16.3512132754
 30
0.0
 10
10.9500156576
 20
16.4571648768
 30
0.0
 10
10.9132269471
 20
16.5818121368
 30
0.0
 10
10.8685443182
 20
16.6658322721
 30
0.0
 10
10.8291300911
 20
16.7193318902
 30
0.0
 10
10.7833123386
 20
16.7644111231
 30
0.0
 10
10.7486485485
 20
16.7886251504
 30
0.0
 10
10.7306124118
 20
16.7990380741
 30
0.0
  0
SPLINE
  5
296
100
AcDbEntity
  8
0
100
AcDbSpline
 62
7
  6
BYLAYER
 70
0
 71
3
 72
11
 73
7
 74
0
 42
0.0000001
 43
0.0000001
 44
0.0000000001
 40
0.0
 40
0.0
 40
0.0
 40
0.0
 40
0.2777958569
 40
0.5335934796
 40
0.7715915994
 40
1.0
 40
1.0
 40
1.0
 40
1.0
 10
19.9479303002
 20
35.7783731887
 30
0.0
 10
19.9810336733
 20
35.7902383223
 30
0.0
 10
20.0465299264
 20
35.8082402731
 30
0.0
 10
20.1445375788
 20
35.8163191084
 30
0.0
 10
20.2358876701
 20
35.803460121
 30
0.0
 10
20.2911657004
 20
35.7805976457
 30
0.0
 10
20.3161969044
 20
35.7661255944
 30
0.0
  0
SPLINE
  5
297
100
AcDbEntity
  8
0
100
AcDbSpline
 62
7
  6
BYLAYER
 70
0
 71
3
 72
13
 73
9
 74
0
 42
0.0000001
 43
0.0000001
 44
0.0000000001
 40
0.0
 40
0.0
 40
0.0
 40
0.0
 40
0.1081040887
 40
0.2182391431
 40
0.3322401274
 40
0.4516646903
 40
0.7106947514
 40
1.0
 40
1.0
 40
1.0
 40
1.0
 10
19.7423056339
 20
9.0559381278
 30
0.0
 10
19.7603411765
 20
9.0455255471
 30
0.0
 10
19.7986420315
 20
9.0276140887
 30
0.0
 10
19.8605887065
 20
9.0104756362
 30
0.0
 10
19.9266254908
 20
9.0030924677
 30
0.0
 10
20.0217266007
 20
9.0064064226
 30
0.0
 10
20.1480632708
 20
9.0368687948
 30
0.0
 10
20.2440275362
 20
9.0825478131
 30
0.0
 10
20.2922935577
 20
9.1104140472
 30
0.0
  0
SPLINE
  5
298
100
AcDbEntity
  8
0
100
AcDbSpline
 62
7
  6
BYLAYER
 70
0
 71
3
 72
21
 73
17
 74
0
 42
0.0000001
 43
0.0000001
 44
0.0000000001
 40
0.0
 40
0.0
 40
0.0
 40
0.0
 40
0.0623546784
 40
0.1287847357
 40
0.1984240415
 40
0.2704134256
 40
0.4174493229
 40
0.5616772275
 40
0.6303048781
 40
0.6954223869
 40
0.7563962326
 40
0.8128582569
 40
0.8647824967
 40
0.9125782359
 40
0.9571731457
 40
1.0
 40
1.0
 40
1.0
 40
1.0
 10
17.3930836276
 20
22.7049578417
 30
0.0
 10
17.3607773281
 20
22.6863059024
 30
0.0
 10
17.2965612095
 20
22.6433432924
 30
0.0
 10
17.2055462457
 20
22.5668297469
 30
0.0
 10
17.1185745069
 20
22.4775052021
 30
0.0
 10
17.0097583383
 20
22.3431552419
 30
0.0
 10
16.8954029323
 20
22.1570815649
 30
0.0
 10
16.8142383584
 20
21.9563620941
 30
0.0
 10
16.774166589
 20
21.7947189232
 30
0.0
 10
16.7577945055
 20
21.6791486911
 30
0.0
 10
16.7550209861
 20
21.5696957277
 30
0.0
 10
16.7659148783
 20
21.4686112502
 30
0.0
 10
16.7904137956
 20
21.3779791561
 30
0.0
 10
16.8282286363
 20
21.2996991525
 30
0.0
 10
16.8788468103
 20
21.2356956116
 30
0.0
 10
16.9209066378
 20
21.2034964396
 30
0.0
 10
16.9431006437
 20
21.190694765
 30
0.0
  0
SPLINE
  5
299
100
AcDbEntity
  8
0
100
AcDbSpline
 62
7
  6
BYLAYER
 70
0
 71
3
 72
15
 73
11
 74
0
 42
0.0000001
 43
0.0000001
 44
0.0000000001
 40
0.0
 40
0.0
 40
0.0
 40
0.0
 40
0.154159715
 40
0.2999898714
 40
0.4366129394
 40
0.5639324295
 40
0.6823990638
 40
0.7931468312
 40
0.8981142934
 40
1.0
 40
1.0
 40
1.0
 40
1.0
 10
20.6093583243
 20
22.4538073326
 30
0.0
 10
20.6282818598
 20
22.5623520865
 30
0.0
 10
20.6558963929
 20
22.7753467252
 30
0.0
 10
20.6653763899
 20
23.0878104841
 30
0.0
 10
20.6414905058
 20
23.3804123426
 30
0.0
 10
20.5844716923
 20
23.6485922152
 30
0.0
 10
20.4949695209
 20
23.8883234419
 30
0.0
 10
20.3737875639
 20
24.0957188466
 30
0.0
 10
20.2225526698
 20
24.2670170765
 30
0.0
 10
20.1023178896
 20
24.3554012475
 30
0.0
 10
20.0392469555
 20
24.3917999112
 30
0.0
  0
SPLINE
  5
29A
100
AcDbEntity
  8
0
100
AcDbSpline
 62
7
  6
BYLAYER
 70
0
 71
3
 72
14
 73
10
 74
0
 42
0.0000001
 43
0.0000001
 44
0.0000000001
 40
0.0
 40
0.0
 40
0.0
 40
0.0
 40
0.108060088
 40
0.2181580107
 40
0.3321529699
 40
0.4515570343
 40
0.7103684197
 40
0.8514070437
 40
1.0
 40
1.0
 40
1.0
 40
1.0
 10
19.0209852852
 20
7.3095048622
 30
0.0
 10
18.9709792538
 20
7.3383751972
 30
0.0
 10
18.8748480157
 20
7.40547952
 30
0.0
 10
18.7477874703
 20
7.5304781692
 30
0.0
 10
18.6385550863
 20
7.6788991059
 30
0.0
 10
18.5146551409
 20
7.9117593829
 30
0.0
 10
18.4351595559
 20
8.1808478906
 30
0.0
 10
18.3957308259
 20
8.4714298523
 30
0.0
 10
18.3892901035
 20
8.626347797
 30
0.0
 10
18.3892901035
 20
8.7057481036
 30
0.0
  0
SPLINE
  5
29B
100
AcDbEntity
  8
0
100
AcDbSpline
 62
7
  6
BYLAYER
 70
0
 71
3
 72
14
 73
10
 74
0
 42
0.0000001
 43
0.0000001
 44
0.0000000001
 40
0.0
 40
0.0
 40
0.0
 40
0.0
 40
0.1136456252
 40
0.2285293625
 40
0.3458625266
 40
0.466694267
 40
0.5919195568
 40
0.7222802306
 40
1.0
 40
1.0
 40
1.0
 40
1.0
 10
17.7382556461
 20
35.8517289835
 30
0.0
 10
17.8130981998
 20
35.8085138467
 30
0.0
 10
17.9694498586
 20
35.7313363235
 30
0.0
 10
18.2189130506
 20
35.645906537
 30
0.0
 10
18.4824044586
 20
35.5910056373
 30
0.0
 10
18.758281554
 20
35.5667937287
 30
0.0
 10
19.045020065
 20
35.57340495
 30
0.0
 10
19.4479246817
 20
35.6241250812
 30
0.0
 10
19.749119915
 20
35.7071142337
 30
0.0
 10
19.9479303002
 20
35.7783731887
 30
0.0
  0
SPLINE
  5
29C
100
AcDbEntity
  8
0
100
AcDbSpline
 62
7
  6
BYLAYER
 70
0
 71
3
 72
14
 73
10
 74
0
 42
0.0000001
 43
0.0000001
 44
0.0000000001
 40
0.0
 40
0.0
 40
0.0
 40
0.0
 40
0.1081243424
 40
0.2182261434
 40
0.3321790496
 40
0.4515564416
 40
0.7104491135
 40
0.8515028721
 40
1.0
 40
1.0
 40
1.0
 40
1.0
 10
5.7598832963
 20
31.1246249505
 30
0.0
 10
5.7352699432
 20
31.1388217532
 30
0.0
 10
5.6879651172
 20
31.1718213336
 30
0.0
 10
5.6255051755
 20
31.2333328261
 30
0.0
 10
5.5717703409
 20
31.3062928239
 30
0.0
 10
5.5108700267
 20
31.4208375448
 30
0.0
 10
5.4717646527
 20
31.5531879441
 30
0.0
 10
5.4523847916
 20
31.6960980671
 30
0.0
 10
5.4492056851
 20
31.7722645088
 30
0.0
 10
5.4492056851
 20
31.8112883396
 30
0.0
  0
SPLINE
  5
29D
100
AcDbEntity
  8
0
100
AcDbSpline
 62
7
  6
BYLAYER
 70
0
 71
3
 72
11
 73
7
 74
0
 42
0.0000001
 43
0.0000001
 44
0.0000000001
 40
0.0
 40
0.0
 40
0.0
 40
0.0
 40
0.2895396729
 40
0.5491163863
 40
0.7822545095
 40
1.0
 40
1.0
 40
1.0
 40
1.0
 10
34.3636563854
 20
17.6427134126
 30
0.0
 10
34.376812176
 20
17.6503088665
 30
0.0
 10
34.4030051183
 20
17.6627529528
 30
0.0
 10
34.4432478407
 20
17.6724939012
 30
0.0
 10
34.481026806
 20
17.6715451983
 30
0.0
 10
34.5037517244
 20
17.6632692607
 30
0.0
 10
34.5136454475
 20
17.657557241
 30
0.0
  0
SPLINE
  5
29E
100
AcDbEntity
  8
0
100
AcDbSpline
 62
7
  6
BYLAYER
 70
0
 71
3
 72
14
 73
10
 74
0
 42
0.0000001
 43
0.0000001
 44
0.0000000001
 40
0.0
 40
0.0
 40
0.0
 40
0.0
 40
0.108060088
 40
0.2181580107
 40
0.3321529699
 40
0.4515570343
 40
0.7103684197
 40
0.8514070437
 40
1.0
 40
1.0
 40
1.0
 40
1.0
 10
8.9093162156
 20
13.1473476518
 30
0.0
 10
8.8593101842
 20
13.1762179868
 30
0.0
 10
8.7631789461
 20
13.2433223097
 30
0.0
 10
8.6361184007
 20
13.3683209588
 30
0.0
 10
8.5268860167
 20
13.5167418955
 30
0.0
 10
8.4029860713
 20
13.7496021725
 30
0.0
 10
8.3234904863
 20
14.0186906802
 30
0.0
 10
8.2840617563
 20
14.309272642
 30
0.0
 10
8.2776210339
 20
14.4641905866
 30
0.0
 10
8.2776210339
 20
14.5435908932
 30
0.0
  0
ENDSEC
  0
SECTION
  2
OBJECTS
  0
DICTIONARY
  5
C
100
AcDbDictionary
280
0
281
1
  3
ACAD_GROUP
350
D
  3
ACAD_MLINESTYLE
350
17
  3
ACAD_LAYOUT
350
1A
  3
ACAD_PLOTSETTINGS
350
19
  3
ACAD_PLOTSTYLENAME
350
E
  0
DICTIONARY
  5
D
102
{ACAD_REACTORS
330
C
102
}
100
AcDbDictionary
280
0
281
1
  0
ACDBDICTIONARYWDFLT
  5
E
102
{ACAD_REACTORS
330
C
102
}
100
AcDbDictionary
281
1
  3
Normal
350
F
100
AcDbDictionaryWithDefault
340
F
  0
DICTIONARY
  5
17
102
{ACAD_REACTORS
330
C
102
}
100
AcDbDictionary
280
0
281
1
  3
Standard
350
18
  0
DICTIONARY
  5
19
102
{ACAD_REACTORS
330
C
102
}
100
AcDbDictionary
281
1
  0
DICTIONARY
  5
1A
102
{ACAD_REACTORS
330
C
102
}
100
AcDbDictionary
281
1
  3
Model
350
29F
  3
Layout1
350
2A0
  0
ACDBPLACEHOLDER
  5
F
102
{ACAD_REACTORS
330
E
102
}
  0
MLINESTYLE
  5
18
102
{ACAD_REACTORS
330
17
102
}
100
AcDbMlineStyle
  2
STANDARD
 70
0
  3

 62
256
 51
90.0
 52
90.0
 71
2
 49
0.5
 62
256
  6
BYLAYER
 49
-0.5
 62
256
  6
BYLAYER
  0
LAYOUT
  5
29F
102
{ACAD_REACTORS
330
1A
102
}
100
AcDbPlotSettings
  1

  2
none_device
  4

  6

 40
0.0
 41
0.0
 42
0.0
 43
0.0
 44
210.0
 45
297.0
 46
0.0
 47
0.0
 48
0.0
 49
0.0
140
0.0
141
0.0
142
1.0
143
1.0
 70
1024
 72
1
 73
0
 74
0
  7

 75
0
147
1.0
148
0.0
149
0.0
100
AcDbLayout
  1
Model
 70
0
 71
0
 10
0.0
 20
0.0
 11
210.0
 21
297.0
 12
0.0
 22
0.0
 32
0.0
 14
0.0
 24
0.0
 34
0.0
 15
0.0
 25
0.0
 35
0.0
146
0.0
 13
0.0
 23
0.0
 33
0.0
 16
1.0
 26
0.0
 36
0.0
 17
0.0
 27
1.0
 37
0.0
 76
0
330
210
345
0
346
0
  0
LAYOUT
  5
2A0
102
{ACAD_REACTORS
330
1A
102
}
100
AcDbPlotSettings
  1

  2
none_device
  4

  6

 40
0.0
 41
0.0
 42
0.0
 43
0.0
 44
210.0
 45
297.0
 46
0.0
 47
0.0
 48
0.0
 49
0.0
140
0.0
141
0.0
142
1.0
143
1.0
 70
0
 72
1
 73
0
 74
0
  7

 75
0
147
1.0
148
0.0
149
0.0
100
AcDbLayout
  1
Layout1
 70
0
 71
1
 10
0.0
 20
0.0
 11
210.0
 21
297.0
 12
0.0
 22
0.0
 32
0.0
 14
0.0
 24
0.0
 34
0.0
 15
0.0
 25
0.0
 35
0.0
146
0.0
 13
0.0
 23
0.0
 33
0.0
 16
1.0
 26
0.0
 36
0.0
 17
0.0
 27
1.0
 37
0.0
 76
0
330
211
345
0
346
0
  0
ENDSEC
  0
EOF
