999
DXF file: C:\Users\sesa63760\Dev\_Creo\CAD\MCADID0002204_3D-CAD\drw0001_7.dxf
999
Pro/ENGINEER 2019471 by Parametric Technology Corporation
  0
SECTION
  2
HEADER
  9
$ACADVER
  1
AC1024
  9
$DWGCODEPAGE
  3
ANSI_1252
  9
$EXTMAX
 10
106.2039165146
 20
150.2026819278
 30
0.0
  9
$EXTMIN
 10
0.0
 20
0.0
 30
0.0
  9
$LIMMIN
 10
0.0
 20
0.0
  9
$LIMMAX
 10
106.2039165146
 20
150.2026819278
  9
$VIEWCTR
 10
53.1019582573
 20
75.1013409639
  9
$VIEWSIZE
 40
150.2026819278
  9
$CLAYER
  8
0
  9
$LTSCALE
 40
9.7909896368
  9
$CELTYPE
  6
BYLAYER
  9
$DIMSCALE
 40
1.0
  9
$DIMASZ
 40
1.2643323395
  9
$DIMEXO
 40
1.0
  9
$DIMDLI
 40
6.764683749
  9
$DIMEXE
 40
1.0
  9
$DIMCEN
 40
1.6021619406
  9
$DIMLFAC
 40
1.0
  9
$DIMBLK
  1
_FILLED
  9
$DIMALT
 70
0
  9
$DIMALTF
 40
0.0393700787
  9
$DIMTXT
 40
1.7700652752
  9
$DIMTOL
 70
1
  9
$DIMLIM
 70
0
  9
$DIMTFAC
 40
1.0
  9
$DIMTP
 40
0.01
  9
$DIMTM
 40
0.01
  9
$DIMGAP
 40
0.625
  9
$DIMDSEP
 70
46
  9
$AUNITS
 70
0
  9
$PDMODE
 70
3
  9
$PDSIZE
 40
0.3125
  9
$HANDSEED
  5
28A
  9
$TILEMODE
 70
1
  9
$MEASUREMENT
 70
1
  9
$INSUNITS
 70
4
  0
ENDSEC
  0
SECTION
  2
CLASSES
  0
CLASS
  1
ACDBDICTIONARYWDFLT
  2
AcDbDictionaryWithDefault
  3
AutoCAD 2000
 90
0
 91
1
280
0
281
0
  0
CLASS
  1
ACDBPLACEHOLDER
  2
AcDbPlaceHolder
  3
AutoCAD 2000
 90
0
 91
1
280
0
281
0
  0
CLASS
  1
LAYOUT
  2
AcDbLayout
  3
AutoCAD 2000
 90
0
 91
0
280
0
281
0
  0
ENDSEC
  0
SECTION
  2
TABLES
  0
TABLE
  2
VPORT
  5
8
100
AcDbSymbolTable
 70
2
  0
VPORT
  5
1F4
100
AcDbSymbolTableRecord
100
AcDbViewportTableRecord
  2
*ACTIVE
 70
0
 10
0.0
 20
0.0
 11
1.0
 21
1.0
 12
53.1019582573
 22
75.1013409639
 13
0.0
 23
0.0
 14
1.0
 24
1.0
 15
0.0
 25
0.0
 16
0.0
 26
0.0
 36
1.0
 17
0.0
 27
0.0
 37
0.0
 40
150.2026819278
 41
0.7070707071
 42
50.0
 43
0.0
 44
0.0
 50
0.0
 51
0.0
 71
0
 72
100
 73
1
 74
1
 75
0
 76
0
 77
0
 78
0
  0
ENDTAB
  0
TABLE
  2
LTYPE
  5
5
100
AcDbSymbolTable
 70
6
  0
LTYPE
  5
14
100
AcDbSymbolTableRecord
100
AcDbLinetypeTableRecord
  2
BYBLOCK
 70
0
  3

 72
65
 73
0
 40
0.0
  0
LTYPE
  5
15
100
AcDbSymbolTableRecord
100
AcDbLinetypeTableRecord
  2
BYLAYER
 70
0
  3

 72
65
 73
0
 40
0.0
  0
LTYPE
  5
16
100
AcDbSymbolTableRecord
100
AcDbLinetypeTableRecord
  2
CONTINUOUS
 70
64
  3
Solid line
 72
65
 73
0
 40
0.0
  0
LTYPE
  5
1F5
100
AcDbSymbolTableRecord
100
AcDbLinetypeTableRecord
  2
CENTER
 70
64
  3
____ _ ____ _ ____ _ ____ _ ____ _ ____ _ ____
 72
65
 73
4
 40
0.6
 49
0.375
 74
0
 49
-0.075
 74
0
 49
0.075
 74
0
 49
-0.075
 74
0
  0
LTYPE
  5
1F6
100
AcDbSymbolTableRecord
100
AcDbLinetypeTableRecord
  2
HIDDEN
 70
64
  3
- - - - - - - - - - - - - - - - - - - -
 72
65
 73
2
 40
0.2
 49
0.1
 74
0
 49
-0.1
 74
0
  0
LTYPE
  5
1F7
100
AcDbSymbolTableRecord
100
AcDbLinetypeTableRecord
  2
PHANTOM
 70
64
  3
_____ _ _ _____ _ _ _____ _ _ _____
 72
65
 73
6
 40
0.8
 49
0.45
 74
0
 49
-0.05
 74
0
 49
0.1
 74
0
 49
-0.05
 74
0
 49
0.1
 74
0
 49
-0.05
 74
0
  0
LTYPE
  5
1F8
100
AcDbSymbolTableRecord
100
AcDbLinetypeTableRecord
  2
DOT
 70
64
  3
. . . . . . . . . . . . . . . . . . . .
 72
65
 73
2
 40
0.2
 49
0.1
 74
0
 49
-0.1
 74
0
  0
LTYPE
  5
1F9
100
AcDbSymbolTableRecord
100
AcDbLinetypeTableRecord
  2
DASHED
 70
64
  3
- - - - - - - - - - - - - - - - - - - -
 72
65
 73
2
 40
0.2
 49
0.1
 74
0
 49
-0.1
 74
0
  0
ENDTAB
  0
TABLE
  2
LAYER
  5
2
100
AcDbSymbolTable
 70
36
  0
LAYER
  5
10
100
AcDbSymbolTableRecord
100
AcDbLayerTableRecord
  2
0
 70
0
 62
7
  6
CONTINUOUS
370
-3
390
F
  0
LAYER
  5
1FA
100
AcDbSymbolTableRecord
100
AcDbLayerTableRecord
  2
DEFAULT_1
 70
0
 62
7
  6
CENTER
370
-3
390
F
  0
LAYER
  5
1FB
100
AcDbSymbolTableRecord
100
AcDbLayerTableRecord
  2
DEFAULT_2
 70
0
 62
8
  6
HIDDEN
370
-3
390
F
  0
LAYER
  5
1FC
100
AcDbSymbolTableRecord
100
AcDbLayerTableRecord
  2
DEFAULT_3
 70
0
 62
7
  6
PHANTOM
370
-3
390
F
  0
LAYER
  5
1FD
100
AcDbSymbolTableRecord
100
AcDbLayerTableRecord
  2
00_COMPONENTS
 70
0
 62
7
  6
CONTINUOUS
370
-3
390
F
  0
LAYER
  5
1FE
100
AcDbSymbolTableRecord
100
AcDbLayerTableRecord
  2
01_1_DEFAULT_DATUMS
 70
0
 62
7
  6
CONTINUOUS
370
-3
390
F
  0
LAYER
  5
1FF
100
AcDbSymbolTableRecord
100
AcDbLayerTableRecord
  2
01_PLANES
 70
0
 62
7
  6
CONTINUOUS
370
-3
390
F
  0
LAYER
  5
200
100
AcDbSymbolTableRecord
100
AcDbLayerTableRecord
  2
02_COORD_SYS
 70
0
 62
7
  6
CONTINUOUS
370
-3
390
F
  0
LAYER
  5
201
100
AcDbSymbolTableRecord
100
AcDbLayerTableRecord
  2
03_AXES
 70
0
 62
7
  6
CONTINUOUS
370
-3
390
F
  0
LAYER
  5
202
100
AcDbSymbolTableRecord
100
AcDbLayerTableRecord
  2
04_POINTS
 70
0
 62
7
  6
CONTINUOUS
370
-3
390
F
  0
LAYER
  5
203
100
AcDbSymbolTableRecord
100
AcDbLayerTableRecord
  2
05_CURVES
 70
0
 62
7
  6
CONTINUOUS
370
-3
390
F
  0
LAYER
  5
204
100
AcDbSymbolTableRecord
100
AcDbLayerTableRecord
  2
06_SURFS
 70
0
 62
7
  6
CONTINUOUS
370
-3
390
F
  0
LAYER
  5
205
100
AcDbSymbolTableRecord
100
AcDbLayerTableRecord
  2
07_COSMETICS
 70
0
 62
7
  6
CONTINUOUS
370
-3
390
F
  0
LAYER
  5
206
100
AcDbSymbolTableRecord
100
AcDbLayerTableRecord
  2
1
 70
0
 62
7
  6
CONTINUOUS
370
-3
390
F
  0
LAYER
  5
207
100
AcDbSymbolTableRecord
100
AcDbLayerTableRecord
  2
10_NOTES
 70
0
 62
7
  6
CONTINUOUS
370
-3
390
F
  0
LAYER
  5
208
100
AcDbSymbolTableRecord
100
AcDbLayerTableRecord
  2
11_NOTES_PUB
 70
0
 62
7
  6
CONTINUOUS
370
-3
390
F
  0
LAYER
  5
209
100
AcDbSymbolTableRecord
100
AcDbLayerTableRecord
  2
13_REF_GTOL
 70
0
 62
7
  6
CONTINUOUS
370
-3
390
F
  0
LAYER
  5
20A
100
AcDbSymbolTableRecord
100
AcDbLayerTableRecord
  2
16_MISC
 70
0
 62
7
  6
CONTINUOUS
370
-3
390
F
  0
LAYER
  5
20B
100
AcDbSymbolTableRecord
100
AcDbLayerTableRecord
  2
17_NO_PRINT
 70
0
 62
7
  6
CONTINUOUS
370
-3
390
F
  0
LAYER
  5
20C
100
AcDbSymbolTableRecord
100
AcDbLayerTableRecord
  2
18_DATUM_CAMS_JOINTS
 70
0
 62
7
  6
CONTINUOUS
370
-3
390
F
  0
LAYER
  5
20D
100
AcDbSymbolTableRecord
100
AcDbLayerTableRecord
  2
19_DATUM_FUNCTIONAL
 70
0
 62
7
  6
CONTINUOUS
370
-3
390
F
  0
LAYER
  5
20E
100
AcDbSymbolTableRecord
100
AcDbLayerTableRecord
  2
20_DATUM_KINEMATIC_SCHEME
 70
0
 62
7
  6
CONTINUOUS
370
-3
390
F
  0
LAYER
  5
20F
100
AcDbSymbolTableRecord
100
AcDbLayerTableRecord
  2
3
 70
0
 62
7
  6
CONTINUOUS
370
-3
390
F
  0
LAYER
  5
210
100
AcDbSymbolTableRecord
100
AcDbLayerTableRecord
  2
INTFCLR_2039
 70
0
 62
7
  6
CONTINUOUS
370
-3
390
F
  0
LAYER
  5
211
100
AcDbSymbolTableRecord
100
AcDbLayerTableRecord
  2
INTFCLR_2043
 70
0
 62
7
  6
CONTINUOUS
370
-3
390
F
  0
ENDTAB
  0
TABLE
  2
STYLE
  5
3
100
AcDbSymbolTable
 70
1
  0
STYLE
  5
11
100
AcDbSymbolTableRecord
100
AcDbTextStyleTableRecord
  2
STANDARD
 70
0
 40
0.0
 41
0.8
 50
0.0
 71
0
 42
0.2
  3
txt
  4

  0
STYLE
  5
212
100
AcDbSymbolTableRecord
100
AcDbTextStyleTableRecord
  2
TEXTSTYLE_1
 70
0
 40
0.0
 41
0.8
 50
0.0
 71
0
 42
0.2
  3
gdt
  4

  0
ENDTAB
  0
TABLE
  2
VIEW
  5
6
100
AcDbSymbolTable
 70
0
  0
ENDTAB
  0
TABLE
  2
UCS
  5
7
100
AcDbSymbolTable
 70
0
  0
ENDTAB
  0
TABLE
  2
APPID
  5
9
100
AcDbSymbolTable
 70
1
  0
APPID
  5
213
100
AcDbSymbolTableRecord
100
AcDbRegAppTableRecord
  2
ACAD
 70
0
  0
ENDTAB
  0
TABLE
  2
BLOCK_RECORD
  5
1
100
AcDbSymbolTable
 70
0
  0
BLOCK_RECORD
  5
214
100
AcDbSymbolTableRecord
100
AcDbBlockTableRecord
  2
*Model_Space
  0
BLOCK_RECORD
  5
215
100
AcDbSymbolTableRecord
100
AcDbBlockTableRecord
  2
*Paper_Space
  0
BLOCK_RECORD
  5
216
100
AcDbSymbolTableRecord
100
AcDbBlockTableRecord
  2
_FILLED
  0
ENDTAB
  0
TABLE
  2
DIMSTYLE
  5
A
100
AcDbSymbolTable
 70
1
100
AcDbDimStyleTable
 71
0
  0
DIMSTYLE
105
217
100
AcDbSymbolTableRecord
100
AcDbDimStyleTableRecord
  2
STANDARD
 70
0
  3

  4

 40
1.0
 41
1.2643323395
 42
1.0
 43
0.38
 44
1.0
 45
0.0
 46
0.0
 47
0.01
 48
0.01
140
1.7700652752
141
0.09
142
0.0
143
25.4
144
1.0
145
0.0
146
1.0
147
0.625
 71
1
 72
0
 73
0
 74
0
 75
0
 76
0
 77
1
 78
8
 79
2
170
0
171
1
172
0
173
0
174
0
175
0
176
0
177
0
178
0
270
2
179
2
271
2
272
2
273
2
274
2
275
0
280
0
281
0
282
0
283
1
284
8
285
0
286
0
287
3
288
0
340
11
278
46
341
216
342
216
343
216
344
216
  0
ENDTAB
  0
ENDSEC
  0
SECTION
  2
BLOCKS
  0
BLOCK
  5
20
100
AcDbEntity
  8
0
100
AcDbBlockBegin
  2
*Model_Space
 70
0
 10
0.0
 20
0.0
 30
0.0
  3
*Model_Space
  1

  0
ENDBLK
  5
21
100
AcDbEntity
  8
0
100
AcDbBlockEnd
  0
BLOCK
  5
1C
100
AcDbEntity
  8
0
100
AcDbBlockBegin
  2
*Paper_Space
 70
0
 10
0.0
 20
0.0
 30
0.0
  3
*Paper_Space
  1

  0
ENDBLK
  5
1D
100
AcDbEntity
  8
0
100
AcDbBlockEnd
  0
BLOCK
  5
218
100
AcDbEntity
  8
0
100
AcDbBlockBegin
  2
_FILLED
 70
64
 10
0.0
 20
0.0
  3
_FILLED
  1

  0
SOLID
  5
219
100
AcDbEntity
  8
0
  6
BYBLOCK
 62
0
100
AcDbTrace
 10
0.0
 20
0.0
 11
-1.0
 21
0.25
 12
-1.0
 22
-0.25
 13
-1.0
 23
-0.25
  0
ENDBLK
  5
21A
100
AcDbEntity
  8
0
  6
BYBLOCK
 62
0
100
AcDbBlockEnd
  0
ENDSEC
  0
SECTION
  2
ENTITIES
  0
LINE
  5
21B
100
AcDbEntity
  8
1
100
AcDbLine
 62
7
  6
CONTINUOUS
 10
33.6336582535
 20
11.1227200204
 11
39.9422713523
 21
11.1227200204
  0
LINE
  5
21C
100
AcDbEntity
  8
1
100
AcDbLine
 62
7
  6
CONTINUOUS
 10
33.9888963219
 20
11.3669367286
 11
41.2795318161
 21
11.3669367286
  0
LINE
  5
21D
100
AcDbEntity
  8
1
100
AcDbLine
 62
7
  6
CONTINUOUS
 10
28.8525049251
 20
21.4847260601
 11
29.0034020637
 21
21.4847260601
  0
LINE
  5
21E
100
AcDbEntity
  8
1
100
AcDbLine
 62
7
  6
CONTINUOUS
 10
28.983631271
 20
21.5390555854
 11
28.8910296202
 21
21.5390555854
  0
LINE
  5
21F
100
AcDbEntity
  8
1
100
AcDbLine
 62
7
  6
CONTINUOUS
 10
32.5390132038
 20
34.5874157351
 11
26.6830284881
 21
34.4340713786
  0
LINE
  5
220
100
AcDbEntity
  8
1
100
AcDbLine
 62
7
  6
CONTINUOUS
 10
79.9100874591
 20
37.1023313373
 11
80.2743380426
 21
37.1023313373
  0
LINE
  5
221
100
AcDbEntity
  8
1
100
AcDbLine
 62
7
  6
CONTINUOUS
 10
80.2514110253
 20
37.1266811529
 11
79.9115356842
 21
37.1266811529
  0
LINE
  5
222
100
AcDbEntity
  8
1
100
AcDbLine
 62
7
  6
CONTINUOUS
 10
26.2825774079
 20
49.7266811529
 11
26.6830284881
 21
34.4340713786
  0
LINE
  5
223
100
AcDbEntity
  8
1
100
AcDbLine
 62
7
  6
CONTINUOUS
 10
26.2825774079
 20
49.7266811529
 11
80.2890323309
 21
49.7266811529
  0
LINE
  5
224
100
AcDbEntity
  8
1
100
AcDbLine
 62
7
  6
CONTINUOUS
 10
55.7517738321
 20
16.8645777092
 11
55.4977381074
 21
17.3618620328
  0
LINE
  5
225
100
AcDbEntity
  8
1
100
AcDbLine
 62
7
  6
CONTINUOUS
 10
32.1425774079
 20
49.7266811529
 11
32.5390110122
 21
34.5875062668
  0
LINE
  5
226
100
AcDbEntity
  8
1
100
AcDbLine
 62
7
  6
CONTINUOUS
 10
35.8040142974
 20
52.8766811529
 11
40.4907949307
 21
52.8766811529
  0
LINE
  5
227
100
AcDbEntity
  8
1
100
AcDbLine
 62
7
  6
CONTINUOUS
 10
51.3258048692
 20
52.8766811529
 11
55.3258048692
 21
52.8766811529
  0
LINE
  5
228
100
AcDbEntity
  8
1
100
AcDbLine
 62
7
  6
CONTINUOUS
 10
66.1608148078
 20
52.8766811529
 11
70.8475941914
 21
52.8766811529
  0
LINE
  5
229
100
AcDbEntity
  8
1
100
AcDbLine
 62
7
  6
CONTINUOUS
 10
40.416842993
 20
56.3766811529
 11
51.4480275624
 21
56.3766811529
  0
LINE
  5
22A
100
AcDbEntity
  8
1
100
AcDbLine
 62
7
  6
CONTINUOUS
 10
55.203582176
 20
56.3766811529
 11
66.2347667454
 21
56.3766811529
  0
LINE
  5
22B
100
AcDbEntity
  8
1
100
AcDbLine
 62
7
  6
CONTINUOUS
 10
60.9109848921
 20
20.3300073482
 11
61.1907714249
 21
19.8566623732
  0
LINE
  5
22C
100
AcDbEntity
  8
1
100
AcDbLine
 62
7
  6
CONTINUOUS
 10
37.2258048692
 20
49.7266811529
 11
37.2258048692
 21
52.8766811529
  0
LINE
  5
22D
100
AcDbEntity
  8
1
100
AcDbLine
 62
7
  6
CONTINUOUS
 10
39.9423085533
 20
11.3669367286
 11
39.9422713523
 21
11.1227200204
  0
LINE
  5
22E
100
AcDbEntity
  8
1
100
AcDbLine
 62
7
  6
CONTINUOUS
 10
36.9386397823
 20
52.8766811529
 11
37.0672162936
 21
62.0221459474
  0
LINE
  5
22F
100
AcDbEntity
  8
1
100
AcDbLine
 62
7
  6
CONTINUOUS
 10
38.4323640973
 20
62.0206740218
 11
38.3038082799
 21
52.8766811529
  0
LINE
  5
230
100
AcDbEntity
  8
1
100
AcDbLine
 62
7
  6
CONTINUOUS
 10
35.8040142717
 20
52.8766811529
 11
36.2525721353
 21
62.0346956943
  0
LINE
  5
231
100
AcDbEntity
  8
1
100
AcDbLine
 62
7
  6
CONTINUOUS
 10
36.3859223879
 20
62.0221459474
 11
35.9379792085
 21
52.8766811529
  0
LINE
  5
232
100
AcDbEntity
  8
1
100
AcDbLine
 62
7
  6
CONTINUOUS
 10
28.6637095151
 20
21.2183557402
 11
28.6893072035
 21
21.4003701177
  0
LINE
  5
233
100
AcDbEntity
  8
1
100
AcDbLine
 62
7
  6
CONTINUOUS
 10
70.2656873506
 20
62.0221459474
 11
70.3990376031
 21
62.0346956943
  0
LINE
  5
234
100
AcDbEntity
  8
1
100
AcDbLine
 62
7
  6
CONTINUOUS
 10
37.0672162936
 20
62.0221459474
 11
36.3859223879
 21
62.0221459474
  0
LINE
  5
235
100
AcDbEntity
  8
1
100
AcDbLine
 62
7
  6
CONTINUOUS
 10
52.6445109634
 20
62.0221459474
 11
54.007098775
 21
62.0221459474
  0
LINE
  5
236
100
AcDbEntity
  8
1
100
AcDbLine
 62
7
  6
CONTINUOUS
 10
69.5843934448
 20
62.0221459474
 11
70.2656873506
 21
62.0221459474
  0
LINE
  5
237
100
AcDbEntity
  8
1
100
AcDbLine
 62
7
  6
CONTINUOUS
 10
36.2525721353
 20
62.0346956943
 11
36.3859223879
 21
62.0221459474
  0
LINE
  5
238
100
AcDbEntity
  8
INTFCLR_2039
100
AcDbLine
 62
7
  6
CONTINUOUS
 10
72.8099067412
 20
27.9332976218
 11
72.5541457636
 21
28.2563190239
  0
LINE
  5
239
100
AcDbEntity
  8
1
100
AcDbLine
 62
7
  6
CONTINUOUS
 10
39.9997288007
 20
11.3669367286
 11
39.999757245
 21
11.1802059131
  0
LINE
  5
23A
100
AcDbEntity
  8
1
100
AcDbLine
 62
7
  6
CONTINUOUS
 10
43.6947187269
 20
82.8266811529
 11
43.3773026053
 21
65.8766602579
  0
LINE
  5
23B
100
AcDbEntity
  8
1
100
AcDbLine
 62
7
  6
CONTINUOUS
 10
65.6733644476
 20
64.9115597546
 11
64.8470767666
 21
64.9115597546
  0
LINE
  5
23C
100
AcDbEntity
  8
1
100
AcDbLine
 62
7
  6
CONTINUOUS
 10
40.9782452908
 20
64.9115597546
 11
41.8045329718
 21
64.9115597546
  0
LINE
  5
23D
100
AcDbEntity
  8
1
100
AcDbLine
 62
7
  6
CONTINUOUS
 10
39.2258004778
 20
65.8766602579
 11
66.7534018126
 21
65.8766602579
  0
LINE
  5
23E
100
AcDbEntity
  8
1
100
AcDbLine
 62
7
  6
CONTINUOUS
 10
67.4258092678
 20
65.8766602579
 11
66.7534018126
 21
65.8766602579
  0
LWPOLYLINE
  5
23F
100
AcDbEntity
  8
1
100
AcDbPolyline
 62
7
  6
CONTINUOUS
 90
3
 70
0
 10
37.3973446348
 20
64.7700693163
 10
36.5680063899
 20
63.4751994836
 10
36.2525841879
 20
62.0346968105
  0
LINE
  5
240
100
AcDbEntity
  8
1
100
AcDbLine
 62
7
  6
CONTINUOUS
 10
39.1954998453
 20
65.7327322895
 11
38.6098484318
 21
65.6127632996
  0
LWPOLYLINE
  5
241
100
AcDbEntity
  8
1
100
AcDbPolyline
 62
7
  6
CONTINUOUS
 90
5
 70
0
 10
39.8981042395
 20
65.8766602357
 10
38.6130300114
 20
65.6149693742
 10
37.4029075713
 20
64.7758828975
 10
36.5710434565
 20
63.4826906884
 10
36.2561031894
 20
62.0506972608
  0
LINE
  5
242
100
AcDbEntity
  8
1
100
AcDbLine
 62
7
  6
CONTINUOUS
 10
80.2743380426
 20
37.1023313373
 11
80.2514110253
 21
37.1266811529
  0
LWPOLYLINE
  5
243
100
AcDbEntity
  8
3
100
AcDbPolyline
 62
7
  6
CONTINUOUS
 90
10
 70
0
 10
49.3272080506
 20
83.1116223045
 10
48.9651413127
 20
87.0514037134
 10
49.2560820054
 20
97.1621681472
 10
49.8008482694
 20
110.3112741941
 10
49.0089677395
 20
120.2922194104
 10
48.0999606132
 20
124.2009102099
 10
45.4349074054
 20
130.4052107067
 10
41.76997942
 20
135.0158460593
 10
36.9194631777
 20
138.5277042739
 10
34.2029826146
 20
139.8034607284
  0
LINE
  5
244
100
AcDbEntity
  8
1
100
AcDbLine
 62
7
  6
CONTINUOUS
 10
54.326465443
 20
52.8766811529
 11
54.007098775
 21
62.0221459474
  0
LINE
  5
245
100
AcDbEntity
  8
1
100
AcDbLine
 62
7
  6
CONTINUOUS
 10
54.007098775
 20
62.0221459474
 11
53.9061468207
 21
65.8766602579
  0
LINE
  5
246
100
AcDbEntity
  8
1
100
AcDbLine
 62
7
  6
CONTINUOUS
 10
49.8258048692
 20
82.8266811529
 11
50.0091063202
 21
89.8266811529
  0
LINE
  5
247
100
AcDbEntity
  8
1
100
AcDbLine
 62
7
  6
CONTINUOUS
 10
52.7454629178
 20
65.8766602579
 11
52.6445109634
 21
62.0221459474
  0
LINE
  5
248
100
AcDbEntity
  8
1
100
AcDbLine
 62
7
  6
CONTINUOUS
 10
51.3258048692
 20
52.8766811529
 11
51.7460720907
 21
64.9115597546
  0
LINE
  5
249
100
AcDbEntity
  8
1
100
AcDbLine
 62
7
  6
CONTINUOUS
 10
52.6445109634
 20
62.0221459474
 11
52.3251442955
 21
52.8766811529
  0
LINE
  5
24A
100
AcDbEntity
  8
1
100
AcDbLine
 62
7
  6
CONTINUOUS
 10
38.0020663766
 20
65.1913334621
 11
37.3973446348
 21
64.7700693163
  0
LWPOLYLINE
  5
24B
100
AcDbEntity
  8
1
100
AcDbPolyline
 62
7
  6
CONTINUOUS
 90
3
 70
0
 10
68.0417613066
 20
65.6127632996
 10
68.0385797271
 20
65.6149693742
 10
67.4559228222
 20
65.7336208762
  0
LINE
  5
24C
100
AcDbEntity
  8
3
100
AcDbLine
 62
7
  6
CONTINUOUS
 10
49.3737611174
 20
82.8266811529
 11
49.3267444879
 21
83.1115457939
  0
LINE
  5
24D
100
AcDbEntity
  8
1
100
AcDbLine
 62
7
  6
CONTINUOUS
 10
54.9055376477
 20
64.9115597546
 11
55.3258048692
 21
52.8766811529
  0
LINE
  5
24E
100
AcDbEntity
  8
1
100
AcDbLine
 62
7
  6
CONTINUOUS
 10
62.8258048692
 20
89.8266811529
 11
63.2743071332
 21
65.8766602579
  0
LINE
  5
24F
100
AcDbEntity
  8
3
100
AcDbLine
 62
7
  6
CONTINUOUS
 10
49.3267444879
 20
83.1115457939
 11
47.6008049389
 21
82.8266811644
  0
LINE
  5
250
100
AcDbEntity
  8
1
100
AcDbLine
 62
7
  6
CONTINUOUS
 10
43.6948588471
 20
82.8266811529
 11
49.8258048692
 21
82.8266811529
  0
LWPOLYLINE
  5
251
100
AcDbEntity
  8
1
100
AcDbPolyline
 62
7
  6
CONTINUOUS
 90
3
 70
0
 10
70.0805662819
 20
63.4826906884
 10
69.2487021672
 20
64.7758828975
 10
68.6495433618
 20
65.1913334621
  0
LINE
  5
252
100
AcDbEntity
  8
1
100
AcDbLine
 62
7
  6
CONTINUOUS
 10
28.8910296202
 20
21.5390555854
 11
28.8525049251
 21
21.4847260601
  0
LINE
  5
253
100
AcDbEntity
  8
1
100
AcDbLine
 62
7
  6
CONTINUOUS
 10
50.0091063202
 20
89.8266811529
 11
62.8252697698
 21
89.8266811529
  0
LINE
  5
254
100
AcDbEntity
  8
1
100
AcDbLine
 62
7
  6
CONTINUOUS
 10
70.3990255507
 20
62.0346968069
 11
70.0805662819
 21
63.4826906884
  0
LWPOLYLINE
  5
255
100
AcDbEntity
  8
1
100
AcDbPolyline
 62
7
  6
CONTINUOUS
 90
5
 70
0
 10
70.395547443
 20
62.050580991
 10
70.0836033485
 20
63.4751994836
 10
69.2542651036
 20
64.7700693163
 10
68.0457594515
 20
65.6119442912
 10
66.7534982682
 20
65.8766602387
  0
LINE
  5
256
100
AcDbEntity
  8
1
100
AcDbLine
 62
7
  6
CONTINUOUS
 10
70.7136305299
 20
52.8766811529
 11
70.2656873506
 21
62.0221459474
  0
LINE
  5
257
100
AcDbEntity
  8
1
100
AcDbLine
 62
7
  6
CONTINUOUS
 10
70.3990376031
 20
62.0346956943
 11
70.8475954667
 21
52.8766811529
  0
LINE
  5
258
100
AcDbEntity
  8
1
100
AcDbLine
 62
7
  6
CONTINUOUS
 10
68.3478014585
 20
52.8766811529
 11
68.2192456411
 21
62.0206740217
  0
LINE
  5
259
100
AcDbEntity
  8
1
100
AcDbLine
 62
7
  6
CONTINUOUS
 10
69.5843934448
 20
62.0221459474
 11
69.7129699561
 21
52.8766811529
  0
LINE
  5
25A
100
AcDbEntity
  8
1
100
AcDbLine
 62
7
  6
CONTINUOUS
 10
69.4258048692
 20
49.7266811529
 11
69.4258048692
 21
52.8766811529
  0
LINE
  5
25B
100
AcDbEntity
  8
1
100
AcDbLine
 62
7
  6
CONTINUOUS
 10
72.4858048692
 20
28.2023683799
 11
72.4858048692
 21
28.0900744711
  0
LINE
  5
25C
100
AcDbEntity
  8
1
100
AcDbLine
 62
7
  6
CONTINUOUS
 10
79.7334732607
 20
34.4193698433
 11
79.910085114
 21
37.1023313373
  0
LINE
  5
25D
100
AcDbEntity
  8
1
100
AcDbLine
 62
7
  6
CONTINUOUS
 10
39.9422713523
 20
11.1227200204
 11
39.999757245
 21
11.1802059131
  0
LINE
  5
25E
100
AcDbEntity
  8
1
100
AcDbLine
 62
7
  6
CONTINUOUS
 10
28.8910328176
 20
21.5390555854
 11
28.7278504872
 21
21.4547259112
  0
LINE
  5
25F
100
AcDbEntity
  8
1
100
AcDbLine
 62
7
  6
CONTINUOUS
 10
28.6893072035
 20
21.4003701177
 11
28.8524901992
 21
21.4847260601
  0
LWPOLYLINE
  5
260
100
AcDbEntity
  8
3
100
AcDbPolyline
 62
7
  6
CONTINUOUS
 90
9
 70
0
 10
32.8963459692
 20
136.5571221947
 10
38.1199117425
 20
133.5614672917
 10
41.7946125029
 20
129.6061499513
 10
44.4541162223
 20
124.1353060028
 10
46.0155094049
 20
116.3557477558
 10
46.2095298161
 20
105.5173813338
 10
45.678766238
 20
95.9400376768
 10
45.4355861071
 20
88.511216439
 10
45.8535946913
 20
82.8266811529
  0
LINE
  5
261
100
AcDbEntity
  8
1
100
AcDbLine
 62
7
  6
CONTINUOUS
 10
80.0258048692
 20
33.6466811529
 11
72.8099067412
 21
27.9332976218
  0
LINE
  5
262
100
AcDbEntity
  8
3
100
AcDbLine
 62
7
  6
CONTINUOUS
 10
32.8963504646
 20
136.5571332876
 11
32.8968267737
 21
136.5569336295
  0
ARC
  5
263
100
AcDbEntity
  8
1
100
AcDbCircle
 62
7
  6
CONTINUOUS
 10
-159.0393838917
 20
51.866473324
 40
233.4782762645
100
AcDbArc
 50
354.3417164188
 51
359.4748857206
  0
ARC
  5
264
100
AcDbEntity
  8
1
100
AcDbCircle
 62
7
  6
CONTINUOUS
 10
-134.1392791077
 20
49.8453094526
 40
214.4283442526
100
AcDbArc
 50
356.5930115095
 51
359.9683022257
  0
ARC
  5
265
100
AcDbEntity
  8
1
100
AcDbCircle
 62
7
  6
CONTINUOUS
 10
-69.4535045406
 20
46.1341171737
 40
150.0
100
AcDbArc
 50
355.2246239732
 51
356.5480239461
  0
ARC
  5
266
100
AcDbEntity
  8
1
100
AcDbCircle
 62
7
  6
CONTINUOUS
 10
7.5377385097
 20
111.2507572579
 40
105.4290577548
100
AcDbArc
 50
288.6655032058
 51
313.2187841678
  0
ARC
  5
267
100
AcDbEntity
  8
1
100
AcDbCircle
 62
7
  6
CONTINUOUS
 10
10.2947674772
 20
105.9356761389
 40
100.0
100
AcDbArc
 50
297.037210798
 51
300.5946055549
  0
ARC
  5
268
100
AcDbEntity
  8
1
100
AcDbCircle
 62
7
  6
CONTINUOUS
 10
70.3865167028
 20
35.5784874933
 40
43.7184694424
100
AcDbArc
 50
181.5
 51
198.8035373105
  0
ARC
  5
269
100
AcDbEntity
  8
1
100
AcDbCircle
 62
7
  6
CONTINUOUS
 10
70.3865175276
 20
35.5784871828
 40
37.8604779765
100
AcDbArc
 50
181.4998624524
 51
219.7541025357
  0
ARC
  5
26A
100
AcDbEntity
  8
1
100
AcDbCircle
 62
7
  6
CONTINUOUS
 10
52.7454629178
 20
64.8766602579
 40
1.0
100
AcDbArc
 50
90.0
 51
178.0
  0
ARC
  5
26B
100
AcDbEntity
  8
1
100
AcDbCircle
 62
7
  6
CONTINUOUS
 10
53.9061468207
 20
64.8766602579
 40
1.0
100
AcDbArc
 50
2.0
 51
90.0
  0
SPLINE
  5
26C
100
AcDbEntity
  8
1
100
AcDbSpline
 62
7
  6
CONTINUOUS
 70
0
 71
3
 72
21
 73
17
 74
0
 42
0.0000001
 43
0.0000001
 44
0.0000000001
 40
0.0
 40
0.0
 40
0.0
 40
0.0
 40
0.1817243741
 40
0.3672460564
 40
0.545907515
 40
0.6288306658
 40
0.7054164605
 40
0.7742978489
 40
0.8347214618
 40
0.8860886269
 40
0.9278041767
 40
0.9594774486
 40
0.9815206294
 40
0.9946027001
 40
0.998092398
 40
1.0
 40
1.0
 40
1.0
 40
1.0
 10
54.007098775
 20
62.0221459474
 30
0.0
 10
54.0677211474
 20
62.0242601266
 30
0.0
 10
54.1902473795
 20
62.0281215
 30
0.0
 10
54.3724161894
 20
62.0326175118
 30
0.0
 10
54.5216414728
 20
62.0350805704
 30
0.0
 10
54.6345185299
 20
62.0360488599
 30
0.0
 10
54.7107549224
 20
62.0362352906
 30
0.0
 10
54.7794814066
 20
62.0358781271
 30
0.0
 10
54.8397821159
 20
62.0350127521
 30
0.0
 10
54.8910125254
 20
62.0336753939
 30
0.0
 10
54.9326046963
 20
62.0319342711
 30
0.0
 10
54.9644354333
 20
62.0297795919
 30
0.0
 10
54.9865193955
 20
62.0274127161
 30
0.0
 10
54.999365199
 20
62.0249466023
 30
0.0
 10
55.0050265025
 20
62.0228049783
 30
0.0
 10
55.0064673796
 20
62.0213103875
 30
0.0
 10
55.006489602
 20
62.0206740218
 30
0.0
  0
LINE
  5
26D
100
AcDbEntity
  8
1
100
AcDbLine
 62
7
  6
CONTINUOUS
 10
41.8045329718
 20
64.9115597546
 11
40.416842993
 21
56.3766811529
  0
SPLINE
  5
26E
100
AcDbEntity
  8
1
100
AcDbSpline
 62
7
  6
CONTINUOUS
 70
0
 71
3
 72
14
 73
10
 74
0
 42
0.0000001
 43
0.0000001
 44
0.0000000001
 40
0.0
 40
0.0
 40
0.0
 40
0.0
 40
0.0881077673
 40
0.1810279552
 40
0.2848282761
 40
0.4026387017
 40
0.5352183715
 40
0.6809956288
 40
1.0
 40
1.0
 40
1.0
 40
1.0
 10
41.4155769629
 20
65.8766602579
 30
0.0
 10
41.4495320715
 20
65.8766602579
 30
0.0
 10
41.5199829535
 20
65.8634450726
 30
0.0
 10
41.6150295091
 20
65.8046054994
 30
0.0
 10
41.6953177098
 20
65.7118184071
 30
0.0
 10
41.7579928334
 20
65.5894631929
 30
0.0
 10
41.8020405847
 20
65.4425560281
 30
0.0
 10
41.8345325843
 20
65.2140415239
 30
0.0
 10
41.8242662708
 20
65.0329040888
 30
0.0
 10
41.8045329717
 20
64.9115597546
 30
0.0
  0
SPLINE
  5
26F
100
AcDbEntity
  8
1
100
AcDbSpline
 62
7
  6
CONTINUOUS
 70
0
 71
3
 72
14
 73
10
 74
0
 42
0.0000001
 43
0.0000001
 44
0.0000000001
 40
0.0
 40
0.0
 40
0.0
 40
0.0
 40
0.3188451371
 40
0.4645334477
 40
0.5970971433
 40
0.7150810411
 40
0.8188672881
 40
0.9116986387
 40
1.0
 40
1.0
 40
1.0
 40
1.0
 10
64.8470767667
 20
64.9115597546
 30
0.0
 10
64.8273464629
 20
65.0328856702
 30
0.0
 10
64.8169355487
 20
65.2139594514
 30
0.0
 10
64.8490689628
 20
65.4424925004
 30
0.0
 10
64.8930726541
 20
65.5895449427
 30
0.0
 10
64.9563552
 20
65.7116933498
 30
0.0
 10
65.0365705575
 20
65.8045805802
 30
0.0
 10
65.1316715443
 20
65.8635243322
 30
0.0
 10
65.2022069027
 20
65.8766602579
 30
0.0
 10
65.2362484457
 20
65.8766602579
 30
0.0
  0
SPLINE
  5
270
100
AcDbEntity
  8
1
100
AcDbSpline
 62
7
  6
CONTINUOUS
 70
0
 71
3
 72
14
 73
10
 74
0
 42
0.0000001
 43
0.0000001
 44
0.0000000001
 40
0.0
 40
0.0
 40
0.0
 40
0.0
 40
0.2649158971
 40
0.3950355349
 40
0.522162728
 40
0.6458776002
 40
0.766285744
 40
0.883964367
 40
1.0
 40
1.0
 40
1.0
 40
1.0
 10
70.2656862619
 20
62.0221458904
 30
0.0
 10
70.2431158941
 20
62.5280411816
 30
0.0
 10
70.0833855825
 20
63.2853710676
 30
0.0
 10
69.6329975885
 20
64.1801701896
 30
0.0
 10
69.1939506717
 20
64.7666108716
 30
0.0
 10
68.6657678645
 20
65.247065899
 30
0.0
 10
68.0686685288
 20
65.6056974277
 30
0.0
 10
67.4233931387
 20
65.826127918
 30
0.0
 10
66.9752080161
 20
65.8766602579
 30
0.0
 10
66.7534007402
 20
65.8766602579
 30
0.0
  0
LINE
  5
271
100
AcDbEntity
  8
1
100
AcDbLine
 62
7
  6
CONTINUOUS
 10
66.2347667454
 20
56.3766811529
 11
64.8470767666
 21
64.9115597546
  0
SPLINE
  5
272
100
AcDbEntity
  8
1
100
AcDbSpline
 62
7
  6
CONTINUOUS
 70
0
 71
3
 72
9
 73
5
 74
0
 42
0.0000001
 43
0.0000001
 44
0.0000000001
 40
0.0
 40
0.0
 40
0.0
 40
0.0
 40
0.749610641
 40
1.0
 40
1.0
 40
1.0
 40
1.0
 10
66.1730609335
 20
65.8766602579
 30
0.0
 10
66.3146269457
 20
65.8766602579
 30
0.0
 10
66.5038655182
 20
65.8630666708
 30
0.0
 10
66.6901552765
 20
65.8319119101
 30
0.0
 10
66.7365997194
 20
65.823026702
 30
0.0
  0
SPLINE
  5
273
100
AcDbEntity
  8
1
100
AcDbSpline
 62
7
  6
CONTINUOUS
 70
0
 71
3
 72
16
 73
12
 74
0
 42
0.0000001
 43
0.0000001
 44
0.0000000001
 40
0.0
 40
0.0
 40
0.0
 40
0.0
 40
0.1163661642
 40
0.2345099633
 40
0.3552200294
 40
0.4788943502
 40
0.5419487505
 40
0.6057405272
 40
0.7352184853
 40
0.8669034845
 40
1.0
 40
1.0
 40
1.0
 40
1.0
 10
66.7365997194
 20
65.823026702
 30
0.0
 10
66.9319459295
 20
65.7856553477
 30
0.0
 10
67.3192719181
 20
65.6713091367
 30
0.0
 10
67.8603161645
 20
65.3881867677
 30
0.0
 10
68.3497826739
 20
65.0027875648
 30
0.0
 10
68.7006361604
 20
64.607813057
 30
0.0
 10
68.9426191876
 20
64.2540751762
 30
0.0
 10
69.1599440382
 20
63.8731931984
 30
0.0
 10
69.3759608474
 20
63.3587298944
 30
0.0
 10
69.5379557703
 20
62.7021640372
 30
0.0
 10
69.5802040576
 20
62.2495910112
 30
0.0
 10
69.5843945371
 20
62.0221458904
 30
0.0
  0
SPLINE
  5
274
100
AcDbEntity
  8
1
100
AcDbSpline
 62
7
  6
CONTINUOUS
 70
0
 71
3
 72
15
 73
11
 74
0
 42
0.0000001
 43
0.0000001
 44
0.0000000001
 40
0.0
 40
0.0
 40
0.0
 40
0.0
 40
0.0773237284
 40
0.166339218
 40
0.2727907158
 40
0.398245591
 40
0.5401972689
 40
0.6925664425
 40
0.8480881462
 40
1.0
 40
1.0
 40
1.0
 40
1.0
 10
66.1730598611
 20
65.8766602579
 30
0.0
 10
66.1427934689
 20
65.8766602535
 30
0.0
 10
66.0772847208
 20
65.8640567476
 30
0.0
 10
65.9837600292
 20
65.8091929127
 30
0.0
 10
65.8962817314
 20
65.7173101097
 30
0.0
 10
65.8189236119
 20
65.5921563113
 30
0.0
 10
65.7562674016
 20
65.4396579046
 30
0.0
 10
65.7098088043
 20
65.2694147878
 30
0.0
 10
65.6819256375
 20
65.0912983075
 30
0.0
 10
65.6744025188
 20
64.9710126955
 30
0.0
 10
65.6733644476
 20
64.9115597546
 30
0.0
  0
SPLINE
  5
275
100
AcDbEntity
  8
1
100
AcDbSpline
 62
7
  6
CONTINUOUS
 70
0
 71
3
 72
12
 73
8
 74
0
 42
0.0000001
 43
0.0000001
 44
0.0000000001
 40
0.0
 40
0.0
 40
0.0
 40
0.0
 40
0.2590673831
 40
0.5553310851
 40
0.8205056519
 40
0.9224704937
 40
1.0
 40
1.0
 40
1.0
 40
1.0
 10
68.2192456411
 20
62.0206740218
 30
0.0
 10
68.3370686686
 20
62.0256159886
 30
0.0
 10
68.5897651548
 20
62.0330947125
 30
0.0
 10
68.963245808
 20
62.0373276572
 30
0.0
 10
69.2652551602
 20
62.0350242833
 30
0.0
 10
69.4675754334
 20
62.028741061
 30
0.0
 10
69.5491874266
 20
62.02459615
 30
0.0
 10
69.5843934448
 20
62.0221459474
 30
0.0
  0
SPLINE
  5
276
100
AcDbEntity
  8
1
100
AcDbSpline
 62
7
  6
CONTINUOUS
 70
0
 71
3
 72
14
 73
10
 74
0
 42
0.0000001
 43
0.0000001
 44
0.0000000001
 40
0.0
 40
0.0
 40
0.0
 40
0.0
 40
0.1168040017
 40
0.2345552115
 40
0.3545385466
 40
0.4776045522
 40
0.6041438263
 40
0.7339908444
 40
1.0
 40
1.0
 40
1.0
 40
1.0
 10
40.9782435721
 20
64.9116580506
 30
0.0
 10
40.8124413064
 20
64.9116580507
 30
0.0
 10
40.4783750315
 20
64.8741099324
 30
0.0
 10
39.9989229995
 20
64.7089112807
 30
0.0
 10
39.5586850705
 20
64.4397413217
 30
0.0
 10
39.1730749895
 20
64.078976596
 30
0.0
 10
38.856981473
 20
63.6386519374
 30
0.0
 10
38.5390023104
 20
62.9655563995
 30
0.0
 10
38.4375857676
 20
62.3982380272
 30
0.0
 10
38.4322774383
 20
62.0206776563
 30
0.0
  0
SPLINE
  5
277
100
AcDbEntity
  8
1
100
AcDbSpline
 62
7
  6
CONTINUOUS
 70
0
 71
3
 72
14
 73
10
 74
0
 42
0.0000001
 43
0.0000001
 44
0.0000000001
 40
0.0
 40
0.0
 40
0.0
 40
0.0
 40
0.2660091556
 40
0.3958561737
 40
0.5223954478
 40
0.6454614534
 40
0.7654447885
 40
0.8831959983
 40
1.0
 40
1.0
 40
1.0
 40
1.0
 10
68.2193322973
 20
62.0206776562
 30
0.0
 10
68.2140239679
 20
62.3982380266
 30
0.0
 10
68.1126074253
 20
62.9655563984
 30
0.0
 10
67.794628263
 20
63.6386519355
 30
0.0
 10
67.4785347469
 20
64.0789765936
 30
0.0
 10
67.0929246663
 20
64.4397413189
 30
0.0
 10
66.6526867378
 20
64.7089112776
 30
0.0
 10
66.1732347063
 20
64.8741099291
 30
0.0
 10
65.8391684318
 20
64.9116580474
 30
0.0
 10
65.6733661663
 20
64.9116580473
 30
0.0
  0
SPLINE
  5
278
100
AcDbEntity
  8
1
100
AcDbSpline
 62
7
  6
CONTINUOUS
 70
0
 71
3
 72
21
 73
17
 74
0
 42
0.0000001
 43
0.0000001
 44
0.0000000001
 40
0.0
 40
0.0
 40
0.0
 40
0.0
 40
0.001907602
 40
0.0053972999
 40
0.0184793706
 40
0.0405225514
 40
0.0721958233
 40
0.1139113731
 40
0.1652785382
 40
0.2257021511
 40
0.2945835395
 40
0.3711693342
 40
0.454092485
 40
0.6327539436
 40
0.8182756259
 40
1.0
 40
1.0
 40
1.0
 40
1.0
 10
51.6451201364
 20
62.0206740218
 30
0.0
 10
51.6451423588
 20
62.0213103875
 30
0.0
 10
51.646583236
 20
62.0228049783
 30
0.0
 10
51.6522445394
 20
62.0249466023
 30
0.0
 10
51.6650903429
 20
62.0274127161
 30
0.0
 10
51.6871743051
 20
62.0297795919
 30
0.0
 10
51.7190050422
 20
62.0319342711
 30
0.0
 10
51.760597213
 20
62.0336753939
 30
0.0
 10
51.8118276225
 20
62.0350127521
 30
0.0
 10
51.8721283319
 20
62.0358781271
 30
0.0
 10
51.940854816
 20
62.0362352906
 30
0.0
 10
52.0170912086
 20
62.0360488599
 30
0.0
 10
52.1299682656
 20
62.0350805704
 30
0.0
 10
52.2791935491
 20
62.0326175118
 30
0.0
 10
52.461362359
 20
62.0281215
 30
0.0
 10
52.583888591
 20
62.0242601266
 30
0.0
 10
52.6445109634
 20
62.0221459474
 30
0.0
  0
SPLINE
  5
279
100
AcDbEntity
  8
1
100
AcDbSpline
 62
7
  6
CONTINUOUS
 70
0
 71
3
 72
12
 73
8
 74
0
 42
0.0000001
 43
0.0000001
 44
0.0000000001
 40
0.0
 40
0.0
 40
0.0
 40
0.0
 40
0.0775295063
 40
0.1794943481
 40
0.4446689149
 40
0.7409326169
 40
1.0
 40
1.0
 40
1.0
 40
1.0
 10
37.0672162936
 20
62.0221459474
 30
0.0
 10
37.1024223118
 20
62.02459615
 30
0.0
 10
37.1840343051
 20
62.028741061
 30
0.0
 10
37.3863545782
 20
62.0350242833
 30
0.0
 10
37.6883639304
 20
62.0373276572
 30
0.0
 10
38.0618445836
 20
62.0330947125
 30
0.0
 10
38.3145410698
 20
62.0256159886
 30
0.0
 10
38.4323640973
 20
62.0206740218
 30
0.0
  0
SPLINE
  5
27A
100
AcDbEntity
  8
1
100
AcDbSpline
 62
7
  6
CONTINUOUS
 70
0
 71
3
 72
15
 73
11
 74
0
 42
0.0000001
 43
0.0000001
 44
0.0000000001
 40
0.0
 40
0.0
 40
0.0
 40
0.0
 40
0.1519118538
 40
0.3074335575
 40
0.4598027311
 40
0.601754409
 40
0.7272092842
 40
0.833660782
 40
0.9226762716
 40
1.0
 40
1.0
 40
1.0
 40
1.0
 10
40.9782452908
 20
64.9115597546
 30
0.0
 10
40.9772072196
 20
64.9710126955
 30
0.0
 10
40.9696841009
 20
65.0912983075
 30
0.0
 10
40.9418009342
 20
65.2694147878
 30
0.0
 10
40.8953423369
 20
65.4396579046
 30
0.0
 10
40.8326861266
 20
65.5921563113
 30
0.0
 10
40.755328007
 20
65.7173101097
 30
0.0
 10
40.6678497093
 20
65.8091929127
 30
0.0
 10
40.5743250176
 20
65.8640567476
 30
0.0
 10
40.5088162695
 20
65.8766602535
 30
0.0
 10
40.4785498773
 20
65.8766602579
 30
0.0
  0
SPLINE
  5
27B
100
AcDbEntity
  8
1
100
AcDbSpline
 62
7
  6
CONTINUOUS
 70
0
 71
3
 72
14
 73
10
 74
0
 42
0.0000001
 43
0.0000001
 44
0.0000000001
 40
0.0
 40
0.0
 40
0.0
 40
0.0
 40
0.116035633
 40
0.233714256
 40
0.3541223998
 40
0.477837272
 40
0.6049644651
 40
0.7350841029
 40
1.0
 40
1.0
 40
1.0
 40
1.0
 10
39.8982089982
 20
65.8766602579
 30
0.0
 10
39.6764017223
 20
65.8766602579
 30
0.0
 10
39.2282165997
 20
65.826127918
 30
0.0
 10
38.5829412097
 20
65.6056974277
 30
0.0
 10
37.985841874
 20
65.247065899
 30
0.0
 10
37.4576590667
 20
64.7666108716
 30
0.0
 10
37.0186121499
 20
64.1801701896
 30
0.0
 10
36.5682241559
 20
63.2853710676
 30
0.0
 10
36.4084938444
 20
62.5280411816
 30
0.0
 10
36.3859234766
 20
62.0221458904
 30
0.0
  0
SPLINE
  5
27C
100
AcDbEntity
  8
1
100
AcDbSpline
 62
7
  6
CONTINUOUS
 70
0
 71
3
 72
16
 73
12
 74
0
 42
0.0000001
 43
0.0000001
 44
0.0000000001
 40
0.0
 40
0.0
 40
0.0
 40
0.0
 40
0.1330964985
 40
0.2647814851
 40
0.3942594373
 40
0.4580512137
 40
0.5211056158
 40
0.6447799455
 40
0.7654900238
 40
0.8836338339
 40
1.0
 40
1.0
 40
1.0
 40
1.0
 10
37.0672152013
 20
62.0221458904
 30
0.0
 10
37.0714056732
 20
62.2495905955
 30
0.0
 10
37.1136538221
 20
62.7021628
 30
0.0
 10
37.2756481822
 20
63.3587275393
 30
0.0
 10
37.4916642346
 20
63.8731900862
 30
0.0
 10
37.7089883441
 20
64.2540716179
 30
0.0
 10
37.9509705659
 20
64.6078091859
 30
0.0
 10
38.3018229036
 20
65.0027835493
 30
0.0
 10
38.7912879162
 20
65.3881830046
 30
0.0
 10
39.3323306179
 20
65.6713061428
 30
0.0
 10
39.7196556509
 20
65.7856532032
 30
0.0
 10
39.9150014244
 20
65.8230250578
 30
0.0
  0
SPLINE
  5
27D
100
AcDbEntity
  8
1
100
AcDbSpline
 62
7
  6
CONTINUOUS
 70
0
 71
3
 72
9
 73
5
 74
0
 42
0.0000001
 43
0.0000001
 44
0.0000000001
 40
0.0
 40
0.0
 40
0.0
 40
0.0
 40
0.2503893746
 40
1.0
 40
1.0
 40
1.0
 40
1.0
 10
39.9150014244
 20
65.8230250578
 30
0.0
 10
39.9614465605
 20
65.8319105373
 30
0.0
 10
40.1477391123
 20
65.86306625
 30
0.0
 10
40.3369806135
 20
65.8766602579
 30
0.0
 10
40.4785488049
 20
65.8766602579
 30
0.0
  0
SPLINE
  5
27E
100
AcDbEntity
  8
3
100
AcDbSpline
 62
7
  6
CONTINUOUS
 70
0
 71
3
 72
20
 73
16
 74
0
 42
0.0000001
 43
0.0000001
 44
0.0000000001
 40
0.0
 40
0.0
 40
0.0
 40
0.0
 40
0.1364969586
 40
0.2916335855
 40
0.4572423305
 40
0.5394665724
 40
0.618349203
 40
0.6917825855
 40
0.758332096
 40
0.8173742611
 40
0.8684023343
 40
0.9110851192
 40
0.9458447082
 40
0.9746784287
 40
1.0
 40
1.0
 40
1.0
 40
1.0
 10
33.29419675
 20
139.0093052867
 30
0.0
 10
33.2343850784
 20
138.9057760224
 30
0.0
 10
33.1159279905
 20
138.6791117285
 30
0.0
 10
32.9576749077
 20
138.3107438213
 30
0.0
 10
32.8464337634
 20
137.9752035501
 30
0.0
 10
32.7745968978
 20
137.6980932388
 30
0.0
 10
32.7330945096
 20
137.4967731855
 30
0.0
 10
32.7060553958
 20
137.3068163153
 30
0.0
 10
32.6946920882
 20
137.1326643015
 30
0.0
 10
32.6977204939
 20
136.9777620097
 30
0.0
 10
32.7140571312
 20
136.8446770907
 30
0.0
 10
32.7425157719
 20
136.7353091607
 30
0.0
 10
32.7832747579
 20
136.6507269765
 30
0.0
 10
32.834528142
 20
136.5907192552
 30
0.0
 10
32.8757791664
 20
136.5654275981
 30
0.0
 10
32.8963459876
 20
136.5571221874
 30
0.0
  0
SPLINE
  5
27F
100
AcDbEntity
  8
3
100
AcDbSpline
 62
7
  6
CONTINUOUS
 70
0
 71
3
 72
17
 73
13
 74
0
 42
0.0000001
 43
0.0000001
 44
0.0000000001
 40
0.0
 40
0.0
 40
0.0
 40
0.0
 40
0.0371798119
 40
0.0762897385
 40
0.1189256521
 40
0.1659331072
 40
0.2738237182
 40
0.3992949638
 40
0.5391309743
 40
0.6892033397
 40
0.8446252295
 40
1.0
 40
1.0
 40
1.0
 40
1.0
 10
34.2029817221
 20
139.8034610881
 30
0.0
 10
34.1883218833
 20
139.8093694328
 30
0.0
 10
34.1566474944
 20
139.8179095453
 30
0.0
 10
34.1056835095
 20
139.8190059079
 30
0.0
 10
34.0515832212
 20
139.8088709932
 30
0.0
 10
33.9722788345
 20
139.780476757
 30
0.0
 10
33.8688863642
 20
139.7193248771
 30
0.0
 10
33.7463192782
 20
139.6179874215
 30
0.0
 10
33.6245309348
 20
139.4896283295
 30
0.0
 10
33.507054434
 20
139.3409451344
 30
0.0
 10
33.3960690781
 20
139.1793531313
 30
0.0
 10
33.3272389496
 20
139.066498716
 30
0.0
 10
33.29419675
 20
139.0093052867
 30
0.0
  0
SPLINE
  5
280
100
AcDbEntity
  8
3
100
AcDbSpline
 62
7
  6
CONTINUOUS
 70
0
 71
3
 72
26
 73
22
 74
0
 42
0.0000001
 43
0.0000001
 44
0.0000000001
 40
0.0
 40
0.0
 40
0.0
 40
0.0
 40
0.0293893036
 40
0.0476566635
 40
0.0688339922
 40
0.1214077458
 40
0.1884451597
 40
0.2674238173
 40
0.355160109
 40
0.4475087206
 40
0.5391240127
 40
0.6246485783
 40
0.7001672955
 40
0.7653100972
 40
0.8238802303
 40
0.8782075539
 40
0.926669363
 40
0.9477199176
 40
0.9666586924
 40
0.9838483792
 40
1.0
 40
1.0
 40
1.0
 40
1.0
 10
32.9730777554
 20
136.5418251941
 30
0.0
 10
33.010597351
 20
136.5411167622
 30
0.0
 10
33.0717385117
 20
136.5542543162
 30
0.0
 10
33.1519302666
 20
136.5902573602
 30
0.0
 10
33.2525057437
 20
136.6516860136
 30
0.0
 10
33.3886788017
 20
136.7706939343
 30
0.0
 10
33.5547108589
 20
136.9629458457
 30
0.0
 10
33.7269312472
 20
137.207268591
 30
0.0
 10
33.8926296283
 20
137.4940282631
 30
0.0
 10
34.0425697591
 20
137.807181394
 30
0.0
 10
34.1712090744
 20
138.1266007822
 30
0.0
 10
34.271022848
 20
138.4336450555
 30
0.0
 10
34.3418977662
 20
138.7138653907
 30
0.0
 10
34.3865688888
 20
138.9645062648
 30
0.0
 10
34.4088629777
 20
139.1911108756
 30
0.0
 10
34.4072410837
 20
139.3974259565
 30
0.0
 10
34.3830276599
 20
139.5550825974
 30
0.0
 10
34.342781001
 20
139.6610820995
 30
0.0
 10
34.3053305974
 20
139.7242874764
 30
0.0
 10
34.259240299
 20
139.7734520148
 30
0.0
 10
34.2221101144
 20
139.7957517854
 30
0.0
 10
34.2029817221
 20
139.8034610881
 30
0.0
  0
SPLINE
  5
281
100
AcDbEntity
  8
3
100
AcDbSpline
 62
7
  6
CONTINUOUS
 70
0
 71
3
 72
34
 73
30
 74
0
 42
0.0000001
 43
0.0000001
 44
0.0000000001
 40
0.0
 40
0.0
 40
0.0
 40
0.0
 40
0.0294689234
 40
0.0586919257
 40
0.0876700394
 40
0.1164785399
 40
0.1452092382
 40
0.1739503499
 40
0.2027946169
 40
0.2318271496
 40
0.2611123087
 40
0.2906895257
 40
0.3507535619
 40
0.4120332604
 40
0.4743794612
 40
0.537622161
 40
0.6016262173
 40
0.6662849219
 40
0.7315600994
 40
0.7974233856
 40
0.83059241
 40
0.8639415172
 40
0.8974995524
 40
0.9143718051
 40
0.9313141937
 40
0.9483326136
 40
0.9654369747
 40
0.9826430036
 40
1.0
 40
1.0
 40
1.0
 40
1.0
 10
32.9730777554
 20
136.5418251941
 30
0.0
 10
33.5118420414
 20
136.3245620891
 30
0.0
 10
34.5703023793
 20
135.8543239961
 30
0.0
 10
36.0924087417
 20
135.0319917976
 30
0.0
 10
37.5302096987
 20
134.092832911
 30
0.0
 10
38.871937201
 20
133.0361378379
 30
0.0
 10
40.1064053807
 20
131.8624633751
 30
0.0
 10
41.225970177
 20
130.5778613716
 30
0.0
 10
42.226386593
 20
129.1912239324
 30
0.0
 10
43.1050030304
 20
127.7121743223
 30
0.0
 10
43.8650891169
 20
126.1530636552
 30
0.0
 10
44.7300111431
 20
123.972020877
 30
0.0
 10
45.5396556902
 20
121.1005683947
 30
0.0
 10
46.1456673932
 20
117.525641126
 30
0.0
 10
46.4647873008
 20
113.852661192
 30
0.0
 10
46.5628492365
 20
110.1148978126
 30
0.0
 10
46.4971922894
 20
106.3316283843
 30
0.0
 10
46.3208917402
 20
102.5123128438
 30
0.0
 10
46.0868223496
 20
98.6596556079
 30
0.0
 10
45.8878554127
 20
95.426732573
 30
0.0
 10
45.7600056341
 20
92.8201664517
 30
0.0
 10
45.6916046773
 20
90.8484633225
 30
0.0
 10
45.6682752397
 20
89.1968899069
 30
0.0
 10
45.6784070132
 20
87.8687574182
 30
0.0
 10
45.7033844785
 20
86.8669329531
 30
0.0
 10
45.7499125182
 20
85.8612694949
 30
0.0
 10
45.8220384698
 20
84.85187316
 30
0.0
 10
45.9234710796
 20
83.8382718668
 30
0.0
 10
46.0140074482
 20
83.1627803734
 30
0.0
 10
46.0663675334
 20
82.824651353
 30
0.0
  0
SPLINE
  5
282
100
AcDbEntity
  8
3
100
AcDbSpline
 62
7
  6
CONTINUOUS
 70
0
 71
3
 72
9
 73
5
 74
0
 42
0.0000001
 43
0.0000001
 44
0.0000000001
 40
0.0
 40
0.0
 40
0.0
 40
0.0
 40
0.2523350649
 40
1.0
 40
1.0
 40
1.0
 40
1.0
 10
32.8968250775
 20
136.5569294203
 30
0.0
 10
32.9029133641
 20
136.5544886411
 30
0.0
 10
32.9274974434
 20
136.5459682292
 30
0.0
 10
32.9536460636
 20
136.5421920966
 30
0.0
 10
32.9730777554
 20
136.5418251941
 30
0.0
  0
SPLINE
  5
283
100
AcDbEntity
  8
1
100
AcDbSpline
 62
7
  6
CONTINUOUS
 70
0
 71
3
 72
9
 73
5
 74
0
 42
0.0000001
 43
0.0000001
 44
0.0000000001
 40
0.0
 40
0.0
 40
0.0
 40
0.0
 40
0.4999990996
 40
1.0
 40
1.0
 40
1.0
 40
1.0
 10
28.6637095151
 20
21.2183557402
 30
0.0
 10
29.285772957
 20
19.4455045449
 30
0.0
 10
30.7440126651
 20
15.9713273797
 30
0.0
 10
32.6080195153
 20
12.6969039021
 30
0.0
 10
33.6336582535
 20
11.1227200204
 30
0.0
  0
SPLINE
  5
284
100
AcDbEntity
  8
1
100
AcDbSpline
 62
7
  6
CONTINUOUS
 70
0
 71
3
 72
9
 73
5
 74
0
 42
0.0000001
 43
0.0000001
 44
0.0000000001
 40
0.0
 40
0.0
 40
0.0
 40
0.0
 40
0.5000009368
 40
1.0
 40
1.0
 40
1.0
 40
1.0
 10
33.9888104737
 20
11.3669367286
 30
0.0
 10
32.9450690568
 20
12.9352065827
 30
0.0
 10
31.0585218568
 20
16.2102295847
 30
0.0
 10
29.6109503731
 20
19.7015666206
 30
0.0
 10
29.0033466397
 20
21.4847260601
 30
0.0
  0
ELLIPSE
  5
285
100
AcDbEntity
  8
1
100
AcDbEllipse
 62
7
  6
CONTINUOUS
 10
53.3258048692
 20
110.1491877182
 30
0.0
 11
-8.0573658557
 21
461.0436134964
 31
0.0
 40
0.0302330481
 41
-4.5960191558
 42
-4.5883720096
  0
ELLIPSE
  5
286
100
AcDbEntity
  8
1
100
AcDbEllipse
 62
7
  6
CONTINUOUS
 10
53.3258048692
 20
110.1491877182
 30
0.0
 11
8.0573658557
 21
461.0436134969
 31
0.0
 40
0.0302330481
 41
-1.6948132976
 42
-1.6871661514
  0
ELLIPSE
  5
287
100
AcDbEntity
  8
1
100
AcDbEllipse
 62
7
  6
CONTINUOUS
 10
72.6858353348
 20
28.0902004234
 30
0.0
 11
0.0871611324
 21
0.1801865919
 31
0.0
 40
0.9991975805
 41
-4.2615295038
 42
-2.0216558034
  0
ENDSEC
  0
SECTION
  2
OBJECTS
  0
DICTIONARY
  5
C
100
AcDbDictionary
280
0
281
1
  3
ACAD_GROUP
350
D
  3
ACAD_MLINESTYLE
350
17
  3
ACAD_LAYOUT
350
1A
  3
ACAD_PLOTSETTINGS
350
19
  3
ACAD_PLOTSTYLENAME
350
E
  0
DICTIONARY
  5
D
102
{ACAD_REACTORS
330
C
102
}
100
AcDbDictionary
280
0
281
1
  0
ACDBDICTIONARYWDFLT
  5
E
102
{ACAD_REACTORS
330
C
102
}
100
AcDbDictionary
281
1
  3
Normal
350
F
100
AcDbDictionaryWithDefault
340
F
  0
DICTIONARY
  5
17
102
{ACAD_REACTORS
330
C
102
}
100
AcDbDictionary
280
0
281
1
  3
Standard
350
18
  0
DICTIONARY
  5
19
102
{ACAD_REACTORS
330
C
102
}
100
AcDbDictionary
281
1
  0
DICTIONARY
  5
1A
102
{ACAD_REACTORS
330
C
102
}
100
AcDbDictionary
281
1
  3
Model
350
288
  3
Layout1
350
289
  0
ACDBPLACEHOLDER
  5
F
102
{ACAD_REACTORS
330
E
102
}
  0
MLINESTYLE
  5
18
102
{ACAD_REACTORS
330
17
102
}
100
AcDbMlineStyle
  2
STANDARD
 70
0
  3

 62
256
 51
90.0
 52
90.0
 71
2
 49
0.5
 62
256
  6
BYLAYER
 49
-0.5
 62
256
  6
BYLAYER
  0
LAYOUT
  5
288
102
{ACAD_REACTORS
330
1A
102
}
100
AcDbPlotSettings
  1

  2
none_device
  4

  6

 40
0.0
 41
0.0
 42
0.0
 43
0.0
 44
210.0
 45
297.0
 46
0.0
 47
0.0
 48
0.0
 49
0.0
140
0.0
141
0.0
142
1.0
143
1.0
 70
1024
 72
1
 73
0
 74
0
  7

 75
0
147
1.0
148
0.0
149
0.0
100
AcDbLayout
  1
Model
 70
0
 71
0
 10
0.0
 20
0.0
 11
210.0
 21
297.0
 12
0.0
 22
0.0
 32
0.0
 14
0.0
 24
0.0
 34
0.0
 15
0.0
 25
0.0
 35
0.0
146
0.0
 13
0.0
 23
0.0
 33
0.0
 16
1.0
 26
0.0
 36
0.0
 17
0.0
 27
1.0
 37
0.0
 76
0
330
214
345
0
346
0
  0
LAYOUT
  5
289
102
{ACAD_REACTORS
330
1A
102
}
100
AcDbPlotSettings
  1

  2
none_device
  4

  6

 40
0.0
 41
0.0
 42
0.0
 43
0.0
 44
210.0
 45
297.0
 46
0.0
 47
0.0
 48
0.0
 49
0.0
140
0.0
141
0.0
142
1.0
143
1.0
 70
0
 72
1
 73
0
 74
0
  7

 75
0
147
1.0
148
0.0
149
0.0
100
AcDbLayout
  1
Layout1
 70
0
 71
1
 10
0.0
 20
0.0
 11
210.0
 21
297.0
 12
0.0
 22
0.0
 32
0.0
 14
0.0
 24
0.0
 34
0.0
 15
0.0
 25
0.0
 35
0.0
146
0.0
 13
0.0
 23
0.0
 33
0.0
 16
1.0
 26
0.0
 36
0.0
 17
0.0
 27
1.0
 37
0.0
 76
0
330
215
345
0
346
0
  0
ENDSEC
  0
EOF
