999
DXF file: C:\Users\sesa63760\Dev\_Creo\CAD\MCADPP0003081_3D-CAD\drw0001_6.dxf
999
Pro/ENGINEER 2019471 by Parametric Technology Corporation
  0
SECTION
  2
HEADER
  9
$ACADVER
  1
AC1024
  9
$DWGCODEPAGE
  3
ANSI_1252
  9
$EXTMAX
 10
128.4287956148
 20
181.6350109409
 30
0.0
  9
$EXTMIN
 10
0.0
 20
0.0
 30
0.0
  9
$LIMMIN
 10
0.0
 20
0.0
  9
$LIMMAX
 10
128.4287956148
 20
181.6350109409
  9
$VIEWCTR
 10
64.2143978074
 20
90.8175054705
  9
$VIEWSIZE
 40
181.6350109409
  9
$CLAYER
  8
0
  9
$LTSCALE
 40
11.8399118243
  9
$CELTYPE
  6
BYLAYER
  9
$DIMSCALE
 40
1.0
  9
$DIMASZ
 40
1.5289142335
  9
$DIMEXO
 40
1.0
  9
$DIMDLI
 40
8.180302715
  9
$DIMEXE
 40
1.0
  9
$DIMCEN
 40
1.9374401167
  9
$DIMLFAC
 40
1.0
  9
$DIMBLK
  1
_FILLED
  9
$DIMALT
 70
0
  9
$DIMALTF
 40
0.0393700787
  9
$DIMTXT
 40
2.1404799269
  9
$DIMTOL
 70
1
  9
$DIMLIM
 70
0
  9
$DIMTFAC
 40
1.0
  9
$DIMTP
 40
0.01
  9
$DIMTM
 40
0.01
  9
$DIMGAP
 40
0.625
  9
$DIMDSEP
 70
46
  9
$AUNITS
 70
0
  9
$PDMODE
 70
3
  9
$PDSIZE
 40
0.3125
  9
$HANDSEED
  5
26C
  9
$TILEMODE
 70
1
  9
$MEASUREMENT
 70
1
  9
$INSUNITS
 70
4
  0
ENDSEC
  0
SECTION
  2
CLASSES
  0
CLASS
  1
ACDBDICTIONARYWDFLT
  2
AcDbDictionaryWithDefault
  3
AutoCAD 2000
 90
0
 91
1
280
0
281
0
  0
CLASS
  1
ACDBPLACEHOLDER
  2
AcDbPlaceHolder
  3
AutoCAD 2000
 90
0
 91
1
280
0
281
0
  0
CLASS
  1
LAYOUT
  2
AcDbLayout
  3
AutoCAD 2000
 90
0
 91
0
280
0
281
0
  0
ENDSEC
  0
SECTION
  2
TABLES
  0
TABLE
  2
VPORT
  5
8
100
AcDbSymbolTable
 70
2
  0
VPORT
  5
1F4
100
AcDbSymbolTableRecord
100
AcDbViewportTableRecord
  2
*ACTIVE
 70
0
 10
0.0
 20
0.0
 11
1.0
 21
1.0
 12
64.2143978074
 22
90.8175054705
 13
0.0
 23
0.0
 14
1.0
 24
1.0
 15
0.0
 25
0.0
 16
0.0
 26
0.0
 36
1.0
 17
0.0
 27
0.0
 37
0.0
 40
181.6350109409
 41
0.7070707071
 42
50.0
 43
0.0
 44
0.0
 50
0.0
 51
0.0
 71
0
 72
100
 73
1
 74
1
 75
0
 76
0
 77
0
 78
0
  0
ENDTAB
  0
TABLE
  2
LTYPE
  5
5
100
AcDbSymbolTable
 70
6
  0
LTYPE
  5
14
100
AcDbSymbolTableRecord
100
AcDbLinetypeTableRecord
  2
BYBLOCK
 70
0
  3

 72
65
 73
0
 40
0.0
  0
LTYPE
  5
15
100
AcDbSymbolTableRecord
100
AcDbLinetypeTableRecord
  2
BYLAYER
 70
0
  3

 72
65
 73
0
 40
0.0
  0
LTYPE
  5
16
100
AcDbSymbolTableRecord
100
AcDbLinetypeTableRecord
  2
CONTINUOUS
 70
64
  3
Solid line
 72
65
 73
0
 40
0.0
  0
LTYPE
  5
1F5
100
AcDbSymbolTableRecord
100
AcDbLinetypeTableRecord
  2
CENTER
 70
64
  3
____ _ ____ _ ____ _ ____ _ ____ _ ____ _ ____
 72
65
 73
4
 40
0.6
 49
0.375
 74
0
 49
-0.075
 74
0
 49
0.075
 74
0
 49
-0.075
 74
0
  0
LTYPE
  5
1F6
100
AcDbSymbolTableRecord
100
AcDbLinetypeTableRecord
  2
HIDDEN
 70
64
  3
- - - - - - - - - - - - - - - - - - - -
 72
65
 73
2
 40
0.2
 49
0.1
 74
0
 49
-0.1
 74
0
  0
LTYPE
  5
1F7
100
AcDbSymbolTableRecord
100
AcDbLinetypeTableRecord
  2
PHANTOM
 70
64
  3
_____ _ _ _____ _ _ _____ _ _ _____
 72
65
 73
6
 40
0.8
 49
0.45
 74
0
 49
-0.05
 74
0
 49
0.1
 74
0
 49
-0.05
 74
0
 49
0.1
 74
0
 49
-0.05
 74
0
  0
LTYPE
  5
1F8
100
AcDbSymbolTableRecord
100
AcDbLinetypeTableRecord
  2
DOT
 70
64
  3
. . . . . . . . . . . . . . . . . . . .
 72
65
 73
2
 40
0.2
 49
0.1
 74
0
 49
-0.1
 74
0
  0
LTYPE
  5
1F9
100
AcDbSymbolTableRecord
100
AcDbLinetypeTableRecord
  2
DASHED
 70
64
  3
- - - - - - - - - - - - - - - - - - - -
 72
65
 73
2
 40
0.2
 49
0.1
 74
0
 49
-0.1
 74
0
  0
ENDTAB
  0
TABLE
  2
LAYER
  5
2
100
AcDbSymbolTable
 70
36
  0
LAYER
  5
10
100
AcDbSymbolTableRecord
100
AcDbLayerTableRecord
  2
0
 70
0
 62
7
  6
CONTINUOUS
370
-3
390
F
  0
LAYER
  5
1FA
100
AcDbSymbolTableRecord
100
AcDbLayerTableRecord
  2
DEFAULT_1
 70
0
 62
7
  6
CENTER
370
-3
390
F
  0
LAYER
  5
1FB
100
AcDbSymbolTableRecord
100
AcDbLayerTableRecord
  2
DEFAULT_2
 70
0
 62
8
  6
HIDDEN
370
-3
390
F
  0
LAYER
  5
1FC
100
AcDbSymbolTableRecord
100
AcDbLayerTableRecord
  2
DEFAULT_3
 70
0
 62
7
  6
PHANTOM
370
-3
390
F
  0
LAYER
  5
1FD
100
AcDbSymbolTableRecord
100
AcDbLayerTableRecord
  2
00_COMPONENTS
 70
0
 62
7
  6
CONTINUOUS
370
-3
390
F
  0
LAYER
  5
1FE
100
AcDbSymbolTableRecord
100
AcDbLayerTableRecord
  2
01_1_DEFAULT_DATUMS
 70
0
 62
7
  6
CONTINUOUS
370
-3
390
F
  0
LAYER
  5
1FF
100
AcDbSymbolTableRecord
100
AcDbLayerTableRecord
  2
01_PLANES
 70
0
 62
7
  6
CONTINUOUS
370
-3
390
F
  0
LAYER
  5
200
100
AcDbSymbolTableRecord
100
AcDbLayerTableRecord
  2
02_COORD_SYS
 70
0
 62
7
  6
CONTINUOUS
370
-3
390
F
  0
LAYER
  5
201
100
AcDbSymbolTableRecord
100
AcDbLayerTableRecord
  2
03_AXES
 70
0
 62
7
  6
CONTINUOUS
370
-3
390
F
  0
LAYER
  5
202
100
AcDbSymbolTableRecord
100
AcDbLayerTableRecord
  2
04_POINTS
 70
0
 62
7
  6
CONTINUOUS
370
-3
390
F
  0
LAYER
  5
203
100
AcDbSymbolTableRecord
100
AcDbLayerTableRecord
  2
05_CURVES
 70
0
 62
7
  6
CONTINUOUS
370
-3
390
F
  0
LAYER
  5
204
100
AcDbSymbolTableRecord
100
AcDbLayerTableRecord
  2
06_SURFS
 70
0
 62
7
  6
CONTINUOUS
370
-3
390
F
  0
LAYER
  5
205
100
AcDbSymbolTableRecord
100
AcDbLayerTableRecord
  2
07_COSMETICS
 70
0
 62
7
  6
CONTINUOUS
370
-3
390
F
  0
LAYER
  5
206
100
AcDbSymbolTableRecord
100
AcDbLayerTableRecord
  2
10_NOTES
 70
0
 62
7
  6
CONTINUOUS
370
-3
390
F
  0
LAYER
  5
207
100
AcDbSymbolTableRecord
100
AcDbLayerTableRecord
  2
11_NOTES_PUB
 70
0
 62
7
  6
CONTINUOUS
370
-3
390
F
  0
LAYER
  5
208
100
AcDbSymbolTableRecord
100
AcDbLayerTableRecord
  2
13_REF_GTOL
 70
0
 62
7
  6
CONTINUOUS
370
-3
390
F
  0
LAYER
  5
209
100
AcDbSymbolTableRecord
100
AcDbLayerTableRecord
  2
16_MISC
 70
0
 62
7
  6
CONTINUOUS
370
-3
390
F
  0
LAYER
  5
20A
100
AcDbSymbolTableRecord
100
AcDbLayerTableRecord
  2
17_NO_PRINT
 70
0
 62
7
  6
CONTINUOUS
370
-3
390
F
  0
LAYER
  5
20B
100
AcDbSymbolTableRecord
100
AcDbLayerTableRecord
  2
18_DATUM_CAMS_JOINTS
 70
0
 62
7
  6
CONTINUOUS
370
-3
390
F
  0
LAYER
  5
20C
100
AcDbSymbolTableRecord
100
AcDbLayerTableRecord
  2
19_DATUM_FUNCTIONAL
 70
0
 62
7
  6
CONTINUOUS
370
-3
390
F
  0
LAYER
  5
20D
100
AcDbSymbolTableRecord
100
AcDbLayerTableRecord
  2
20_DATUM_KINEMATIC_SCHEME
 70
0
 62
7
  6
CONTINUOUS
370
-3
390
F
  0
LAYER
  5
20E
100
AcDbSymbolTableRecord
100
AcDbLayerTableRecord
  2
SHELL24
 70
0
 62
7
  6
CONTINUOUS
370
-3
390
F
  0
ENDTAB
  0
TABLE
  2
STYLE
  5
3
100
AcDbSymbolTable
 70
1
  0
STYLE
  5
11
100
AcDbSymbolTableRecord
100
AcDbTextStyleTableRecord
  2
STANDARD
 70
0
 40
0.0
 41
0.8
 50
0.0
 71
0
 42
0.2
  3
txt
  4

  0
STYLE
  5
20F
100
AcDbSymbolTableRecord
100
AcDbTextStyleTableRecord
  2
TEXTSTYLE_1
 70
0
 40
0.0
 41
0.8
 50
0.0
 71
0
 42
0.2
  3
gdt
  4

  0
ENDTAB
  0
TABLE
  2
VIEW
  5
6
100
AcDbSymbolTable
 70
0
  0
ENDTAB
  0
TABLE
  2
UCS
  5
7
100
AcDbSymbolTable
 70
0
  0
ENDTAB
  0
TABLE
  2
APPID
  5
9
100
AcDbSymbolTable
 70
1
  0
APPID
  5
210
100
AcDbSymbolTableRecord
100
AcDbRegAppTableRecord
  2
ACAD
 70
0
  0
ENDTAB
  0
TABLE
  2
BLOCK_RECORD
  5
1
100
AcDbSymbolTable
 70
0
  0
BLOCK_RECORD
  5
211
100
AcDbSymbolTableRecord
100
AcDbBlockTableRecord
  2
*Model_Space
  0
BLOCK_RECORD
  5
212
100
AcDbSymbolTableRecord
100
AcDbBlockTableRecord
  2
*Paper_Space
  0
BLOCK_RECORD
  5
213
100
AcDbSymbolTableRecord
100
AcDbBlockTableRecord
  2
_FILLED
  0
ENDTAB
  0
TABLE
  2
DIMSTYLE
  5
A
100
AcDbSymbolTable
 70
1
100
AcDbDimStyleTable
 71
0
  0
DIMSTYLE
105
214
100
AcDbSymbolTableRecord
100
AcDbDimStyleTableRecord
  2
STANDARD
 70
0
  3

  4

 40
1.0
 41
1.5289142335
 42
1.0
 43
0.38
 44
1.0
 45
0.0
 46
0.0
 47
0.01
 48
0.01
140
2.1404799269
141
0.09
142
0.0
143
25.4
144
1.0
145
0.0
146
1.0
147
0.625
 71
1
 72
0
 73
0
 74
0
 75
0
 76
0
 77
1
 78
8
 79
2
170
0
171
1
172
0
173
0
174
0
175
0
176
0
177
0
178
0
270
2
179
2
271
2
272
2
273
2
274
2
275
0
280
0
281
0
282
0
283
1
284
8
285
0
286
0
287
3
288
0
340
11
278
46
341
213
342
213
343
213
344
213
  0
ENDTAB
  0
ENDSEC
  0
SECTION
  2
BLOCKS
  0
BLOCK
  5
20
100
AcDbEntity
  8
0
100
AcDbBlockBegin
  2
*Model_Space
 70
0
 10
0.0
 20
0.0
 30
0.0
  3
*Model_Space
  1

  0
ENDBLK
  5
21
100
AcDbEntity
  8
0
100
AcDbBlockEnd
  0
BLOCK
  5
1C
100
AcDbEntity
  8
0
100
AcDbBlockBegin
  2
*Paper_Space
 70
0
 10
0.0
 20
0.0
 30
0.0
  3
*Paper_Space
  1

  0
ENDBLK
  5
1D
100
AcDbEntity
  8
0
100
AcDbBlockEnd
  0
BLOCK
  5
215
100
AcDbEntity
  8
0
100
AcDbBlockBegin
  2
_FILLED
 70
64
 10
0.0
 20
0.0
  3
_FILLED
  1

  0
SOLID
  5
216
100
AcDbEntity
  8
0
  6
BYBLOCK
 62
0
100
AcDbTrace
 10
0.0
 20
0.0
 11
-1.0
 21
0.25
 12
-1.0
 22
-0.25
 13
-1.0
 23
-0.25
  0
ENDBLK
  5
217
100
AcDbEntity
  8
0
  6
BYBLOCK
 62
0
100
AcDbBlockEnd
  0
ENDSEC
  0
SECTION
  2
ENTITIES
  0
LINE
  5
218
100
AcDbEntity
  8
SHELL24
100
AcDbLine
 62
7
  6
CONTINUOUS
 10
14.5259951816
 20
123.9645054705
 11
14.5259951816
 21
67.8305054962
  0
LINE
  5
219
100
AcDbEntity
  8
SHELL24
100
AcDbLine
 62
7
  6
CONTINUOUS
 10
17.2437951816
 20
118.3765054705
 11
17.2437951816
 21
113.8045054705
  0
LINE
  5
21A
100
AcDbEntity
  8
SHELL24
100
AcDbLine
 62
7
  6
CONTINUOUS
 10
19.8218951816
 20
118.3765054705
 11
19.8218951816
 21
123.9645054705
  0
LINE
  5
21B
100
AcDbEntity
  8
SHELL24
100
AcDbLine
 62
7
  6
CONTINUOUS
 10
24.9780951816
 20
118.3765054705
 11
24.9780951816
 21
123.9645054705
  0
LINE
  5
21C
100
AcDbEntity
  8
SHELL24
100
AcDbLine
 62
7
  6
CONTINUOUS
 10
26.3053682454
 20
113.8045054705
 11
26.3053682454
 21
57.6705054705
  0
LINE
  5
21D
100
AcDbEntity
  8
SHELL24
100
AcDbLine
 62
7
  6
CONTINUOUS
 10
27.2259951816
 20
108.5657554705
 11
27.2259951816
 21
73.0692554705
  0
LINE
  5
21E
100
AcDbEntity
  8
SHELL24
100
AcDbLine
 62
7
  6
CONTINUOUS
 10
27.5561951816
 20
118.3765054705
 11
27.5561951816
 21
113.8045054705
  0
LINE
  5
21F
100
AcDbEntity
  8
SHELL24
100
AcDbLine
 62
7
  6
CONTINUOUS
 10
30.4009951816
 20
101.1045054705
 11
30.4009951816
 21
68.0845054705
  0
LINE
  5
220
100
AcDbEntity
  8
SHELL24
100
AcDbLine
 62
7
  6
CONTINUOUS
 10
31.0359951816
 20
68.0845054705
 11
31.0359951816
 21
66.8145054705
  0
LINE
  5
221
100
AcDbEntity
  8
SHELL24
100
AcDbLine
 62
7
  6
CONTINUOUS
 10
105.9659951558
 20
57.6705054705
 11
96.1553682454
 21
57.6705054705
  0
LINE
  5
222
100
AcDbEntity
  8
SHELL24
100
AcDbLine
 62
7
  6
CONTINUOUS
 10
96.1553682454
 20
57.6705054705
 11
24.6859952099
 21
57.6705054705
  0
LINE
  5
223
100
AcDbEntity
  8
SHELL24
100
AcDbLine
 62
7
  6
CONTINUOUS
 10
34.4966221177
 20
113.8045054705
 11
34.4966221177
 21
57.6705054705
  0
LINE
  5
224
100
AcDbEntity
  8
SHELL24
100
AcDbLine
 62
7
  6
CONTINUOUS
 10
35.7984951816
 20
73.1645054705
 11
35.7984951816
 21
66.8145054705
  0
LINE
  5
225
100
AcDbEntity
  8
SHELL24
100
AcDbLine
 62
7
  6
CONTINUOUS
 10
36.7509951816
 20
113.8045054705
 11
36.7509951816
 21
101.1045054705
  0
LINE
  5
226
100
AcDbEntity
  8
SHELL24
100
AcDbLine
 62
7
  6
CONTINUOUS
 10
96.3139951816
 20
65.9572554705
 11
34.3379951816
 21
65.9572554705
  0
LINE
  5
227
100
AcDbEntity
  8
SHELL24
100
AcDbLine
 62
7
  6
CONTINUOUS
 10
31.0359951816
 20
66.8145054705
 11
53.2609951816
 21
66.8145054705
  0
LINE
  5
228
100
AcDbEntity
  8
SHELL24
100
AcDbLine
 62
7
  6
CONTINUOUS
 10
90.4084951816
 20
66.8145054705
 11
98.3459951816
 21
66.8145054705
  0
LINE
  5
229
100
AcDbEntity
  8
SHELL24
100
AcDbLine
 62
7
  6
CONTINUOUS
 10
42.1484951816
 20
73.1645054705
 11
42.1484951816
 21
66.8145054705
  0
LINE
  5
22A
100
AcDbEntity
  8
SHELL24
100
AcDbLine
 62
7
  6
CONTINUOUS
 10
100.2509951816
 20
68.0845054705
 11
88.5034951816
 21
68.0845054705
  0
LINE
  5
22B
100
AcDbEntity
  8
SHELL24
100
AcDbLine
 62
7
  6
CONTINUOUS
 10
53.8959951816
 20
68.0845054705
 11
30.4009951816
 21
68.0845054705
  0
LINE
  5
22C
100
AcDbEntity
  8
SHELL24
100
AcDbLine
 62
7
  6
CONTINUOUS
 10
96.3616201816
 20
68.7988804705
 11
92.3928701816
 21
68.7988804705
  0
LINE
  5
22D
100
AcDbEntity
  8
SHELL24
100
AcDbLine
 62
7
  6
CONTINUOUS
 10
48.4984951816
 20
73.1645054705
 11
48.4984951816
 21
66.8145054705
  0
LINE
  5
22E
100
AcDbEntity
  8
SHELL24
100
AcDbLine
 62
7
  6
CONTINUOUS
 10
100.2509951816
 20
72.2437554705
 11
88.5288951816
 21
72.2437554705
  0
LINE
  5
22F
100
AcDbEntity
  8
SHELL24
100
AcDbLine
 62
7
  6
CONTINUOUS
 10
48.4984951816
 20
73.1645054705
 11
35.7984951816
 21
73.1645054705
  0
LINE
  5
230
100
AcDbEntity
  8
SHELL24
100
AcDbLine
 62
7
  6
CONTINUOUS
 10
30.4009951816
 20
73.4693054705
 11
53.8705951816
 21
73.4693054705
  0
LINE
  5
231
100
AcDbEntity
  8
SHELL24
100
AcDbLine
 62
7
  6
CONTINUOUS
 10
53.2609951816
 20
68.0845054705
 11
53.2609951816
 21
66.8145054705
  0
LINE
  5
232
100
AcDbEntity
  8
SHELL24
100
AcDbLine
 62
7
  6
CONTINUOUS
 10
53.8705951816
 20
73.4693054705
 11
53.8705951816
 21
95.7197054705
  0
LINE
  5
233
100
AcDbEntity
  8
SHELL24
100
AcDbLine
 62
7
  6
CONTINUOUS
 10
53.8959951816
 20
83.3245054705
 11
53.8959951816
 21
68.0845054705
  0
LINE
  5
234
100
AcDbEntity
  8
SHELL24
100
AcDbLine
 62
7
  6
CONTINUOUS
 10
100.2509951816
 20
80.4352554705
 11
88.5288951816
 21
80.4352554705
  0
LINE
  5
235
100
AcDbEntity
  8
SHELL24
100
AcDbLine
 62
7
  6
CONTINUOUS
 10
58.9759951816
 20
80.7845054705
 11
71.6759951816
 21
80.7845054705
  0
LINE
  5
236
100
AcDbEntity
  8
SHELL24
100
AcDbLine
 62
7
  6
CONTINUOUS
 10
58.9759951816
 20
83.3245054705
 11
58.9759951816
 21
80.7845054705
  0
LINE
  5
237
100
AcDbEntity
  8
SHELL24
100
AcDbLine
 62
7
  6
CONTINUOUS
 10
61.2303682454
 20
113.8045054705
 11
61.2303682454
 21
57.6705054705
  0
LINE
  5
238
100
AcDbEntity
  8
SHELL24
100
AcDbLine
 62
7
  6
CONTINUOUS
 10
76.7559951816
 20
83.3245054705
 11
53.8959951816
 21
83.3245054705
  0
LINE
  5
239
100
AcDbEntity
  8
SHELL24
100
AcDbLine
 62
7
  6
CONTINUOUS
 10
78.6609951816
 20
83.3245054705
 11
86.5984951816
 21
83.3245054705
  0
LINE
  5
23A
100
AcDbEntity
  8
SHELL24
100
AcDbLine
 62
7
  6
CONTINUOUS
 10
88.5034951816
 20
84.5945054705
 11
76.7559951816
 21
84.5945054705
  0
LINE
  5
23B
100
AcDbEntity
  8
SHELL24
100
AcDbLine
 62
7
  6
CONTINUOUS
 10
84.6141201816
 20
85.3088804705
 11
80.6453701816
 21
85.3088804705
  0
LINE
  5
23C
100
AcDbEntity
  8
SHELL24
100
AcDbLine
 62
7
  6
CONTINUOUS
 10
65.3259951816
 20
113.8045054705
 11
65.3259951816
 21
83.3245054705
  0
LINE
  5
23D
100
AcDbEntity
  8
SHELL24
100
AcDbLine
 62
7
  6
CONTINUOUS
 10
100.2509951816
 20
88.7537554705
 11
76.7813951816
 21
88.7537554705
  0
LINE
  5
23E
100
AcDbEntity
  8
SHELL24
100
AcDbLine
 62
7
  6
CONTINUOUS
 10
69.4216221177
 20
113.8045054705
 11
69.4216221177
 21
57.6705054705
  0
LINE
  5
23F
100
AcDbEntity
  8
SHELL24
100
AcDbLine
 62
7
  6
CONTINUOUS
 10
71.6759951816
 20
83.3245054705
 11
71.6759951816
 21
80.7845054705
  0
LINE
  5
240
100
AcDbEntity
  8
SHELL24
100
AcDbLine
 62
7
  6
CONTINUOUS
 10
30.4009951816
 20
95.7197054705
 11
53.8705951816
 21
95.7197054705
  0
LINE
  5
241
100
AcDbEntity
  8
SHELL24
100
AcDbLine
 62
7
  6
CONTINUOUS
 10
100.2509951816
 20
96.9452554705
 11
76.7813951816
 21
96.9452554705
  0
LINE
  5
242
100
AcDbEntity
  8
SHELL24
100
AcDbLine
 62
7
  6
CONTINUOUS
 10
76.7559951816
 20
84.5945054705
 11
76.7559951816
 21
83.3245054705
  0
LINE
  5
243
100
AcDbEntity
  8
SHELL24
100
AcDbLine
 62
7
  6
CONTINUOUS
 10
76.7813951816
 20
88.7537554705
 11
76.7813951816
 21
96.9452554705
  0
LINE
  5
244
100
AcDbEntity
  8
SHELL24
100
AcDbLine
 62
7
  6
CONTINUOUS
 10
100.2509951816
 20
101.1045054705
 11
93.9009951816
 21
101.1045054705
  0
LINE
  5
245
100
AcDbEntity
  8
SHELL24
100
AcDbLine
 62
7
  6
CONTINUOUS
 10
36.7509951816
 20
101.1045054705
 11
30.4009951816
 21
101.1045054705
  0
LINE
  5
246
100
AcDbEntity
  8
SHELL24
100
AcDbLine
 62
7
  6
CONTINUOUS
 10
78.6609951816
 20
84.5945054705
 11
78.6609951816
 21
83.3245054705
  0
LINE
  5
247
100
AcDbEntity
  8
SHELL24
100
AcDbLine
 62
7
  6
CONTINUOUS
 10
80.6453701816
 20
85.3088804705
 11
80.6453701816
 21
83.3245054705
  0
LINE
  5
248
100
AcDbEntity
  8
SHELL24
100
AcDbLine
 62
7
  6
CONTINUOUS
 10
82.6297451816
 20
85.3088804705
 11
82.6297451816
 21
83.3245054705
  0
LINE
  5
249
100
AcDbEntity
  8
SHELL24
100
AcDbLine
 62
7
  6
CONTINUOUS
 10
84.6141201816
 20
85.3088804705
 11
84.6141201816
 21
83.3245054705
  0
LINE
  5
24A
100
AcDbEntity
  8
SHELL24
100
AcDbLine
 62
7
  6
CONTINUOUS
 10
86.5984951816
 20
84.5945054705
 11
86.5984951816
 21
83.3245054705
  0
LINE
  5
24B
100
AcDbEntity
  8
SHELL24
100
AcDbLine
 62
7
  6
CONTINUOUS
 10
88.5034951816
 20
84.5945054705
 11
88.5034951816
 21
68.0845054705
  0
LINE
  5
24C
100
AcDbEntity
  8
SHELL24
100
AcDbLine
 62
7
  6
CONTINUOUS
 10
88.5288951816
 20
72.2437554705
 11
88.5288951816
 21
80.4352554705
  0
LINE
  5
24D
100
AcDbEntity
  8
SHELL24
100
AcDbLine
 62
7
  6
CONTINUOUS
 10
96.1553682454
 20
113.8045054705
 11
14.5259951816
 21
113.8045054705
  0
LINE
  5
24E
100
AcDbEntity
  8
SHELL24
100
AcDbLine
 62
7
  6
CONTINUOUS
 10
96.1553682454
 20
113.8045054705
 11
116.1259951816
 21
113.8045054705
  0
LINE
  5
24F
100
AcDbEntity
  8
SHELL24
100
AcDbLine
 62
7
  6
CONTINUOUS
 10
90.4084951816
 20
68.0845054705
 11
90.4084951816
 21
66.8145054705
  0
LINE
  5
250
100
AcDbEntity
  8
SHELL24
100
AcDbLine
 62
7
  6
CONTINUOUS
 10
92.3928701816
 20
68.7988804705
 11
92.3928701816
 21
66.8145054705
  0
LINE
  5
251
100
AcDbEntity
  8
SHELL24
100
AcDbLine
 62
7
  6
CONTINUOUS
 10
93.9009951816
 20
113.8045054705
 11
93.9009951816
 21
101.1045054705
  0
LINE
  5
252
100
AcDbEntity
  8
SHELL24
100
AcDbLine
 62
7
  6
CONTINUOUS
 10
96.3139951816
 20
115.6777554705
 11
34.3379951816
 21
115.6777554705
  0
LINE
  5
253
100
AcDbEntity
  8
SHELL24
100
AcDbLine
 62
7
  6
CONTINUOUS
 10
17.2437951816
 20
118.3765054705
 11
27.5561951816
 21
118.3765054705
  0
LINE
  5
254
100
AcDbEntity
  8
SHELL24
100
AcDbLine
 62
7
  6
CONTINUOUS
 10
103.0957951816
 20
118.3765054705
 11
113.4081951816
 21
118.3765054705
  0
LINE
  5
255
100
AcDbEntity
  8
SHELL24
100
AcDbLine
 62
7
  6
CONTINUOUS
 10
94.3772451816
 20
68.7988804705
 11
94.3772451816
 21
66.8145054705
  0
LINE
  5
256
100
AcDbEntity
  8
SHELL24
100
AcDbLine
 62
7
  6
CONTINUOUS
 10
96.1553682454
 20
57.6705054705
 11
96.1553682454
 21
113.8045054705
  0
LINE
  5
257
100
AcDbEntity
  8
SHELL24
100
AcDbLine
 62
7
  6
CONTINUOUS
 10
96.3616201816
 20
68.7988804705
 11
96.3616201816
 21
66.8145054705
  0
LINE
  5
258
100
AcDbEntity
  8
SHELL24
100
AcDbLine
 62
7
  6
CONTINUOUS
 10
98.3459951816
 20
68.0845054705
 11
98.3459951816
 21
66.8145054705
  0
LINE
  5
259
100
AcDbEntity
  8
SHELL24
100
AcDbLine
 62
7
  6
CONTINUOUS
 10
100.2509951816
 20
101.1045054705
 11
100.2509951816
 21
68.0845054705
  0
LINE
  5
25A
100
AcDbEntity
  8
SHELL24
100
AcDbLine
 62
7
  6
CONTINUOUS
 10
116.1259951816
 20
123.9645054705
 11
14.5259951816
 21
123.9645054705
  0
LINE
  5
25B
100
AcDbEntity
  8
SHELL24
100
AcDbLine
 62
7
  6
CONTINUOUS
 10
103.0957951816
 20
118.3765054705
 11
103.0957951816
 21
113.8045054705
  0
LINE
  5
25C
100
AcDbEntity
  8
SHELL24
100
AcDbLine
 62
7
  6
CONTINUOUS
 10
103.4259951816
 20
108.5657554705
 11
103.4259951816
 21
73.0692554705
  0
LINE
  5
25D
100
AcDbEntity
  8
SHELL24
100
AcDbLine
 62
7
  6
CONTINUOUS
 10
104.3466221177
 20
113.8045054705
 11
104.3466221177
 21
57.6705054705
  0
LINE
  5
25E
100
AcDbEntity
  8
SHELL24
100
AcDbLine
 62
7
  6
CONTINUOUS
 10
105.6738951816
 20
118.3765054705
 11
105.6738951816
 21
123.9645054705
  0
LINE
  5
25F
100
AcDbEntity
  8
SHELL24
100
AcDbLine
 62
7
  6
CONTINUOUS
 10
110.8300951816
 20
118.3765054705
 11
110.8300951816
 21
123.9645054705
  0
LINE
  5
260
100
AcDbEntity
  8
SHELL24
100
AcDbLine
 62
7
  6
CONTINUOUS
 10
113.4081951816
 20
118.3765054705
 11
113.4081951816
 21
113.8045054705
  0
LINE
  5
261
100
AcDbEntity
  8
SHELL24
100
AcDbLine
 62
7
  6
CONTINUOUS
 10
116.1259951816
 20
113.8045054705
 11
116.1259951816
 21
67.8305054987
  0
LINE
  5
262
100
AcDbEntity
  8
SHELL24
100
AcDbLine
 62
7
  6
CONTINUOUS
 10
116.1259951816
 20
113.8045054705
 11
116.1259951816
 21
123.9645054705
  0
ARC
  5
263
100
AcDbEntity
  8
SHELL24
100
AcDbCircle
 62
7
  6
CONTINUOUS
 10
105.965995179
 20
67.830505473
 40
10.16
100
AcDbArc
 50
270.0000000143
 51
359.9999999857
  0
ARC
  5
264
100
AcDbEntity
  8
SHELL24
100
AcDbCircle
 62
7
  6
CONTINUOUS
 10
24.6859951841
 20
67.830505473
 40
10.16
100
AcDbArc
 50
179.9999998692
 51
270.0000001451
  0
ARC
  5
265
100
AcDbEntity
  8
SHELL24
100
AcDbCircle
 62
7
  6
CONTINUOUS
 10
96.313995179
 20
73.069255473
 40
7.112
100
AcDbArc
 50
269.9999998398
 51
0.0000002012
  0
ARC
  5
266
100
AcDbEntity
  8
SHELL24
100
AcDbCircle
 62
7
  6
CONTINUOUS
 10
96.313995179
 20
108.5657554679
 40
7.112
100
AcDbArc
 50
359.9999998398
 51
90.0000002012
  0
ARC
  5
267
100
AcDbEntity
  8
SHELL24
100
AcDbCircle
 62
7
  6
CONTINUOUS
 10
34.3379951841
 20
108.5657554679
 40
7.112
100
AcDbArc
 50
89.9999998398
 51
180.0000002012
  0
ARC
  5
268
100
AcDbEntity
  8
SHELL24
100
AcDbCircle
 62
7
  6
CONTINUOUS
 10
34.3379951841
 20
73.069255473
 40
7.112
100
AcDbArc
 50
179.9999998398
 51
270.0000002012
  0
SPLINE
  5
269
100
AcDbEntity
  8
SHELL24
100
AcDbSpline
 62
7
  6
CONTINUOUS
 70
0
 71
3
 72
15
 73
11
 74
0
 42
0.0000001
 43
0.0000001
 44
0.0000000001
 40
0.0
 40
0.0
 40
0.0
 40
0.0
 40
0.1252406664
 40
0.2502745762
 40
0.3751723962
 40
0.5000051689
 40
0.6248372943
 40
0.7497331728
 40
0.8747638508
 40
1.0
 40
1.0
 40
1.0
 40
1.0
 10
116.1259951816
 20
67.8305054987
 30
0.0
 10
116.1245449614
 20
67.1653266997
 30
0.0
 10
115.9952770921
 20
65.8323607236
 30
0.0
 10
115.4114793612
 20
63.9141120938
 30
0.0
 10
114.4667504328
 20
62.1475532409
 30
0.0
 10
113.1962942607
 20
60.6000934506
 30
0.0
 10
111.6488225563
 20
59.329668432
 30
0.0
 10
109.8822785134
 20
58.384978424
 30
0.0
 10
107.9640743819
 20
57.8012153583
 30
0.0
 10
106.631149966
 20
57.6719542171
 30
0.0
 10
105.9659951558
 20
57.6705054705
 30
0.0
  0
ENDSEC
  0
SECTION
  2
OBJECTS
  0
DICTIONARY
  5
C
100
AcDbDictionary
280
0
281
1
  3
ACAD_GROUP
350
D
  3
ACAD_MLINESTYLE
350
17
  3
ACAD_LAYOUT
350
1A
  3
ACAD_PLOTSETTINGS
350
19
  3
ACAD_PLOTSTYLENAME
350
E
  0
DICTIONARY
  5
D
102
{ACAD_REACTORS
330
C
102
}
100
AcDbDictionary
280
0
281
1
  0
ACDBDICTIONARYWDFLT
  5
E
102
{ACAD_REACTORS
330
C
102
}
100
AcDbDictionary
281
1
  3
Normal
350
F
100
AcDbDictionaryWithDefault
340
F
  0
DICTIONARY
  5
17
102
{ACAD_REACTORS
330
C
102
}
100
AcDbDictionary
280
0
281
1
  3
Standard
350
18
  0
DICTIONARY
  5
19
102
{ACAD_REACTORS
330
C
102
}
100
AcDbDictionary
281
1
  0
DICTIONARY
  5
1A
102
{ACAD_REACTORS
330
C
102
}
100
AcDbDictionary
281
1
  3
Model
350
26A
  3
Layout1
350
26B
  0
ACDBPLACEHOLDER
  5
F
102
{ACAD_REACTORS
330
E
102
}
  0
MLINESTYLE
  5
18
102
{ACAD_REACTORS
330
17
102
}
100
AcDbMlineStyle
  2
STANDARD
 70
0
  3

 62
256
 51
90.0
 52
90.0
 71
2
 49
0.5
 62
256
  6
BYLAYER
 49
-0.5
 62
256
  6
BYLAYER
  0
LAYOUT
  5
26A
102
{ACAD_REACTORS
330
1A
102
}
100
AcDbPlotSettings
  1

  2
none_device
  4

  6

 40
0.0
 41
0.0
 42
0.0
 43
0.0
 44
210.0
 45
297.0
 46
0.0
 47
0.0
 48
0.0
 49
0.0
140
0.0
141
0.0
142
1.0
143
1.0
 70
1024
 72
1
 73
0
 74
0
  7

 75
0
147
1.0
148
0.0
149
0.0
100
AcDbLayout
  1
Model
 70
0
 71
0
 10
0.0
 20
0.0
 11
210.0
 21
297.0
 12
0.0
 22
0.0
 32
0.0
 14
0.0
 24
0.0
 34
0.0
 15
0.0
 25
0.0
 35
0.0
146
0.0
 13
0.0
 23
0.0
 33
0.0
 16
1.0
 26
0.0
 36
0.0
 17
0.0
 27
1.0
 37
0.0
 76
0
330
211
345
0
346
0
  0
LAYOUT
  5
26B
102
{ACAD_REACTORS
330
1A
102
}
100
AcDbPlotSettings
  1

  2
none_device
  4

  6

 40
0.0
 41
0.0
 42
0.0
 43
0.0
 44
210.0
 45
297.0
 46
0.0
 47
0.0
 48
0.0
 49
0.0
140
0.0
141
0.0
142
1.0
143
1.0
 70
0
 72
1
 73
0
 74
0
  7

 75
0
147
1.0
148
0.0
149
0.0
100
AcDbLayout
  1
Layout1
 70
0
 71
1
 10
0.0
 20
0.0
 11
210.0
 21
297.0
 12
0.0
 22
0.0
 32
0.0
 14
0.0
 24
0.0
 34
0.0
 15
0.0
 25
0.0
 35
0.0
146
0.0
 13
0.0
 23
0.0
 33
0.0
 16
1.0
 26
0.0
 36
0.0
 17
0.0
 27
1.0
 37
0.0
 76
0
330
212
345
0
346
0
  0
ENDSEC
  0
EOF
