999
DXF file: C:\Users\sesa63760\Dev\_Creo\CAD\MCADPP0003102_3D-CAD\drw0001_2.dxf
999
Pro/ENGINEER 2019471 by Parametric Technology Corporation
  0
SECTION
  2
HEADER
  9
$ACADVER
  1
AC1024
  9
$DWGCODEPAGE
  3
ANSI_1252
  9
$EXTMAX
 10
273.0007270967
 20
386.1010283224
 30
0.0
  9
$EXTMIN
 10
0.0
 20
0.0
 30
0.0
  9
$LIMMIN
 10
0.0
 20
0.0
  9
$LIMMAX
 10
273.0007270967
 20
386.1010283224
  9
$VIEWCTR
 10
136.5003635483
 20
193.0505141612
  9
$VIEWSIZE
 40
386.1010283224
  9
$CLAYER
  8
0
  9
$LTSCALE
 40
25.1680670314
  9
$CELTYPE
  6
BYLAYER
  9
$DIMSCALE
 40
1.0
  9
$DIMASZ
 40
3.2500086559
  9
$DIMEXO
 40
1.0
  9
$DIMDLI
 40
17.3888463126
  9
$DIMEXE
 40
1.0
  9
$DIMCEN
 40
4.1184109688
  9
$DIMLFAC
 40
1.0
  9
$DIMBLK
  1
_FILLED
  9
$DIMALT
 70
0
  9
$DIMALTF
 40
0.0393700787
  9
$DIMTXT
 40
4.5500121183
  9
$DIMTOL
 70
1
  9
$DIMLIM
 70
0
  9
$DIMTFAC
 40
1.0
  9
$DIMTP
 40
0.01
  9
$DIMTM
 40
0.01
  9
$DIMGAP
 40
0.625
  9
$DIMDSEP
 70
46
  9
$AUNITS
 70
0
  9
$PDMODE
 70
3
  9
$PDSIZE
 40
0.3125
  9
$HANDSEED
  5
31B
  9
$TILEMODE
 70
1
  9
$MEASUREMENT
 70
1
  9
$INSUNITS
 70
4
  0
ENDSEC
  0
SECTION
  2
CLASSES
  0
CLASS
  1
ACDBDICTIONARYWDFLT
  2
AcDbDictionaryWithDefault
  3
AutoCAD 2000
 90
0
 91
1
280
0
281
0
  0
CLASS
  1
ACDBPLACEHOLDER
  2
AcDbPlaceHolder
  3
AutoCAD 2000
 90
0
 91
1
280
0
281
0
  0
CLASS
  1
LAYOUT
  2
AcDbLayout
  3
AutoCAD 2000
 90
0
 91
0
280
0
281
0
  0
ENDSEC
  0
SECTION
  2
TABLES
  0
TABLE
  2
VPORT
  5
8
100
AcDbSymbolTable
 70
2
  0
VPORT
  5
1F4
100
AcDbSymbolTableRecord
100
AcDbViewportTableRecord
  2
*ACTIVE
 70
0
 10
0.0
 20
0.0
 11
1.0
 21
1.0
 12
136.5003635483
 22
193.0505141612
 13
0.0
 23
0.0
 14
1.0
 24
1.0
 15
0.0
 25
0.0
 16
0.0
 26
0.0
 36
1.0
 17
0.0
 27
0.0
 37
0.0
 40
386.1010283224
 41
0.7070707071
 42
50.0
 43
0.0
 44
0.0
 50
0.0
 51
0.0
 71
0
 72
100
 73
1
 74
1
 75
0
 76
0
 77
0
 78
0
  0
ENDTAB
  0
TABLE
  2
LTYPE
  5
5
100
AcDbSymbolTable
 70
6
  0
LTYPE
  5
14
100
AcDbSymbolTableRecord
100
AcDbLinetypeTableRecord
  2
BYBLOCK
 70
0
  3

 72
65
 73
0
 40
0.0
  0
LTYPE
  5
15
100
AcDbSymbolTableRecord
100
AcDbLinetypeTableRecord
  2
BYLAYER
 70
0
  3

 72
65
 73
0
 40
0.0
  0
LTYPE
  5
16
100
AcDbSymbolTableRecord
100
AcDbLinetypeTableRecord
  2
CONTINUOUS
 70
64
  3
Solid line
 72
65
 73
0
 40
0.0
  0
LTYPE
  5
1F5
100
AcDbSymbolTableRecord
100
AcDbLinetypeTableRecord
  2
CENTER
 70
64
  3
____ _ ____ _ ____ _ ____ _ ____ _ ____ _ ____
 72
65
 73
4
 40
0.6
 49
0.375
 74
0
 49
-0.075
 74
0
 49
0.075
 74
0
 49
-0.075
 74
0
  0
LTYPE
  5
1F6
100
AcDbSymbolTableRecord
100
AcDbLinetypeTableRecord
  2
HIDDEN
 70
64
  3
- - - - - - - - - - - - - - - - - - - -
 72
65
 73
2
 40
0.2
 49
0.1
 74
0
 49
-0.1
 74
0
  0
LTYPE
  5
1F7
100
AcDbSymbolTableRecord
100
AcDbLinetypeTableRecord
  2
PHANTOM
 70
64
  3
_____ _ _ _____ _ _ _____ _ _ _____
 72
65
 73
6
 40
0.8
 49
0.45
 74
0
 49
-0.05
 74
0
 49
0.1
 74
0
 49
-0.05
 74
0
 49
0.1
 74
0
 49
-0.05
 74
0
  0
LTYPE
  5
1F8
100
AcDbSymbolTableRecord
100
AcDbLinetypeTableRecord
  2
DOT
 70
64
  3
. . . . . . . . . . . . . . . . . . . .
 72
65
 73
2
 40
0.2
 49
0.1
 74
0
 49
-0.1
 74
0
  0
LTYPE
  5
1F9
100
AcDbSymbolTableRecord
100
AcDbLinetypeTableRecord
  2
DASHED
 70
64
  3
- - - - - - - - - - - - - - - - - - - -
 72
65
 73
2
 40
0.2
 49
0.1
 74
0
 49
-0.1
 74
0
  0
ENDTAB
  0
TABLE
  2
LAYER
  5
2
100
AcDbSymbolTable
 70
36
  0
LAYER
  5
10
100
AcDbSymbolTableRecord
100
AcDbLayerTableRecord
  2
0
 70
0
 62
7
  6
CONTINUOUS
370
-3
390
F
  0
LAYER
  5
1FA
100
AcDbSymbolTableRecord
100
AcDbLayerTableRecord
  2
DEFAULT_1
 70
0
 62
7
  6
CENTER
370
-3
390
F
  0
LAYER
  5
1FB
100
AcDbSymbolTableRecord
100
AcDbLayerTableRecord
  2
DEFAULT_2
 70
0
 62
8
  6
HIDDEN
370
-3
390
F
  0
LAYER
  5
1FC
100
AcDbSymbolTableRecord
100
AcDbLayerTableRecord
  2
DEFAULT_3
 70
0
 62
7
  6
PHANTOM
370
-3
390
F
  0
LAYER
  5
1FD
100
AcDbSymbolTableRecord
100
AcDbLayerTableRecord
  2
00_COMPONENTS
 70
0
 62
7
  6
CONTINUOUS
370
-3
390
F
  0
LAYER
  5
1FE
100
AcDbSymbolTableRecord
100
AcDbLayerTableRecord
  2
01_1_DEFAULT_DATUMS
 70
0
 62
7
  6
CONTINUOUS
370
-3
390
F
  0
LAYER
  5
1FF
100
AcDbSymbolTableRecord
100
AcDbLayerTableRecord
  2
01_PLANES
 70
0
 62
7
  6
CONTINUOUS
370
-3
390
F
  0
LAYER
  5
200
100
AcDbSymbolTableRecord
100
AcDbLayerTableRecord
  2
02_COORD_SYS
 70
0
 62
7
  6
CONTINUOUS
370
-3
390
F
  0
LAYER
  5
201
100
AcDbSymbolTableRecord
100
AcDbLayerTableRecord
  2
03_AXES
 70
0
 62
7
  6
CONTINUOUS
370
-3
390
F
  0
LAYER
  5
202
100
AcDbSymbolTableRecord
100
AcDbLayerTableRecord
  2
04_POINTS
 70
0
 62
7
  6
CONTINUOUS
370
-3
390
F
  0
LAYER
  5
203
100
AcDbSymbolTableRecord
100
AcDbLayerTableRecord
  2
05_CURVES
 70
0
 62
7
  6
CONTINUOUS
370
-3
390
F
  0
LAYER
  5
204
100
AcDbSymbolTableRecord
100
AcDbLayerTableRecord
  2
06_SURFS
 70
0
 62
7
  6
CONTINUOUS
370
-3
390
F
  0
LAYER
  5
205
100
AcDbSymbolTableRecord
100
AcDbLayerTableRecord
  2
07_COSMETICS
 70
0
 62
7
  6
CONTINUOUS
370
-3
390
F
  0
LAYER
  5
206
100
AcDbSymbolTableRecord
100
AcDbLayerTableRecord
  2
10_NOTES
 70
0
 62
7
  6
CONTINUOUS
370
-3
390
F
  0
LAYER
  5
207
100
AcDbSymbolTableRecord
100
AcDbLayerTableRecord
  2
11_NOTES_PUB
 70
0
 62
7
  6
CONTINUOUS
370
-3
390
F
  0
LAYER
  5
208
100
AcDbSymbolTableRecord
100
AcDbLayerTableRecord
  2
13_REF_GTOL
 70
0
 62
7
  6
CONTINUOUS
370
-3
390
F
  0
LAYER
  5
209
100
AcDbSymbolTableRecord
100
AcDbLayerTableRecord
  2
16_MISC
 70
0
 62
7
  6
CONTINUOUS
370
-3
390
F
  0
LAYER
  5
20A
100
AcDbSymbolTableRecord
100
AcDbLayerTableRecord
  2
17_NO_PRINT
 70
0
 62
7
  6
CONTINUOUS
370
-3
390
F
  0
LAYER
  5
20B
100
AcDbSymbolTableRecord
100
AcDbLayerTableRecord
  2
18_DATUM_CAMS_JOINTS
 70
0
 62
7
  6
CONTINUOUS
370
-3
390
F
  0
LAYER
  5
20C
100
AcDbSymbolTableRecord
100
AcDbLayerTableRecord
  2
19_DATUM_FUNCTIONAL
 70
0
 62
7
  6
CONTINUOUS
370
-3
390
F
  0
LAYER
  5
20D
100
AcDbSymbolTableRecord
100
AcDbLayerTableRecord
  2
20_DATUM_KINEMATIC_SCHEME
 70
0
 62
7
  6
CONTINUOUS
370
-3
390
F
  0
LAYER
  5
20E
100
AcDbSymbolTableRecord
100
AcDbLayerTableRecord
  2
SHELL3
 70
0
 62
7
  6
CONTINUOUS
370
-3
390
F
  0
ENDTAB
  0
TABLE
  2
STYLE
  5
3
100
AcDbSymbolTable
 70
1
  0
STYLE
  5
11
100
AcDbSymbolTableRecord
100
AcDbTextStyleTableRecord
  2
STANDARD
 70
0
 40
0.0
 41
0.8
 50
0.0
 71
0
 42
0.2
  3
txt
  4

  0
STYLE
  5
20F
100
AcDbSymbolTableRecord
100
AcDbTextStyleTableRecord
  2
TEXTSTYLE_1
 70
0
 40
0.0
 41
0.8
 50
0.0
 71
0
 42
0.2
  3
gdt
  4

  0
ENDTAB
  0
TABLE
  2
VIEW
  5
6
100
AcDbSymbolTable
 70
0
  0
ENDTAB
  0
TABLE
  2
UCS
  5
7
100
AcDbSymbolTable
 70
0
  0
ENDTAB
  0
TABLE
  2
APPID
  5
9
100
AcDbSymbolTable
 70
1
  0
APPID
  5
210
100
AcDbSymbolTableRecord
100
AcDbRegAppTableRecord
  2
ACAD
 70
0
  0
ENDTAB
  0
TABLE
  2
BLOCK_RECORD
  5
1
100
AcDbSymbolTable
 70
0
  0
BLOCK_RECORD
  5
211
100
AcDbSymbolTableRecord
100
AcDbBlockTableRecord
  2
*Model_Space
  0
BLOCK_RECORD
  5
212
100
AcDbSymbolTableRecord
100
AcDbBlockTableRecord
  2
*Paper_Space
  0
BLOCK_RECORD
  5
213
100
AcDbSymbolTableRecord
100
AcDbBlockTableRecord
  2
_FILLED
  0
ENDTAB
  0
TABLE
  2
DIMSTYLE
  5
A
100
AcDbSymbolTable
 70
1
100
AcDbDimStyleTable
 71
0
  0
DIMSTYLE
105
214
100
AcDbSymbolTableRecord
100
AcDbDimStyleTableRecord
  2
STANDARD
 70
0
  3

  4

 40
1.0
 41
3.2500086559
 42
1.0
 43
0.38
 44
1.0
 45
0.0
 46
0.0
 47
0.01
 48
0.01
140
4.5500121183
141
0.09
142
0.0
143
25.4
144
1.0
145
0.0
146
1.0
147
0.625
 71
1
 72
0
 73
0
 74
0
 75
0
 76
0
 77
1
 78
8
 79
2
170
0
171
1
172
0
173
0
174
0
175
0
176
0
177
0
178
0
270
2
179
2
271
2
272
2
273
2
274
2
275
0
280
0
281
0
282
0
283
1
284
8
285
0
286
0
287
3
288
0
340
11
278
46
341
213
342
213
343
213
344
213
  0
ENDTAB
  0
ENDSEC
  0
SECTION
  2
BLOCKS
  0
BLOCK
  5
20
100
AcDbEntity
  8
0
100
AcDbBlockBegin
  2
*Model_Space
 70
0
 10
0.0
 20
0.0
 30
0.0
  3
*Model_Space
  1

  0
ENDBLK
  5
21
100
AcDbEntity
  8
0
100
AcDbBlockEnd
  0
BLOCK
  5
1C
100
AcDbEntity
  8
0
100
AcDbBlockBegin
  2
*Paper_Space
 70
0
 10
0.0
 20
0.0
 30
0.0
  3
*Paper_Space
  1

  0
ENDBLK
  5
1D
100
AcDbEntity
  8
0
100
AcDbBlockEnd
  0
BLOCK
  5
215
100
AcDbEntity
  8
0
100
AcDbBlockBegin
  2
_FILLED
 70
64
 10
0.0
 20
0.0
  3
_FILLED
  1

  0
SOLID
  5
216
100
AcDbEntity
  8
0
  6
BYBLOCK
 62
0
100
AcDbTrace
 10
0.0
 20
0.0
 11
-1.0
 21
0.25
 12
-1.0
 22
-0.25
 13
-1.0
 23
-0.25
  0
ENDBLK
  5
217
100
AcDbEntity
  8
0
  6
BYBLOCK
 62
0
100
AcDbBlockEnd
  0
ENDSEC
  0
SECTION
  2
ENTITIES
  0
LINE
  5
218
100
AcDbEntity
  8
SHELL3
100
AcDbLine
 62
7
  6
CONTINUOUS
 10
29.9326990603
 20
231.9656383442
 11
29.9326990603
 21
152.7176383468
  0
LINE
  5
219
100
AcDbEntity
  8
SHELL3
100
AcDbLine
 62
7
  6
CONTINUOUS
 10
38.5686990603
 20
219.2656383442
 11
38.5686990603
 21
152.7176383442
  0
LINE
  5
21A
100
AcDbEntity
  8
SHELL3
100
AcDbLine
 62
7
  6
CONTINUOUS
 10
41.1086990603
 20
204.0256383442
 11
41.1086990603
 21
165.4176383442
  0
LINE
  5
21B
100
AcDbEntity
  8
SHELL3
100
AcDbLine
 62
7
  6
CONTINUOUS
 10
41.1086990603
 20
219.2656383442
 11
41.1086990603
 21
204.0256383442
  0
LINE
  5
21C
100
AcDbEntity
  8
SHELL3
100
AcDbLine
 62
7
  6
CONTINUOUS
 10
41.1086990603
 20
165.4176383442
 11
41.1086990603
 21
152.7176383442
  0
LINE
  5
21D
100
AcDbEntity
  8
SHELL3
100
AcDbLine
 62
7
  6
CONTINUOUS
 10
46.7284490603
 20
184.7216383442
 11
46.7284490603
 21
183.4516383442
  0
LINE
  5
21E
100
AcDbEntity
  8
SHELL3
100
AcDbLine
 62
7
  6
CONTINUOUS
 10
46.7284490603
 20
165.4176383442
 11
46.7284490603
 21
164.1476383442
  0
LINE
  5
21F
100
AcDbEntity
  8
SHELL3
100
AcDbLine
 62
7
  6
CONTINUOUS
 10
49.5350684033
 20
185.8328883442
 11
49.5350684033
 21
183.4516383442
  0
LINE
  5
220
100
AcDbEntity
  8
SHELL3
100
AcDbLine
 62
7
  6
CONTINUOUS
 10
49.5350684033
 20
166.5288883442
 11
49.5350684033
 21
164.1476383442
  0
LINE
  5
221
100
AcDbEntity
  8
SHELL3
100
AcDbLine
 62
7
  6
CONTINUOUS
 10
50.9098837318
 20
185.8328883442
 11
50.9098837318
 21
183.4516383442
  0
LINE
  5
222
100
AcDbEntity
  8
SHELL3
100
AcDbLine
 62
7
  6
CONTINUOUS
 10
50.9098837318
 20
166.5288883442
 11
50.9098837318
 21
164.1476383442
  0
LINE
  5
223
100
AcDbEntity
  8
SHELL3
100
AcDbLine
 62
7
  6
CONTINUOUS
 10
53.6595143888
 20
185.8328883442
 11
53.6595143888
 21
183.4516383442
  0
LINE
  5
224
100
AcDbEntity
  8
SHELL3
100
AcDbLine
 62
7
  6
CONTINUOUS
 10
53.6595143888
 20
166.5288883442
 11
53.6595143888
 21
164.1476383442
  0
LINE
  5
225
100
AcDbEntity
  8
SHELL3
100
AcDbLine
 62
7
  6
CONTINUOUS
 10
55.0343297173
 20
185.8328883442
 11
55.0343297173
 21
183.4516383442
  0
LINE
  5
226
100
AcDbEntity
  8
SHELL3
100
AcDbLine
 62
7
  6
CONTINUOUS
 10
55.0343297173
 20
166.5288883442
 11
55.0343297173
 21
164.1476383442
  0
LINE
  5
227
100
AcDbEntity
  8
SHELL3
100
AcDbLine
 62
7
  6
CONTINUOUS
 10
57.8409490603
 20
184.7216383442
 11
57.8409490603
 21
183.4516383442
  0
LINE
  5
228
100
AcDbEntity
  8
SHELL3
100
AcDbLine
 62
7
  6
CONTINUOUS
 10
57.8409490603
 20
165.4176383442
 11
57.8409490603
 21
164.1476383442
  0
LINE
  5
229
100
AcDbEntity
  8
SHELL3
100
AcDbLine
 62
7
  6
CONTINUOUS
 10
59.7459490603
 20
165.4176383442
 11
59.7459490603
 21
164.1476383442
  0
LINE
  5
22A
100
AcDbEntity
  8
SHELL3
100
AcDbLine
 62
7
  6
CONTINUOUS
 10
63.7146990603
 20
224.5996383442
 11
63.7146990603
 21
219.2656383442
  0
LINE
  5
22B
100
AcDbEntity
  8
SHELL3
100
AcDbLine
 62
7
  6
CONTINUOUS
 10
63.7146990603
 20
165.4430383442
 11
63.7146990603
 21
162.9030383442
  0
LINE
  5
22C
100
AcDbEntity
  8
SHELL3
100
AcDbLine
 62
7
  6
CONTINUOUS
 10
64.5084490603
 20
184.7216383442
 11
64.5084490603
 21
183.4516383442
  0
LINE
  5
22D
100
AcDbEntity
  8
SHELL3
100
AcDbLine
 62
7
  6
CONTINUOUS
 10
64.5084490603
 20
165.4176383442
 11
64.5084490603
 21
164.1476383442
  0
LINE
  5
22E
100
AcDbEntity
  8
SHELL3
100
AcDbLine
 62
7
  6
CONTINUOUS
 10
64.5654377463
 20
168.9101383442
 11
64.5654377463
 21
164.1476383442
  0
LINE
  5
22F
100
AcDbEntity
  8
SHELL3
100
AcDbLine
 62
7
  6
CONTINUOUS
 10
66.7626990603
 20
224.5996383442
 11
66.7626990603
 21
231.9656383442
  0
LINE
  5
230
100
AcDbEntity
  8
SHELL3
100
AcDbLine
 62
7
  6
CONTINUOUS
 10
67.3150684033
 20
185.8328883442
 11
67.3150684033
 21
183.4516383442
  0
LINE
  5
231
100
AcDbEntity
  8
SHELL3
100
AcDbLine
 62
7
  6
CONTINUOUS
 10
67.3150684033
 20
168.9101383442
 11
67.3150684033
 21
164.1476383442
  0
LINE
  5
232
100
AcDbEntity
  8
SHELL3
100
AcDbLine
 62
7
  6
CONTINUOUS
 10
68.6898837318
 20
185.8328883442
 11
68.6898837318
 21
183.4516383442
  0
LINE
  5
233
100
AcDbEntity
  8
SHELL3
100
AcDbLine
 62
7
  6
CONTINUOUS
 10
68.6898837318
 20
166.5288883442
 11
68.6898837318
 21
164.1476383442
  0
LINE
  5
234
100
AcDbEntity
  8
SHELL3
100
AcDbLine
 62
7
  6
CONTINUOUS
 10
71.4395143888
 20
185.8328883442
 11
71.4395143888
 21
183.4516383442
  0
LINE
  5
235
100
AcDbEntity
  8
SHELL3
100
AcDbLine
 62
7
  6
CONTINUOUS
 10
71.4395143888
 20
166.5288883442
 11
71.4395143888
 21
164.1476383442
  0
LINE
  5
236
100
AcDbEntity
  8
SHELL3
100
AcDbLine
 62
7
  6
CONTINUOUS
 10
72.8143297173
 20
185.8328883442
 11
72.8143297173
 21
183.4516383442
  0
LINE
  5
237
100
AcDbEntity
  8
SHELL3
100
AcDbLine
 62
7
  6
CONTINUOUS
 10
72.8143297173
 20
168.9101383442
 11
72.8143297173
 21
164.1476383442
  0
LINE
  5
238
100
AcDbEntity
  8
SHELL3
100
AcDbLine
 62
7
  6
CONTINUOUS
 10
73.3666990603
 20
224.5996383442
 11
73.3666990603
 21
231.9656383442
  0
LINE
  5
239
100
AcDbEntity
  8
SHELL3
100
AcDbLine
 62
7
  6
CONTINUOUS
 10
75.5639603744
 20
168.9101383442
 11
75.5639603744
 21
164.1476383442
  0
LINE
  5
23A
100
AcDbEntity
  8
SHELL3
100
AcDbLine
 62
7
  6
CONTINUOUS
 10
75.6209490603
 20
184.7216383442
 11
75.6209490603
 21
183.4516383442
  0
LINE
  5
23B
100
AcDbEntity
  8
SHELL3
100
AcDbLine
 62
7
  6
CONTINUOUS
 10
75.6209490603
 20
165.4176383442
 11
75.6209490603
 21
164.1476383442
  0
LINE
  5
23C
100
AcDbEntity
  8
SHELL3
100
AcDbLine
 62
7
  6
CONTINUOUS
 10
76.4146990603
 20
224.5996383442
 11
76.4146990603
 21
219.2656383442
  0
LINE
  5
23D
100
AcDbEntity
  8
SHELL3
100
AcDbLine
 62
7
  6
CONTINUOUS
 10
76.4146990603
 20
165.4430383442
 11
76.4146990603
 21
162.9030383442
  0
LINE
  5
23E
100
AcDbEntity
  8
SHELL3
100
AcDbLine
 62
7
  6
CONTINUOUS
 10
80.3834490603
 20
165.4176383442
 11
80.3834490603
 21
164.1476383442
  0
LINE
  5
23F
100
AcDbEntity
  8
SHELL3
100
AcDbLine
 62
7
  6
CONTINUOUS
 10
82.2884490603
 20
184.7216383442
 11
82.2884490603
 21
183.4516383442
  0
LINE
  5
240
100
AcDbEntity
  8
SHELL3
100
AcDbLine
 62
7
  6
CONTINUOUS
 10
82.2884490603
 20
165.4176383442
 11
82.2884490603
 21
164.1476383442
  0
LINE
  5
241
100
AcDbEntity
  8
SHELL3
100
AcDbLine
 62
7
  6
CONTINUOUS
 10
85.0950684033
 20
185.8328883442
 11
85.0950684033
 21
183.4516383442
  0
LINE
  5
242
100
AcDbEntity
  8
SHELL3
100
AcDbLine
 62
7
  6
CONTINUOUS
 10
85.0950684033
 20
166.5288883442
 11
85.0950684033
 21
164.1476383442
  0
LINE
  5
243
100
AcDbEntity
  8
SHELL3
100
AcDbLine
 62
7
  6
CONTINUOUS
 10
86.4698837318
 20
185.8328883442
 11
86.4698837318
 21
183.4516383442
  0
LINE
  5
244
100
AcDbEntity
  8
SHELL3
100
AcDbLine
 62
7
  6
CONTINUOUS
 10
86.4698837318
 20
166.5288883442
 11
86.4698837318
 21
164.1476383442
  0
LINE
  5
245
100
AcDbEntity
  8
SHELL3
100
AcDbLine
 62
7
  6
CONTINUOUS
 10
89.2195143888
 20
185.8328883442
 11
89.2195143888
 21
183.4516383442
  0
LINE
  5
246
100
AcDbEntity
  8
SHELL3
100
AcDbLine
 62
7
  6
CONTINUOUS
 10
89.2195143888
 20
166.5288883442
 11
89.2195143888
 21
164.1476383442
  0
LINE
  5
247
100
AcDbEntity
  8
SHELL3
100
AcDbLine
 62
7
  6
CONTINUOUS
 10
90.5943297173
 20
185.8328883442
 11
90.5943297173
 21
183.4516383442
  0
LINE
  5
248
100
AcDbEntity
  8
SHELL3
100
AcDbLine
 62
7
  6
CONTINUOUS
 10
90.5943297173
 20
166.5288883442
 11
90.5943297173
 21
164.1476383442
  0
LINE
  5
249
100
AcDbEntity
  8
SHELL3
100
AcDbLine
 62
7
  6
CONTINUOUS
 10
93.4009490603
 20
184.7216383442
 11
93.4009490603
 21
183.4516383442
  0
LINE
  5
24A
100
AcDbEntity
  8
SHELL3
100
AcDbLine
 62
7
  6
CONTINUOUS
 10
93.4009490603
 20
165.4176383442
 11
93.4009490603
 21
164.1476383442
  0
LINE
  5
24B
100
AcDbEntity
  8
SHELL3
100
AcDbLine
 62
7
  6
CONTINUOUS
 10
99.0206990603
 20
219.2656383442
 11
99.0206990603
 21
165.4176383442
  0
LINE
  5
24C
100
AcDbEntity
  8
SHELL3
100
AcDbLine
 62
7
  6
CONTINUOUS
 10
99.0206990603
 20
165.4176383442
 11
99.0206990603
 21
152.7176383442
  0
LINE
  5
24D
100
AcDbEntity
  8
SHELL3
100
AcDbLine
 62
7
  6
CONTINUOUS
 10
246.8486990603
 20
152.7176383468
 11
235.6726990603
 21
152.7176383442
  0
LINE
  5
24E
100
AcDbEntity
  8
SHELL3
100
AcDbLine
 62
7
  6
CONTINUOUS
 10
177.7606990603
 20
152.7176383442
 11
175.2206990603
 21
152.7176383442
  0
LINE
  5
24F
100
AcDbEntity
  8
SHELL3
100
AcDbLine
 62
7
  6
CONTINUOUS
 10
175.2206990603
 20
152.7176383468
 11
167.3466990603
 21
152.7176383442
  0
LINE
  5
250
100
AcDbEntity
  8
SHELL3
100
AcDbLine
 62
7
  6
CONTINUOUS
 10
109.4346990603
 20
152.7176383442
 11
99.0206990603
 21
152.7176383442
  0
LINE
  5
251
100
AcDbEntity
  8
SHELL3
100
AcDbLine
 62
7
  6
CONTINUOUS
 10
41.1086990603
 20
152.7176383442
 11
29.9326990603
 21
152.7176383468
  0
LINE
  5
252
100
AcDbEntity
  8
SHELL3
100
AcDbLine
 62
7
  6
CONTINUOUS
 10
101.5606990603
 20
219.2656383442
 11
101.5606990603
 21
152.7176383442
  0
LINE
  5
253
100
AcDbEntity
  8
SHELL3
100
AcDbLine
 62
7
  6
CONTINUOUS
 10
106.8946990603
 20
219.2656383442
 11
106.8946990603
 21
152.7176383442
  0
LINE
  5
254
100
AcDbEntity
  8
SHELL3
100
AcDbLine
 62
7
  6
CONTINUOUS
 10
109.4346990603
 20
204.0256383442
 11
109.4346990603
 21
165.4176383442
  0
LINE
  5
255
100
AcDbEntity
  8
SHELL3
100
AcDbLine
 62
7
  6
CONTINUOUS
 10
109.4346990603
 20
219.2656383442
 11
109.4346990603
 21
204.0256383442
  0
LINE
  5
256
100
AcDbEntity
  8
SHELL3
100
AcDbLine
 62
7
  6
CONTINUOUS
 10
109.4346990603
 20
165.4176383442
 11
109.4346990603
 21
152.7176383442
  0
LINE
  5
257
100
AcDbEntity
  8
SHELL3
100
AcDbLine
 62
7
  6
CONTINUOUS
 10
115.0544490603
 20
184.7216383442
 11
115.0544490603
 21
183.4516383442
  0
LINE
  5
258
100
AcDbEntity
  8
SHELL3
100
AcDbLine
 62
7
  6
CONTINUOUS
 10
115.0544490603
 20
165.4176383442
 11
115.0544490603
 21
164.1476383442
  0
LINE
  5
259
100
AcDbEntity
  8
SHELL3
100
AcDbLine
 62
7
  6
CONTINUOUS
 10
213.0666990603
 20
162.9030383442
 11
200.3666990603
 21
162.9030383442
  0
LINE
  5
25A
100
AcDbEntity
  8
SHELL3
100
AcDbLine
 62
7
  6
CONTINUOUS
 10
144.7406990603
 20
162.9030383442
 11
132.0406990603
 21
162.9030383442
  0
LINE
  5
25B
100
AcDbEntity
  8
SHELL3
100
AcDbLine
 62
7
  6
CONTINUOUS
 10
76.4146990603
 20
162.9030383442
 11
63.7146990603
 21
162.9030383442
  0
LINE
  5
25C
100
AcDbEntity
  8
SHELL3
100
AcDbLine
 62
7
  6
CONTINUOUS
 10
230.0529490603
 20
164.1476383442
 11
218.9404490603
 21
164.1476383442
  0
LINE
  5
25D
100
AcDbEntity
  8
SHELL3
100
AcDbLine
 62
7
  6
CONTINUOUS
 10
217.0354490603
 20
164.1476383442
 11
196.3979490603
 21
164.1476383442
  0
LINE
  5
25E
100
AcDbEntity
  8
SHELL3
100
AcDbLine
 62
7
  6
CONTINUOUS
 10
194.4929490603
 20
164.1476383442
 11
183.3804490603
 21
164.1476383442
  0
LINE
  5
25F
100
AcDbEntity
  8
SHELL3
100
AcDbLine
 62
7
  6
CONTINUOUS
 10
161.7269490603
 20
164.1476383442
 11
150.6144490603
 21
164.1476383442
  0
LINE
  5
260
100
AcDbEntity
  8
SHELL3
100
AcDbLine
 62
7
  6
CONTINUOUS
 10
148.7094490603
 20
164.1476383442
 11
128.0719490603
 21
164.1476383442
  0
LINE
  5
261
100
AcDbEntity
  8
SHELL3
100
AcDbLine
 62
7
  6
CONTINUOUS
 10
126.1669490603
 20
164.1476383442
 11
115.0544490603
 21
164.1476383442
  0
LINE
  5
262
100
AcDbEntity
  8
SHELL3
100
AcDbLine
 62
7
  6
CONTINUOUS
 10
93.4009490603
 20
164.1476383442
 11
82.2884490603
 21
164.1476383442
  0
LINE
  5
263
100
AcDbEntity
  8
SHELL3
100
AcDbLine
 62
7
  6
CONTINUOUS
 10
80.3834490603
 20
164.1476383442
 11
59.7459490603
 21
164.1476383442
  0
LINE
  5
264
100
AcDbEntity
  8
SHELL3
100
AcDbLine
 62
7
  6
CONTINUOUS
 10
57.8409490603
 20
164.1476383442
 11
46.7284490603
 21
164.1476383442
  0
LINE
  5
265
100
AcDbEntity
  8
SHELL3
100
AcDbLine
 62
7
  6
CONTINUOUS
 10
246.8486990603
 20
165.4176383442
 11
238.2126990603
 21
165.4176383442
  0
LINE
  5
266
100
AcDbEntity
  8
SHELL3
100
AcDbLine
 62
7
  6
CONTINUOUS
 10
235.6726990603
 20
165.4176383442
 11
177.7606990603
 21
165.4176383442
  0
LINE
  5
267
100
AcDbEntity
  8
SHELL3
100
AcDbLine
 62
7
  6
CONTINUOUS
 10
175.2206990603
 20
165.4176383442
 11
169.8866990603
 21
165.4176383442
  0
LINE
  5
268
100
AcDbEntity
  8
SHELL3
100
AcDbLine
 62
7
  6
CONTINUOUS
 10
167.3466990603
 20
165.4176383442
 11
109.4346990603
 21
165.4176383442
  0
LINE
  5
269
100
AcDbEntity
  8
SHELL3
100
AcDbLine
 62
7
  6
CONTINUOUS
 10
106.8946990603
 20
165.4176383442
 11
101.5606990603
 21
165.4176383442
  0
LINE
  5
26A
100
AcDbEntity
  8
SHELL3
100
AcDbLine
 62
7
  6
CONTINUOUS
 10
99.0206990603
 20
165.4176383442
 11
41.1086990603
 21
165.4176383442
  0
LINE
  5
26B
100
AcDbEntity
  8
SHELL3
100
AcDbLine
 62
7
  6
CONTINUOUS
 10
38.5686990603
 20
165.4176383442
 11
29.9326990603
 21
165.4176383442
  0
LINE
  5
26C
100
AcDbEntity
  8
SHELL3
100
AcDbLine
 62
7
  6
CONTINUOUS
 10
41.1086990603
 20
165.4430383442
 11
99.0206990603
 21
165.4430383442
  0
LINE
  5
26D
100
AcDbEntity
  8
SHELL3
100
AcDbLine
 62
7
  6
CONTINUOUS
 10
109.4346990603
 20
165.4430383442
 11
167.3466990603
 21
165.4430383442
  0
LINE
  5
26E
100
AcDbEntity
  8
SHELL3
100
AcDbLine
 62
7
  6
CONTINUOUS
 10
177.7606990603
 20
165.4430383442
 11
235.6726990603
 21
165.4430383442
  0
LINE
  5
26F
100
AcDbEntity
  8
SHELL3
100
AcDbLine
 62
7
  6
CONTINUOUS
 10
227.2463297173
 20
166.5288883442
 11
221.7470684033
 21
166.5288883442
  0
LINE
  5
270
100
AcDbEntity
  8
SHELL3
100
AcDbLine
 62
7
  6
CONTINUOUS
 10
209.4663297173
 20
166.5288883442
 11
203.9670684033
 21
166.5288883442
  0
LINE
  5
271
100
AcDbEntity
  8
SHELL3
100
AcDbLine
 62
7
  6
CONTINUOUS
 10
191.6863297173
 20
166.5288883442
 11
186.1870684033
 21
166.5288883442
  0
LINE
  5
272
100
AcDbEntity
  8
SHELL3
100
AcDbLine
 62
7
  6
CONTINUOUS
 10
158.9203297173
 20
166.5288883442
 11
153.4210684033
 21
166.5288883442
  0
LINE
  5
273
100
AcDbEntity
  8
SHELL3
100
AcDbLine
 62
7
  6
CONTINUOUS
 10
141.1403297173
 20
166.5288883442
 11
135.6410684033
 21
166.5288883442
  0
LINE
  5
274
100
AcDbEntity
  8
SHELL3
100
AcDbLine
 62
7
  6
CONTINUOUS
 10
123.3603297173
 20
166.5288883442
 11
117.8610684033
 21
166.5288883442
  0
LINE
  5
275
100
AcDbEntity
  8
SHELL3
100
AcDbLine
 62
7
  6
CONTINUOUS
 10
90.5943297173
 20
166.5288883442
 11
85.0950684033
 21
166.5288883442
  0
LINE
  5
276
100
AcDbEntity
  8
SHELL3
100
AcDbLine
 62
7
  6
CONTINUOUS
 10
72.8143297173
 20
166.5288883442
 11
67.3150684033
 21
166.5288883442
  0
LINE
  5
277
100
AcDbEntity
  8
SHELL3
100
AcDbLine
 62
7
  6
CONTINUOUS
 10
55.0343297173
 20
166.5288883442
 11
49.5350684033
 21
166.5288883442
  0
LINE
  5
278
100
AcDbEntity
  8
SHELL3
100
AcDbLine
 62
7
  6
CONTINUOUS
 10
212.2159603744
 20
168.9101383442
 11
201.2174377463
 21
168.9101383442
  0
LINE
  5
279
100
AcDbEntity
  8
SHELL3
100
AcDbLine
 62
7
  6
CONTINUOUS
 10
143.8899603744
 20
168.9101383442
 11
132.8914377463
 21
168.9101383442
  0
LINE
  5
27A
100
AcDbEntity
  8
SHELL3
100
AcDbLine
 62
7
  6
CONTINUOUS
 10
75.5639603744
 20
168.9101383442
 11
64.5654377463
 21
168.9101383442
  0
LINE
  5
27B
100
AcDbEntity
  8
SHELL3
100
AcDbLine
 62
7
  6
CONTINUOUS
 10
117.8610684033
 20
185.8328883442
 11
117.8610684033
 21
183.4516383442
  0
LINE
  5
27C
100
AcDbEntity
  8
SHELL3
100
AcDbLine
 62
7
  6
CONTINUOUS
 10
117.8610684033
 20
166.5288883442
 11
117.8610684033
 21
164.1476383442
  0
LINE
  5
27D
100
AcDbEntity
  8
SHELL3
100
AcDbLine
 62
7
  6
CONTINUOUS
 10
119.2358837318
 20
185.8328883442
 11
119.2358837318
 21
183.4516383442
  0
LINE
  5
27E
100
AcDbEntity
  8
SHELL3
100
AcDbLine
 62
7
  6
CONTINUOUS
 10
119.2358837318
 20
166.5288883442
 11
119.2358837318
 21
164.1476383442
  0
LINE
  5
27F
100
AcDbEntity
  8
SHELL3
100
AcDbLine
 62
7
  6
CONTINUOUS
 10
121.9855143888
 20
185.8328883442
 11
121.9855143888
 21
183.4516383442
  0
LINE
  5
280
100
AcDbEntity
  8
SHELL3
100
AcDbLine
 62
7
  6
CONTINUOUS
 10
121.9855143888
 20
166.5288883442
 11
121.9855143888
 21
164.1476383442
  0
LINE
  5
281
100
AcDbEntity
  8
SHELL3
100
AcDbLine
 62
7
  6
CONTINUOUS
 10
123.3603297173
 20
185.8328883442
 11
123.3603297173
 21
183.4516383442
  0
LINE
  5
282
100
AcDbEntity
  8
SHELL3
100
AcDbLine
 62
7
  6
CONTINUOUS
 10
123.3603297173
 20
166.5288883442
 11
123.3603297173
 21
164.1476383442
  0
LINE
  5
283
100
AcDbEntity
  8
SHELL3
100
AcDbLine
 62
7
  6
CONTINUOUS
 10
126.1669490603
 20
184.7216383442
 11
126.1669490603
 21
183.4516383442
  0
LINE
  5
284
100
AcDbEntity
  8
SHELL3
100
AcDbLine
 62
7
  6
CONTINUOUS
 10
126.1669490603
 20
165.4176383442
 11
126.1669490603
 21
164.1476383442
  0
LINE
  5
285
100
AcDbEntity
  8
SHELL3
100
AcDbLine
 62
7
  6
CONTINUOUS
 10
128.0719490603
 20
165.4176383442
 11
128.0719490603
 21
164.1476383442
  0
LINE
  5
286
100
AcDbEntity
  8
SHELL3
100
AcDbLine
 62
7
  6
CONTINUOUS
 10
230.0529490603
 20
183.4516383442
 11
218.9404490603
 21
183.4516383442
  0
LINE
  5
287
100
AcDbEntity
  8
SHELL3
100
AcDbLine
 62
7
  6
CONTINUOUS
 10
212.2729490603
 20
183.4516383442
 11
201.1604490603
 21
183.4516383442
  0
LINE
  5
288
100
AcDbEntity
  8
SHELL3
100
AcDbLine
 62
7
  6
CONTINUOUS
 10
194.4929490603
 20
183.4516383442
 11
183.3804490603
 21
183.4516383442
  0
LINE
  5
289
100
AcDbEntity
  8
SHELL3
100
AcDbLine
 62
7
  6
CONTINUOUS
 10
161.7269490603
 20
183.4516383442
 11
150.6144490603
 21
183.4516383442
  0
LINE
  5
28A
100
AcDbEntity
  8
SHELL3
100
AcDbLine
 62
7
  6
CONTINUOUS
 10
143.9469490603
 20
183.4516383442
 11
132.8344490603
 21
183.4516383442
  0
LINE
  5
28B
100
AcDbEntity
  8
SHELL3
100
AcDbLine
 62
7
  6
CONTINUOUS
 10
126.1669490603
 20
183.4516383442
 11
115.0544490603
 21
183.4516383442
  0
LINE
  5
28C
100
AcDbEntity
  8
SHELL3
100
AcDbLine
 62
7
  6
CONTINUOUS
 10
93.4009490603
 20
183.4516383442
 11
82.2884490603
 21
183.4516383442
  0
LINE
  5
28D
100
AcDbEntity
  8
SHELL3
100
AcDbLine
 62
7
  6
CONTINUOUS
 10
75.6209490603
 20
183.4516383442
 11
64.5084490603
 21
183.4516383442
  0
LINE
  5
28E
100
AcDbEntity
  8
SHELL3
100
AcDbLine
 62
7
  6
CONTINUOUS
 10
57.8409490603
 20
183.4516383442
 11
46.7284490603
 21
183.4516383442
  0
LINE
  5
28F
100
AcDbEntity
  8
SHELL3
100
AcDbLine
 62
7
  6
CONTINUOUS
 10
235.6726990603
 20
184.7216383442
 11
177.7606990603
 21
184.7216383442
  0
LINE
  5
290
100
AcDbEntity
  8
SHELL3
100
AcDbLine
 62
7
  6
CONTINUOUS
 10
167.3466990603
 20
184.7216383442
 11
109.4346990603
 21
184.7216383442
  0
LINE
  5
291
100
AcDbEntity
  8
SHELL3
100
AcDbLine
 62
7
  6
CONTINUOUS
 10
99.0206990603
 20
184.7216383442
 11
41.1086990603
 21
184.7216383442
  0
LINE
  5
292
100
AcDbEntity
  8
SHELL3
100
AcDbLine
 62
7
  6
CONTINUOUS
 10
132.0406990603
 20
224.5996383442
 11
132.0406990603
 21
219.2656383442
  0
LINE
  5
293
100
AcDbEntity
  8
SHELL3
100
AcDbLine
 62
7
  6
CONTINUOUS
 10
132.0406990603
 20
165.4430383442
 11
132.0406990603
 21
162.9030383442
  0
LINE
  5
294
100
AcDbEntity
  8
SHELL3
100
AcDbLine
 62
7
  6
CONTINUOUS
 10
132.8344490603
 20
184.7216383442
 11
132.8344490603
 21
183.4516383442
  0
LINE
  5
295
100
AcDbEntity
  8
SHELL3
100
AcDbLine
 62
7
  6
CONTINUOUS
 10
132.8344490603
 20
165.4176383442
 11
132.8344490603
 21
164.1476383442
  0
LINE
  5
296
100
AcDbEntity
  8
SHELL3
100
AcDbLine
 62
7
  6
CONTINUOUS
 10
132.8914377463
 20
168.9101383442
 11
132.8914377463
 21
164.1476383442
  0
LINE
  5
297
100
AcDbEntity
  8
SHELL3
100
AcDbLine
 62
7
  6
CONTINUOUS
 10
135.0886990603
 20
224.5996383442
 11
135.0886990603
 21
231.9656383442
  0
LINE
  5
298
100
AcDbEntity
  8
SHELL3
100
AcDbLine
 62
7
  6
CONTINUOUS
 10
135.6410684033
 20
185.8328883442
 11
135.6410684033
 21
183.4516383442
  0
LINE
  5
299
100
AcDbEntity
  8
SHELL3
100
AcDbLine
 62
7
  6
CONTINUOUS
 10
135.6410684033
 20
168.9101383442
 11
135.6410684033
 21
164.1476383442
  0
LINE
  5
29A
100
AcDbEntity
  8
SHELL3
100
AcDbLine
 62
7
  6
CONTINUOUS
 10
137.0158837318
 20
185.8328883442
 11
137.0158837318
 21
183.4516383442
  0
LINE
  5
29B
100
AcDbEntity
  8
SHELL3
100
AcDbLine
 62
7
  6
CONTINUOUS
 10
137.0158837318
 20
166.5288883442
 11
137.0158837318
 21
164.1476383442
  0
LINE
  5
29C
100
AcDbEntity
  8
SHELL3
100
AcDbLine
 62
7
  6
CONTINUOUS
 10
227.2463297173
 20
185.8328883442
 11
221.7470684033
 21
185.8328883442
  0
LINE
  5
29D
100
AcDbEntity
  8
SHELL3
100
AcDbLine
 62
7
  6
CONTINUOUS
 10
209.4663297173
 20
185.8328883442
 11
203.9670684033
 21
185.8328883442
  0
LINE
  5
29E
100
AcDbEntity
  8
SHELL3
100
AcDbLine
 62
7
  6
CONTINUOUS
 10
191.6863297173
 20
185.8328883442
 11
186.1870684033
 21
185.8328883442
  0
LINE
  5
29F
100
AcDbEntity
  8
SHELL3
100
AcDbLine
 62
7
  6
CONTINUOUS
 10
158.9203297173
 20
185.8328883442
 11
153.4210684033
 21
185.8328883442
  0
LINE
  5
2A0
100
AcDbEntity
  8
SHELL3
100
AcDbLine
 62
7
  6
CONTINUOUS
 10
141.1403297173
 20
185.8328883442
 11
135.6410684033
 21
185.8328883442
  0
LINE
  5
2A1
100
AcDbEntity
  8
SHELL3
100
AcDbLine
 62
7
  6
CONTINUOUS
 10
123.3603297173
 20
185.8328883442
 11
117.8610684033
 21
185.8328883442
  0
LINE
  5
2A2
100
AcDbEntity
  8
SHELL3
100
AcDbLine
 62
7
  6
CONTINUOUS
 10
90.5943297173
 20
185.8328883442
 11
85.0950684033
 21
185.8328883442
  0
LINE
  5
2A3
100
AcDbEntity
  8
SHELL3
100
AcDbLine
 62
7
  6
CONTINUOUS
 10
72.8143297173
 20
185.8328883442
 11
67.3150684033
 21
185.8328883442
  0
LINE
  5
2A4
100
AcDbEntity
  8
SHELL3
100
AcDbLine
 62
7
  6
CONTINUOUS
 10
55.0343297173
 20
185.8328883442
 11
49.5350684033
 21
185.8328883442
  0
LINE
  5
2A5
100
AcDbEntity
  8
SHELL3
100
AcDbLine
 62
7
  6
CONTINUOUS
 10
139.7655143888
 20
185.8328883442
 11
139.7655143888
 21
183.4516383442
  0
LINE
  5
2A6
100
AcDbEntity
  8
SHELL3
100
AcDbLine
 62
7
  6
CONTINUOUS
 10
139.7655143888
 20
166.5288883442
 11
139.7655143888
 21
164.1476383442
  0
LINE
  5
2A7
100
AcDbEntity
  8
SHELL3
100
AcDbLine
 62
7
  6
CONTINUOUS
 10
141.1403297173
 20
185.8328883442
 11
141.1403297173
 21
183.4516383442
  0
LINE
  5
2A8
100
AcDbEntity
  8
SHELL3
100
AcDbLine
 62
7
  6
CONTINUOUS
 10
141.1403297173
 20
168.9101383442
 11
141.1403297173
 21
164.1476383442
  0
LINE
  5
2A9
100
AcDbEntity
  8
SHELL3
100
AcDbLine
 62
7
  6
CONTINUOUS
 10
141.6926990603
 20
224.5996383442
 11
141.6926990603
 21
231.9656383442
  0
LINE
  5
2AA
100
AcDbEntity
  8
SHELL3
100
AcDbLine
 62
7
  6
CONTINUOUS
 10
143.8899603744
 20
168.9101383442
 11
143.8899603744
 21
164.1476383442
  0
LINE
  5
2AB
100
AcDbEntity
  8
SHELL3
100
AcDbLine
 62
7
  6
CONTINUOUS
 10
143.9469490603
 20
184.7216383442
 11
143.9469490603
 21
183.4516383442
  0
LINE
  5
2AC
100
AcDbEntity
  8
SHELL3
100
AcDbLine
 62
7
  6
CONTINUOUS
 10
143.9469490603
 20
165.4176383442
 11
143.9469490603
 21
164.1476383442
  0
LINE
  5
2AD
100
AcDbEntity
  8
SHELL3
100
AcDbLine
 62
7
  6
CONTINUOUS
 10
144.7406990603
 20
224.5996383442
 11
144.7406990603
 21
219.2656383442
  0
LINE
  5
2AE
100
AcDbEntity
  8
SHELL3
100
AcDbLine
 62
7
  6
CONTINUOUS
 10
144.7406990603
 20
165.4430383442
 11
144.7406990603
 21
162.9030383442
  0
LINE
  5
2AF
100
AcDbEntity
  8
SHELL3
100
AcDbLine
 62
7
  6
CONTINUOUS
 10
148.7094490603
 20
165.4176383442
 11
148.7094490603
 21
164.1476383442
  0
LINE
  5
2B0
100
AcDbEntity
  8
SHELL3
100
AcDbLine
 62
7
  6
CONTINUOUS
 10
150.6144490603
 20
184.7216383442
 11
150.6144490603
 21
183.4516383442
  0
LINE
  5
2B1
100
AcDbEntity
  8
SHELL3
100
AcDbLine
 62
7
  6
CONTINUOUS
 10
150.6144490603
 20
165.4176383442
 11
150.6144490603
 21
164.1476383442
  0
LINE
  5
2B2
100
AcDbEntity
  8
SHELL3
100
AcDbLine
 62
7
  6
CONTINUOUS
 10
153.4210684033
 20
185.8328883442
 11
153.4210684033
 21
183.4516383442
  0
LINE
  5
2B3
100
AcDbEntity
  8
SHELL3
100
AcDbLine
 62
7
  6
CONTINUOUS
 10
153.4210684033
 20
166.5288883442
 11
153.4210684033
 21
164.1476383442
  0
LINE
  5
2B4
100
AcDbEntity
  8
SHELL3
100
AcDbLine
 62
7
  6
CONTINUOUS
 10
154.7958837318
 20
185.8328883442
 11
154.7958837318
 21
183.4516383442
  0
LINE
  5
2B5
100
AcDbEntity
  8
SHELL3
100
AcDbLine
 62
7
  6
CONTINUOUS
 10
154.7958837318
 20
166.5288883442
 11
154.7958837318
 21
164.1476383442
  0
LINE
  5
2B6
100
AcDbEntity
  8
SHELL3
100
AcDbLine
 62
7
  6
CONTINUOUS
 10
235.6726990603
 20
204.0256383442
 11
177.7606990603
 21
204.0256383442
  0
LINE
  5
2B7
100
AcDbEntity
  8
SHELL3
100
AcDbLine
 62
7
  6
CONTINUOUS
 10
167.3466990603
 20
204.0256383442
 11
109.4346990603
 21
204.0256383442
  0
LINE
  5
2B8
100
AcDbEntity
  8
SHELL3
100
AcDbLine
 62
7
  6
CONTINUOUS
 10
99.0206990603
 20
204.0256383442
 11
41.1086990603
 21
204.0256383442
  0
LINE
  5
2B9
100
AcDbEntity
  8
SHELL3
100
AcDbLine
 62
7
  6
CONTINUOUS
 10
157.5455143888
 20
185.8328883442
 11
157.5455143888
 21
183.4516383442
  0
LINE
  5
2BA
100
AcDbEntity
  8
SHELL3
100
AcDbLine
 62
7
  6
CONTINUOUS
 10
157.5455143888
 20
166.5288883442
 11
157.5455143888
 21
164.1476383442
  0
LINE
  5
2BB
100
AcDbEntity
  8
SHELL3
100
AcDbLine
 62
7
  6
CONTINUOUS
 10
158.9203297173
 20
185.8328883442
 11
158.9203297173
 21
183.4516383442
  0
LINE
  5
2BC
100
AcDbEntity
  8
SHELL3
100
AcDbLine
 62
7
  6
CONTINUOUS
 10
158.9203297173
 20
166.5288883442
 11
158.9203297173
 21
164.1476383442
  0
LINE
  5
2BD
100
AcDbEntity
  8
SHELL3
100
AcDbLine
 62
7
  6
CONTINUOUS
 10
161.7269490603
 20
184.7216383442
 11
161.7269490603
 21
183.4516383442
  0
LINE
  5
2BE
100
AcDbEntity
  8
SHELL3
100
AcDbLine
 62
7
  6
CONTINUOUS
 10
161.7269490603
 20
165.4176383442
 11
161.7269490603
 21
164.1476383442
  0
LINE
  5
2BF
100
AcDbEntity
  8
SHELL3
100
AcDbLine
 62
7
  6
CONTINUOUS
 10
167.3466990603
 20
219.2656383442
 11
167.3466990603
 21
165.4176383442
  0
LINE
  5
2C0
100
AcDbEntity
  8
SHELL3
100
AcDbLine
 62
7
  6
CONTINUOUS
 10
167.3466990603
 20
165.4176383442
 11
167.3466990603
 21
152.7176383442
  0
LINE
  5
2C1
100
AcDbEntity
  8
SHELL3
100
AcDbLine
 62
7
  6
CONTINUOUS
 10
169.8866990603
 20
219.2656383442
 11
169.8866990603
 21
152.7176383442
  0
LINE
  5
2C2
100
AcDbEntity
  8
SHELL3
100
AcDbLine
 62
7
  6
CONTINUOUS
 10
177.7606990603
 20
219.2656383442
 11
175.2206990603
 21
219.2656383442
  0
LINE
  5
2C3
100
AcDbEntity
  8
SHELL3
100
AcDbLine
 62
7
  6
CONTINUOUS
 10
238.2126990603
 20
219.2656383442
 11
177.7606990603
 21
219.2656383442
  0
LINE
  5
2C4
100
AcDbEntity
  8
SHELL3
100
AcDbLine
 62
7
  6
CONTINUOUS
 10
169.8866990603
 20
219.2656383442
 11
106.8946990603
 21
219.2656383442
  0
LINE
  5
2C5
100
AcDbEntity
  8
SHELL3
100
AcDbLine
 62
7
  6
CONTINUOUS
 10
101.5606990603
 20
219.2656383442
 11
38.5686990603
 21
219.2656383442
  0
LINE
  5
2C6
100
AcDbEntity
  8
SHELL3
100
AcDbLine
 62
7
  6
CONTINUOUS
 10
175.2206990603
 20
219.2656383442
 11
175.2206990603
 21
152.7176383442
  0
LINE
  5
2C7
100
AcDbEntity
  8
SHELL3
100
AcDbLine
 62
7
  6
CONTINUOUS
 10
177.7606990603
 20
219.2656383442
 11
177.7606990603
 21
165.4430383442
  0
LINE
  5
2C8
100
AcDbEntity
  8
SHELL3
100
AcDbLine
 62
7
  6
CONTINUOUS
 10
177.7606990603
 20
165.4430383442
 11
177.7606990603
 21
152.7176383442
  0
LINE
  5
2C9
100
AcDbEntity
  8
SHELL3
100
AcDbLine
 62
7
  6
CONTINUOUS
 10
213.0666990603
 20
224.5996383442
 11
200.3666990603
 21
224.5996383442
  0
LINE
  5
2CA
100
AcDbEntity
  8
SHELL3
100
AcDbLine
 62
7
  6
CONTINUOUS
 10
144.7406990603
 20
224.5996383442
 11
132.0406990603
 21
224.5996383442
  0
LINE
  5
2CB
100
AcDbEntity
  8
SHELL3
100
AcDbLine
 62
7
  6
CONTINUOUS
 10
76.4146990603
 20
224.5996383442
 11
63.7146990603
 21
224.5996383442
  0
LINE
  5
2CC
100
AcDbEntity
  8
SHELL3
100
AcDbLine
 62
7
  6
CONTINUOUS
 10
183.3804490603
 20
184.7216383442
 11
183.3804490603
 21
183.4516383442
  0
LINE
  5
2CD
100
AcDbEntity
  8
SHELL3
100
AcDbLine
 62
7
  6
CONTINUOUS
 10
183.3804490603
 20
165.4176383442
 11
183.3804490603
 21
164.1476383442
  0
LINE
  5
2CE
100
AcDbEntity
  8
SHELL3
100
AcDbLine
 62
7
  6
CONTINUOUS
 10
29.9326990603
 20
231.9656383442
 11
246.8486990603
 21
231.9656383442
  0
LINE
  5
2CF
100
AcDbEntity
  8
SHELL3
100
AcDbLine
 62
7
  6
CONTINUOUS
 10
186.1870684033
 20
185.8328883442
 11
186.1870684033
 21
183.4516383442
  0
LINE
  5
2D0
100
AcDbEntity
  8
SHELL3
100
AcDbLine
 62
7
  6
CONTINUOUS
 10
186.1870684033
 20
166.5288883442
 11
186.1870684033
 21
164.1476383442
  0
LINE
  5
2D1
100
AcDbEntity
  8
SHELL3
100
AcDbLine
 62
7
  6
CONTINUOUS
 10
187.5618837318
 20
185.8328883442
 11
187.5618837318
 21
183.4516383442
  0
LINE
  5
2D2
100
AcDbEntity
  8
SHELL3
100
AcDbLine
 62
7
  6
CONTINUOUS
 10
187.5618837318
 20
166.5288883442
 11
187.5618837318
 21
164.1476383442
  0
LINE
  5
2D3
100
AcDbEntity
  8
SHELL3
100
AcDbLine
 62
7
  6
CONTINUOUS
 10
190.3115143888
 20
185.8328883442
 11
190.3115143888
 21
183.4516383442
  0
LINE
  5
2D4
100
AcDbEntity
  8
SHELL3
100
AcDbLine
 62
7
  6
CONTINUOUS
 10
190.3115143888
 20
166.5288883442
 11
190.3115143888
 21
164.1476383442
  0
LINE
  5
2D5
100
AcDbEntity
  8
SHELL3
100
AcDbLine
 62
7
  6
CONTINUOUS
 10
191.6863297173
 20
185.8328883442
 11
191.6863297173
 21
183.4516383442
  0
LINE
  5
2D6
100
AcDbEntity
  8
SHELL3
100
AcDbLine
 62
7
  6
CONTINUOUS
 10
191.6863297173
 20
166.5288883442
 11
191.6863297173
 21
164.1476383442
  0
LINE
  5
2D7
100
AcDbEntity
  8
SHELL3
100
AcDbLine
 62
7
  6
CONTINUOUS
 10
194.4929490603
 20
184.7216383442
 11
194.4929490603
 21
183.4516383442
  0
LINE
  5
2D8
100
AcDbEntity
  8
SHELL3
100
AcDbLine
 62
7
  6
CONTINUOUS
 10
194.4929490603
 20
165.4176383442
 11
194.4929490603
 21
164.1476383442
  0
LINE
  5
2D9
100
AcDbEntity
  8
SHELL3
100
AcDbLine
 62
7
  6
CONTINUOUS
 10
196.3979490603
 20
165.4176383442
 11
196.3979490603
 21
164.1476383442
  0
LINE
  5
2DA
100
AcDbEntity
  8
SHELL3
100
AcDbLine
 62
7
  6
CONTINUOUS
 10
200.3666990603
 20
224.5996383442
 11
200.3666990603
 21
219.2656383442
  0
LINE
  5
2DB
100
AcDbEntity
  8
SHELL3
100
AcDbLine
 62
7
  6
CONTINUOUS
 10
200.3666990603
 20
165.4430383442
 11
200.3666990603
 21
162.9030383442
  0
LINE
  5
2DC
100
AcDbEntity
  8
SHELL3
100
AcDbLine
 62
7
  6
CONTINUOUS
 10
201.1604490603
 20
184.7216383442
 11
201.1604490603
 21
183.4516383442
  0
LINE
  5
2DD
100
AcDbEntity
  8
SHELL3
100
AcDbLine
 62
7
  6
CONTINUOUS
 10
201.1604490603
 20
165.4176383442
 11
201.1604490603
 21
164.1476383442
  0
LINE
  5
2DE
100
AcDbEntity
  8
SHELL3
100
AcDbLine
 62
7
  6
CONTINUOUS
 10
201.2174377463
 20
168.9101383442
 11
201.2174377463
 21
164.1476383442
  0
LINE
  5
2DF
100
AcDbEntity
  8
SHELL3
100
AcDbLine
 62
7
  6
CONTINUOUS
 10
203.4146990603
 20
224.5996383442
 11
203.4146990603
 21
231.9656383442
  0
LINE
  5
2E0
100
AcDbEntity
  8
SHELL3
100
AcDbLine
 62
7
  6
CONTINUOUS
 10
203.9670684033
 20
185.8328883442
 11
203.9670684033
 21
183.4516383442
  0
LINE
  5
2E1
100
AcDbEntity
  8
SHELL3
100
AcDbLine
 62
7
  6
CONTINUOUS
 10
203.9670684033
 20
168.9101383442
 11
203.9670684033
 21
164.1476383442
  0
LINE
  5
2E2
100
AcDbEntity
  8
SHELL3
100
AcDbLine
 62
7
  6
CONTINUOUS
 10
205.3418837318
 20
185.8328883442
 11
205.3418837318
 21
183.4516383442
  0
LINE
  5
2E3
100
AcDbEntity
  8
SHELL3
100
AcDbLine
 62
7
  6
CONTINUOUS
 10
205.3418837318
 20
166.5288883442
 11
205.3418837318
 21
164.1476383442
  0
LINE
  5
2E4
100
AcDbEntity
  8
SHELL3
100
AcDbLine
 62
7
  6
CONTINUOUS
 10
208.0915143888
 20
185.8328883442
 11
208.0915143888
 21
183.4516383442
  0
LINE
  5
2E5
100
AcDbEntity
  8
SHELL3
100
AcDbLine
 62
7
  6
CONTINUOUS
 10
208.0915143888
 20
166.5288883442
 11
208.0915143888
 21
164.1476383442
  0
LINE
  5
2E6
100
AcDbEntity
  8
SHELL3
100
AcDbLine
 62
7
  6
CONTINUOUS
 10
209.4663297173
 20
185.8328883442
 11
209.4663297173
 21
183.4516383442
  0
LINE
  5
2E7
100
AcDbEntity
  8
SHELL3
100
AcDbLine
 62
7
  6
CONTINUOUS
 10
209.4663297173
 20
168.9101383442
 11
209.4663297173
 21
164.1476383442
  0
LINE
  5
2E8
100
AcDbEntity
  8
SHELL3
100
AcDbLine
 62
7
  6
CONTINUOUS
 10
210.0186990603
 20
224.5996383442
 11
210.0186990603
 21
231.9656383442
  0
LINE
  5
2E9
100
AcDbEntity
  8
SHELL3
100
AcDbLine
 62
7
  6
CONTINUOUS
 10
212.2159603744
 20
168.9101383442
 11
212.2159603744
 21
164.1476383442
  0
LINE
  5
2EA
100
AcDbEntity
  8
SHELL3
100
AcDbLine
 62
7
  6
CONTINUOUS
 10
212.2729490603
 20
184.7216383442
 11
212.2729490603
 21
183.4516383442
  0
LINE
  5
2EB
100
AcDbEntity
  8
SHELL3
100
AcDbLine
 62
7
  6
CONTINUOUS
 10
212.2729490603
 20
165.4176383442
 11
212.2729490603
 21
164.1476383442
  0
LINE
  5
2EC
100
AcDbEntity
  8
SHELL3
100
AcDbLine
 62
7
  6
CONTINUOUS
 10
213.0666990603
 20
224.5996383442
 11
213.0666990603
 21
219.2656383442
  0
LINE
  5
2ED
100
AcDbEntity
  8
SHELL3
100
AcDbLine
 62
7
  6
CONTINUOUS
 10
213.0666990603
 20
165.4430383442
 11
213.0666990603
 21
162.9030383442
  0
LINE
  5
2EE
100
AcDbEntity
  8
SHELL3
100
AcDbLine
 62
7
  6
CONTINUOUS
 10
217.0354490603
 20
165.4176383442
 11
217.0354490603
 21
164.1476383442
  0
LINE
  5
2EF
100
AcDbEntity
  8
SHELL3
100
AcDbLine
 62
7
  6
CONTINUOUS
 10
218.9404490603
 20
184.7216383442
 11
218.9404490603
 21
183.4516383442
  0
LINE
  5
2F0
100
AcDbEntity
  8
SHELL3
100
AcDbLine
 62
7
  6
CONTINUOUS
 10
218.9404490603
 20
165.4176383442
 11
218.9404490603
 21
164.1476383442
  0
LINE
  5
2F1
100
AcDbEntity
  8
SHELL3
100
AcDbLine
 62
7
  6
CONTINUOUS
 10
221.7470684033
 20
185.8328883442
 11
221.7470684033
 21
183.4516383442
  0
LINE
  5
2F2
100
AcDbEntity
  8
SHELL3
100
AcDbLine
 62
7
  6
CONTINUOUS
 10
221.7470684033
 20
166.5288883442
 11
221.7470684033
 21
164.1476383442
  0
LINE
  5
2F3
100
AcDbEntity
  8
SHELL3
100
AcDbLine
 62
7
  6
CONTINUOUS
 10
223.1218837318
 20
185.8328883442
 11
223.1218837318
 21
183.4516383442
  0
LINE
  5
2F4
100
AcDbEntity
  8
SHELL3
100
AcDbLine
 62
7
  6
CONTINUOUS
 10
223.1218837318
 20
166.5288883442
 11
223.1218837318
 21
164.1476383442
  0
LINE
  5
2F5
100
AcDbEntity
  8
SHELL3
100
AcDbLine
 62
7
  6
CONTINUOUS
 10
225.8715143888
 20
185.8328883442
 11
225.8715143888
 21
183.4516383442
  0
LINE
  5
2F6
100
AcDbEntity
  8
SHELL3
100
AcDbLine
 62
7
  6
CONTINUOUS
 10
225.8715143888
 20
166.5288883442
 11
225.8715143888
 21
164.1476383442
  0
LINE
  5
2F7
100
AcDbEntity
  8
SHELL3
100
AcDbLine
 62
7
  6
CONTINUOUS
 10
227.2463297173
 20
185.8328883442
 11
227.2463297173
 21
183.4516383442
  0
LINE
  5
2F8
100
AcDbEntity
  8
SHELL3
100
AcDbLine
 62
7
  6
CONTINUOUS
 10
227.2463297173
 20
166.5288883442
 11
227.2463297173
 21
164.1476383442
  0
LINE
  5
2F9
100
AcDbEntity
  8
SHELL3
100
AcDbLine
 62
7
  6
CONTINUOUS
 10
230.0529490603
 20
184.7216383442
 11
230.0529490603
 21
183.4516383442
  0
LINE
  5
2FA
100
AcDbEntity
  8
SHELL3
100
AcDbLine
 62
7
  6
CONTINUOUS
 10
230.0529490603
 20
165.4176383442
 11
230.0529490603
 21
164.1476383442
  0
LINE
  5
2FB
100
AcDbEntity
  8
SHELL3
100
AcDbLine
 62
7
  6
CONTINUOUS
 10
235.6726990603
 20
204.0256383442
 11
235.6726990603
 21
165.4176383442
  0
LINE
  5
2FC
100
AcDbEntity
  8
SHELL3
100
AcDbLine
 62
7
  6
CONTINUOUS
 10
235.6726990603
 20
219.2656383442
 11
235.6726990603
 21
204.0256383442
  0
LINE
  5
2FD
100
AcDbEntity
  8
SHELL3
100
AcDbLine
 62
7
  6
CONTINUOUS
 10
235.6726990603
 20
165.4176383442
 11
235.6726990603
 21
152.7176383442
  0
LINE
  5
2FE
100
AcDbEntity
  8
SHELL3
100
AcDbLine
 62
7
  6
CONTINUOUS
 10
238.2126990603
 20
219.2656383442
 11
238.2126990603
 21
152.7176383442
  0
LINE
  5
2FF
100
AcDbEntity
  8
SHELL3
100
AcDbLine
 62
7
  6
CONTINUOUS
 10
246.8232990603
 20
213.1696383218
 11
246.8232990603
 21
171.5136383667
  0
LINE
  5
300
100
AcDbEntity
  8
SHELL3
100
AcDbLine
 62
7
  6
CONTINUOUS
 10
246.8486990603
 20
231.9656383442
 11
246.8486990603
 21
152.7176383468
  0
CIRCLE
  5
301
100
AcDbEntity
  8
SHELL3
100
AcDbCircle
 62
7
  6
CONTINUOUS
 10
52.2846990603
 20
175.0696383442
 40
5.68325
  0
CIRCLE
  5
302
100
AcDbEntity
  8
SHELL3
100
AcDbCircle
 62
7
  6
CONTINUOUS
 10
70.0646990603
 20
175.0696383442
 40
5.68325
  0
CIRCLE
  5
303
100
AcDbEntity
  8
SHELL3
100
AcDbCircle
 62
7
  6
CONTINUOUS
 10
87.8446990603
 20
175.0696383442
 40
5.68325
  0
CIRCLE
  5
304
100
AcDbEntity
  8
SHELL3
100
AcDbCircle
 62
7
  6
CONTINUOUS
 10
120.6106990603
 20
175.0696383442
 40
5.68325
  0
CIRCLE
  5
305
100
AcDbEntity
  8
SHELL3
100
AcDbCircle
 62
7
  6
CONTINUOUS
 10
70.0646990603
 20
184.7216383442
 40
10.33145
  0
CIRCLE
  5
306
100
AcDbEntity
  8
SHELL3
100
AcDbCircle
 62
7
  6
CONTINUOUS
 10
52.2846990603
 20
194.3736383442
 40
5.68325
  0
CIRCLE
  5
307
100
AcDbEntity
  8
SHELL3
100
AcDbCircle
 62
7
  6
CONTINUOUS
 10
70.0646990603
 20
194.3736383442
 40
5.68325
  0
CIRCLE
  5
308
100
AcDbEntity
  8
SHELL3
100
AcDbCircle
 62
7
  6
CONTINUOUS
 10
87.8446990603
 20
194.3736383442
 40
5.68325
  0
CIRCLE
  5
309
100
AcDbEntity
  8
SHELL3
100
AcDbCircle
 62
7
  6
CONTINUOUS
 10
120.6106990603
 20
194.3736383442
 40
5.68325
  0
CIRCLE
  5
30A
100
AcDbEntity
  8
SHELL3
100
AcDbCircle
 62
7
  6
CONTINUOUS
 10
138.3906990603
 20
175.0696383442
 40
5.68325
  0
CIRCLE
  5
30B
100
AcDbEntity
  8
SHELL3
100
AcDbCircle
 62
7
  6
CONTINUOUS
 10
156.1706990603
 20
175.0696383442
 40
5.68325
  0
CIRCLE
  5
30C
100
AcDbEntity
  8
SHELL3
100
AcDbCircle
 62
7
  6
CONTINUOUS
 10
188.9366990603
 20
175.0696383442
 40
5.68325
  0
CIRCLE
  5
30D
100
AcDbEntity
  8
SHELL3
100
AcDbCircle
 62
7
  6
CONTINUOUS
 10
206.7166990603
 20
175.0696383442
 40
5.68325
  0
CIRCLE
  5
30E
100
AcDbEntity
  8
SHELL3
100
AcDbCircle
 62
7
  6
CONTINUOUS
 10
224.4966990603
 20
175.0696383442
 40
5.68325
  0
CIRCLE
  5
30F
100
AcDbEntity
  8
SHELL3
100
AcDbCircle
 62
7
  6
CONTINUOUS
 10
138.3906990603
 20
184.7216383442
 40
10.33145
  0
CIRCLE
  5
310
100
AcDbEntity
  8
SHELL3
100
AcDbCircle
 62
7
  6
CONTINUOUS
 10
206.7166990603
 20
184.7216383442
 40
10.33145
  0
CIRCLE
  5
311
100
AcDbEntity
  8
SHELL3
100
AcDbCircle
 62
7
  6
CONTINUOUS
 10
138.3906990603
 20
194.3736383442
 40
5.68325
  0
CIRCLE
  5
312
100
AcDbEntity
  8
SHELL3
100
AcDbCircle
 62
7
  6
CONTINUOUS
 10
156.1706990603
 20
194.3736383442
 40
5.68325
  0
CIRCLE
  5
313
100
AcDbEntity
  8
SHELL3
100
AcDbCircle
 62
7
  6
CONTINUOUS
 10
188.9366990603
 20
194.3736383442
 40
5.68325
  0
CIRCLE
  5
314
100
AcDbEntity
  8
SHELL3
100
AcDbCircle
 62
7
  6
CONTINUOUS
 10
206.7166990603
 20
194.3736383442
 40
5.68325
  0
CIRCLE
  5
315
100
AcDbEntity
  8
SHELL3
100
AcDbCircle
 62
7
  6
CONTINUOUS
 10
224.4966990603
 20
194.3736383442
 40
5.68325
  0
LINE
  5
316
100
AcDbEntity
  8
SHELL3
100
AcDbLine
 62
7
  6
CONTINUOUS
 10
99.0206990603
 20
165.4303383442
 11
99.0206990603
 21
165.4176383442
  0
LINE
  5
317
100
AcDbEntity
  8
SHELL3
100
AcDbLine
 62
7
  6
CONTINUOUS
 10
167.3466990603
 20
165.4303383442
 11
167.3466990603
 21
165.4176383442
  0
LINE
  5
318
100
AcDbEntity
  8
SHELL3
100
AcDbLine
 62
7
  6
CONTINUOUS
 10
235.6726990603
 20
165.4303383442
 11
235.6726990603
 21
165.4176383442
  0
ENDSEC
  0
SECTION
  2
OBJECTS
  0
DICTIONARY
  5
C
100
AcDbDictionary
280
0
281
1
  3
ACAD_GROUP
350
D
  3
ACAD_MLINESTYLE
350
17
  3
ACAD_LAYOUT
350
1A
  3
ACAD_PLOTSETTINGS
350
19
  3
ACAD_PLOTSTYLENAME
350
E
  0
DICTIONARY
  5
D
102
{ACAD_REACTORS
330
C
102
}
100
AcDbDictionary
280
0
281
1
  0
ACDBDICTIONARYWDFLT
  5
E
102
{ACAD_REACTORS
330
C
102
}
100
AcDbDictionary
281
1
  3
Normal
350
F
100
AcDbDictionaryWithDefault
340
F
  0
DICTIONARY
  5
17
102
{ACAD_REACTORS
330
C
102
}
100
AcDbDictionary
280
0
281
1
  3
Standard
350
18
  0
DICTIONARY
  5
19
102
{ACAD_REACTORS
330
C
102
}
100
AcDbDictionary
281
1
  0
DICTIONARY
  5
1A
102
{ACAD_REACTORS
330
C
102
}
100
AcDbDictionary
281
1
  3
Model
350
319
  3
Layout1
350
31A
  0
ACDBPLACEHOLDER
  5
F
102
{ACAD_REACTORS
330
E
102
}
  0
MLINESTYLE
  5
18
102
{ACAD_REACTORS
330
17
102
}
100
AcDbMlineStyle
  2
STANDARD
 70
0
  3

 62
256
 51
90.0
 52
90.0
 71
2
 49
0.5
 62
256
  6
BYLAYER
 49
-0.5
 62
256
  6
BYLAYER
  0
LAYOUT
  5
319
102
{ACAD_REACTORS
330
1A
102
}
100
AcDbPlotSettings
  1

  2
none_device
  4

  6

 40
0.0
 41
0.0
 42
0.0
 43
0.0
 44
210.0
 45
297.0
 46
0.0
 47
0.0
 48
0.0
 49
0.0
140
0.0
141
0.0
142
1.0
143
1.0
 70
1024
 72
1
 73
0
 74
0
  7

 75
0
147
1.0
148
0.0
149
0.0
100
AcDbLayout
  1
Model
 70
0
 71
0
 10
0.0
 20
0.0
 11
210.0
 21
297.0
 12
0.0
 22
0.0
 32
0.0
 14
0.0
 24
0.0
 34
0.0
 15
0.0
 25
0.0
 35
0.0
146
0.0
 13
0.0
 23
0.0
 33
0.0
 16
1.0
 26
0.0
 36
0.0
 17
0.0
 27
1.0
 37
0.0
 76
0
330
211
345
0
346
0
  0
LAYOUT
  5
31A
102
{ACAD_REACTORS
330
1A
102
}
100
AcDbPlotSettings
  1

  2
none_device
  4

  6

 40
0.0
 41
0.0
 42
0.0
 43
0.0
 44
210.0
 45
297.0
 46
0.0
 47
0.0
 48
0.0
 49
0.0
140
0.0
141
0.0
142
1.0
143
1.0
 70
0
 72
1
 73
0
 74
0
  7

 75
0
147
1.0
148
0.0
149
0.0
100
AcDbLayout
  1
Layout1
 70
0
 71
1
 10
0.0
 20
0.0
 11
210.0
 21
297.0
 12
0.0
 22
0.0
 32
0.0
 14
0.0
 24
0.0
 34
0.0
 15
0.0
 25
0.0
 35
0.0
146
0.0
 13
0.0
 23
0.0
 33
0.0
 16
1.0
 26
0.0
 36
0.0
 17
0.0
 27
1.0
 37
0.0
 76
0
330
212
345
0
346
0
  0
ENDSEC
  0
EOF
