999
DXF file: C:\Users\sesa63760\Dev\_Creo\CAD\MCADID0000953_3D-CAD\drw0001_7.dxf
999
Pro/ENGINEER 2019471 by Parametric Technology Corporation
  0
SECTION
  2
HEADER
  9
$ACADVER
  1
AC1024
  9
$DWGCODEPAGE
  3
ANSI_1252
  9
$EXTMAX
 10
227.53133082
 20
321.7943107312
 30
0.0
  9
$EXTMIN
 10
0.0
 20
0.0
 30
0.0
  9
$LIMMIN
 10
0.0
 20
0.0
  9
$LIMMAX
 10
227.53133082
 20
321.7943107312
  9
$VIEWCTR
 10
113.76566541
 20
160.8971553656
  9
$VIEWSIZE
 40
321.7943107312
  9
$CLAYER
  8
0
  9
$LTSCALE
 40
20.9762217366
  9
$CELTYPE
  6
BYLAYER
  9
$DIMSCALE
 40
1.0
  9
$DIMASZ
 40
2.7087063193
  9
$DIMEXO
 40
1.0
  9
$DIMDLI
 40
14.4926622907
  9
$DIMEXE
 40
1.0
  9
$DIMCEN
 40
3.4324726478
  9
$DIMLFAC
 40
1.0
  9
$DIMBLK
  1
_FILLED
  9
$DIMALT
 70
0
  9
$DIMALTF
 40
0.0393700787
  9
$DIMTXT
 40
3.792188847
  9
$DIMTOL
 70
1
  9
$DIMLIM
 70
0
  9
$DIMTFAC
 40
1.0
  9
$DIMTP
 40
0.01
  9
$DIMTM
 40
0.01
  9
$DIMGAP
 40
0.625
  9
$DIMDSEP
 70
46
  9
$AUNITS
 70
0
  9
$PDMODE
 70
3
  9
$PDSIZE
 40
0.3125
  9
$HANDSEED
  5
261
  9
$TILEMODE
 70
1
  9
$MEASUREMENT
 70
1
  9
$INSUNITS
 70
4
  0
ENDSEC
  0
SECTION
  2
CLASSES
  0
CLASS
  1
ACDBDICTIONARYWDFLT
  2
AcDbDictionaryWithDefault
  3
AutoCAD 2000
 90
0
 91
1
280
0
281
0
  0
CLASS
  1
ACDBPLACEHOLDER
  2
AcDbPlaceHolder
  3
AutoCAD 2000
 90
0
 91
1
280
0
281
0
  0
CLASS
  1
LAYOUT
  2
AcDbLayout
  3
AutoCAD 2000
 90
0
 91
0
280
0
281
0
  0
ENDSEC
  0
SECTION
  2
TABLES
  0
TABLE
  2
VPORT
  5
8
100
AcDbSymbolTable
 70
2
  0
VPORT
  5
1F4
100
AcDbSymbolTableRecord
100
AcDbViewportTableRecord
  2
*ACTIVE
 70
0
 10
0.0
 20
0.0
 11
1.0
 21
1.0
 12
113.76566541
 22
160.8971553656
 13
0.0
 23
0.0
 14
1.0
 24
1.0
 15
0.0
 25
0.0
 16
0.0
 26
0.0
 36
1.0
 17
0.0
 27
0.0
 37
0.0
 40
321.7943107312
 41
0.7070707071
 42
50.0
 43
0.0
 44
0.0
 50
0.0
 51
0.0
 71
0
 72
100
 73
1
 74
1
 75
0
 76
0
 77
0
 78
0
  0
ENDTAB
  0
TABLE
  2
LTYPE
  5
5
100
AcDbSymbolTable
 70
6
  0
LTYPE
  5
14
100
AcDbSymbolTableRecord
100
AcDbLinetypeTableRecord
  2
BYBLOCK
 70
0
  3

 72
65
 73
0
 40
0.0
  0
LTYPE
  5
15
100
AcDbSymbolTableRecord
100
AcDbLinetypeTableRecord
  2
BYLAYER
 70
0
  3

 72
65
 73
0
 40
0.0
  0
LTYPE
  5
16
100
AcDbSymbolTableRecord
100
AcDbLinetypeTableRecord
  2
CONTINUOUS
 70
64
  3
Solid line
 72
65
 73
0
 40
0.0
  0
LTYPE
  5
1F5
100
AcDbSymbolTableRecord
100
AcDbLinetypeTableRecord
  2
CENTER
 70
64
  3
____ _ ____ _ ____ _ ____ _ ____ _ ____ _ ____
 72
65
 73
4
 40
0.6
 49
0.375
 74
0
 49
-0.075
 74
0
 49
0.075
 74
0
 49
-0.075
 74
0
  0
LTYPE
  5
1F6
100
AcDbSymbolTableRecord
100
AcDbLinetypeTableRecord
  2
HIDDEN
 70
64
  3
- - - - - - - - - - - - - - - - - - - -
 72
65
 73
2
 40
0.2
 49
0.1
 74
0
 49
-0.1
 74
0
  0
LTYPE
  5
1F7
100
AcDbSymbolTableRecord
100
AcDbLinetypeTableRecord
  2
PHANTOM
 70
64
  3
_____ _ _ _____ _ _ _____ _ _ _____
 72
65
 73
6
 40
0.8
 49
0.45
 74
0
 49
-0.05
 74
0
 49
0.1
 74
0
 49
-0.05
 74
0
 49
0.1
 74
0
 49
-0.05
 74
0
  0
LTYPE
  5
1F8
100
AcDbSymbolTableRecord
100
AcDbLinetypeTableRecord
  2
DOT
 70
64
  3
. . . . . . . . . . . . . . . . . . . .
 72
65
 73
2
 40
0.2
 49
0.1
 74
0
 49
-0.1
 74
0
  0
LTYPE
  5
1F9
100
AcDbSymbolTableRecord
100
AcDbLinetypeTableRecord
  2
DASHED
 70
64
  3
- - - - - - - - - - - - - - - - - - - -
 72
65
 73
2
 40
0.2
 49
0.1
 74
0
 49
-0.1
 74
0
  0
ENDTAB
  0
TABLE
  2
LAYER
  5
2
100
AcDbSymbolTable
 70
36
  0
LAYER
  5
10
100
AcDbSymbolTableRecord
100
AcDbLayerTableRecord
  2
0
 70
0
 62
7
  6
CONTINUOUS
370
-3
390
F
  0
LAYER
  5
1FA
100
AcDbSymbolTableRecord
100
AcDbLayerTableRecord
  2
DEFAULT_1
 70
0
 62
7
  6
CENTER
370
-3
390
F
  0
LAYER
  5
1FB
100
AcDbSymbolTableRecord
100
AcDbLayerTableRecord
  2
DEFAULT_2
 70
0
 62
8
  6
HIDDEN
370
-3
390
F
  0
LAYER
  5
1FC
100
AcDbSymbolTableRecord
100
AcDbLayerTableRecord
  2
DEFAULT_3
 70
0
 62
7
  6
PHANTOM
370
-3
390
F
  0
LAYER
  5
1FD
100
AcDbSymbolTableRecord
100
AcDbLayerTableRecord
  2
00_COMPONENTS
 70
0
 62
7
  6
CONTINUOUS
370
-3
390
F
  0
LAYER
  5
1FE
100
AcDbSymbolTableRecord
100
AcDbLayerTableRecord
  2
01_1_DEFAULT_DATUMS
 70
0
 62
7
  6
CONTINUOUS
370
-3
390
F
  0
LAYER
  5
1FF
100
AcDbSymbolTableRecord
100
AcDbLayerTableRecord
  2
01_PLANES
 70
0
 62
7
  6
CONTINUOUS
370
-3
390
F
  0
LAYER
  5
200
100
AcDbSymbolTableRecord
100
AcDbLayerTableRecord
  2
02_COORD_SYS
 70
0
 62
7
  6
CONTINUOUS
370
-3
390
F
  0
LAYER
  5
201
100
AcDbSymbolTableRecord
100
AcDbLayerTableRecord
  2
03_AXES
 70
0
 62
7
  6
CONTINUOUS
370
-3
390
F
  0
LAYER
  5
202
100
AcDbSymbolTableRecord
100
AcDbLayerTableRecord
  2
04_POINTS
 70
0
 62
7
  6
CONTINUOUS
370
-3
390
F
  0
LAYER
  5
203
100
AcDbSymbolTableRecord
100
AcDbLayerTableRecord
  2
05_CURVES
 70
0
 62
7
  6
CONTINUOUS
370
-3
390
F
  0
LAYER
  5
204
100
AcDbSymbolTableRecord
100
AcDbLayerTableRecord
  2
06_SURFS
 70
0
 62
7
  6
CONTINUOUS
370
-3
390
F
  0
LAYER
  5
205
100
AcDbSymbolTableRecord
100
AcDbLayerTableRecord
  2
07_COSMETICS
 70
0
 62
7
  6
CONTINUOUS
370
-3
390
F
  0
LAYER
  5
206
100
AcDbSymbolTableRecord
100
AcDbLayerTableRecord
  2
10_NOTES
 70
0
 62
7
  6
CONTINUOUS
370
-3
390
F
  0
LAYER
  5
207
100
AcDbSymbolTableRecord
100
AcDbLayerTableRecord
  2
11_NOTES_PUB
 70
0
 62
7
  6
CONTINUOUS
370
-3
390
F
  0
LAYER
  5
208
100
AcDbSymbolTableRecord
100
AcDbLayerTableRecord
  2
13_REF_GTOL
 70
0
 62
7
  6
CONTINUOUS
370
-3
390
F
  0
LAYER
  5
209
100
AcDbSymbolTableRecord
100
AcDbLayerTableRecord
  2
16_MISC
 70
0
 62
7
  6
CONTINUOUS
370
-3
390
F
  0
LAYER
  5
20A
100
AcDbSymbolTableRecord
100
AcDbLayerTableRecord
  2
17_NO_PRINT
 70
0
 62
7
  6
CONTINUOUS
370
-3
390
F
  0
LAYER
  5
20B
100
AcDbSymbolTableRecord
100
AcDbLayerTableRecord
  2
18_DATUM_CAMS_JOINTS
 70
0
 62
7
  6
CONTINUOUS
370
-3
390
F
  0
LAYER
  5
20C
100
AcDbSymbolTableRecord
100
AcDbLayerTableRecord
  2
19_DATUM_FUNCTIONAL
 70
0
 62
7
  6
CONTINUOUS
370
-3
390
F
  0
LAYER
  5
20D
100
AcDbSymbolTableRecord
100
AcDbLayerTableRecord
  2
20_DATUM_KINEMATIC_SCHEME
 70
0
 62
7
  6
CONTINUOUS
370
-3
390
F
  0
LAYER
  5
20E
100
AcDbSymbolTableRecord
100
AcDbLayerTableRecord
  2
5
 70
0
 62
7
  6
CONTINUOUS
370
-3
390
F
  0
ENDTAB
  0
TABLE
  2
STYLE
  5
3
100
AcDbSymbolTable
 70
1
  0
STYLE
  5
11
100
AcDbSymbolTableRecord
100
AcDbTextStyleTableRecord
  2
STANDARD
 70
0
 40
0.0
 41
0.8
 50
0.0
 71
0
 42
0.2
  3
txt
  4

  0
STYLE
  5
20F
100
AcDbSymbolTableRecord
100
AcDbTextStyleTableRecord
  2
TEXTSTYLE_1
 70
0
 40
0.0
 41
0.8
 50
0.0
 71
0
 42
0.2
  3
gdt
  4

  0
ENDTAB
  0
TABLE
  2
VIEW
  5
6
100
AcDbSymbolTable
 70
0
  0
ENDTAB
  0
TABLE
  2
UCS
  5
7
100
AcDbSymbolTable
 70
0
  0
ENDTAB
  0
TABLE
  2
APPID
  5
9
100
AcDbSymbolTable
 70
1
  0
APPID
  5
210
100
AcDbSymbolTableRecord
100
AcDbRegAppTableRecord
  2
ACAD
 70
0
  0
ENDTAB
  0
TABLE
  2
BLOCK_RECORD
  5
1
100
AcDbSymbolTable
 70
0
  0
BLOCK_RECORD
  5
211
100
AcDbSymbolTableRecord
100
AcDbBlockTableRecord
  2
*Model_Space
  0
BLOCK_RECORD
  5
212
100
AcDbSymbolTableRecord
100
AcDbBlockTableRecord
  2
*Paper_Space
  0
BLOCK_RECORD
  5
213
100
AcDbSymbolTableRecord
100
AcDbBlockTableRecord
  2
_FILLED
  0
ENDTAB
  0
TABLE
  2
DIMSTYLE
  5
A
100
AcDbSymbolTable
 70
1
100
AcDbDimStyleTable
 71
0
  0
DIMSTYLE
105
214
100
AcDbSymbolTableRecord
100
AcDbDimStyleTableRecord
  2
STANDARD
 70
0
  3

  4

 40
1.0
 41
2.7087063193
 42
1.0
 43
0.38
 44
1.0
 45
0.0
 46
0.0
 47
0.01
 48
0.01
140
3.792188847
141
0.09
142
0.0
143
25.4
144
1.0
145
0.0
146
1.0
147
0.625
 71
1
 72
0
 73
0
 74
0
 75
0
 76
0
 77
1
 78
8
 79
2
170
0
171
1
172
0
173
0
174
0
175
0
176
0
177
0
178
0
270
2
179
2
271
2
272
2
273
2
274
2
275
0
280
0
281
0
282
0
283
1
284
8
285
0
286
0
287
3
288
0
340
11
278
46
341
213
342
213
343
213
344
213
  0
ENDTAB
  0
ENDSEC
  0
SECTION
  2
BLOCKS
  0
BLOCK
  5
20
100
AcDbEntity
  8
0
100
AcDbBlockBegin
  2
*Model_Space
 70
0
 10
0.0
 20
0.0
 30
0.0
  3
*Model_Space
  1

  0
ENDBLK
  5
21
100
AcDbEntity
  8
0
100
AcDbBlockEnd
  0
BLOCK
  5
1C
100
AcDbEntity
  8
0
100
AcDbBlockBegin
  2
*Paper_Space
 70
0
 10
0.0
 20
0.0
 30
0.0
  3
*Paper_Space
  1

  0
ENDBLK
  5
1D
100
AcDbEntity
  8
0
100
AcDbBlockEnd
  0
BLOCK
  5
215
100
AcDbEntity
  8
0
100
AcDbBlockBegin
  2
_FILLED
 70
64
 10
0.0
 20
0.0
  3
_FILLED
  1

  0
SOLID
  5
216
100
AcDbEntity
  8
0
  6
BYBLOCK
 62
0
100
AcDbTrace
 10
0.0
 20
0.0
 11
-1.0
 21
0.25
 12
-1.0
 22
-0.25
 13
-1.0
 23
-0.25
  0
ENDBLK
  5
217
100
AcDbEntity
  8
0
  6
BYBLOCK
 62
0
100
AcDbBlockEnd
  0
ENDSEC
  0
SECTION
  2
ENTITIES
  0
LINE
  5
218
100
AcDbEntity
  8
5
100
AcDbLine
 62
7
  6
CONTINUOUS
 10
120.3595384928
 20
37.1849015363
 11
119.1595384928
 21
37.1849015363
  0
LINE
  5
219
100
AcDbEntity
  8
5
100
AcDbLine
 62
7
  6
CONTINUOUS
 10
120.53420101
 20
40.1849015363
 11
119.3608849408
 21
40.1849015363
  0
LINE
  5
21A
100
AcDbEntity
  8
5
100
AcDbLine
 62
7
  6
CONTINUOUS
 10
122.5325281052
 20
41.5456710517
 11
123.244068439
 21
41.5456710517
  0
LINE
  5
21B
100
AcDbEntity
  8
5
100
AcDbLine
 62
7
  6
CONTINUOUS
 10
170.0750085467
 20
41.5456710517
 11
170.783739117
 21
41.5456710517
  0
LINE
  5
21C
100
AcDbEntity
  8
5
100
AcDbLine
 62
7
  6
CONTINUOUS
 10
119.3608849408
 20
43.1849015363
 11
120.53420101
 21
43.1849015363
  0
LINE
  5
21D
100
AcDbEntity
  8
5
100
AcDbLine
 62
7
  6
CONTINUOUS
 10
119.1595384928
 20
46.1849015363
 11
24.1595384928
 21
46.1849015363
  0
LINE
  5
21E
100
AcDbEntity
  8
5
100
AcDbLine
 62
7
  6
CONTINUOUS
 10
120.4088199887
 20
46.1849015363
 11
204.1595353286
 21
46.1849015363
  0
LINE
  5
21F
100
AcDbEntity
  8
5
100
AcDbLine
 62
7
  6
CONTINUOUS
 10
118.6678110403
 20
46.6849015363
 11
119.1595384928
 21
46.6849015363
  0
LINE
  5
220
100
AcDbEntity
  8
5
100
AcDbLine
 62
7
  6
CONTINUOUS
 10
168.1595384928
 20
50.1849015363
 11
199.5737520552
 21
50.1849015363
  0
LINE
  5
221
100
AcDbEntity
  8
5
100
AcDbLine
 62
7
  6
CONTINUOUS
 10
169.9764568536
 20
69.2686734865
 11
178.0357394336
 21
69.2686734865
  0
LINE
  5
222
100
AcDbEntity
  8
5
100
AcDbLine
 62
7
  6
CONTINUOUS
 10
129.1595385744
 20
69.4948627503
 11
108.6663918974
 21
69.4948627503
  0
LINE
  5
223
100
AcDbEntity
  8
5
100
AcDbLine
 62
7
  6
CONTINUOUS
 10
124.1095384928
 20
43.4447091574
 11
123.3595384928
 21
43.8777218593
  0
LINE
  5
224
100
AcDbEntity
  8
5
100
AcDbLine
 62
7
  6
CONTINUOUS
 10
24.1595384928
 20
46.1849015363
 11
24.1595384928
 21
199.1849015363
  0
LINE
  5
225
100
AcDbEntity
  8
5
100
AcDbLine
 62
7
  6
CONTINUOUS
 10
29.1595384928
 20
199.1849015363
 11
29.1595384928
 21
286.1849015363
  0
LINE
  5
226
100
AcDbEntity
  8
5
100
AcDbLine
 62
7
  6
CONTINUOUS
 10
30.6595384928
 20
214.1849015363
 11
30.6595384928
 21
284.6849015363
  0
LINE
  5
227
100
AcDbEntity
  8
5
100
AcDbLine
 62
7
  6
CONTINUOUS
 10
34.1595385183
 20
46.1849015363
 11
34.1595384928
 21
181.267844858
  0
LINE
  5
228
100
AcDbEntity
  8
5
100
AcDbLine
 62
7
  6
CONTINUOUS
 10
178.0357394336
 20
90.5940785155
 11
169.9764568536
 21
90.5940785155
  0
LINE
  5
229
100
AcDbEntity
  8
5
100
AcDbLine
 62
7
  6
CONTINUOUS
 10
165.7195384928
 20
91.9049015363
 11
178.7195384928
 21
91.9049015363
  0
LINE
  5
22A
100
AcDbEntity
  8
5
100
AcDbLine
 62
7
  6
CONTINUOUS
 10
178.7195384928
 20
124.8949015363
 11
165.7195384928
 21
124.8949015363
  0
LINE
  5
22B
100
AcDbEntity
  8
5
100
AcDbLine
 62
7
  6
CONTINUOUS
 10
165.0186363497
 20
128.576386454
 11
178.3753125356
 21
128.576386454
  0
LINE
  5
22C
100
AcDbEntity
  8
5
100
AcDbLine
 62
7
  6
CONTINUOUS
 10
169.0997308717
 20
43.0349015362
 11
169.9018034659
 21
41.6456710518
  0
LINE
  5
22D
100
AcDbEntity
  8
5
100
AcDbLine
 62
7
  6
CONTINUOUS
 10
108.6665224171
 20
69.4948627503
 11
108.6665223658
 21
46.1849015363
  0
LINE
  5
22E
100
AcDbEntity
  8
5
100
AcDbLine
 62
7
  6
CONTINUOUS
 10
178.3753125356
 20
160.1004060961
 11
165.0186363497
 21
160.1004060961
  0
LINE
  5
22F
100
AcDbEntity
  8
5
100
AcDbLine
 62
7
  6
CONTINUOUS
 10
121.8159101136
 20
45.7490333006
 11
122.3369898445
 21
41.720018346
  0
LINE
  5
230
100
AcDbEntity
  8
5
100
AcDbLine
 62
7
  6
CONTINUOUS
 10
123.3595384928
 20
43.8777218593
 11
123.2386243295
 21
46.1849015363
  0
LINE
  5
231
100
AcDbEntity
  8
5
100
AcDbLine
 62
7
  6
CONTINUOUS
 10
118.6678150294
 20
46.1849015363
 11
118.6678097104
 21
69.4948627503
  0
LINE
  5
232
100
AcDbEntity
  8
5
100
AcDbLine
 62
7
  6
CONTINUOUS
 10
119.1595384928
 20
37.1849015363
 11
119.1595384928
 21
69.4948627503
  0
LINE
  5
233
100
AcDbEntity
  8
5
100
AcDbLine
 62
7
  6
CONTINUOUS
 10
119.3608849408
 20
40.1849015363
 11
119.3608849408
 21
43.1849015363
  0
LINE
  5
234
100
AcDbEntity
  8
5
100
AcDbLine
 62
7
  6
CONTINUOUS
 10
120.3595384928
 20
37.4612402423
 11
120.3595384928
 21
37.1849015363
  0
LINE
  5
235
100
AcDbEntity
  8
5
100
AcDbLine
 62
7
  6
CONTINUOUS
 10
120.53420101
 20
43.1849015363
 11
120.53420101
 21
40.1849015363
  0
LINE
  5
236
100
AcDbEntity
  8
5
100
AcDbLine
 62
7
  6
CONTINUOUS
 10
129.1595384928
 20
46.1849015363
 11
129.1595385132
 21
69.4948627503
  0
LINE
  5
237
100
AcDbEntity
  8
5
100
AcDbLine
 62
7
  6
CONTINUOUS
 10
204.1595384928
 20
181.267844858
 11
194.1595384928
 21
181.267844858
  0
LINE
  5
238
100
AcDbEntity
  8
5
100
AcDbLine
 62
7
  6
CONTINUOUS
 10
34.1595384928
 20
181.267844858
 11
24.1595384928
 21
181.267844858
  0
LINE
  5
239
100
AcDbEntity
  8
5
100
AcDbLine
 62
7
  6
CONTINUOUS
 10
204.1595384928
 20
199.1849015363
 11
199.1595384928
 21
199.1849015363
  0
LINE
  5
23A
100
AcDbEntity
  8
5
100
AcDbLine
 62
7
  6
CONTINUOUS
 10
29.1595384928
 20
199.1849015363
 11
24.1595384928
 21
199.1849015363
  0
LINE
  5
23B
100
AcDbEntity
  8
5
100
AcDbLine
 62
7
  6
CONTINUOUS
 10
165.0186363497
 20
160.1004060961
 11
165.0186363497
 21
128.576386454
  0
LINE
  5
23C
100
AcDbEntity
  8
5
100
AcDbLine
 62
7
  6
CONTINUOUS
 10
165.7195384928
 20
124.8949015363
 11
165.7195384928
 21
91.9049015363
  0
LINE
  5
23D
100
AcDbEntity
  8
5
100
AcDbLine
 62
7
  6
CONTINUOUS
 10
29.1595384928
 20
214.1849015363
 11
30.6595384928
 21
214.1849015363
  0
LINE
  5
23E
100
AcDbEntity
  8
5
100
AcDbLine
 62
7
  6
CONTINUOUS
 10
197.6595384928
 20
214.1849015363
 11
199.1595384928
 21
214.1849015363
  0
LINE
  5
23F
100
AcDbEntity
  8
5
100
AcDbLine
 62
7
  6
CONTINUOUS
 10
168.1595384928
 20
50.1849015363
 11
168.1595384928
 21
46.1849015363
  0
LINE
  5
240
100
AcDbEntity
  8
5
100
AcDbLine
 62
7
  6
CONTINUOUS
 10
169.9764568536
 20
90.5940785155
 11
169.9764568536
 21
69.2686734865
  0
LINE
  5
241
100
AcDbEntity
  8
5
100
AcDbLine
 62
7
  6
CONTINUOUS
 10
170.0804526561
 20
46.1849015361
 11
169.9595384928
 21
43.8777218593
  0
LINE
  5
242
100
AcDbEntity
  8
5
100
AcDbLine
 62
7
  6
CONTINUOUS
 10
199.1595384928
 20
224.1849015363
 11
197.6595384928
 21
224.1849015363
  0
LINE
  5
243
100
AcDbEntity
  8
5
100
AcDbLine
 62
7
  6
CONTINUOUS
 10
30.6595384928
 20
224.1849015363
 11
29.1595384928
 21
224.1849015363
  0
LINE
  5
244
100
AcDbEntity
  8
5
100
AcDbLine
 62
7
  6
CONTINUOUS
 10
178.0357394336
 20
69.2686734865
 11
178.0357394336
 21
90.5940785155
  0
LINE
  5
245
100
AcDbEntity
  8
5
100
AcDbLine
 62
7
  6
CONTINUOUS
 10
178.1595384928
 20
46.1849015363
 11
178.1595384928
 21
50.1849015363
  0
LINE
  5
246
100
AcDbEntity
  8
5
100
AcDbLine
 62
7
  6
CONTINUOUS
 10
178.3753125356
 20
128.576386454
 11
178.3753125356
 21
160.1004060961
  0
LINE
  5
247
100
AcDbEntity
  8
5
100
AcDbLine
 62
7
  6
CONTINUOUS
 10
178.7195384928
 20
91.9049015363
 11
178.7195384928
 21
124.8949015363
  0
LINE
  5
248
100
AcDbEntity
  8
5
100
AcDbLine
 62
7
  6
CONTINUOUS
 10
170.9817267509
 20
41.7172317908
 11
171.503166873
 21
45.7490333125
  0
LINE
  5
249
100
AcDbEntity
  8
5
100
AcDbLine
 62
7
  6
CONTINUOUS
 10
123.4172735198
 20
41.6456710518
 11
124.2193461139
 21
43.0349015363
  0
LINE
  5
24A
100
AcDbEntity
  8
5
100
AcDbLine
 62
7
  6
CONTINUOUS
 10
194.1595384928
 20
181.267844858
 11
194.1583129136
 21
46.1849015363
  0
LINE
  5
24B
100
AcDbEntity
  8
5
100
AcDbLine
 62
7
  6
CONTINUOUS
 10
197.6595384928
 20
214.1849015363
 11
197.6595384928
 21
284.6849015363
  0
LINE
  5
24C
100
AcDbEntity
  8
5
100
AcDbLine
 62
7
  6
CONTINUOUS
 10
199.1595384928
 20
199.1849015363
 11
199.1595384928
 21
286.1849015363
  0
LINE
  5
24D
100
AcDbEntity
  8
5
100
AcDbLine
 62
7
  6
CONTINUOUS
 10
204.1595384928
 20
46.1849015363
 11
204.1595384928
 21
199.1849015363
  0
LINE
  5
24E
100
AcDbEntity
  8
5
100
AcDbLine
 62
7
  6
CONTINUOUS
 10
30.6595384928
 20
284.6849015363
 11
197.6595384928
 21
284.6849015363
  0
LINE
  5
24F
100
AcDbEntity
  8
5
100
AcDbLine
 62
7
  6
CONTINUOUS
 10
169.9595384928
 20
43.8777218593
 11
169.2095384928
 21
43.4447091574
  0
LINE
  5
250
100
AcDbEntity
  8
5
100
AcDbLine
 62
7
  6
CONTINUOUS
 10
199.1595384928
 20
286.1849015363
 11
29.1595384928
 21
286.1849015363
  0
LINE
  5
251
100
AcDbEntity
  8
5
100
AcDbLine
 62
7
  6
CONTINUOUS
 10
204.1595384928
 20
54.7706879739
 11
199.5737520552
 21
50.1849015363
  0
ARC
  5
252
100
AcDbEntity
  8
5
100
AcDbCircle
 62
7
  6
CONTINUOUS
 10
121.3200400532
 20
45.6849015363
 40
0.5
100
AcDbArc
 50
7.3692597876
 51
61.5976402869
  0
ARC
  5
253
100
AcDbEntity
  8
5
100
AcDbCircle
 62
7
  6
CONTINUOUS
 10
171.9990369279
 20
45.6849015363
 40
0.4999999967
100
AcDbArc
 50
89.9999972787
 51
172.6307387864
  0
ARC
  5
254
100
AcDbEntity
  8
5
100
AcDbCircle
 62
7
  6
CONTINUOUS
 10
123.9595384928
 20
43.1849015363
 40
0.3
100
AcDbArc
 50
329.999999994
 51
60.0
  0
ARC
  5
255
100
AcDbEntity
  8
5
100
AcDbCircle
 62
7
  6
CONTINUOUS
 10
169.3595384928
 20
43.1849015363
 40
0.3
100
AcDbArc
 50
119.9999999993
 51
210.0000000207
  0
ARC
  5
256
100
AcDbEntity
  8
5
100
AcDbCircle
 62
7
  6
CONTINUOUS
 10
123.244068439
 20
41.7456710517
 40
0.2
100
AcDbArc
 50
270.0
 51
330.0000000052
  0
ARC
  5
257
100
AcDbEntity
  8
5
100
AcDbCircle
 62
7
  6
CONTINUOUS
 10
122.5353378687
 20
41.7456710517
 40
0.2
100
AcDbArc
 50
187.3692597878
 51
269.1951149931
  0
ARC
  5
258
100
AcDbEntity
  8
5
100
AcDbCircle
 62
7
  6
CONTINUOUS
 10
170.0750085467
 20
41.7456710517
 40
0.2
100
AcDbArc
 50
209.9999999798
 51
270.0
  0
ARC
  5
259
100
AcDbEntity
  8
5
100
AcDbCircle
 62
7
  6
CONTINUOUS
 10
170.783739117
 20
41.7456710517
 40
0.2
100
AcDbArc
 50
270.0
 51
351.8258552045
  0
SPLINE
  5
25A
100
AcDbEntity
  8
5
100
AcDbSpline
 62
7
  6
CONTINUOUS
 70
0
 71
3
 72
10
 73
6
 74
0
 42
0.0000001
 43
0.0000001
 44
0.0000000001
 40
0.0
 40
0.0
 40
0.0
 40
0.0
 40
0.2376735386
 40
0.471248461
 40
1.0
 40
1.0
 40
1.0
 40
1.0
 10
121.6422661329
 20
46.1849015363
 30
0.0
 10
121.5629412315
 20
46.1849015363
 30
0.0
 10
121.404230473
 20
46.1634379817
 30
0.0
 10
121.1003582051
 20
46.0112524442
 30
0.0
 10
120.9482322264
 20
45.7876000824
 30
0.0
 10
120.872355191
 20
45.6282711955
 30
0.0
  0
SPLINE
  5
25B
100
AcDbEntity
  8
5
100
AcDbSpline
 62
7
  6
CONTINUOUS
 70
0
 71
3
 72
10
 73
6
 74
0
 42
0.0000001
 43
0.0000001
 44
0.0000000001
 40
0.0
 40
0.0
 40
0.0
 40
0.0
 40
0.2035555045
 40
0.4447763682
 40
1.0
 40
1.0
 40
1.0
 40
1.0
 10
120.872355191
 20
45.6282711955
 30
0.0
 10
120.7999709783
 20
45.476276643
 30
0.0
 10
120.6893040382
 20
45.1221236564
 30
0.0
 10
120.5578950675
 20
44.3048798466
 30
0.0
 10
120.53420101
 20
43.6440984346
 30
0.0
 10
120.53420101
 20
43.1849015363
 30
0.0
  0
SPLINE
  5
25C
100
AcDbEntity
  8
5
100
AcDbSpline
 62
7
  6
CONTINUOUS
 70
0
 71
3
 72
11
 73
7
 74
0
 42
0.0000001
 43
0.0000001
 44
0.0000000001
 40
0.0
 40
0.0
 40
0.0
 40
0.0
 40
0.1682709132
 40
0.4052890545
 40
0.6904349409
 40
1.0
 40
1.0
 40
1.0
 40
1.0
 10
120.3595384928
 20
37.4612402423
 30
0.0
 10
120.3595384928
 20
37.614380759
 30
0.0
 10
120.3941432943
 20
37.9823873511
 30
0.0
 10
120.459535762
 20
38.6069059449
 30
0.0
 10
120.5189658734
 20
39.3618468498
 30
0.0
 10
120.53420101
 20
39.9031716032
 30
0.0
 10
120.53420101
 20
40.1849015363
 30
0.0
  0
SPLINE
  5
25D
100
AcDbEntity
  8
5
100
AcDbSpline
 62
7
  6
CONTINUOUS
 70
0
 71
3
 72
13
 73
9
 74
0
 42
0.0000001
 43
0.0000001
 44
0.0000000001
 40
0.0
 40
0.0
 40
0.0
 40
0.0
 40
0.3368261717
 40
0.6251783071
 40
0.7409673642
 40
0.8371944199
 40
0.9198621284
 40
1.0
 40
1.0
 40
1.0
 40
1.0
 10
119.3608849408
 20
43.1849015363
 30
0.0
 10
119.3608849408
 20
43.5710635415
 30
0.0
 10
119.3869077407
 20
44.2870921652
 30
0.0
 10
119.5033633848
 20
45.1346748976
 30
0.0
 10
119.6979615095
 20
45.6770455892
 30
0.0
 10
119.8823651542
 20
45.9657513586
 30
0.0
 10
120.1269361025
 20
46.1486869868
 30
0.0
 10
120.3169441079
 20
46.1849015363
 30
0.0
 10
120.4088199887
 20
46.1849015363
 30
0.0
  0
SPLINE
  5
25E
100
AcDbEntity
  8
5
100
AcDbSpline
 62
7
  6
CONTINUOUS
 70
0
 71
3
 72
11
 73
7
 74
0
 42
0.0000001
 43
0.0000001
 44
0.0000000001
 40
0.0
 40
0.0
 40
0.0
 40
0.0
 40
0.152811865
 40
0.3869785259
 40
0.6787095548
 40
1.0
 40
1.0
 40
1.0
 40
1.0
 10
119.1595384928
 20
37.358476309
 30
0.0
 10
119.1595384928
 20
37.5028794718
 30
0.0
 10
119.2015567532
 20
37.8672356259
 30
0.0
 10
119.2743250531
 20
38.5038220436
 30
0.0
 10
119.3434036589
 20
39.301884237
 30
0.0
 10
119.3608849408
 20
39.88129058
 30
0.0
 10
119.3608849408
 20
40.1849015363
 30
0.0
  0
ENDSEC
  0
SECTION
  2
OBJECTS
  0
DICTIONARY
  5
C
100
AcDbDictionary
280
0
281
1
  3
ACAD_GROUP
350
D
  3
ACAD_MLINESTYLE
350
17
  3
ACAD_LAYOUT
350
1A
  3
ACAD_PLOTSETTINGS
350
19
  3
ACAD_PLOTSTYLENAME
350
E
  0
DICTIONARY
  5
D
102
{ACAD_REACTORS
330
C
102
}
100
AcDbDictionary
280
0
281
1
  0
ACDBDICTIONARYWDFLT
  5
E
102
{ACAD_REACTORS
330
C
102
}
100
AcDbDictionary
281
1
  3
Normal
350
F
100
AcDbDictionaryWithDefault
340
F
  0
DICTIONARY
  5
17
102
{ACAD_REACTORS
330
C
102
}
100
AcDbDictionary
280
0
281
1
  3
Standard
350
18
  0
DICTIONARY
  5
19
102
{ACAD_REACTORS
330
C
102
}
100
AcDbDictionary
281
1
  0
DICTIONARY
  5
1A
102
{ACAD_REACTORS
330
C
102
}
100
AcDbDictionary
281
1
  3
Model
350
25F
  3
Layout1
350
260
  0
ACDBPLACEHOLDER
  5
F
102
{ACAD_REACTORS
330
E
102
}
  0
MLINESTYLE
  5
18
102
{ACAD_REACTORS
330
17
102
}
100
AcDbMlineStyle
  2
STANDARD
 70
0
  3

 62
256
 51
90.0
 52
90.0
 71
2
 49
0.5
 62
256
  6
BYLAYER
 49
-0.5
 62
256
  6
BYLAYER
  0
LAYOUT
  5
25F
102
{ACAD_REACTORS
330
1A
102
}
100
AcDbPlotSettings
  1

  2
none_device
  4

  6

 40
0.0
 41
0.0
 42
0.0
 43
0.0
 44
210.0
 45
297.0
 46
0.0
 47
0.0
 48
0.0
 49
0.0
140
0.0
141
0.0
142
1.0
143
1.0
 70
1024
 72
1
 73
0
 74
0
  7

 75
0
147
1.0
148
0.0
149
0.0
100
AcDbLayout
  1
Model
 70
0
 71
0
 10
0.0
 20
0.0
 11
210.0
 21
297.0
 12
0.0
 22
0.0
 32
0.0
 14
0.0
 24
0.0
 34
0.0
 15
0.0
 25
0.0
 35
0.0
146
0.0
 13
0.0
 23
0.0
 33
0.0
 16
1.0
 26
0.0
 36
0.0
 17
0.0
 27
1.0
 37
0.0
 76
0
330
211
345
0
346
0
  0
LAYOUT
  5
260
102
{ACAD_REACTORS
330
1A
102
}
100
AcDbPlotSettings
  1

  2
none_device
  4

  6

 40
0.0
 41
0.0
 42
0.0
 43
0.0
 44
210.0
 45
297.0
 46
0.0
 47
0.0
 48
0.0
 49
0.0
140
0.0
141
0.0
142
1.0
143
1.0
 70
0
 72
1
 73
0
 74
0
  7

 75
0
147
1.0
148
0.0
149
0.0
100
AcDbLayout
  1
Layout1
 70
0
 71
1
 10
0.0
 20
0.0
 11
210.0
 21
297.0
 12
0.0
 22
0.0
 32
0.0
 14
0.0
 24
0.0
 34
0.0
 15
0.0
 25
0.0
 35
0.0
146
0.0
 13
0.0
 23
0.0
 33
0.0
 16
1.0
 26
0.0
 36
0.0
 17
0.0
 27
1.0
 37
0.0
 76
0
330
212
345
0
346
0
  0
ENDSEC
  0
EOF
