999
DXF file: C:\Users\sesa63760\Dev\_Creo\CAD\MCADID0005635_3D-CAD\mcadid0005635_3d-simplified_2.dxf
999
Pro/ENGINEER 2019471 by Parametric Technology Corporation
  0
SECTION
  2
HEADER
  9
$ACADVER
  1
AC1024
  9
$DWGCODEPAGE
  3
ANSI_1252
  9
$EXTMAX
 10
72.8030052009
 20
102.9642502128
 30
0.0
  9
$EXTMIN
 10
0.0
 20
0.0
 30
0.0
  9
$LIMMIN
 10
0.0
 20
0.0
  9
$LIMMAX
 10
72.8030052009
 20
102.9642502128
  9
$VIEWCTR
 10
36.4015026005
 20
51.4821251064
  9
$VIEWSIZE
 40
102.9642502128
  9
$CLAYER
  8
0
  9
$LTSCALE
 40
6.7117437176
  9
$CELTYPE
  6
BYLAYER
  9
$DIMSCALE
 40
1.0
  9
$DIMASZ
 40
0.8667024429
  9
$DIMEXO
 40
1.0
  9
$DIMDLI
 40
4.6372047503
  9
$DIMEXE
 40
1.0
  9
$DIMCEN
 40
1.0982853356
  9
$DIMLFAC
 40
1.0
  9
$DIMBLK
  1
_FILLED
  9
$DIMALT
 70
0
  9
$DIMALTF
 40
0.0393700787
  9
$DIMTXT
 40
1.21338342
  9
$DIMTOL
 70
1
  9
$DIMLIM
 70
0
  9
$DIMTFAC
 40
1.0
  9
$DIMTP
 40
0.01
  9
$DIMTM
 40
0.01
  9
$DIMGAP
 40
0.625
  9
$DIMDSEP
 70
46
  9
$AUNITS
 70
0
  9
$PDMODE
 70
3
  9
$PDSIZE
 40
0.3125
  9
$HANDSEED
  5
4BB
  9
$TILEMODE
 70
1
  9
$MEASUREMENT
 70
1
  9
$INSUNITS
 70
4
  0
ENDSEC
  0
SECTION
  2
CLASSES
  0
CLASS
  1
ACDBDICTIONARYWDFLT
  2
AcDbDictionaryWithDefault
  3
AutoCAD 2000
 90
0
 91
1
280
0
281
0
  0
CLASS
  1
ACDBPLACEHOLDER
  2
AcDbPlaceHolder
  3
AutoCAD 2000
 90
0
 91
1
280
0
281
0
  0
CLASS
  1
LAYOUT
  2
AcDbLayout
  3
AutoCAD 2000
 90
0
 91
0
280
0
281
0
  0
ENDSEC
  0
SECTION
  2
TABLES
  0
TABLE
  2
VPORT
  5
8
100
AcDbSymbolTable
 70
2
  0
VPORT
  5
1F4
100
AcDbSymbolTableRecord
100
AcDbViewportTableRecord
  2
*ACTIVE
 70
0
 10
0.0
 20
0.0
 11
1.0
 21
1.0
 12
36.4015026005
 22
51.4821251064
 13
0.0
 23
0.0
 14
1.0
 24
1.0
 15
0.0
 25
0.0
 16
0.0
 26
0.0
 36
1.0
 17
0.0
 27
0.0
 37
0.0
 40
102.9642502128
 41
0.7070707071
 42
50.0
 43
0.0
 44
0.0
 50
0.0
 51
0.0
 71
0
 72
100
 73
1
 74
1
 75
0
 76
0
 77
0
 78
0
  0
ENDTAB
  0
TABLE
  2
LTYPE
  5
5
100
AcDbSymbolTable
 70
6
  0
LTYPE
  5
14
100
AcDbSymbolTableRecord
100
AcDbLinetypeTableRecord
  2
BYBLOCK
 70
0
  3

 72
65
 73
0
 40
0.0
  0
LTYPE
  5
15
100
AcDbSymbolTableRecord
100
AcDbLinetypeTableRecord
  2
BYLAYER
 70
0
  3

 72
65
 73
0
 40
0.0
  0
LTYPE
  5
16
100
AcDbSymbolTableRecord
100
AcDbLinetypeTableRecord
  2
CONTINUOUS
 70
64
  3
Solid line
 72
65
 73
0
 40
0.0
  0
LTYPE
  5
1F5
100
AcDbSymbolTableRecord
100
AcDbLinetypeTableRecord
  2
CENTER
 70
64
  3
____ _ ____ _ ____ _ ____ _ ____ _ ____ _ ____
 72
65
 73
4
 40
0.6
 49
0.375
 74
0
 49
-0.075
 74
0
 49
0.075
 74
0
 49
-0.075
 74
0
  0
LTYPE
  5
1F6
100
AcDbSymbolTableRecord
100
AcDbLinetypeTableRecord
  2
HIDDEN
 70
64
  3
- - - - - - - - - - - - - - - - - - - -
 72
65
 73
2
 40
0.2
 49
0.1
 74
0
 49
-0.1
 74
0
  0
LTYPE
  5
1F7
100
AcDbSymbolTableRecord
100
AcDbLinetypeTableRecord
  2
PHANTOM
 70
64
  3
_____ _ _ _____ _ _ _____ _ _ _____
 72
65
 73
6
 40
0.8
 49
0.45
 74
0
 49
-0.05
 74
0
 49
0.1
 74
0
 49
-0.05
 74
0
 49
0.1
 74
0
 49
-0.05
 74
0
  0
LTYPE
  5
1F8
100
AcDbSymbolTableRecord
100
AcDbLinetypeTableRecord
  2
DOT
 70
64
  3
. . . . . . . . . . . . . . . . . . . .
 72
65
 73
2
 40
0.2
 49
0.1
 74
0
 49
-0.1
 74
0
  0
LTYPE
  5
1F9
100
AcDbSymbolTableRecord
100
AcDbLinetypeTableRecord
  2
DASHED
 70
64
  3
- - - - - - - - - - - - - - - - - - - -
 72
65
 73
2
 40
0.2
 49
0.1
 74
0
 49
-0.1
 74
0
  0
ENDTAB
  0
TABLE
  2
LAYER
  5
2
100
AcDbSymbolTable
 70
36
  0
LAYER
  5
10
100
AcDbSymbolTableRecord
100
AcDbLayerTableRecord
  2
0
 70
0
 62
7
  6
CONTINUOUS
370
-3
390
F
  0
LAYER
  5
1FA
100
AcDbSymbolTableRecord
100
AcDbLayerTableRecord
  2
DEFAULT_1
 70
0
 62
7
  6
CENTER
370
-3
390
F
  0
LAYER
  5
1FB
100
AcDbSymbolTableRecord
100
AcDbLayerTableRecord
  2
DEFAULT_2
 70
0
 62
7
  6
HIDDEN
370
-3
390
F
  0
LAYER
  5
1FC
100
AcDbSymbolTableRecord
100
AcDbLayerTableRecord
  2
DEFAULT_3
 70
0
 62
7
  6
PHANTOM
370
-3
390
F
  0
LAYER
  5
1FD
100
AcDbSymbolTableRecord
100
AcDbLayerTableRecord
  2
00_COMPONENTS
 70
0
 62
7
  6
CONTINUOUS
370
-3
390
F
  0
LAYER
  5
1FE
100
AcDbSymbolTableRecord
100
AcDbLayerTableRecord
  2
00_COMPONENTS_1
 70
0
 62
7
  6
CONTINUOUS
370
-3
390
F
  0
LAYER
  5
1FF
100
AcDbSymbolTableRecord
100
AcDbLayerTableRecord
  2
00_COMPONENTS_2
 70
0
 62
7
  6
CONTINUOUS
370
-3
390
F
  0
LAYER
  5
200
100
AcDbSymbolTableRecord
100
AcDbLayerTableRecord
  2
00_COMPONENTS_3
 70
0
 62
7
  6
CONTINUOUS
370
-3
390
F
  0
LAYER
  5
201
100
AcDbSymbolTableRecord
100
AcDbLayerTableRecord
  2
00_COMPONENTS_4
 70
0
 62
7
  6
CONTINUOUS
370
-3
390
F
  0
LAYER
  5
202
100
AcDbSymbolTableRecord
100
AcDbLayerTableRecord
  2
00_COMPONENTS_5
 70
0
 62
7
  6
CONTINUOUS
370
-3
390
F
  0
LAYER
  5
203
100
AcDbSymbolTableRecord
100
AcDbLayerTableRecord
  2
00_COMPONENTS_6
 70
0
 62
7
  6
CONTINUOUS
370
-3
390
F
  0
LAYER
  5
204
100
AcDbSymbolTableRecord
100
AcDbLayerTableRecord
  2
01_1_DEFAULT_DATUMS
 70
0
 62
7
  6
CONTINUOUS
370
-3
390
F
  0
LAYER
  5
205
100
AcDbSymbolTableRecord
100
AcDbLayerTableRecord
  2
01_PLANES
 70
0
 62
7
  6
CONTINUOUS
370
-3
390
F
  0
LAYER
  5
206
100
AcDbSymbolTableRecord
100
AcDbLayerTableRecord
  2
02_COORD_SYS
 70
0
 62
7
  6
CONTINUOUS
370
-3
390
F
  0
LAYER
  5
207
100
AcDbSymbolTableRecord
100
AcDbLayerTableRecord
  2
03_AXES
 70
0
 62
7
  6
CONTINUOUS
370
-3
390
F
  0
LAYER
  5
208
100
AcDbSymbolTableRecord
100
AcDbLayerTableRecord
  2
03_AXES_2
 70
0
 62
7
  6
CONTINUOUS
370
-3
390
F
  0
LAYER
  5
209
100
AcDbSymbolTableRecord
100
AcDbLayerTableRecord
  2
03_AXES_4
 70
0
 62
7
  6
CONTINUOUS
370
-3
390
F
  0
LAYER
  5
20A
100
AcDbSymbolTableRecord
100
AcDbLayerTableRecord
  2
03_AXES_6
 70
0
 62
7
  6
CONTINUOUS
370
-3
390
F
  0
LAYER
  5
20B
100
AcDbSymbolTableRecord
100
AcDbLayerTableRecord
  2
04_POINTS
 70
0
 62
7
  6
CONTINUOUS
370
-3
390
F
  0
LAYER
  5
20C
100
AcDbSymbolTableRecord
100
AcDbLayerTableRecord
  2
05_CURVES
 70
0
 62
7
  6
CONTINUOUS
370
-3
390
F
  0
LAYER
  5
20D
100
AcDbSymbolTableRecord
100
AcDbLayerTableRecord
  2
06_SURFS
 70
0
 62
7
  6
CONTINUOUS
370
-3
390
F
  0
LAYER
  5
20E
100
AcDbSymbolTableRecord
100
AcDbLayerTableRecord
  2
07_COSMETICS
 70
0
 62
7
  6
CONTINUOUS
370
-3
390
F
  0
LAYER
  5
20F
100
AcDbSymbolTableRecord
100
AcDbLayerTableRecord
  2
10_NOTES
 70
0
 62
7
  6
CONTINUOUS
370
-3
390
F
  0
LAYER
  5
210
100
AcDbSymbolTableRecord
100
AcDbLayerTableRecord
  2
11_NOTES_PUB
 70
0
 62
7
  6
CONTINUOUS
370
-3
390
F
  0
LAYER
  5
211
100
AcDbSymbolTableRecord
100
AcDbLayerTableRecord
  2
13_REF_GTOL
 70
0
 62
7
  6
CONTINUOUS
370
-3
390
F
  0
LAYER
  5
212
100
AcDbSymbolTableRecord
100
AcDbLayerTableRecord
  2
16_MISC
 70
0
 62
7
  6
CONTINUOUS
370
-3
390
F
  0
LAYER
  5
213
100
AcDbSymbolTableRecord
100
AcDbLayerTableRecord
  2
17_NO_PRINT
 70
0
 62
7
  6
CONTINUOUS
370
-3
390
F
  0
LAYER
  5
214
100
AcDbSymbolTableRecord
100
AcDbLayerTableRecord
  2
18_DATUM_CAMS_JOINTS
 70
0
 62
7
  6
CONTINUOUS
370
-3
390
F
  0
LAYER
  5
215
100
AcDbSymbolTableRecord
100
AcDbLayerTableRecord
  2
19_DATUM_FUNCTIONAL
 70
0
 62
7
  6
CONTINUOUS
370
-3
390
F
  0
LAYER
  5
216
100
AcDbSymbolTableRecord
100
AcDbLayerTableRecord
  2
20_DATUM_KINEMATIC_SCHEME
 70
0
 62
7
  6
CONTINUOUS
370
-3
390
F
  0
LAYER
  5
217
100
AcDbSymbolTableRecord
100
AcDbLayerTableRecord
  2
INTFCLR_28637
 70
0
 62
7
  6
CONTINUOUS
370
-3
390
F
  0
LAYER
  5
218
100
AcDbSymbolTableRecord
100
AcDbLayerTableRecord
  2
INTF_BLANK
 70
0
 62
7
  6
CONTINUOUS
370
-3
390
F
  0
LAYER
  5
219
100
AcDbSymbolTableRecord
100
AcDbLayerTableRecord
  2
SHELL1
 70
0
 62
7
  6
CONTINUOUS
370
-3
390
F
  0
LAYER
  5
21A
100
AcDbSymbolTableRecord
100
AcDbLayerTableRecord
  2
SHELL2
 70
0
 62
7
  6
CONTINUOUS
370
-3
390
F
  0
LAYER
  5
21B
100
AcDbSymbolTableRecord
100
AcDbLayerTableRecord
  2
SHELL980
 70
0
 62
7
  6
CONTINUOUS
370
-3
390
F
  0
LAYER
  5
21C
100
AcDbSymbolTableRecord
100
AcDbLayerTableRecord
  2
_BLACK_HOLE
 70
0
 62
7
  6
CONTINUOUS
370
-3
390
F
  0
LAYER
  5
21D
100
AcDbSymbolTableRecord
100
AcDbLayerTableRecord
  2
black
 70
0
 62
7
  6
CONTINUOUS
370
-3
390
F
  0
ENDTAB
  0
TABLE
  2
STYLE
  5
3
100
AcDbSymbolTable
 70
1
  0
STYLE
  5
11
100
AcDbSymbolTableRecord
100
AcDbTextStyleTableRecord
  2
STANDARD
 70
0
 40
0.0
 41
1.0
 50
0.0
 71
0
 42
0.2
  3
ARIAL.TTF
  4

  0
STYLE
  5
21E
100
AcDbSymbolTableRecord
100
AcDbTextStyleTableRecord
  2
TEXTSTYLE_1
 70
0
 40
0.0
 41
0.8
 50
0.0
 71
0
 42
0.2
  3
gdt
  4

  0
ENDTAB
  0
TABLE
  2
VIEW
  5
6
100
AcDbSymbolTable
 70
0
  0
ENDTAB
  0
TABLE
  2
UCS
  5
7
100
AcDbSymbolTable
 70
0
  0
ENDTAB
  0
TABLE
  2
APPID
  5
9
100
AcDbSymbolTable
 70
1
  0
APPID
  5
21F
100
AcDbSymbolTableRecord
100
AcDbRegAppTableRecord
  2
ACAD
 70
0
  0
ENDTAB
  0
TABLE
  2
BLOCK_RECORD
  5
1
100
AcDbSymbolTable
 70
0
  0
BLOCK_RECORD
  5
220
100
AcDbSymbolTableRecord
100
AcDbBlockTableRecord
  2
*Model_Space
  0
BLOCK_RECORD
  5
221
100
AcDbSymbolTableRecord
100
AcDbBlockTableRecord
  2
*Paper_Space
  0
BLOCK_RECORD
  5
222
100
AcDbSymbolTableRecord
100
AcDbBlockTableRecord
  2
_FILLED
  0
ENDTAB
  0
TABLE
  2
DIMSTYLE
  5
A
100
AcDbSymbolTable
 70
1
100
AcDbDimStyleTable
 71
0
  0
DIMSTYLE
105
223
100
AcDbSymbolTableRecord
100
AcDbDimStyleTableRecord
  2
STANDARD
 70
0
  3

  4

 40
1.0
 41
0.8667024429
 42
1.0
 43
0.38
 44
1.0
 45
0.0
 46
0.0
 47
0.01
 48
0.01
140
1.21338342
141
0.09
142
0.0
143
25.4
144
1.0
145
0.0
146
1.0
147
0.625
 71
1
 72
0
 73
0
 74
0
 75
0
 76
0
 77
1
 78
8
 79
2
170
0
171
1
172
0
173
0
174
0
175
0
176
0
177
0
178
0
270
2
179
2
271
2
272
2
273
2
274
2
275
0
280
0
281
0
282
0
283
1
284
8
285
0
286
0
287
3
288
0
340
11
278
46
341
222
342
222
343
222
344
222
  0
ENDTAB
  0
ENDSEC
  0
SECTION
  2
BLOCKS
  0
BLOCK
  5
20
100
AcDbEntity
  8
0
100
AcDbBlockBegin
  2
*Model_Space
 70
0
 10
0.0
 20
0.0
 30
0.0
  3
*Model_Space
  1

  0
ENDBLK
  5
21
100
AcDbEntity
  8
0
100
AcDbBlockEnd
  0
BLOCK
  5
1C
100
AcDbEntity
  8
0
100
AcDbBlockBegin
  2
*Paper_Space
 70
0
 10
0.0
 20
0.0
 30
0.0
  3
*Paper_Space
  1

  0
ENDBLK
  5
1D
100
AcDbEntity
  8
0
100
AcDbBlockEnd
  0
BLOCK
  5
224
100
AcDbEntity
  8
0
100
AcDbBlockBegin
  2
_FILLED
 70
64
 10
0.0
 20
0.0
  3
_FILLED
  1

  0
SOLID
  5
225
100
AcDbEntity
  8
0
  6
BYBLOCK
 62
0
100
AcDbTrace
 10
0.0
 20
0.0
 11
-1.0
 21
0.25
 12
-1.0
 22
-0.25
 13
-1.0
 23
-0.25
  0
ENDBLK
  5
226
100
AcDbEntity
  8
0
  6
BYBLOCK
 62
0
100
AcDbBlockEnd
  0
ENDSEC
  0
SECTION
  2
ENTITIES
  0
LINE
  5
227
100
AcDbEntity
  8
00_COMPONENTS_2
100
AcDbLine
 62
7
  6
BYLAYER
 10
38.7694946959
 20
6.8684842553
 11
31.2917283774
 21
6.8684842553
  0
LINE
  5
228
100
AcDbEntity
  8
00_COMPONENTS_2
100
AcDbLine
 62
7
  6
BYLAYER
 10
31.0364615366
 20
7.1224842553
 11
39.0247615366
 21
7.1224842553
  0
LINE
  5
229
100
AcDbEntity
  8
00_COMPONENTS_2
100
AcDbLine
 62
7
  6
BYLAYER
 10
32.4741673604
 20
8.6464842553
 11
37.5326455304
 21
8.6464842553
  0
LINE
  5
22A
100
AcDbEntity
  8
00_COMPONENTS_2
100
AcDbLine
 62
7
  6
BYLAYER
 10
29.8374789653
 20
19.1123099688
 11
30.0904375961
 21
19.1353920689
  0
LINE
  5
22B
100
AcDbEntity
  8
00_COMPONENTS_2
100
AcDbLine
 62
7
  6
BYLAYER
 10
29.8014131839
 20
19.4729677823
 11
30.0543718147
 21
19.4960498824
  0
LINE
  5
22C
100
AcDbEntity
  8
00_COMPONENTS_2
100
AcDbLine
 62
7
  6
BYLAYER
 10
29.7653474026
 20
19.8336255959
 11
30.0183060334
 21
19.8567076959
  0
LINE
  5
22D
100
AcDbEntity
  8
00_COMPONENTS_2
100
AcDbLine
 62
7
  6
BYLAYER
 10
29.7292816212
 20
20.1942834094
 11
29.982240252
 21
20.2173655095
  0
LINE
  5
22E
100
AcDbEntity
  8
00_COMPONENTS_2
100
AcDbLine
 62
7
  6
BYLAYER
 10
40.228360528
 20
19.1584741689
 11
39.9707854772
 21
19.1353920689
  0
LINE
  5
22F
100
AcDbEntity
  8
00_COMPONENTS_2
100
AcDbLine
 62
7
  6
BYLAYER
 10
40.2644263094
 20
19.5191319825
 11
40.0068512586
 21
19.4960498824
  0
LINE
  5
230
100
AcDbEntity
  8
00_COMPONENTS_2
100
AcDbLine
 62
7
  6
BYLAYER
 10
40.3004920907
 20
19.879789796
 11
40.0429170399
 21
19.8567076959
  0
LINE
  5
231
100
AcDbEntity
  8
00_COMPONENTS_2
100
AcDbLine
 62
7
  6
BYLAYER
 10
40.3365578721
 20
20.2404476095
 11
40.0789828213
 21
20.2173655095
  0
LINE
  5
232
100
AcDbEntity
  8
00_COMPONENTS_2
100
AcDbLine
 62
7
  6
BYLAYER
 10
29.8712365366
 20
18.7747342553
 11
31.4434853233
 21
18.7747342553
  0
LINE
  5
233
100
AcDbEntity
  8
00_COMPONENTS_2
100
AcDbLine
 62
7
  6
BYLAYER
 10
38.5276197256
 20
18.7747342553
 11
40.1899865366
 21
18.7747342553
  0
LINE
  5
234
100
AcDbEntity
  8
00_COMPONENTS_2
100
AcDbLine
 62
7
  6
BYLAYER
 10
30.0904375961
 20
19.1353920689
 11
29.8328625453
 21
19.1584741689
  0
LINE
  5
235
100
AcDbEntity
  8
00_COMPONENTS_2
100
AcDbLine
 62
7
  6
BYLAYER
 10
30.0543718147
 20
19.4960498824
 11
29.7967967639
 21
19.5191319825
  0
LINE
  5
236
100
AcDbEntity
  8
00_COMPONENTS_2
100
AcDbLine
 62
7
  6
BYLAYER
 10
30.0183060334
 20
19.8567076959
 11
29.7607309826
 21
19.879789796
  0
LINE
  5
237
100
AcDbEntity
  8
00_COMPONENTS_2
100
AcDbLine
 62
7
  6
BYLAYER
 10
29.982240252
 20
20.2173655095
 11
29.7246652012
 21
20.2404476095
  0
LINE
  5
238
100
AcDbEntity
  8
00_COMPONENTS_2
100
AcDbLine
 62
7
  6
BYLAYER
 10
39.9707854772
 20
19.1353920689
 11
40.223744108
 21
19.1123099688
  0
LINE
  5
239
100
AcDbEntity
  8
00_COMPONENTS_2
100
AcDbLine
 62
7
  6
BYLAYER
 10
40.0068512586
 20
19.4960498824
 11
40.2598098893
 21
19.4729677823
  0
LINE
  5
23A
100
AcDbEntity
  8
00_COMPONENTS_2
100
AcDbLine
 62
7
  6
BYLAYER
 10
40.0429170399
 20
19.8567076959
 11
40.2958756707
 21
19.8336255959
  0
LINE
  5
23B
100
AcDbEntity
  8
00_COMPONENTS_2
100
AcDbLine
 62
7
  6
BYLAYER
 10
40.0789828213
 20
20.2173655095
 11
40.3319414521
 21
20.1942834094
  0
LINE
  5
23C
100
AcDbEntity
  8
00_COMPONENTS
100
AcDbLine
 62
7
  6
BYLAYER
 10
21.3153487964
 20
23.3850605352
 11
21.2414836258
 21
23.4503093764
  0
LINE
  5
23D
100
AcDbEntity
  8
00_COMPONENTS
100
AcDbLine
 62
7
  6
BYLAYER
 10
21.1504361569
 20
23.4173616483
 11
21.1155557288
 21
23.4503093764
  0
LINE
  5
23E
100
AcDbEntity
  8
00_COMPONENTS
100
AcDbLine
 62
7
  6
BYLAYER
 10
21.7972115366
 20
22.7434842553
 11
21.4041309122
 21
23.1367447068
  0
LINE
  5
23F
100
AcDbEntity
  8
00_COMPONENTS
100
AcDbLine
 62
7
  6
BYLAYER
 10
21.4262051896
 20
23.1145393639
 11
21.4331449549
 21
23.107550837
  0
LINE
  5
240
100
AcDbEntity
  8
00_COMPONENTS
100
AcDbLine
 62
7
  6
BYLAYER
 10
21.0955298085
 20
23.4503093764
 11
21.137552517
 21
23.4073065728
  0
LINE
  5
241
100
AcDbEntity
  8
00_COMPONENTS
100
AcDbLine
 62
7
  6
BYLAYER
 10
21.797270056
 20
22.7434842553
 11
48.2638975666
 21
22.7434842553
  0
LINE
  5
242
100
AcDbEntity
  8
00_COMPONENTS
100
AcDbLine
 62
7
  6
BYLAYER
 10
21.0213438497
 20
23.5308842553
 11
21.0251007603
 21
23.5308842553
  0
LINE
  5
243
100
AcDbEntity
  8
00_COMPONENTS
100
AcDbLine
 62
7
  6
BYLAYER
 10
21.1242059252
 20
23.5308842553
 11
21.1354480647
 21
23.5308842553
  0
LINE
  5
244
100
AcDbEntity
  8
00_COMPONENTS
100
AcDbLine
 62
7
  6
BYLAYER
 10
21.3329041443
 20
23.5308842553
 11
21.3515459533
 21
23.5308842553
  0
LINE
  5
245
100
AcDbEntity
  8
00_COMPONENTS
100
AcDbLine
 62
7
  6
BYLAYER
 10
21.6458501875
 20
23.5308842553
 11
21.6717497906
 21
23.5308842553
  0
LINE
  5
246
100
AcDbEntity
  8
00_COMPONENTS
100
AcDbLine
 62
7
  6
BYLAYER
 10
22.0606623466
 20
23.5308842553
 11
22.093622632
 21
23.5308842553
  0
LINE
  5
247
100
AcDbEntity
  8
00_COMPONENTS
100
AcDbLine
 62
7
  6
BYLAYER
 10
22.5741836505
 20
23.5308842553
 11
22.6139537707
 21
23.5308842553
  0
LINE
  5
248
100
AcDbEntity
  8
00_COMPONENTS
100
AcDbLine
 62
7
  6
BYLAYER
 10
23.182505892
 20
23.5308842553
 11
23.2287831723
 21
23.5308842553
  0
LINE
  5
249
100
AcDbEntity
  8
00_COMPONENTS
100
AcDbLine
 62
7
  6
BYLAYER
 10
23.8809993715
 20
23.5308842553
 11
23.9334316138
 21
23.5308842553
  0
LINE
  5
24A
100
AcDbEntity
  8
00_COMPONENTS
100
AcDbLine
 62
7
  6
BYLAYER
 10
24.6643481319
 20
23.5308842553
 11
24.7225362953
 21
23.5308842553
  0
LINE
  5
24B
100
AcDbEntity
  8
00_COMPONENTS
100
AcDbLine
 62
7
  6
BYLAYER
 10
25.5265904161
 20
23.5308842553
 11
25.5900916535
 21
23.5308842553
  0
LINE
  5
24C
100
AcDbEntity
  8
00_COMPONENTS
100
AcDbLine
 62
7
  6
BYLAYER
 10
26.4611640398
 20
23.5308842553
 11
26.5294950684
 21
23.5308842553
  0
LINE
  5
24D
100
AcDbEntity
  8
00_COMPONENTS
100
AcDbLine
 62
7
  6
BYLAYER
 10
27.4609563333
 20
23.5308842553
 11
27.5335971127
 21
23.5308842553
  0
LINE
  5
24E
100
AcDbEntity
  8
00_COMPONENTS
100
AcDbLine
 62
7
  6
BYLAYER
 10
28.5183582736
 20
23.5308842553
 11
28.5947559636
 21
23.5308842553
  0
LINE
  5
24F
100
AcDbEntity
  8
00_COMPONENTS
100
AcDbLine
 62
7
  6
BYLAYER
 10
29.6253223934
 20
23.5308842553
 11
29.7048955615
 21
23.5308842553
  0
LINE
  5
250
100
AcDbEntity
  8
00_COMPONENTS
100
AcDbLine
 62
7
  6
BYLAYER
 10
30.7734240274
 20
23.5308842553
 11
30.8555670738
 21
23.5308842553
  0
LINE
  5
251
100
AcDbEntity
  8
00_COMPONENTS
100
AcDbLine
 62
7
  6
BYLAYER
 10
31.9539254289
 20
23.5308842553
 11
32.0380131953
 21
23.5308842553
  0
LINE
  5
252
100
AcDbEntity
  8
00_COMPONENTS
100
AcDbLine
 62
7
  6
BYLAYER
 10
33.1578422694
 20
23.5308842553
 11
33.2432347972
 21
23.5308842553
  0
LINE
  5
253
100
AcDbEntity
  8
00_COMPONENTS
100
AcDbLine
 62
7
  6
BYLAYER
 10
34.3760120149
 20
23.5308842553
 11
34.4620594154
 21
23.5308842553
  0
LINE
  5
254
100
AcDbEntity
  8
00_COMPONENTS
100
AcDbLine
 62
7
  6
BYLAYER
 10
35.5991636579
 20
23.5308842553
 11
35.6852110584
 21
23.5308842553
  0
LINE
  5
255
100
AcDbEntity
  8
00_COMPONENTS
100
AcDbLine
 62
7
  6
BYLAYER
 10
36.8179882761
 20
23.5308842553
 11
36.9033808039
 21
23.5308842553
  0
LINE
  5
256
100
AcDbEntity
  8
00_COMPONENTS
100
AcDbLine
 62
7
  6
BYLAYER
 10
38.023209878
 20
23.5308842553
 11
38.1072976444
 21
23.5308842553
  0
LINE
  5
257
100
AcDbEntity
  8
00_COMPONENTS
100
AcDbLine
 62
7
  6
BYLAYER
 10
39.2056559995
 20
23.5308842553
 11
39.2877990459
 21
23.5308842553
  0
LINE
  5
258
100
AcDbEntity
  8
00_COMPONENTS
100
AcDbLine
 62
7
  6
BYLAYER
 10
40.3563275117
 20
23.5308842553
 11
40.4359006799
 21
23.5308842553
  0
LINE
  5
259
100
AcDbEntity
  8
00_COMPONENTS
100
AcDbLine
 62
7
  6
BYLAYER
 10
41.4664671096
 20
23.5308842553
 11
41.5428647997
 21
23.5308842553
  0
LINE
  5
25A
100
AcDbEntity
  8
00_COMPONENTS
100
AcDbLine
 62
7
  6
BYLAYER
 10
42.5276259605
 20
23.5308842553
 11
42.60026674
 21
23.5308842553
  0
LINE
  5
25B
100
AcDbEntity
  8
00_COMPONENTS
100
AcDbLine
 62
7
  6
BYLAYER
 10
43.5317280049
 20
23.5308842553
 11
43.6000590335
 21
23.5308842553
  0
LINE
  5
25C
100
AcDbEntity
  8
00_COMPONENTS
100
AcDbLine
 62
7
  6
BYLAYER
 10
44.4711314198
 20
23.5308842553
 11
44.5346326571
 21
23.5308842553
  0
LINE
  5
25D
100
AcDbEntity
  8
00_COMPONENTS
100
AcDbLine
 62
7
  6
BYLAYER
 10
45.338686778
 20
23.5308842553
 11
45.3968749414
 21
23.5308842553
  0
LINE
  5
25E
100
AcDbEntity
  8
00_COMPONENTS
100
AcDbLine
 62
7
  6
BYLAYER
 10
46.1277914594
 20
23.5308842553
 11
46.1802237018
 21
23.5308842553
  0
LINE
  5
25F
100
AcDbEntity
  8
00_COMPONENTS
100
AcDbLine
 62
7
  6
BYLAYER
 10
46.832439901
 20
23.5308842553
 11
46.8787171813
 21
23.5308842553
  0
LINE
  5
260
100
AcDbEntity
  8
00_COMPONENTS
100
AcDbLine
 62
7
  6
BYLAYER
 10
47.4472693026
 20
23.5308842553
 11
47.4870394228
 21
23.5308842553
  0
LINE
  5
261
100
AcDbEntity
  8
00_COMPONENTS
100
AcDbLine
 62
7
  6
BYLAYER
 10
47.9676004412
 20
23.5308842553
 11
48.0005607267
 21
23.5308842553
  0
LINE
  5
262
100
AcDbEntity
  8
00_COMPONENTS
100
AcDbLine
 62
7
  6
BYLAYER
 10
48.3894732827
 20
23.5308842553
 11
48.4153728858
 21
23.5308842553
  0
LINE
  5
263
100
AcDbEntity
  8
00_COMPONENTS
100
AcDbLine
 62
7
  6
BYLAYER
 10
48.70967712
 20
23.5308842553
 11
48.728318929
 21
23.5308842553
  0
LINE
  5
264
100
AcDbEntity
  8
00_COMPONENTS
100
AcDbLine
 62
7
  6
BYLAYER
 10
48.9257750086
 20
23.5308842553
 11
48.9370171481
 21
23.5308842553
  0
LINE
  5
265
100
AcDbEntity
  8
00_COMPONENTS
100
AcDbLine
 62
7
  6
BYLAYER
 10
49.036122313
 20
23.5308842553
 11
49.0398792236
 21
23.5308842553
  0
LINE
  5
266
100
AcDbEntity
  8
00_COMPONENTS_1
100
AcDbLine
 62
7
  6
BYLAYER
 10
19.2846115326
 20
27.5186842553
 11
19.0306115326
 21
27.7726842553
  0
LINE
  5
267
100
AcDbEntity
  8
00_COMPONENTS_2
100
AcDbLine
 62
7
  6
BYLAYER
 10
36.9752757819
 20
9.2612916491
 11
37.5326455304
 21
8.6464842553
  0
LINE
  5
268
100
AcDbEntity
  8
0
100
AcDbLine
 62
7
  6
BYLAYER
 10
13.5930115366
 20
61.8340842553
 11
13.5930115366
 21
69.2762842553
  0
LINE
  5
269
100
AcDbEntity
  8
00_COMPONENTS
100
AcDbLine
 62
7
  6
BYLAYER
 10
21.0098115366
 20
26.8074842553
 11
21.021134931
 21
26.8074842553
  0
LINE
  5
26A
100
AcDbEntity
  8
00_COMPONENTS
100
AcDbLine
 62
7
  6
BYLAYER
 10
21.0251007603
 20
26.8074842553
 11
21.1242059252
 21
26.8074842553
  0
LINE
  5
26B
100
AcDbEntity
  8
00_COMPONENTS
100
AcDbLine
 62
7
  6
BYLAYER
 10
21.1354480647
 20
26.8074842553
 11
21.3329041443
 21
26.8074842553
  0
LINE
  5
26C
100
AcDbEntity
  8
00_COMPONENTS
100
AcDbLine
 62
7
  6
BYLAYER
 10
21.3515459533
 20
26.8074842553
 11
21.6458501875
 21
26.8074842553
  0
LINE
  5
26D
100
AcDbEntity
  8
00_COMPONENTS
100
AcDbLine
 62
7
  6
BYLAYER
 10
21.6717497906
 20
26.8074842553
 11
22.0606623466
 21
26.8074842553
  0
LINE
  5
26E
100
AcDbEntity
  8
00_COMPONENTS
100
AcDbLine
 62
7
  6
BYLAYER
 10
22.093622632
 20
26.8074842553
 11
22.5741836505
 21
26.8074842553
  0
LINE
  5
26F
100
AcDbEntity
  8
00_COMPONENTS
100
AcDbLine
 62
7
  6
BYLAYER
 10
22.6139537707
 20
26.8074842553
 11
23.182505892
 21
26.8074842553
  0
LINE
  5
270
100
AcDbEntity
  8
00_COMPONENTS
100
AcDbLine
 62
7
  6
BYLAYER
 10
23.2287831722
 20
26.8074842553
 11
23.8809993715
 21
26.8074842553
  0
LINE
  5
271
100
AcDbEntity
  8
00_COMPONENTS
100
AcDbLine
 62
7
  6
BYLAYER
 10
23.9334316138
 20
26.8074842553
 11
24.6643481319
 21
26.8074842553
  0
LINE
  5
272
100
AcDbEntity
  8
00_COMPONENTS
100
AcDbLine
 62
7
  6
BYLAYER
 10
24.7225362953
 20
26.8074842553
 11
25.5265904161
 21
26.8074842553
  0
LINE
  5
273
100
AcDbEntity
  8
00_COMPONENTS
100
AcDbLine
 62
7
  6
BYLAYER
 10
25.5900916535
 20
26.8074842553
 11
26.4611640398
 21
26.8074842553
  0
LINE
  5
274
100
AcDbEntity
  8
00_COMPONENTS
100
AcDbLine
 62
7
  6
BYLAYER
 10
26.5294950684
 20
26.8074842553
 11
27.4609563333
 21
26.8074842553
  0
LINE
  5
275
100
AcDbEntity
  8
00_COMPONENTS
100
AcDbLine
 62
7
  6
BYLAYER
 10
27.5335971127
 20
26.8074842553
 11
28.5183582736
 21
26.8074842553
  0
LINE
  5
276
100
AcDbEntity
  8
00_COMPONENTS
100
AcDbLine
 62
7
  6
BYLAYER
 10
28.5947559636
 20
26.8074842553
 11
29.6253223934
 21
26.8074842553
  0
LINE
  5
277
100
AcDbEntity
  8
00_COMPONENTS
100
AcDbLine
 62
7
  6
BYLAYER
 10
29.7048955615
 20
26.8074842553
 11
30.7734240274
 21
26.8074842553
  0
LINE
  5
278
100
AcDbEntity
  8
00_COMPONENTS
100
AcDbLine
 62
7
  6
BYLAYER
 10
30.8555670738
 20
26.8074842553
 11
31.9539254289
 21
26.8074842553
  0
LINE
  5
279
100
AcDbEntity
  8
00_COMPONENTS
100
AcDbLine
 62
7
  6
BYLAYER
 10
32.0380131953
 20
26.8074842553
 11
33.1578422694
 21
26.8074842553
  0
LINE
  5
27A
100
AcDbEntity
  8
00_COMPONENTS
100
AcDbLine
 62
7
  6
BYLAYER
 10
33.2432347972
 20
26.8074842553
 11
34.3760120149
 21
26.8074842553
  0
LINE
  5
27B
100
AcDbEntity
  8
00_COMPONENTS
100
AcDbLine
 62
7
  6
BYLAYER
 10
34.4620594154
 20
26.8074842553
 11
35.5991636579
 21
26.8074842553
  0
LINE
  5
27C
100
AcDbEntity
  8
00_COMPONENTS
100
AcDbLine
 62
7
  6
BYLAYER
 10
35.6852110584
 20
26.8074842553
 11
36.8179882761
 21
26.8074842553
  0
LINE
  5
27D
100
AcDbEntity
  8
00_COMPONENTS
100
AcDbLine
 62
7
  6
BYLAYER
 10
36.9033808039
 20
26.8074842553
 11
38.023209878
 21
26.8074842553
  0
LINE
  5
27E
100
AcDbEntity
  8
00_COMPONENTS
100
AcDbLine
 62
7
  6
BYLAYER
 10
38.1072976444
 20
26.8074842553
 11
39.2056559995
 21
26.8074842553
  0
LINE
  5
27F
100
AcDbEntity
  8
00_COMPONENTS
100
AcDbLine
 62
7
  6
BYLAYER
 10
39.2877990459
 20
26.8074842553
 11
40.3563275117
 21
26.8074842553
  0
LINE
  5
280
100
AcDbEntity
  8
00_COMPONENTS
100
AcDbLine
 62
7
  6
BYLAYER
 10
40.4359006799
 20
26.8074842553
 11
41.4664671096
 21
26.8074842553
  0
LINE
  5
281
100
AcDbEntity
  8
00_COMPONENTS
100
AcDbLine
 62
7
  6
BYLAYER
 10
41.5428647997
 20
26.8074842553
 11
42.5276259606
 21
26.8074842553
  0
LINE
  5
282
100
AcDbEntity
  8
00_COMPONENTS
100
AcDbLine
 62
7
  6
BYLAYER
 10
42.60026674
 20
26.8074842553
 11
43.5317280049
 21
26.8074842553
  0
LINE
  5
283
100
AcDbEntity
  8
00_COMPONENTS
100
AcDbLine
 62
7
  6
BYLAYER
 10
43.6000590335
 20
26.8074842553
 11
44.4711314197
 21
26.8074842553
  0
LINE
  5
284
100
AcDbEntity
  8
00_COMPONENTS
100
AcDbLine
 62
7
  6
BYLAYER
 10
44.5346326571
 20
26.8074842553
 11
45.338686778
 21
26.8074842553
  0
LINE
  5
285
100
AcDbEntity
  8
00_COMPONENTS
100
AcDbLine
 62
7
  6
BYLAYER
 10
45.3968749414
 20
26.8074842553
 11
46.1277914594
 21
26.8074842553
  0
LINE
  5
286
100
AcDbEntity
  8
00_COMPONENTS
100
AcDbLine
 62
7
  6
BYLAYER
 10
46.1802237018
 20
26.8074842553
 11
46.832439901
 21
26.8074842553
  0
LINE
  5
287
100
AcDbEntity
  8
00_COMPONENTS
100
AcDbLine
 62
7
  6
BYLAYER
 10
46.8787171813
 20
26.8074842553
 11
47.4472693026
 21
26.8074842553
  0
LINE
  5
288
100
AcDbEntity
  8
00_COMPONENTS
100
AcDbLine
 62
7
  6
BYLAYER
 10
47.4870394228
 20
26.8074842553
 11
47.9676004412
 21
26.8074842553
  0
LINE
  5
289
100
AcDbEntity
  8
00_COMPONENTS
100
AcDbLine
 62
7
  6
BYLAYER
 10
48.0005607267
 20
26.8074842553
 11
48.3894732827
 21
26.8074842553
  0
LINE
  5
28A
100
AcDbEntity
  8
00_COMPONENTS
100
AcDbLine
 62
7
  6
BYLAYER
 10
48.4153728858
 20
26.8074842553
 11
48.70967712
 21
26.8074842553
  0
LINE
  5
28B
100
AcDbEntity
  8
00_COMPONENTS
100
AcDbLine
 62
7
  6
BYLAYER
 10
48.728318929
 20
26.8074842553
 11
48.9257750086
 21
26.8074842553
  0
LINE
  5
28C
100
AcDbEntity
  8
00_COMPONENTS
100
AcDbLine
 62
7
  6
BYLAYER
 10
48.9370171481
 20
26.8074842553
 11
49.036122313
 21
26.8074842553
  0
LINE
  5
28D
100
AcDbEntity
  8
00_COMPONENTS
100
AcDbLine
 62
7
  6
BYLAYER
 10
49.0398792236
 20
26.8074842553
 11
49.0514115366
 21
26.8074842553
  0
LINE
  5
28E
100
AcDbEntity
  8
00_COMPONENTS_1
100
AcDbLine
 62
7
  6
BYLAYER
 10
19.2846115326
 20
27.5186842553
 11
50.7766115406
 21
27.5186842553
  0
LINE
  5
28F
100
AcDbEntity
  8
00_COMPONENTS_1
100
AcDbLine
 62
7
  6
BYLAYER
 10
19.0306115326
 20
27.7726842553
 11
51.0306115406
 21
27.7726842553
  0
LINE
  5
290
100
AcDbEntity
  8
00_COMPONENTS
100
AcDbLine
 62
7
  6
BYLAYER
 10
22.2498654582
 20
23.1367446175
 11
22.2591465771
 21
23.1135653574
  0
LINE
  5
291
100
AcDbEntity
  8
0
100
AcDbLine
 62
7
  6
BYLAYER
 10
14.7360115366
 20
59.4337842553
 11
14.7360115366
 21
61.8340842553
  0
LINE
  5
292
100
AcDbEntity
  8
0
100
AcDbLine
 62
7
  6
BYLAYER
 10
15.1868615366
 20
57.8462842553
 11
15.1868615366
 21
59.4337842553
  0
LINE
  5
293
100
AcDbEntity
  8
00_COMPONENTS_1
100
AcDbLine
 62
7
  6
BYLAYER
 10
15.9806115366
 20
49.9722842553
 11
15.9806115366
 21
51.4962842553
  0
LINE
  5
294
100
AcDbEntity
  8
00_COMPONENTS_1
100
AcDbLine
 62
7
  6
BYLAYER
 10
16.6156115366
 20
48.7022842553
 11
16.6156115366
 21
49.9722842553
  0
LINE
  5
295
100
AcDbEntity
  8
00_COMPONENTS
100
AcDbLine
 62
7
  6
BYLAYER
 10
22.710428817
 20
23.1367445816
 11
22.71640284
 21
23.1168956054
  0
LINE
  5
296
100
AcDbEntity
  8
00_COMPONENTS_1
100
AcDbLine
 62
7
  6
BYLAYER
 10
17.5681115366
 20
42.4092590217
 11
17.5681115366
 21
48.7022842553
  0
LINE
  5
297
100
AcDbEntity
  8
00_COMPONENTS_1
100
AcDbLine
 62
7
  6
BYLAYER
 10
19.0306115326
 20
27.7726842553
 11
19.0306115326
 21
41.1102786534
  0
LINE
  5
298
100
AcDbEntity
  8
0
100
AcDbLine
 62
7
  6
BYLAYER
 10
20.0446115366
 20
51.4962842553
 11
20.0446115366
 21
57.8462842553
  0
LINE
  5
299
100
AcDbEntity
  8
00_COMPONENTS_1
100
AcDbLine
 62
7
  6
BYLAYER
 10
18.6369115326
 20
41.7921870563
 11
17.5681115366
 21
42.4092590217
  0
LINE
  5
29A
100
AcDbEntity
  8
00_COMPONENTS
100
AcDbLine
 62
7
  6
BYLAYER
 10
23.264756205
 20
23.1367445482
 11
23.268131573
 21
23.120909381
  0
LINE
  5
29B
100
AcDbEntity
  8
00_COMPONENTS
100
AcDbLine
 62
7
  6
BYLAYER
 10
23.1518003271
 20
23.4503093764
 11
23.143145487
 21
23.4921802489
  0
LINE
  5
29C
100
AcDbEntity
  8
00_COMPONENTS
100
AcDbLine
 62
7
  6
BYLAYER
 10
23.9086288564
 20
23.1367445173
 11
23.9101337873
 21
23.1255867819
  0
LINE
  5
29D
100
AcDbEntity
  8
00_COMPONENTS
100
AcDbLine
 62
7
  6
BYLAYER
 10
23.8328439298
 20
23.4503093764
 11
23.8289850991
 21
23.4797223361
  0
LINE
  5
29E
100
AcDbEntity
  8
00_COMPONENTS
100
AcDbLine
 62
7
  6
BYLAYER
 10
24.6371465117
 20
23.1367444892
 11
24.6375234584
 21
23.1308795666
  0
LINE
  5
29F
100
AcDbEntity
  8
00_COMPONENTS
100
AcDbLine
 62
7
  6
BYLAYER
 10
24.5991093055
 20
23.4503093764
 11
24.5981427589
 21
23.465715131
  0
LINE
  5
2A0
100
AcDbEntity
  8
00_COMPONENTS
100
AcDbLine
 62
7
  6
BYLAYER
 10
21.0098115366
 20
27.5186842553
 11
21.0098115366
 21
26.8074842553
  0
LINE
  5
2A1
100
AcDbEntity
  8
00_COMPONENTS
100
AcDbLine
 62
7
  6
BYLAYER
 10
21.021134931
 20
26.8074842553
 11
21.021134931
 21
23.5306791199
  0
LINE
  5
2A2
100
AcDbEntity
  8
00_COMPONENTS
100
AcDbLine
 62
7
  6
BYLAYER
 10
21.0251007603
 20
26.8074842553
 11
21.0251007603
 21
23.5308842553
  0
LINE
  5
2A3
100
AcDbEntity
  8
00_COMPONENTS
100
AcDbLine
 62
7
  6
BYLAYER
 10
21.1155557288
 20
26.8074842553
 11
21.1155557288
 21
23.4503093764
  0
LINE
  5
2A4
100
AcDbEntity
  8
00_COMPONENTS
100
AcDbLine
 62
7
  6
BYLAYER
 10
21.122133563
 20
26.8074842553
 11
21.122133563
 21
23.5288492883
  0
LINE
  5
2A5
100
AcDbEntity
  8
00_COMPONENTS
100
AcDbLine
 62
7
  6
BYLAYER
 10
21.1242059252
 20
23.5308842553
 11
21.1242059252
 21
26.8074842553
  0
LINE
  5
2A6
100
AcDbEntity
  8
00_COMPONENTS
100
AcDbLine
 62
7
  6
BYLAYER
 10
21.1354480647
 20
26.8074842553
 11
21.1354480647
 21
23.5308842553
  0
LINE
  5
2A7
100
AcDbEntity
  8
00_COMPONENTS
100
AcDbLine
 62
7
  6
BYLAYER
 10
21.2414836258
 20
26.8074842553
 11
21.2414836258
 21
23.4503093764
  0
LINE
  5
2A8
100
AcDbEntity
  8
00_COMPONENTS
100
AcDbLine
 62
7
  6
BYLAYER
 10
21.3270510173
 20
26.8074842553
 11
21.3270510173
 21
23.5251359849
  0
LINE
  5
2A9
100
AcDbEntity
  8
00_COMPONENTS
100
AcDbLine
 62
7
  6
BYLAYER
 10
21.3329041443
 20
23.5308842553
 11
21.3329041443
 21
26.8074842553
  0
LINE
  5
2AA
100
AcDbEntity
  8
00_COMPONENTS
100
AcDbLine
 62
7
  6
BYLAYER
 10
21.3515459533
 20
26.8074842553
 11
21.3515459533
 21
23.5308842553
  0
LINE
  5
2AB
100
AcDbEntity
  8
00_COMPONENTS
100
AcDbLine
 62
7
  6
BYLAYER
 10
21.4498788382
 20
23.1502957105
 11
21.4498788379
 21
23.136744698
  0
LINE
  5
2AC
100
AcDbEntity
  8
00_COMPONENTS
100
AcDbLine
 62
7
  6
BYLAYER
 10
21.4723551124
 20
26.8074842553
 11
21.4723551124
 21
23.4503093764
  0
LINE
  5
2AD
100
AcDbEntity
  8
00_COMPONENTS
100
AcDbLine
 62
7
  6
BYLAYER
 10
21.5989843825
 20
23.167001193
 11
21.5989843819
 21
23.1367446549
  0
LINE
  5
2AE
100
AcDbEntity
  8
00_COMPONENTS
100
AcDbLine
 62
7
  6
BYLAYER
 10
21.6343277482
 20
26.8074842553
 11
21.6343277482
 21
23.5308842553
  0
LINE
  5
2AF
100
AcDbEntity
  8
00_COMPONENTS
100
AcDbLine
 62
7
  6
BYLAYER
 10
21.6458501875
 20
23.5308842553
 11
21.6458501875
 21
26.8074842553
  0
LINE
  5
2B0
100
AcDbEntity
  8
00_COMPONENTS
100
AcDbLine
 62
7
  6
BYLAYER
 10
21.6717497906
 20
26.8074842553
 11
21.6717497906
 21
23.5308842553
  0
LINE
  5
2B1
100
AcDbEntity
  8
00_COMPONENTS
100
AcDbLine
 62
7
  6
BYLAYER
 10
21.806413117
 20
26.8074842553
 11
21.806413117
 21
23.4503093764
  0
LINE
  5
2B2
100
AcDbEntity
  8
00_COMPONENTS
100
AcDbLine
 62
7
  6
BYLAYER
 10
21.8503127214
 20
23.1884773665
 11
21.8503127206
 21
23.1367446136
  0
LINE
  5
2B3
100
AcDbEntity
  8
00_COMPONENTS
100
AcDbLine
 62
7
  6
BYLAYER
 10
22.0416251942
 20
26.8074842553
 11
22.0416251942
 21
23.5308842553
  0
LINE
  5
2B4
100
AcDbEntity
  8
00_COMPONENTS
100
AcDbLine
 62
7
  6
BYLAYER
 10
22.0606623466
 20
23.5308842553
 11
22.0606623466
 21
26.8074842553
  0
LINE
  5
2B5
100
AcDbEntity
  8
00_COMPONENTS
100
AcDbLine
 62
7
  6
BYLAYER
 10
22.093622632
 20
26.8074842553
 11
22.093622632
 21
23.5308842553
  0
LINE
  5
2B6
100
AcDbEntity
  8
00_COMPONENTS
100
AcDbLine
 62
7
  6
BYLAYER
 10
22.2019510944
 20
23.2176247977
 11
22.2019510933
 21
23.1367445745
  0
LINE
  5
2B7
100
AcDbEntity
  8
00_COMPONENTS
100
AcDbLine
 62
7
  6
BYLAYER
 10
22.2411152567
 20
26.8074842553
 11
22.2411152567
 21
23.4503093764
  0
LINE
  5
2B8
100
AcDbEntity
  8
00_COMPONENTS
100
AcDbLine
 62
7
  6
BYLAYER
 10
22.5458435759
 20
26.8074842553
 11
22.5458435759
 21
23.5308842553
  0
LINE
  5
2B9
100
AcDbEntity
  8
00_COMPONENTS
100
AcDbLine
 62
7
  6
BYLAYER
 10
22.5741836505
 20
23.5308842553
 11
22.5741836505
 21
26.8074842553
  0
LINE
  5
2BA
100
AcDbEntity
  8
00_COMPONENTS
100
AcDbLine
 62
7
  6
BYLAYER
 10
22.6139537707
 20
26.8074842553
 11
22.6139537707
 21
23.5308842553
  0
LINE
  5
2BB
100
AcDbEntity
  8
00_COMPONENTS
100
AcDbLine
 62
7
  6
BYLAYER
 10
22.6512233195
 20
23.1367445379
 11
22.6512233208
 21
23.260374465
  0
LINE
  5
2BC
100
AcDbEntity
  8
00_COMPONENTS
100
AcDbLine
 62
7
  6
BYLAYER
 10
22.7731531855
 20
26.8074842553
 11
22.7731531855
 21
23.4503093764
  0
LINE
  5
2BD
100
AcDbEntity
  8
00_COMPONENTS
100
AcDbLine
 62
7
  6
BYLAYER
 10
23.143145487
 20
26.8074842553
 11
23.143145487
 21
23.4921834895
  0
LINE
  5
2BE
100
AcDbEntity
  8
00_COMPONENTS
100
AcDbLine
 62
7
  6
BYLAYER
 10
23.182505892
 20
23.5308842553
 11
23.182505892
 21
26.8074842553
  0
LINE
  5
2BF
100
AcDbEntity
  8
00_COMPONENTS
100
AcDbLine
 62
7
  6
BYLAYER
 10
23.194710166
 20
23.136744504
 11
23.1947101671
 21
23.3304491276
  0
LINE
  5
2C0
100
AcDbEntity
  8
00_COMPONENTS
100
AcDbLine
 62
7
  6
BYLAYER
 10
23.2287831723
 20
26.8074842553
 11
23.2287831723
 21
23.5308842553
  0
LINE
  5
2C1
100
AcDbEntity
  8
00_COMPONENTS
100
AcDbLine
 62
7
  6
BYLAYER
 10
23.3984777736
 20
26.8074842553
 11
23.3984777736
 21
23.4503093764
  0
LINE
  5
2C2
100
AcDbEntity
  8
00_COMPONENTS
100
AcDbLine
 62
7
  6
BYLAYER
 10
23.8282753692
 20
23.1367444732
 11
23.8282753698
 21
23.4503093764
  0
LINE
  5
2C3
100
AcDbEntity
  8
00_COMPONENTS
100
AcDbLine
 62
7
  6
BYLAYER
 10
23.8289850991
 20
26.8074842553
 11
23.8289850991
 21
23.479718913
  0
LINE
  5
2C4
100
AcDbEntity
  8
00_COMPONENTS
100
AcDbLine
 62
7
  6
BYLAYER
 10
23.8809993715
 20
23.5308842553
 11
23.8809993715
 21
26.8074842553
  0
LINE
  5
2C5
100
AcDbEntity
  8
00_COMPONENTS
100
AcDbLine
 62
7
  6
BYLAYER
 10
23.9334316138
 20
26.8074842553
 11
23.9334316138
 21
23.5308842553
  0
LINE
  5
2C6
100
AcDbEntity
  8
00_COMPONENTS_2
100
AcDbLine
 62
7
  6
BYLAYER
 10
31.0389889311
 20
7.0972103107
 11
29.4972341422
 21
22.5147581999
  0
LINE
  5
2C7
100
AcDbEntity
  8
00_COMPONENTS
100
AcDbLine
 62
7
  6
BYLAYER
 10
24.1123299233
 20
26.8074842553
 11
24.1123299233
 21
23.4503093764
  0
LINE
  5
2C8
100
AcDbEntity
  8
00_COMPONENTS
100
AcDbLine
 62
7
  6
BYLAYER
 10
24.5470971151
 20
23.1367444456
 11
24.5470971063
 21
26.8074842553
  0
LINE
  5
2C9
100
AcDbEntity
  8
00_COMPONENTS
100
AcDbLine
 62
7
  6
BYLAYER
 10
24.5981427588
 20
26.8074842553
 11
24.5981427588
 21
23.4657268553
  0
LINE
  5
2CA
100
AcDbEntity
  8
00_COMPONENTS
100
AcDbLine
 62
7
  6
BYLAYER
 10
24.6643481319
 20
23.5308842553
 11
24.6643481319
 21
26.8074842553
  0
LINE
  5
2CB
100
AcDbEntity
  8
00_COMPONENTS
100
AcDbLine
 62
7
  6
BYLAYER
 10
24.7225362953
 20
26.8074842553
 11
24.7225362953
 21
23.5308842553
  0
LINE
  5
2CC
100
AcDbEntity
  8
00_COMPONENTS
100
AcDbLine
 62
7
  6
BYLAYER
 10
24.9092767888
 20
26.8074842553
 11
24.9092767888
 21
23.4503093764
  0
LINE
  5
2CD
100
AcDbEntity
  8
00_COMPONENTS
100
AcDbLine
 62
7
  6
BYLAYER
 10
25.3457047359
 20
23.1367444214
 11
25.3457047118
 21
26.8074842553
  0
LINE
  5
2CE
100
AcDbEntity
  8
00_COMPONENTS
100
AcDbLine
 62
7
  6
BYLAYER
 10
25.4447647118
 20
23.1367444188
 11
25.4447647118
 21
26.8074842553
  0
LINE
  5
2CF
100
AcDbEntity
  8
00_COMPONENTS
100
AcDbLine
 62
7
  6
BYLAYER
 10
25.5265904161
 20
23.5308842553
 11
25.5265904161
 21
26.8074842553
  0
LINE
  5
2D0
100
AcDbEntity
  8
00_COMPONENTS
100
AcDbLine
 62
7
  6
BYLAYER
 10
25.5900916535
 20
26.8074842553
 11
25.5900916535
 21
23.5308842553
  0
LINE
  5
2D1
100
AcDbEntity
  8
00_COMPONENTS
100
AcDbLine
 62
7
  6
BYLAYER
 10
25.7832531231
 20
26.8074842553
 11
25.7832531231
 21
23.4503093764
  0
LINE
  5
2D2
100
AcDbEntity
  8
00_COMPONENTS
100
AcDbLine
 62
7
  6
BYLAYER
 10
26.2180203449
 20
23.1367444008
 11
26.2180203061
 21
26.8074842553
  0
LINE
  5
2D3
100
AcDbEntity
  8
00_COMPONENTS
100
AcDbLine
 62
7
  6
BYLAYER
 10
26.3253370008
 20
26.8074842553
 11
26.3253369887
 21
23.1367443987
  0
LINE
  5
2D4
100
AcDbEntity
  8
00_COMPONENTS
100
AcDbLine
 62
7
  6
BYLAYER
 10
26.3633742006
 20
23.4503093764
 11
26.3633742006
 21
26.8074842553
  0
LINE
  5
2D5
100
AcDbEntity
  8
00_COMPONENTS
100
AcDbLine
 62
7
  6
BYLAYER
 10
26.4611640398
 20
23.5308842553
 11
26.4611640398
 21
26.8074842553
  0
LINE
  5
2D6
100
AcDbEntity
  8
00_COMPONENTS
100
AcDbLine
 62
7
  6
BYLAYER
 10
26.5294950684
 20
26.8074842553
 11
26.5294950684
 21
23.5308842553
  0
LINE
  5
2D7
100
AcDbEntity
  8
00_COMPONENTS
100
AcDbLine
 62
7
  6
BYLAYER
 10
26.7276074387
 20
26.8074842553
 11
26.7276074387
 21
23.4503093764
  0
LINE
  5
2D8
100
AcDbEntity
  8
00_COMPONENTS
100
AcDbLine
 62
7
  6
BYLAYER
 10
27.1574050409
 20
26.8074842553
 11
27.1574050933
 21
23.1367443841
  0
LINE
  5
2D9
100
AcDbEntity
  8
00_COMPONENTS
100
AcDbLine
 62
7
  6
BYLAYER
 10
27.2721616854
 20
26.8074842553
 11
27.2721616624
 21
23.1367443824
  0
LINE
  5
2DA
100
AcDbEntity
  8
00_COMPONENTS_1
100
AcDbLine
 62
7
  6
BYLAYER
 10
51.0306115406
 20
41.1102786534
 11
19.0306115326
 21
41.1102786534
  0
LINE
  5
2DB
100
AcDbEntity
  8
00_COMPONENTS
100
AcDbLine
 62
7
  6
BYLAYER
 10
49.0398792236
 20
23.5308842553
 11
49.0400881423
 21
23.5306890831
  0
LINE
  5
2DC
100
AcDbEntity
  8
00_COMPONENTS
100
AcDbLine
 62
7
  6
BYLAYER
 10
48.728318929
 20
23.5308842553
 11
48.734172056
 21
23.525139968
  0
LINE
  5
2DD
100
AcDbEntity
  8
00_COMPONENTS
100
AcDbLine
 62
7
  6
BYLAYER
 10
48.9370171481
 20
23.5308842553
 11
48.9390895102
 21
23.5288490341
  0
LINE
  5
2DE
100
AcDbEntity
  8
00_COMPONENTS_2
100
AcDbLine
 62
7
  6
BYLAYER
 10
31.4434853233
 20
18.7747342553
 11
32.4741673604
 21
8.6464842553
  0
LINE
  5
2DF
100
AcDbEntity
  8
00_COMPONENTS_2
100
AcDbLine
 62
7
  6
BYLAYER
 10
33.0295852423
 20
9.2612916491
 11
31.8759425682
 21
20.597844528
  0
LINE
  5
2E0
100
AcDbEntity
  8
00_COMPONENTS_2
100
AcDbLine
 62
7
  6
BYLAYER
 10
32.0082843574
 20
22.7434822055
 11
32.0226904018
 21
22.5742596724
  0
LINE
  5
2E1
100
AcDbEntity
  8
00_COMPONENTS_2
100
AcDbLine
 62
7
  6
BYLAYER
 10
29.6342879834
 20
22.7434842553
 11
29.637331257
 21
22.6939435854
  0
LINE
  5
2E2
100
AcDbEntity
  8
00_COMPONENTS
100
AcDbLine
 62
7
  6
BYLAYER
 10
27.3479465989
 20
23.4503093764
 11
27.3479465989
 21
26.8074842553
  0
LINE
  5
2E3
100
AcDbEntity
  8
00_COMPONENTS
100
AcDbLine
 62
7
  6
BYLAYER
 10
27.4609563333
 20
23.5308842553
 11
27.4609563333
 21
26.8074842553
  0
LINE
  5
2E4
100
AcDbEntity
  8
00_COMPONENTS
100
AcDbLine
 62
7
  6
BYLAYER
 10
27.5335971127
 20
26.8074842553
 11
27.5335971127
 21
23.5308842553
  0
LINE
  5
2E5
100
AcDbEntity
  8
00_COMPONENTS
100
AcDbLine
 62
7
  6
BYLAYER
 10
27.7351526289
 20
26.8074842553
 11
27.7351526289
 21
23.4503093764
  0
LINE
  5
2E6
100
AcDbEntity
  8
00_COMPONENTS_1
100
AcDbLine
 62
7
  6
BYLAYER
 10
27.7974072037
 20
48.7022842553
 11
27.7974072037
 21
43.239935461
  0
LINE
  5
2E7
100
AcDbEntity
  8
00_COMPONENTS
100
AcDbLine
 62
7
  6
BYLAYER
 10
28.156709631
 20
26.8074842553
 11
28.1567096957
 21
23.1367443712
  0
LINE
  5
2E8
100
AcDbEntity
  8
00_COMPONENTS
100
AcDbLine
 62
7
  6
BYLAYER
 10
28.278032858
 20
26.8074842553
 11
28.2780328258
 21
23.13674437
  0
LINE
  5
2E9
100
AcDbEntity
  8
00_COMPONENTS
100
AcDbLine
 62
7
  6
BYLAYER
 10
28.3909887163
 20
23.4503093764
 11
28.3909887163
 21
26.8074842553
  0
LINE
  5
2EA
100
AcDbEntity
  8
00_COMPONENTS
100
AcDbLine
 62
7
  6
BYLAYER
 10
28.5183582736
 20
23.5308842553
 11
28.5183582736
 21
26.8074842553
  0
LINE
  5
2EB
100
AcDbEntity
  8
00_COMPONENTS
100
AcDbLine
 62
7
  6
BYLAYER
 10
28.5947559636
 20
26.8074842553
 11
28.5947559636
 21
23.5308842553
  0
LINE
  5
2EC
100
AcDbEntity
  8
00_COMPONENTS
100
AcDbLine
 62
7
  6
BYLAYER
 10
28.7982206665
 20
26.8074842553
 11
28.7982206665
 21
23.4503093764
  0
LINE
  5
2ED
100
AcDbEntity
  8
0
100
AcDbLine
 62
7
  6
BYLAYER
 10
29.1671713144
 20
66.795550922
 11
29.1671713144
 21
61.8340842553
  0
LINE
  5
2EE
100
AcDbEntity
  8
00_COMPONENTS
100
AcDbLine
 62
7
  6
BYLAYER
 10
29.2083287653
 20
26.8074842553
 11
29.2083288404
 21
23.1367443624
  0
LINE
  5
2EF
100
AcDbEntity
  8
00_COMPONENTS
100
AcDbLine
 62
7
  6
BYLAYER
 10
29.3352952317
 20
26.8074842553
 11
29.3352951922
 21
23.1367443616
  0
LINE
  5
2F0
100
AcDbEntity
  8
00_COMPONENTS
100
AcDbLine
 62
7
  6
BYLAYER
 10
29.4845623725
 20
23.4503093764
 11
29.4845623725
 21
26.8074842553
  0
LINE
  5
2F1
100
AcDbEntity
  8
00_COMPONENTS
100
AcDbLine
 62
7
  6
BYLAYER
 10
29.6253223934
 20
23.5308842553
 11
29.6253223934
 21
26.8074842553
  0
LINE
  5
2F2
100
AcDbEntity
  8
00_COMPONENTS
100
AcDbLine
 62
7
  6
BYLAYER
 10
29.7048955615
 20
26.8074842553
 11
29.7048955615
 21
23.5308842553
  0
LINE
  5
2F3
100
AcDbEntity
  8
00_COMPONENTS
100
AcDbLine
 62
7
  6
BYLAYER
 10
29.9087209619
 20
26.8074842553
 11
29.9087209619
 21
23.4503093764
  0
LINE
  5
2F4
100
AcDbEntity
  8
00_COMPONENTS
100
AcDbLine
 62
7
  6
BYLAYER
 10
30.304258987
 20
26.8074842553
 11
30.3042590705
 21
23.1367443577
  0
LINE
  5
2F5
100
AcDbEntity
  8
00_COMPONENTS
100
AcDbLine
 62
7
  6
BYLAYER
 10
30.4359024014
 20
26.8074842553
 11
30.4359023569
 21
23.1367443574
  0
LINE
  5
2F6
100
AcDbEntity
  8
00_COMPONENTS
100
AcDbLine
 62
7
  6
BYLAYER
 10
30.6203448116
 20
23.4503093764
 11
30.6203448116
 21
26.8074842553
  0
LINE
  5
2F7
100
AcDbEntity
  8
00_COMPONENTS_1
100
AcDbLine
 62
7
  6
BYLAYER
 10
18.6369115326
 20
41.7921870563
 11
51.4243115406
 21
41.7921870563
  0
LINE
  5
2F8
100
AcDbEntity
  8
00_COMPONENTS_2
100
AcDbLine
 62
7
  6
BYLAYER
 10
38.0936589773
 20
20.2821321273
 11
38.5276197256
 21
18.7747342553
  0
LINE
  5
2F9
100
AcDbEntity
  8
00_COMPONENTS_2
100
AcDbLine
 62
7
  6
BYLAYER
 10
34.9971346384
 20
12.4928851986
 11
33.954001983
 21
22.7434842553
  0
LINE
  5
2FA
100
AcDbEntity
  8
00_COMPONENTS
100
AcDbLine
 62
7
  6
BYLAYER
 10
30.7734240274
 20
23.5308842553
 11
30.7734240274
 21
26.8074842553
  0
LINE
  5
2FB
100
AcDbEntity
  8
00_COMPONENTS
100
AcDbLine
 62
7
  6
BYLAYER
 10
30.8555670738
 20
26.8074842553
 11
30.8555670738
 21
23.5308842553
  0
LINE
  5
2FC
100
AcDbEntity
  8
00_COMPONENTS
100
AcDbLine
 62
7
  6
BYLAYER
 10
31.0582019372
 20
26.8074842553
 11
31.0582019372
 21
23.4503093764
  0
LINE
  5
2FD
100
AcDbEntity
  8
00_COMPONENTS
100
AcDbLine
 62
7
  6
BYLAYER
 10
31.4361596055
 20
26.8074842553
 11
31.436159695
 21
23.136744357
  0
LINE
  5
2FE
100
AcDbEntity
  8
00_COMPONENTS
100
AcDbLine
 62
7
  6
BYLAYER
 10
31.571478082
 20
26.8074842553
 11
31.5714780348
 21
23.1367443572
  0
LINE
  5
2FF
100
AcDbEntity
  8
0
100
AcDbLine
 62
7
  6
BYLAYER
 10
31.7194115366
 20
69.2762842553
 11
31.7194115366
 21
93.9142842553
  0
LINE
  5
300
100
AcDbEntity
  8
00_COMPONENTS
100
AcDbLine
 62
7
  6
BYLAYER
 10
31.7896920435
 20
23.4503093764
 11
31.7896920435
 21
26.8074842553
  0
LINE
  5
301
100
AcDbEntity
  8
00_COMPONENTS
100
AcDbLine
 62
7
  6
BYLAYER
 10
31.9539254289
 20
23.5308842553
 11
31.9539254289
 21
26.8074842553
  0
LINE
  5
302
100
AcDbEntity
  8
00_COMPONENTS
100
AcDbLine
 62
7
  6
BYLAYER
 10
32.0380131953
 20
26.8074842553
 11
32.0380131953
 21
23.5308842553
  0
LINE
  5
303
100
AcDbEntity
  8
00_COMPONENTS
100
AcDbLine
 62
7
  6
BYLAYER
 10
32.2379153482
 20
26.8074842553
 11
32.2379153482
 21
23.4503093764
  0
LINE
  5
304
100
AcDbEntity
  8
00_COMPONENTS
100
AcDbLine
 62
7
  6
BYLAYER
 10
32.5954161735
 20
26.8074842553
 11
32.5954162666
 21
23.1367443605
  0
LINE
  5
305
100
AcDbEntity
  8
00_COMPONENTS
100
AcDbLine
 62
7
  6
BYLAYER
 10
32.7333798568
 20
26.8074842553
 11
32.7333798096
 21
23.1367443612
  0
LINE
  5
306
100
AcDbEntity
  8
00_COMPONENTS
100
AcDbLine
 62
7
  6
BYLAYER
 10
32.9837046296
 20
23.4503093764
 11
32.9837046296
 21
26.8074842553
  0
LINE
  5
307
100
AcDbEntity
  8
00_COMPONENTS
100
AcDbLine
 62
7
  6
BYLAYER
 10
33.1578422694
 20
23.5308842553
 11
33.1578422694
 21
26.8074842553
  0
LINE
  5
308
100
AcDbEntity
  8
00_COMPONENTS
100
AcDbLine
 62
7
  6
BYLAYER
 10
33.2432347972
 20
26.8074842553
 11
33.2432347972
 21
23.5308842553
  0
LINE
  5
309
100
AcDbEntity
  8
00_COMPONENTS
100
AcDbLine
 62
7
  6
BYLAYER
 10
33.4388828635
 20
26.8074842553
 11
33.4388828635
 21
23.4503093764
  0
LINE
  5
30A
100
AcDbEntity
  8
00_COMPONENTS
100
AcDbLine
 62
7
  6
BYLAYER
 10
33.7732060487
 20
26.8074842553
 11
33.7732061427
 21
23.1367443681
  0
LINE
  5
30B
100
AcDbEntity
  8
00_COMPONENTS
100
AcDbLine
 62
7
  6
BYLAYER
 10
33.9127649519
 20
26.8074842553
 11
33.9127649072
 21
23.1367443693
  0
LINE
  5
30C
100
AcDbEntity
  8
0
100
AcDbLine
 62
7
  6
BYLAYER
 10
52.4973063591
 20
90.7801748691
 11
52.3880037334
 21
90.5678261094
  0
LINE
  5
30D
100
AcDbEntity
  8
00_COMPONENTS_2
100
AcDbLine
 62
7
  6
BYLAYER
 10
34.9971346384
 20
12.4928851986
 11
35.0026416939
 21
9.33757805
  0
LINE
  5
30E
100
AcDbEntity
  8
00_COMPONENTS
100
AcDbLine
 62
7
  6
BYLAYER
 10
34.1932954133
 20
23.4503093764
 11
34.1932954133
 21
26.8074842553
  0
LINE
  5
30F
100
AcDbEntity
  8
00_COMPONENTS
100
AcDbLine
 62
7
  6
BYLAYER
 10
34.3760120149
 20
23.5308842553
 11
34.3760120149
 21
26.8074842553
  0
LINE
  5
310
100
AcDbEntity
  8
00_COMPONENTS
100
AcDbLine
 62
7
  6
BYLAYER
 10
34.4620594154
 20
26.8074842553
 11
34.4620594154
 21
23.5308842553
  0
LINE
  5
311
100
AcDbEntity
  8
00_COMPONENTS
100
AcDbLine
 62
7
  6
BYLAYER
 10
34.651964395
 20
26.8074842553
 11
34.651964395
 21
23.4503093764
  0
LINE
  5
312
100
AcDbEntity
  8
00_COMPONENTS
100
AcDbLine
 62
7
  6
BYLAYER
 10
34.9605655389
 20
26.8074842553
 11
34.9605656313
 21
23.1367443798
  0
LINE
  5
313
100
AcDbEntity
  8
00_COMPONENTS_1
100
AcDbLine
 62
7
  6
BYLAYER
 10
35.0306115366
 20
6.8684842553
 11
35.0306115366
 21
3.4262842553
  0
LINE
  5
314
100
AcDbEntity
  8
00_COMPONENTS
100
AcDbLine
 62
7
  6
BYLAYER
 10
35.1006575344
 20
26.8074842553
 11
35.1006574949
 21
23.1367443814
  0
LINE
  5
315
100
AcDbEntity
  8
00_COMPONENTS
100
AcDbLine
 62
7
  6
BYLAYER
 10
35.4092586782
 20
23.4503093764
 11
35.4092586782
 21
26.8074842553
  0
LINE
  5
316
100
AcDbEntity
  8
00_COMPONENTS
100
AcDbLine
 62
7
  6
BYLAYER
 10
35.5991636579
 20
23.5308842553
 11
35.5991636579
 21
26.8074842553
  0
LINE
  5
317
100
AcDbEntity
  8
00_COMPONENTS
100
AcDbLine
 62
7
  6
BYLAYER
 10
35.6852110584
 20
26.8074842553
 11
35.6852110584
 21
23.5308842553
  0
LINE
  5
318
100
AcDbEntity
  8
00_COMPONENTS
100
AcDbLine
 62
7
  6
BYLAYER
 10
35.86792766
 20
26.8074842553
 11
35.86792766
 21
23.4503093764
  0
LINE
  5
319
100
AcDbEntity
  8
00_COMPONENTS
100
AcDbLine
 62
7
  6
BYLAYER
 10
36.1484581214
 20
26.8074842553
 11
36.1484582098
 21
23.1367443954
  0
LINE
  5
31A
100
AcDbEntity
  8
00_COMPONENTS
100
AcDbLine
 62
7
  6
BYLAYER
 10
36.2880170246
 20
26.8074842553
 11
36.2880169927
 21
23.1367443974
  0
LINE
  5
31B
100
AcDbEntity
  8
00_COMPONENTS
100
AcDbLine
 62
7
  6
BYLAYER
 10
36.6223402098
 20
23.4503093764
 11
36.6223402098
 21
26.8074842553
  0
LINE
  5
31C
100
AcDbEntity
  8
00_COMPONENTS
100
AcDbLine
 62
7
  6
BYLAYER
 10
36.8179882761
 20
23.5308842553
 11
36.8179882761
 21
26.8074842553
  0
LINE
  5
31D
100
AcDbEntity
  8
00_COMPONENTS
100
AcDbLine
 62
7
  6
BYLAYER
 10
36.9033808039
 20
26.8074842553
 11
36.9033808039
 21
23.5308842553
  0
LINE
  5
31E
100
AcDbEntity
  8
00_COMPONENTS
100
AcDbLine
 62
7
  6
BYLAYER
 10
37.0775184437
 20
26.8074842553
 11
37.0775184437
 21
23.4503093764
  0
LINE
  5
31F
100
AcDbEntity
  8
00_COMPONENTS
100
AcDbLine
 62
7
  6
BYLAYER
 10
37.3278432165
 20
26.8074842553
 11
37.3278432985
 21
23.1367444148
  0
LINE
  5
320
100
AcDbEntity
  8
0
100
AcDbLine
 62
7
  6
BYLAYER
 10
52.5496696913
 20
91.120481812
 11
52.4458115366
 21
90.8579228778
  0
LINE
  5
321
100
AcDbEntity
  8
0
100
AcDbLine
 62
7
  6
BYLAYER
 10
52.4973063591
 20
81.9256423337
 11
52.3880037334
 21
81.713293574
  0
LINE
  5
322
100
AcDbEntity
  8
00_COMPONENTS_1
100
AcDbLine
 62
7
  6
BYLAYER
 10
16.6156115366
 20
48.7022842553
 11
53.4456115366
 21
48.7022842553
  0
LINE
  5
323
100
AcDbEntity
  8
00_COMPONENTS_1
100
AcDbLine
 62
7
  6
BYLAYER
 10
15.9806115366
 20
49.9722842553
 11
54.0806115366
 21
49.9722842553
  0
LINE
  5
324
100
AcDbEntity
  8
00_COMPONENTS_1
100
AcDbLine
 62
7
  6
BYLAYER
 10
54.0806115366
 20
51.4962842553
 11
15.9806115366
 21
51.4962842553
  0
LINE
  5
325
100
AcDbEntity
  8
00_COMPONENTS
100
AcDbLine
 62
7
  6
BYLAYER
 10
37.4658068998
 20
26.8074842553
 11
37.4658068778
 21
23.1367444173
  0
LINE
  5
326
100
AcDbEntity
  8
00_COMPONENTS
100
AcDbLine
 62
7
  6
BYLAYER
 10
37.8233077251
 20
23.4503093764
 11
37.8233077251
 21
26.8074842553
  0
LINE
  5
327
100
AcDbEntity
  8
00_COMPONENTS
100
AcDbLine
 62
7
  6
BYLAYER
 10
38.023209878
 20
23.5308842553
 11
38.023209878
 21
26.8074842553
  0
LINE
  5
328
100
AcDbEntity
  8
00_COMPONENTS
100
AcDbLine
 62
7
  6
BYLAYER
 10
38.1072976444
 20
26.8074842553
 11
38.1072976444
 21
23.5308842553
  0
LINE
  5
329
100
AcDbEntity
  8
00_COMPONENTS
100
AcDbLine
 62
7
  6
BYLAYER
 10
38.2715310298
 20
26.8074842553
 11
38.2715310298
 21
23.4503093764
  0
LINE
  5
32A
100
AcDbEntity
  8
00_COMPONENTS
100
AcDbLine
 62
7
  6
BYLAYER
 10
38.4897449913
 20
26.8074842553
 11
38.4897450649
 21
23.1367444379
  0
LINE
  5
32B
100
AcDbEntity
  8
00_COMPONENTS
100
AcDbLine
 62
7
  6
BYLAYER
 10
38.6250634678
 20
26.8074842553
 11
38.6250634577
 21
23.1367444408
  0
LINE
  5
32C
100
AcDbEntity
  8
00_COMPONENTS
100
AcDbLine
 62
7
  6
BYLAYER
 10
39.0030211361
 20
23.4503093764
 11
39.0030211361
 21
26.8074842553
  0
LINE
  5
32D
100
AcDbEntity
  8
00_COMPONENTS
100
AcDbLine
 62
7
  6
BYLAYER
 10
39.2056559995
 20
23.5308842553
 11
39.2056559995
 21
26.8074842553
  0
LINE
  5
32E
100
AcDbEntity
  8
00_COMPONENTS
100
AcDbLine
 62
7
  6
BYLAYER
 10
39.2877990459
 20
26.8074842553
 11
39.2877990459
 21
23.5308842553
  0
LINE
  5
32F
100
AcDbEntity
  8
00_COMPONENTS
100
AcDbLine
 62
7
  6
BYLAYER
 10
39.4408782617
 20
26.8074842553
 11
39.4408782617
 21
23.4503093764
  0
LINE
  5
330
100
AcDbEntity
  8
00_COMPONENTS
100
AcDbLine
 62
7
  6
BYLAYER
 10
39.6253206719
 20
26.8074842553
 11
39.6253207353
 21
23.1367444645
  0
LINE
  5
331
100
AcDbEntity
  8
00_COMPONENTS
100
AcDbLine
 62
7
  6
BYLAYER
 10
39.7569640863
 20
26.8074842553
 11
39.7569640898
 21
23.1367444678
  0
LINE
  5
332
100
AcDbEntity
  8
00_COMPONENTS
100
AcDbLine
 62
7
  6
BYLAYER
 10
40.1525021114
 20
23.4503093764
 11
40.1525021114
 21
26.8074842553
  0
LINE
  5
333
100
AcDbEntity
  8
00_COMPONENTS
100
AcDbLine
 62
7
  6
BYLAYER
 10
40.3563275117
 20
23.5308842553
 11
40.3563275117
 21
26.8074842553
  0
LINE
  5
334
100
AcDbEntity
  8
00_COMPONENTS
100
AcDbLine
 62
7
  6
BYLAYER
 10
40.4359006799
 20
26.8074842553
 11
40.4359006799
 21
23.5308842553
  0
LINE
  5
335
100
AcDbEntity
  8
00_COMPONENTS
100
AcDbLine
 62
7
  6
BYLAYER
 10
40.5766607008
 20
26.8074842553
 11
40.5766607008
 21
23.4503093764
  0
LINE
  5
336
100
AcDbEntity
  8
00_COMPONENTS_2
100
AcDbLine
 62
7
  6
BYLAYER
 10
37.9513078595
 20
22.571345258
 11
37.9655734302
 21
22.7434842553
  0
LINE
  5
337
100
AcDbEntity
  8
00_COMPONENTS_2
100
AcDbLine
 62
7
  6
BYLAYER
 10
36.0041281019
 20
22.7434842553
 11
34.9971346384
 21
12.4928851986
  0
LINE
  5
338
100
AcDbEntity
  8
00_COMPONENTS_2
100
AcDbLine
 62
7
  6
BYLAYER
 10
31.87295933
 20
20.2843272144
 11
31.4434853233
 21
18.7747342553
  0
LINE
  5
339
100
AcDbEntity
  8
0
100
AcDbLine
 62
7
  6
BYLAYER
 10
52.5496696913
 20
82.2659492767
 11
52.4458115366
 21
82.0033903424
  0
LINE
  5
33A
100
AcDbEntity
  8
0
100
AcDbLine
 62
7
  6
BYLAYER
 10
57.1769891726
 20
88.8404395469
 11
57.9133641409
 21
90.2710393174
  0
LINE
  5
33B
100
AcDbEntity
  8
00_COMPONENTS
100
AcDbLine
 62
7
  6
BYLAYER
 10
40.7259278416
 20
26.8074842553
 11
40.7259278934
 21
23.1367444944
  0
LINE
  5
33C
100
AcDbEntity
  8
00_COMPONENTS
100
AcDbLine
 62
7
  6
BYLAYER
 10
40.852894308
 20
26.8074842553
 11
40.8528943263
 21
23.1367444981
  0
LINE
  5
33D
100
AcDbEntity
  8
0
100
AcDbLine
 62
7
  6
BYLAYER
 10
40.8940517589
 20
61.8340842553
 11
40.8940517589
 21
66.795550922
  0
LINE
  5
33E
100
AcDbEntity
  8
00_COMPONENTS
100
AcDbLine
 62
7
  6
BYLAYER
 10
41.2630024068
 20
23.4503093764
 11
41.2630024068
 21
26.8074842553
  0
LINE
  5
33F
100
AcDbEntity
  8
00_COMPONENTS
100
AcDbLine
 62
7
  6
BYLAYER
 10
41.4664671096
 20
23.5308842553
 11
41.4664671096
 21
26.8074842553
  0
LINE
  5
340
100
AcDbEntity
  8
00_COMPONENTS
100
AcDbLine
 62
7
  6
BYLAYER
 10
41.5428647997
 20
26.8074842553
 11
41.5428647997
 21
23.5308842553
  0
LINE
  5
341
100
AcDbEntity
  8
00_COMPONENTS
100
AcDbLine
 62
7
  6
BYLAYER
 10
41.670234357
 20
26.8074842553
 11
41.670234357
 21
23.4503093764
  0
LINE
  5
342
100
AcDbEntity
  8
00_COMPONENTS
100
AcDbLine
 62
7
  6
BYLAYER
 10
41.7831902153
 20
26.8074842553
 11
41.7831902545
 21
23.1367445273
  0
LINE
  5
343
100
AcDbEntity
  8
00_COMPONENTS
100
AcDbLine
 62
7
  6
BYLAYER
 10
41.9045134423
 20
26.8074842553
 11
41.9045134763
 21
23.1367445314
  0
LINE
  5
344
100
AcDbEntity
  8
00_COMPONENTS_1
100
AcDbLine
 62
7
  6
BYLAYER
 10
42.2638158696
 20
48.7022842553
 11
42.2638158696
 21
43.239935461
  0
LINE
  5
345
100
AcDbEntity
  8
00_COMPONENTS
100
AcDbLine
 62
7
  6
BYLAYER
 10
42.3260704444
 20
23.4503093764
 11
42.3260704444
 21
26.8074842553
  0
LINE
  5
346
100
AcDbEntity
  8
00_COMPONENTS
100
AcDbLine
 62
7
  6
BYLAYER
 10
42.5276259605
 20
23.5308842553
 11
42.5276259605
 21
26.8074842553
  0
LINE
  5
347
100
AcDbEntity
  8
00_COMPONENTS
100
AcDbLine
 62
7
  6
BYLAYER
 10
42.60026674
 20
26.8074842553
 11
42.60026674
 21
23.5308842553
  0
LINE
  5
348
100
AcDbEntity
  8
00_COMPONENTS
100
AcDbLine
 62
7
  6
BYLAYER
 10
42.7132764744
 20
26.8074842553
 11
42.7132764744
 21
23.4503093764
  0
LINE
  5
349
100
AcDbEntity
  8
00_COMPONENTS
100
AcDbLine
 62
7
  6
BYLAYER
 10
42.7890613879
 20
26.8074842553
 11
42.789061414
 21
23.1367445632
  0
LINE
  5
34A
100
AcDbEntity
  8
00_COMPONENTS
100
AcDbLine
 62
7
  6
BYLAYER
 10
42.9038180324
 20
26.8074842553
 11
42.9038180826
 21
23.1367445675
  0
LINE
  5
34B
100
AcDbEntity
  8
00_COMPONENTS
100
AcDbLine
 62
7
  6
BYLAYER
 10
43.3336156346
 20
23.4503093764
 11
43.3336156346
 21
26.8074842553
  0
LINE
  5
34C
100
AcDbEntity
  8
00_COMPONENTS
100
AcDbLine
 62
7
  6
BYLAYER
 10
43.5317280049
 20
23.5308842553
 11
43.5317280049
 21
26.8074842553
  0
LINE
  5
34D
100
AcDbEntity
  8
00_COMPONENTS
100
AcDbLine
 62
7
  6
BYLAYER
 10
43.6000590335
 20
26.8074842553
 11
43.6000590335
 21
23.5308842553
  0
LINE
  5
34E
100
AcDbEntity
  8
00_COMPONENTS
100
AcDbLine
 62
7
  6
BYLAYER
 10
43.6978488727
 20
26.8074842553
 11
43.6978488727
 21
23.4503093764
  0
LINE
  5
34F
100
AcDbEntity
  8
00_COMPONENTS
100
AcDbLine
 62
7
  6
BYLAYER
 10
43.7358860725
 20
26.8074842553
 11
43.7358860854
 21
23.1367446015
  0
LINE
  5
350
100
AcDbEntity
  8
00_COMPONENTS
100
AcDbLine
 62
7
  6
BYLAYER
 10
43.8432027672
 20
26.8074842553
 11
43.8432028334
 21
23.1367446062
  0
LINE
  5
351
100
AcDbEntity
  8
00_COMPONENTS_2
100
AcDbLine
 62
7
  6
BYLAYER
 10
40.3812938895
 20
22.6910421648
 11
40.3845523463
 21
22.7434842553
  0
LINE
  5
352
100
AcDbEntity
  8
00_COMPONENTS_2
100
AcDbLine
 62
7
  6
BYLAYER
 10
38.0902291321
 20
20.6108586277
 11
36.9752757819
 21
9.2612916491
  0
LINE
  5
353
100
AcDbEntity
  8
00_COMPONENTS_2
100
AcDbLine
 62
7
  6
BYLAYER
 10
37.5326455304
 20
8.6464842553
 11
38.5276197256
 21
18.7747342553
  0
LINE
  5
354
100
AcDbEntity
  8
00_COMPONENTS_2
100
AcDbLine
 62
7
  6
BYLAYER
 10
39.0222341422
 20
7.0972103107
 11
40.5639889311
 21
22.5147582
  0
LINE
  5
355
100
AcDbEntity
  8
0
100
AcDbLine
 62
7
  6
BYLAYER
 10
57.1769891726
 20
79.9859070115
 11
57.9133641409
 21
81.416506782
  0
LINE
  5
356
100
AcDbEntity
  8
0
100
AcDbLine
 62
7
  6
BYLAYER
 10
15.1868615366
 20
57.8462842553
 11
54.8743615366
 21
57.8462842553
  0
LINE
  5
357
100
AcDbEntity
  8
00_COMPONENTS
100
AcDbLine
 62
7
  6
BYLAYER
 10
44.2779699502
 20
23.4503093764
 11
44.2779699502
 21
26.8074842553
  0
LINE
  5
358
100
AcDbEntity
  8
00_COMPONENTS
100
AcDbLine
 62
7
  6
BYLAYER
 10
44.4711314198
 20
23.5308842553
 11
44.4711314198
 21
26.8074842553
  0
LINE
  5
359
100
AcDbEntity
  8
00_COMPONENTS
100
AcDbLine
 62
7
  6
BYLAYER
 10
44.5346326571
 20
26.8074842553
 11
44.5346326571
 21
23.5308842553
  0
LINE
  5
35A
100
AcDbEntity
  8
00_COMPONENTS
100
AcDbLine
 62
7
  6
BYLAYER
 10
44.6164583615
 20
23.1367446421
 11
44.6164583615
 21
26.8074842553
  0
LINE
  5
35B
100
AcDbEntity
  8
00_COMPONENTS
100
AcDbLine
 62
7
  6
BYLAYER
 10
44.7155183615
 20
26.8074842553
 11
44.7155184432
 21
23.1367446471
  0
LINE
  5
35C
100
AcDbEntity
  8
0
100
AcDbLine
 62
7
  6
BYLAYER
 10
44.9528115366
 20
69.2762842553
 11
44.9528115366
 21
93.9142842553
  0
LINE
  5
35D
100
AcDbEntity
  8
0
100
AcDbLine
 62
7
  6
BYLAYER
 10
44.9782115366
 20
69.2762842553
 11
44.9782115366
 21
93.9142842553
  0
LINE
  5
35E
100
AcDbEntity
  8
00_COMPONENTS
100
AcDbLine
 62
7
  6
BYLAYER
 10
45.1519462845
 20
23.4503093764
 11
45.1519462845
 21
26.8074842553
  0
LINE
  5
35F
100
AcDbEntity
  8
00_COMPONENTS
100
AcDbLine
 62
7
  6
BYLAYER
 10
45.338686778
 20
23.5308842553
 11
45.338686778
 21
26.8074842553
  0
LINE
  5
360
100
AcDbEntity
  8
00_COMPONENTS
100
AcDbLine
 62
7
  6
BYLAYER
 10
45.3968749414
 20
26.8074842553
 11
45.3968749414
 21
23.5308842553
  0
LINE
  5
361
100
AcDbEntity
  8
00_COMPONENTS
100
AcDbLine
 62
7
  6
BYLAYER
 10
45.4630803145
 20
23.4657268553
 11
45.4630803145
 21
26.8074842553
  0
LINE
  5
362
100
AcDbEntity
  8
00_COMPONENTS
100
AcDbLine
 62
7
  6
BYLAYER
 10
45.5141259669
 20
26.8074842553
 11
45.5141260632
 21
23.1367446899
  0
LINE
  5
363
100
AcDbEntity
  8
00_COMPONENTS
100
AcDbLine
 62
7
  6
BYLAYER
 10
45.9488931499
 20
23.4503093764
 11
45.9488931499
 21
26.8074842553
  0
LINE
  5
364
100
AcDbEntity
  8
00_COMPONENTS
100
AcDbLine
 62
7
  6
BYLAYER
 10
46.1277914594
 20
23.5308842553
 11
46.1277914594
 21
26.8074842553
  0
LINE
  5
365
100
AcDbEntity
  8
00_COMPONENTS
100
AcDbLine
 62
7
  6
BYLAYER
 10
46.1802237018
 20
26.8074842553
 11
46.1802237018
 21
23.5308842553
  0
LINE
  5
366
100
AcDbEntity
  8
00_COMPONENTS
100
AcDbLine
 62
7
  6
BYLAYER
 10
46.2322379742
 20
23.479718913
 11
46.2322379742
 21
26.8074842553
  0
LINE
  5
367
100
AcDbEntity
  8
00_COMPONENTS
100
AcDbLine
 62
7
  6
BYLAYER
 10
46.2329477974
 20
23.4503093765
 11
46.2329478067
 21
23.1367447342
  0
LINE
  5
368
100
AcDbEntity
  8
00_COMPONENTS
100
AcDbLine
 62
7
  6
BYLAYER
 10
46.6627452997
 20
23.4503093764
 11
46.6627452997
 21
26.8074842553
  0
LINE
  5
369
100
AcDbEntity
  8
00_COMPONENTS
100
AcDbLine
 62
7
  6
BYLAYER
 10
46.832439901
 20
23.5308842553
 11
46.832439901
 21
26.8074842553
  0
LINE
  5
36A
100
AcDbEntity
  8
00_COMPONENTS
100
AcDbLine
 62
7
  6
BYLAYER
 10
46.8665129997
 20
23.3304493706
 11
46.8665130061
 21
23.1367447799
  0
LINE
  5
36B
100
AcDbEntity
  8
00_COMPONENTS
100
AcDbLine
 62
7
  6
BYLAYER
 10
46.8787171813
 20
26.8074842553
 11
46.8787171813
 21
23.5308842553
  0
LINE
  5
36C
100
AcDbEntity
  8
00_COMPONENTS
100
AcDbLine
 62
7
  6
BYLAYER
 10
46.9180775863
 20
23.4921834894
 11
46.9180775863
 21
26.8074842553
  0
LINE
  5
36D
100
AcDbEntity
  8
00_COMPONENTS
100
AcDbLine
 62
7
  6
BYLAYER
 10
47.2880698878
 20
23.4503093764
 11
47.2880698878
 21
26.8074842553
  0
LINE
  5
36E
100
AcDbEntity
  8
00_COMPONENTS
100
AcDbLine
 62
7
  6
BYLAYER
 10
45.4630803144
 20
23.4657148993
 11
45.4621137678
 21
23.4503093764
  0
LINE
  5
36F
100
AcDbEntity
  8
00_COMPONENTS
100
AcDbLine
 62
7
  6
BYLAYER
 10
45.4236996149
 20
23.1308825254
 11
45.424076562
 21
23.1367447285
  0
LINE
  5
370
100
AcDbEntity
  8
00_COMPONENTS
100
AcDbLine
 62
7
  6
BYLAYER
 10
21.122133563
 20
23.5288490221
 11
21.1242059252
 21
23.5308842553
  0
LINE
  5
371
100
AcDbEntity
  8
00_COMPONENTS
100
AcDbLine
 62
7
  6
BYLAYER
 10
21.3270510173
 20
23.5251403458
 11
21.3329041443
 21
23.5308842553
  0
LINE
  5
372
100
AcDbEntity
  8
00_COMPONENTS
100
AcDbLine
 62
7
  6
BYLAYER
 10
21.021134931
 20
23.5306891063
 11
21.0213438497
 21
23.5308842553
  0
LINE
  5
373
100
AcDbEntity
  8
0
100
AcDbLine
 62
7
  6
BYLAYER
 10
14.7360115366
 20
59.4337842553
 11
55.3252115366
 21
59.4337842553
  0
LINE
  5
374
100
AcDbEntity
  8
00_COMPONENTS
100
AcDbLine
 62
7
  6
BYLAYER
 10
47.4099998429
 20
23.2603746959
 11
47.4099998472
 21
23.1367448264
  0
LINE
  5
375
100
AcDbEntity
  8
00_COMPONENTS
100
AcDbLine
 62
7
  6
BYLAYER
 10
47.4472693026
 20
23.5308842553
 11
47.4472693026
 21
26.8074842553
  0
LINE
  5
376
100
AcDbEntity
  8
00_COMPONENTS
100
AcDbLine
 62
7
  6
BYLAYER
 10
47.4870394228
 20
26.8074842553
 11
47.4870394228
 21
23.5308842553
  0
LINE
  5
377
100
AcDbEntity
  8
00_COMPONENTS
100
AcDbLine
 62
7
  6
BYLAYER
 10
47.5153794973
 20
23.5308842553
 11
47.5153794973
 21
26.8074842553
  0
LINE
  5
378
100
AcDbEntity
  8
0
100
AcDbLine
 62
7
  6
BYLAYER
 10
47.5182115366
 20
93.9142842553
 11
47.5182115366
 21
78.9298328055
  0
LINE
  5
379
100
AcDbEntity
  8
0
100
AcDbLine
 62
7
  6
BYLAYER
 10
47.5182115366
 20
76.8251807955
 11
47.5182115366
 21
69.2762842553
  0
LINE
  5
37A
100
AcDbEntity
  8
00_COMPONENTS
100
AcDbLine
 62
7
  6
BYLAYER
 10
47.8201078166
 20
23.4503093764
 11
47.8201078166
 21
26.8074842553
  0
LINE
  5
37B
100
AcDbEntity
  8
00_COMPONENTS
100
AcDbLine
 62
7
  6
BYLAYER
 10
47.8592720639
 20
23.2176250463
 11
47.8592720669
 21
23.1367448735
  0
LINE
  5
37C
100
AcDbEntity
  8
00_COMPONENTS
100
AcDbLine
 62
7
  6
BYLAYER
 10
47.9676004412
 20
23.5308842553
 11
47.9676004412
 21
26.8074842553
  0
LINE
  5
37D
100
AcDbEntity
  8
00_COMPONENTS
100
AcDbLine
 62
7
  6
BYLAYER
 10
48.0005607267
 20
26.8074842553
 11
48.0005607267
 21
23.5308842553
  0
LINE
  5
37E
100
AcDbEntity
  8
00_COMPONENTS
100
AcDbLine
 62
7
  6
BYLAYER
 10
48.019597879
 20
23.5308842553
 11
48.019597879
 21
26.8074842553
  0
LINE
  5
37F
100
AcDbEntity
  8
00_COMPONENTS
100
AcDbLine
 62
7
  6
BYLAYER
 10
48.2109104301
 20
23.1884776428
 11
48.2109104321
 21
23.1367449207
  0
LINE
  5
380
100
AcDbEntity
  8
00_COMPONENTS
100
AcDbLine
 62
7
  6
BYLAYER
 10
48.2548099562
 20
23.4503093764
 11
48.2548099562
 21
26.8074842553
  0
LINE
  5
381
100
AcDbEntity
  8
00_COMPONENTS
100
AcDbLine
 62
7
  6
BYLAYER
 10
48.3894732827
 20
23.5308842553
 11
48.3894732827
 21
26.8074842553
  0
LINE
  5
382
100
AcDbEntity
  8
00_COMPONENTS
100
AcDbLine
 62
7
  6
BYLAYER
 10
48.4153728858
 20
26.8074842553
 11
48.4153728858
 21
23.5308842553
  0
LINE
  5
383
100
AcDbEntity
  8
00_COMPONENTS
100
AcDbLine
 62
7
  6
BYLAYER
 10
48.4268953251
 20
23.5308842553
 11
48.4268953251
 21
26.8074842553
  0
LINE
  5
384
100
AcDbEntity
  8
00_COMPONENTS
100
AcDbLine
 62
7
  6
BYLAYER
 10
48.4622387613
 20
23.1670014889
 11
48.4622387624
 21
23.1367449678
  0
LINE
  5
385
100
AcDbEntity
  8
00_COMPONENTS
100
AcDbLine
 62
7
  6
BYLAYER
 10
48.5888679609
 20
23.4503093764
 11
48.5888679609
 21
26.8074842553
  0
LINE
  5
386
100
AcDbEntity
  8
00_COMPONENTS
100
AcDbLine
 62
7
  6
BYLAYER
 10
48.611344297
 20
23.1502960197
 11
48.6113442975
 21
23.1367450144
  0
LINE
  5
387
100
AcDbEntity
  8
00_COMPONENTS
100
AcDbLine
 62
7
  6
BYLAYER
 10
48.70967712
 20
23.5308842553
 11
48.70967712
 21
26.8074842553
  0
LINE
  5
388
100
AcDbEntity
  8
00_COMPONENTS
100
AcDbLine
 62
7
  6
BYLAYER
 10
48.728318929
 20
26.8074842553
 11
48.728318929
 21
23.5308842553
  0
LINE
  5
389
100
AcDbEntity
  8
00_COMPONENTS
100
AcDbLine
 62
7
  6
BYLAYER
 10
48.734172056
 20
23.5251359849
 11
48.734172056
 21
26.8074842553
  0
LINE
  5
38A
100
AcDbEntity
  8
00_COMPONENTS
100
AcDbLine
 62
7
  6
BYLAYER
 10
48.8197394475
 20
23.4503093764
 11
48.8197394475
 21
26.8074842553
  0
LINE
  5
38B
100
AcDbEntity
  8
00_COMPONENTS
100
AcDbLine
 62
7
  6
BYLAYER
 10
48.9257750086
 20
23.5308842553
 11
48.9257750086
 21
26.8074842553
  0
LINE
  5
38C
100
AcDbEntity
  8
00_COMPONENTS
100
AcDbLine
 62
7
  6
BYLAYER
 10
48.9370171481
 20
26.8074842553
 11
48.9370171481
 21
23.5308842553
  0
LINE
  5
38D
100
AcDbEntity
  8
00_COMPONENTS
100
AcDbLine
 62
7
  6
BYLAYER
 10
48.9390895102
 20
23.5288492883
 11
48.9390895102
 21
26.8074842553
  0
LINE
  5
38E
100
AcDbEntity
  8
00_COMPONENTS
100
AcDbLine
 62
7
  6
BYLAYER
 10
48.9456673445
 20
23.4503093764
 11
48.9456673445
 21
26.8074842553
  0
LINE
  5
38F
100
AcDbEntity
  8
00_COMPONENTS
100
AcDbLine
 62
7
  6
BYLAYER
 10
49.036122313
 20
23.5308842553
 11
49.036122313
 21
26.8074842553
  0
LINE
  5
390
100
AcDbEntity
  8
00_COMPONENTS
100
AcDbLine
 62
7
  6
BYLAYER
 10
49.0398792236
 20
26.8074842553
 11
49.0398792236
 21
23.5308842553
  0
LINE
  5
391
100
AcDbEntity
  8
00_COMPONENTS
100
AcDbLine
 62
7
  6
BYLAYER
 10
49.0514115366
 20
27.5186842553
 11
49.0514115366
 21
26.8074842553
  0
LINE
  5
392
100
AcDbEntity
  8
0
100
AcDbLine
 62
7
  6
BYLAYER
 10
50.0166115366
 20
57.8462842553
 11
50.0166115366
 21
51.4962842553
  0
LINE
  5
393
100
AcDbEntity
  8
00_COMPONENTS
100
AcDbLine
 62
7
  6
BYLAYER
 10
46.2322379742
 20
23.4797224313
 11
46.2283791434
 21
23.4503093764
  0
LINE
  5
394
100
AcDbEntity
  8
00_COMPONENTS
100
AcDbLine
 62
7
  6
BYLAYER
 10
46.151089286
 20
23.1255882831
 11
46.1525942185
 21
23.1367447706
  0
LINE
  5
395
100
AcDbEntity
  8
0
100
AcDbLine
 62
7
  6
BYLAYER
 10
13.5930115366
 20
61.8340842553
 11
56.4682115366
 21
61.8340842553
  0
LINE
  5
396
100
AcDbEntity
  8
00_COMPONENTS_1
100
AcDbLine
 62
7
  6
BYLAYER
 10
51.0306115406
 20
41.1102786534
 11
51.0306115406
 21
27.7726842553
  0
LINE
  5
397
100
AcDbEntity
  8
0
100
AcDbLine
 62
7
  6
BYLAYER
 10
52.4458115366
 20
78.5760068005
 11
52.4458115366
 21
81.1115133231
  0
LINE
  5
398
100
AcDbEntity
  8
0
100
AcDbLine
 62
7
  6
BYLAYER
 10
52.4458115366
 20
82.0033903424
 11
52.4458115366
 21
85.3650804281
  0
LINE
  5
399
100
AcDbEntity
  8
0
100
AcDbLine
 62
7
  6
BYLAYER
 10
52.4458115366
 20
87.8436311175
 11
52.4458115366
 21
89.9660458584
  0
LINE
  5
39A
100
AcDbEntity
  8
0
100
AcDbLine
 62
7
  6
BYLAYER
 10
52.4458115366
 20
90.8579228778
 11
52.4458115366
 21
93.9142842553
  0
LINE
  5
39B
100
AcDbEntity
  8
00_COMPONENTS_1
100
AcDbLine
 62
7
  6
BYLAYER
 10
52.4931115366
 20
48.7022842553
 11
52.4931115366
 21
42.4092590217
  0
LINE
  5
39C
100
AcDbEntity
  8
00_COMPONENTS_1
100
AcDbLine
 62
7
  6
BYLAYER
 10
53.4456115366
 20
49.9722842553
 11
53.4456115366
 21
48.7022842553
  0
LINE
  5
39D
100
AcDbEntity
  8
00_COMPONENTS
100
AcDbLine
 62
7
  6
BYLAYER
 10
46.9180775863
 20
23.4921804273
 11
46.9094227462
 21
23.4503093764
  0
LINE
  5
39E
100
AcDbEntity
  8
00_COMPONENTS
100
AcDbLine
 62
7
  6
BYLAYER
 10
46.7930915003
 20
23.1209075728
 11
46.7964668718
 21
23.1367448136
  0
LINE
  5
39F
100
AcDbEntity
  8
00_COMPONENTS_1
100
AcDbLine
 62
7
  6
BYLAYER
 10
52.4931115366
 20
42.4092590217
 11
51.4243115406
 21
41.7921870563
  0
LINE
  5
3A0
100
AcDbEntity
  8
0
100
AcDbLine
 62
7
  6
BYLAYER
 10
13.5930115366
 20
66.795550922
 11
29.1671713144
 21
66.795550922
  0
LINE
  5
3A1
100
AcDbEntity
  8
0
100
AcDbLine
 62
7
  6
BYLAYER
 10
40.8940517589
 20
66.795550922
 11
56.4682115366
 21
66.795550922
  0
LINE
  5
3A2
100
AcDbEntity
  8
00_COMPONENTS_1
100
AcDbLine
 62
7
  6
BYLAYER
 10
54.0806115366
 20
51.4962842553
 11
54.0806115366
 21
49.9722842553
  0
LINE
  5
3A3
100
AcDbEntity
  8
0
100
AcDbLine
 62
7
  6
BYLAYER
 10
54.8743615366
 20
59.4337842553
 11
54.8743615366
 21
57.8462842553
  0
LINE
  5
3A4
100
AcDbEntity
  8
0
100
AcDbLine
 62
7
  6
BYLAYER
 10
55.2398115366
 20
93.9142842553
 11
55.2398115366
 21
95.7176842553
  0
LINE
  5
3A5
100
AcDbEntity
  8
0
100
AcDbLine
 62
7
  6
BYLAYER
 10
55.3252115366
 20
61.8340842553
 11
55.3252115366
 21
59.4337842553
  0
LINE
  5
3A6
100
AcDbEntity
  8
0
100
AcDbLine
 62
7
  6
BYLAYER
 10
56.4682115366
 20
69.2762842553
 11
56.4682115366
 21
61.8340842553
  0
LINE
  5
3A7
100
AcDbEntity
  8
00_COMPONENTS
100
AcDbLine
 62
7
  6
BYLAYER
 10
47.3448202333
 20
23.116893827
 11
47.3507942625
 21
23.1367448573
  0
LINE
  5
3A8
100
AcDbEntity
  8
0
100
AcDbLine
 62
7
  6
BYLAYER
 10
56.4682115366
 20
69.2762842553
 11
13.5930115366
 21
69.2762842553
  0
LINE
  5
3A9
100
AcDbEntity
  8
0
100
AcDbLine
 62
7
  6
BYLAYER
 10
44.9528115366
 20
69.3016842553
 11
44.9782115366
 21
69.3016842553
  0
LINE
  5
3AA
100
AcDbEntity
  8
0
100
AcDbLine
 62
7
  6
BYLAYER
 10
47.5182115366
 20
69.4021049997
 11
60.2182115366
 21
69.4021049997
  0
LINE
  5
3AB
100
AcDbEntity
  8
0
100
AcDbLine
 62
7
  6
BYLAYER
 10
58.6942115366
 20
93.9142842553
 11
58.6942115366
 21
95.7176842553
  0
LINE
  5
3AC
100
AcDbEntity
  8
0
100
AcDbLine
 62
7
  6
BYLAYER
 10
58.9482115366
 20
88.8404395469
 11
58.9482115366
 21
87.4722727419
  0
LINE
  5
3AD
100
AcDbEntity
  8
0
100
AcDbLine
 62
7
  6
BYLAYER
 10
58.9482115366
 20
79.9859070115
 11
58.9482115366
 21
78.6177402065
  0
LINE
  5
3AE
100
AcDbEntity
  8
0
100
AcDbLine
 62
7
  6
BYLAYER
 10
60.2182115366
 20
69.4021049997
 11
60.2182115366
 21
93.9142842553
  0
LINE
  5
3AF
100
AcDbEntity
  8
00_COMPONENTS
100
AcDbLine
 62
7
  6
BYLAYER
 10
47.8020764961
 20
23.1135664363
 11
47.8113576245
 21
23.1367449011
  0
LINE
  5
3B0
100
AcDbEntity
  8
00_COMPONENTS_2
100
AcDbLine
 62
7
  6
BYLAYER
 10
33.0295852423
 20
9.2612916491
 11
32.4741673604
 21
8.6464842553
  0
LINE
  5
3B1
100
AcDbEntity
  8
00_COMPONENTS_1
100
AcDbLine
 62
7
  6
BYLAYER
 10
51.0306115406
 20
27.7726842553
 11
50.7766115406
 21
27.5186842553
  0
LINE
  5
3B2
100
AcDbEntity
  8
0
100
AcDbLine
 62
7
  6
BYLAYER
 10
47.5182115366
 20
76.8251807955
 11
44.9782115366
 21
76.8251807955
  0
LINE
  5
3B3
100
AcDbEntity
  8
0
100
AcDbLine
 62
7
  6
BYLAYER
 10
44.9782115366
 20
77.1790068005
 11
55.1598471371
 21
77.1790068005
  0
LINE
  5
3B4
100
AcDbEntity
  8
00_COMPONENTS
100
AcDbLine
 62
7
  6
BYLAYER
 10
48.9236999086
 20
23.4072492679
 11
48.9656932648
 21
23.4503093764
  0
LINE
  5
3B5
100
AcDbEntity
  8
00_COMPONENTS
100
AcDbLine
 62
7
  6
BYLAYER
 10
48.2640115367
 20
22.7434842553
 11
48.6570921011
 21
23.1367450724
  0
LINE
  5
3B6
100
AcDbEntity
  8
00_COMPONENTS
100
AcDbLine
 62
7
  6
BYLAYER
 10
48.9456673445
 20
23.4503093764
 11
48.9108151408
 21
23.4173108132
  0
LINE
  5
3B7
100
AcDbEntity
  8
00_COMPONENTS
100
AcDbLine
 62
7
  6
BYLAYER
 10
48.8197394475
 20
23.4503093764
 11
48.7459075932
 21
23.3850043107
  0
LINE
  5
3B8
100
AcDbEntity
  8
0
100
AcDbLine
 62
7
  6
BYLAYER
 10
44.9782115366
 20
78.5760068005
 11
52.4458115366
 21
78.5760068005
  0
LINE
  5
3B9
100
AcDbEntity
  8
0
100
AcDbLine
 62
7
  6
BYLAYER
 10
44.9782115366
 20
78.9298328055
 11
47.5182115366
 21
78.9298328055
  0
LINE
  5
3BA
100
AcDbEntity
  8
0
100
AcDbLine
 62
7
  6
BYLAYER
 10
57.1769891726
 20
79.9859070115
 11
58.9482115366
 21
79.9859070115
  0
LINE
  5
3BB
100
AcDbEntity
  8
0
100
AcDbLine
 62
7
  6
BYLAYER
 10
60.2182115366
 20
75.8771566949
 11
55.1598471371
 21
77.1790068005
  0
LINE
  5
3BC
100
AcDbEntity
  8
0
100
AcDbLine
 62
7
  6
BYLAYER
 10
60.2182115366
 20
78.2908856141
 11
57.9133641409
 21
78.8840745559
  0
LINE
  5
3BD
100
AcDbEntity
  8
0
100
AcDbLine
 62
7
  6
BYLAYER
 10
55.1598471371
 20
77.1790068005
 11
52.4458115366
 21
78.5760068005
  0
LINE
  5
3BE
100
AcDbEntity
  8
0
100
AcDbLine
 62
7
  6
BYLAYER
 10
47.5182115366
 20
85.3650804281
 11
52.4458115366
 21
85.3650804281
  0
LINE
  5
3BF
100
AcDbEntity
  8
0
100
AcDbLine
 62
7
  6
BYLAYER
 10
47.5182115366
 20
87.8436311175
 11
52.4458115366
 21
87.8436311175
  0
LINE
  5
3C0
100
AcDbEntity
  8
0
100
AcDbLine
 62
7
  6
BYLAYER
 10
57.9133641409
 20
81.416506782
 11
60.2182115366
 21
80.8233178402
  0
LINE
  5
3C1
100
AcDbEntity
  8
0
100
AcDbLine
 62
7
  6
BYLAYER
 10
60.2182115366
 20
83.3647303225
 11
52.4458115366
 21
85.3650804281
  0
LINE
  5
3C2
100
AcDbEntity
  8
0
100
AcDbLine
 62
7
  6
BYLAYER
 10
57.1769891726
 20
88.8404395469
 11
58.9482115366
 21
88.8404395469
  0
LINE
  5
3C3
100
AcDbEntity
  8
0
100
AcDbLine
 62
7
  6
BYLAYER
 10
60.2182115366
 20
85.8432810119
 11
52.4458115366
 21
87.8436311175
  0
LINE
  5
3C4
100
AcDbEntity
  8
0
100
AcDbLine
 62
7
  6
BYLAYER
 10
60.2182115366
 20
87.1454181494
 11
57.9133641409
 21
87.7386070913
  0
LINE
  5
3C5
100
AcDbEntity
  8
0
100
AcDbLine
 62
7
  6
BYLAYER
 10
44.9782115366
 20
93.8888842553
 11
44.9528115366
 21
93.8888842553
  0
LINE
  5
3C6
100
AcDbEntity
  8
0
100
AcDbLine
 62
7
  6
BYLAYER
 10
31.7194115366
 20
93.9142842553
 11
60.2182115366
 21
93.9142842553
  0
LINE
  5
3C7
100
AcDbEntity
  8
0
100
AcDbLine
 62
7
  6
BYLAYER
 10
57.9133641409
 20
90.2710393174
 11
60.2182115366
 21
89.6778503756
  0
LINE
  5
3C8
100
AcDbEntity
  8
0
100
AcDbLine
 62
7
  6
BYLAYER
 10
58.6942115366
 20
95.7176842553
 11
55.2398115366
 21
95.7176842553
  0
ARC
  5
3C9
100
AcDbEntity
  8
00_COMPONENTS
100
AcDbCircle
 62
7
  6
BYLAYER
 10
-97.3561200337
 20
38.2990968112
 40
124.6073823731
100
AcDbArc
 50
353.0108714931
 51
353.1561089315
  0
ARC
  5
3CA
100
AcDbEntity
  8
00_COMPONENTS
100
AcDbCircle
 62
7
  6
BYLAYER
 10
-76.8989187867
 20
38.1343213803
 40
123.2389650084
100
AcDbArc
 50
353.0100589679
 51
353.1569089586
  0
ARC
  5
3CB
100
AcDbEntity
  8
00_COMPONENTS
100
AcDbCircle
 62
7
  6
BYLAYER
 10
-37.4369553005
 20
38.9421103875
 40
66.6114060254
100
AcDbArc
 50
346.2741076543
 51
346.5515863488
  0
ARC
  5
3CC
100
AcDbEntity
  8
00_COMPONENTS
100
AcDbCircle
 62
7
  6
BYLAYER
 10
25.4554718455
 20
27.6979417915
 40
6.0869923361
100
AcDbArc
 50
223.8712610527
 51
224.252460465
  0
ARC
  5
3CD
100
AcDbEntity
  8
00_COMPONENTS
100
AcDbCircle
 62
7
  6
BYLAYER
 10
18.3431890983
 20
20.5303103134
 40
4.0264638657
100
AcDbArc
 50
46.4856423476
 51
47.2074737368
  0
ARC
  5
3CE
100
AcDbEntity
  8
00_COMPONENTS
100
AcDbCircle
 62
7
  6
BYLAYER
 10
22.2032113727
 20
23.9481188547
 40
1.1071756517
100
AcDbArc
 50
227.1243725353
 51
227.6573929492
  0
ARC
  5
3CF
100
AcDbEntity
  8
00_COMPONENTS_2
100
AcDbCircle
 62
7
  6
BYLAYER
 10
29.2444946959
 20
22.4894842553
 40
0.254
100
AcDbArc
 50
5.7105931374
 51
90.0
  0
ARC
  5
3D0
100
AcDbEntity
  8
00_COMPONENTS_2
100
AcDbCircle
 62
7
  6
BYLAYER
 10
31.2917283774
 20
7.1224842553
 40
0.254
100
AcDbArc
 50
185.7105931374
 51
270.0
  0
ARC
  5
3D1
100
AcDbEntity
  8
00_COMPONENTS
100
AcDbCircle
 62
7
  6
BYLAYER
 10
-17.8713334678
 20
38.7765255576
 40
65.9064948187
100
AcDbArc
 50
346.2726094326
 51
346.5530556484
  0
ARC
  5
3D2
100
AcDbEntity
  8
00_COMPONENTS
100
AcDbCircle
 62
7
  6
BYLAYER
 10
13.9036198727
 20
66.4820738767
 40
53.1807357936
100
AcDbArc
 50
305.4070049341
 51
305.9859839088
  0
ARC
  5
3D3
100
AcDbEntity
  8
00_COMPONENTS
100
AcDbCircle
 62
7
  6
BYLAYER
 10
13.0680098281
 20
66.2656795835
 40
52.9831816409
100
AcDbArc
 50
305.5102323685
 51
306.0899126236
  0
ARC
  5
3D4
100
AcDbEntity
  8
00_COMPONENTS
100
AcDbCircle
 62
7
  6
BYLAYER
 10
14.7389397747
 20
66.2656787923
 40
52.9831770273
100
AcDbArc
 50
305.5102270055
 51
306.0899072317
  0
ARC
  5
3D5
100
AcDbEntity
  8
00_COMPONENTS
100
AcDbCircle
 62
7
  6
BYLAYER
 10
12.2366068191
 20
65.6230707253
 40
52.3981465041
100
AcDbArc
 50
305.8222662311
 51
306.4040200613
  0
ARC
  5
3D6
100
AcDbEntity
  8
00_COMPONENTS
100
AcDbCircle
 62
7
  6
BYLAYER
 10
15.5657498763
 20
65.6230691761
 40
52.3981373093
100
AcDbArc
 50
305.8222555078
 51
306.4040092805
  0
ARC
  5
3D7
100
AcDbEntity
  8
00_COMPONENTS
100
AcDbCircle
 62
7
  6
BYLAYER
 10
11.4099908532
 20
64.5737720011
 40
51.4484514396
100
AcDbArc
 50
306.350261314
 51
306.9353650401
  0
ARC
  5
3D8
100
AcDbEntity
  8
00_COMPONENTS
100
AcDbCircle
 62
7
  6
BYLAYER
 10
16.3720101417
 20
64.5737697532
 40
51.4484377176
100
AcDbArc
 50
306.3502452392
 51
306.9353488791
  0
ARC
  5
3D9
100
AcDbEntity
  8
00_COMPONENTS
100
AcDbCircle
 62
7
  6
BYLAYER
 10
10.5843108299
 20
63.14966472
 40
50.1719137722
100
AcDbArc
 50
307.1064210099
 51
307.6959727363
  0
ARC
  5
3DA
100
AcDbEntity
  8
00_COMPONENTS
100
AcDbCircle
 62
7
  6
BYLAYER
 10
17.1414422638
 20
63.14966186
 40
50.1718955962
100
AcDbArc
 50
307.1063996061
 51
307.6959512176
  0
ARC
  5
3DB
100
AcDbEntity
  8
00_COMPONENTS
100
AcDbCircle
 62
7
  6
BYLAYER
 10
-18.0202352987
 20
39.9919514804
 40
49.2709614079
100
AcDbArc
 50
339.9956119711
 51
340.3831857254
  0
ARC
  5
3DC
100
AcDbEntity
  8
00_COMPONENTS
100
AcDbCircle
 62
7
  6
BYLAYER
 10
0.9608746333
 20
39.8253027223
 40
48.779191063
100
AcDbArc
 50
339.993634949
 51
340.3851156195
  0
ARC
  5
3DD
100
AcDbEntity
  8
00_COMPONENTS
100
AcDbCircle
 62
7
  6
BYLAYER
 10
9.750362409
 20
61.3940180832
 40
48.6211387044
100
AcDbArc
 50
308.108408503
 51
308.7032159465
  0
ARC
  5
3DE
100
AcDbEntity
  8
00_COMPONENTS
100
AcDbCircle
 62
7
  6
BYLAYER
 10
17.8527021219
 20
61.3940147177
 40
48.6211161513
100
AcDbArc
 50
308.1083818194
 51
308.7031891196
  0
ARC
  5
3DF
100
AcDbEntity
  8
00_COMPONENTS
100
AcDbCircle
 62
7
  6
BYLAYER
 10
8.8119990126
 20
59.4566986747
 40
46.9889123853
100
AcDbArc
 50
309.3807009532
 51
309.9795196305
  0
ARC
  5
3E0
100
AcDbEntity
  8
00_COMPONENTS
100
AcDbCircle
 62
7
  6
BYLAYER
 10
18.4037208959
 20
59.4496584945
 40
46.9797428714
100
AcDbArc
 50
309.3806108184
 51
309.9795458602
  0
ARC
  5
3E1
100
AcDbEntity
  8
00_COMPONENTS
100
AcDbCircle
 62
7
  6
BYLAYER
 10
7.8999586753
 20
57.205859583
 40
45.1092450403
100
AcDbArc
 50
310.9520875137
 51
311.5560890203
  0
ARC
  5
3E2
100
AcDbEntity
  8
00_COMPONENTS
100
AcDbCircle
 62
7
  6
BYLAYER
 10
19.1173436442
 20
56.9533270298
 40
44.7736986618
100
AcDbArc
 50
310.9503479476
 51
311.4327387985
  0
ARC
  5
3E3
100
AcDbEntity
  8
00_COMPONENTS
100
AcDbCircle
 62
7
  6
BYLAYER
 10
6.8985269763
 20
54.8068511476
 40
43.2057610162
100
AcDbArc
 50
312.8609586914
 51
313.4688009336
  0
ARC
  5
3E4
100
AcDbEntity
  8
00_COMPONENTS
100
AcDbCircle
 62
7
  6
BYLAYER
 10
19.4168239375
 20
54.5985541506
 40
42.9204549506
100
AcDbArc
 50
312.8593227191
 51
313.4071339775
  0
ARC
  5
3E5
100
AcDbEntity
  8
00_COMPONENTS
100
AcDbCircle
 62
7
  6
BYLAYER
 10
-8.6614188876
 20
41.4167308192
 40
42.1652485556
100
AcDbArc
 50
334.3080776154
 51
334.7799771274
  0
ARC
  5
3E6
100
AcDbEntity
  8
00_COMPONENTS
100
AcDbCircle
 62
7
  6
BYLAYER
 10
9.7069965634
 20
41.2487576214
 40
41.7744001922
100
AcDbArc
 50
334.3058377353
 51
334.7821518757
  0
ARC
  5
3E7
100
AcDbEntity
  8
00_COMPONENTS
100
AcDbCircle
 62
7
  6
BYLAYER
 10
5.7488142329
 20
52.3325811563
 40
41.3996085472
100
AcDbArc
 50
315.1526703043
 51
315.761553045
  0
ARC
  5
3E8
100
AcDbEntity
  8
00_COMPONENTS
100
AcDbCircle
 62
7
  6
BYLAYER
 10
19.6015487366
 20
52.040403596
 40
40.9834854073
100
AcDbArc
 50
315.1501459304
 51
315.6811240363
  0
ARC
  5
3E9
100
AcDbEntity
  8
00_COMPONENTS
100
AcDbCircle
 62
7
  6
BYLAYER
 10
4.3601240815
 20
49.8582448104
 40
39.8421531245
100
AcDbArc
 50
317.8801105055
 51
318.4851635947
  0
ARC
  5
3EA
100
AcDbEntity
  8
00_COMPONENTS
100
AcDbCircle
 62
7
  6
BYLAYER
 10
19.2426733655
 20
49.6827868872
 40
39.5789607945
100
AcDbArc
 50
317.8780410063
 51
318.4871169276
  0
ARC
  5
3EB
100
AcDbEntity
  8
00_COMPONENTS
100
AcDbCircle
 62
7
  6
BYLAYER
 10
-3.2686397616
 20
43.1731614384
 40
39.2103834317
100
AcDbArc
 50
329.2696888232
 51
329.8012729615
  0
ARC
  5
3EC
100
AcDbEntity
  8
00_COMPONENTS
100
AcDbCircle
 62
7
  6
BYLAYER
 10
14.3951155533
 20
43.003612456
 40
38.8759264898
100
AcDbArc
 50
329.2673617045
 51
329.8035185462
  0
ARC
  5
3ED
100
AcDbEntity
  8
00_COMPONENTS
100
AcDbCircle
 62
7
  6
BYLAYER
 10
2.5880360026
 20
47.459038495
 40
38.7339095003
100
AcDbArc
 50
321.102224007
 51
321.6957321299
  0
ARC
  5
3EE
100
AcDbEntity
  8
00_COMPONENTS
100
AcDbCircle
 62
7
  6
BYLAYER
 10
18.5097556038
 20
47.2856998982
 40
38.4560341312
100
AcDbArc
 50
321.1000265002
 51
321.6978225292
  0
ARC
  5
3EF
100
AcDbEntity
  8
00_COMPONENTS
100
AcDbCircle
 62
7
  6
BYLAYER
 10
0.1905230993
 20
45.2078739022
 40
38.3653371164
100
AcDbArc
 50
324.8801755229
 51
325.4506984957
  0
ARC
  5
3F0
100
AcDbEntity
  8
00_COMPONENTS
100
AcDbCircle
 62
7
  6
BYLAYER
 10
17.0399773969
 20
45.0365229959
 40
38.0653152915
100
AcDbArc
 50
324.8778796861
 51
325.4528987345
  0
ARC
  5
3F1
100
AcDbEntity
  8
00_COMPONENTS_1
100
AcDbCircle
 62
7
  6
BYLAYER
 10
18.2432115326
 20
41.1102786534
 40
0.7874
100
AcDbArc
 50
0.0
 51
60.0
  0
ARC
  5
3F2
100
AcDbEntity
  8
00_COMPONENTS_2
100
AcDbCircle
 62
7
  6
BYLAYER
 10
34.343467077
 20
92.6587099145
 40
70.1228630757
100
AcDbArc
 50
266.1518458435
 51
268.1034005471
  0
ARC
  5
3F3
100
AcDbEntity
  8
00_COMPONENTS
100
AcDbCircle
 62
7
  6
BYLAYER
 10
45.0741015269
 20
27.2446829678
 40
5.4352329486
100
AcDbArc
 50
315.7246835257
 51
316.151583052
  0
ARC
  5
3F4
100
AcDbEntity
  8
00_COMPONENTS
100
AcDbCircle
 62
7
  6
BYLAYER
 10
52.0154132247
 20
20.2131173143
 40
4.4612500732
100
AcDbArc
 50
132.8276865741
 51
133.4791817568
  0
ARC
  5
3F5
100
AcDbEntity
  8
00_COMPONENTS_2
100
AcDbCircle
 62
7
  6
BYLAYER
 10
40.8167283774
 20
22.4894842553
 40
0.254
100
AcDbArc
 50
90.0
 51
174.2894068626
  0
ARC
  5
3F6
100
AcDbEntity
  8
00_COMPONENTS_2
100
AcDbCircle
 62
7
  6
BYLAYER
 10
38.7694946959
 20
7.1224842553
 40
0.254
100
AcDbArc
 50
270.0
 51
354.2894068626
  0
ARC
  5
3F7
100
AcDbEntity
  8
00_COMPONENTS
100
AcDbCircle
 62
7
  6
BYLAYER
 10
35.0307489619
 20
23.2064570665
 40
0.0989219861
100
AcDbArc
 50
224.8072081583
 51
315.1927157276
  0
ARC
  5
3F8
100
AcDbEntity
  8
00_COMPONENTS
100
AcDbCircle
 62
7
  6
BYLAYER
 10
88.6141667312
 20
38.9412504254
 40
66.6077250661
100
AcDbArc
 50
193.4484102176
 51
193.7259041741
  0
ARC
  5
3F9
100
AcDbEntity
  8
00_COMPONENTS
100
AcDbCircle
 62
7
  6
BYLAYER
 10
56.1576177468
 20
66.4820733239
 40
53.1807438935
100
AcDbArc
 50
234.0140030602
 51
234.5929821812
  0
ARC
  5
3FA
100
AcDbEntity
  8
00_COMPONENTS
100
AcDbCircle
 62
7
  6
BYLAYER
 10
56.993225103
 20
66.2656780875
 40
52.9831874169
100
AcDbArc
 50
233.9100760612
 51
234.4897564751
  0
ARC
  5
3FB
100
AcDbEntity
  8
00_COMPONENTS
100
AcDbCircle
 62
7
  6
BYLAYER
 10
55.3223003857
 20
66.2656791908
 40
52.9831874145
100
AcDbArc
 50
233.9100780902
 51
234.4897584495
  0
ARC
  5
3FC
100
AcDbEntity
  8
00_COMPONENTS
100
AcDbCircle
 62
7
  6
BYLAYER
 10
57.8246253194
 20
65.6230683305
 40
52.3981499566
100
AcDbArc
 50
233.5959704063
 51
234.1777244072
  0
ARC
  5
3FD
100
AcDbEntity
  8
00_COMPONENTS
100
AcDbCircle
 62
7
  6
BYLAYER
 10
54.4954926423
 20
65.6230704977
 40
52.3981499132
100
AcDbArc
 50
233.5959744636
 51
234.1777283554
  0
ARC
  5
3FE
100
AcDbEntity
  8
00_COMPONENTS
100
AcDbCircle
 62
7
  6
BYLAYER
 10
58.6512384279
 20
64.5737687822
 40
51.448452597
100
AcDbArc
 50
233.0646272799
 51
233.6497311876
  0
ARC
  5
3FF
100
AcDbEntity
  8
00_COMPONENTS
100
AcDbCircle
 62
7
  6
BYLAYER
 10
53.6892345235
 20
64.573771936
 40
51.4484524373
100
AcDbArc
 50
233.0646333614
 51
233.6497371055
  0
ARC
  5
400
100
AcDbEntity
  8
00_COMPONENTS
100
AcDbCircle
 62
7
  6
BYLAYER
 10
59.4769155719
 20
63.1496607818
 40
50.1719126913
100
AcDbArc
 50
232.304021506
 51
232.8935734239
  0
ARC
  5
401
100
AcDbEntity
  8
00_COMPONENTS
100
AcDbCircle
 62
7
  6
BYLAYER
 10
52.9198043154
 20
63.1496648123
 40
50.1719123054
100
AcDbArc
 50
232.3040296037
 51
232.8935813037
  0
ARC
  5
402
100
AcDbEntity
  8
00_COMPONENTS
100
AcDbCircle
 62
7
  6
BYLAYER
 10
69.5592068175
 20
39.9905843368
 40
49.266906468
100
AcDbArc
 50
199.6168071302
 51
200.0044126444
  0
ARC
  5
403
100
AcDbEntity
  8
00_COMPONENTS
100
AcDbCircle
 62
7
  6
BYLAYER
 10
87.6237060399
 20
39.8270642329
 40
48.7844202522
100
AcDbArc
 50
199.6148919751
 51
200.0063309587
  0
ARC
  5
404
100
AcDbEntity
  8
00_COMPONENTS
100
AcDbCircle
 62
7
  6
BYLAYER
 10
60.31086113
 20
61.3940135528
 40
48.6211354601
100
AcDbArc
 50
231.296780287
 51
231.8915879311
  0
ARC
  5
405
100
AcDbEntity
  8
00_COMPONENTS
100
AcDbCircle
 62
7
  6
BYLAYER
 10
52.2085461313
 20
61.3940183247
 40
48.6211347109
100
AcDbArc
 50
231.296790382
 51
231.8915977544
  0
ARC
  5
406
100
AcDbEntity
  8
00_COMPONENTS
100
AcDbCircle
 62
7
  6
BYLAYER
 10
61.107257934
 20
59.2855766709
 40
46.7665708425
100
AcDbArc
 50
230.0190552019
 51
230.6207209996
  0
ARC
  5
407
100
AcDbEntity
  8
00_COMPONENTS
100
AcDbCircle
 62
7
  6
BYLAYER
 10
51.5195475341
 20
59.2833458196
 40
46.7636640263
100
AcDbArc
 50
230.0190485668
 51
230.6207514224
  0
ARC
  5
408
100
AcDbEntity
  8
00_COMPONENTS
100
AcDbCircle
 62
7
  6
BYLAYER
 10
62.0116026387
 20
57.0352281441
 40
44.8822818438
100
AcDbArc
 50
228.442384236
 51
229.0494402351
  0
ARC
  5
409
100
AcDbEntity
  8
00_COMPONENTS
100
AcDbCircle
 62
7
  6
BYLAYER
 10
50.8606173524
 20
56.8581525907
 40
44.6472453493
100
AcDbArc
 50
228.5665471434
 51
229.0503045836
  0
ARC
  5
40A
100
AcDbEntity
  8
00_COMPONENTS
100
AcDbCircle
 62
7
  6
BYLAYER
 10
63.0032340182
 20
54.6368354053
 40
42.9726688134
100
AcDbArc
 50
226.5295531192
 51
227.1406925355
  0
ARC
  5
40B
100
AcDbEntity
  8
00_COMPONENTS
100
AcDbCircle
 62
7
  6
BYLAYER
 10
50.5869386412
 20
54.5371921979
 40
42.8363905713
100
AcDbArc
 50
226.5923013747
 51
227.1411880351
  0
ARC
  5
40C
100
AcDbEntity
  8
00_COMPONENTS
100
AcDbCircle
 62
7
  6
BYLAYER
 10
60.7030015059
 20
41.4147709091
 40
42.1606668085
100
AcDbArc
 50
205.2200113833
 51
205.6919619746
  0
ARC
  5
40D
100
AcDbEntity
  8
00_COMPONENTS
100
AcDbCircle
 62
7
  6
BYLAYER
 10
78.3750660517
 20
41.2512824975
 40
41.7803074561
100
AcDbArc
 50
205.2178602821
 51
205.6941074882
  0
ARC
  5
40E
100
AcDbEntity
  8
00_COMPONENTS
100
AcDbCircle
 62
7
  6
BYLAYER
 10
64.1403801505
 20
52.1632804974
 40
41.1582479506
100
AcDbArc
 50
224.2366663668
 51
224.8491198107
  0
ARC
  5
40F
100
AcDbEntity
  8
00_COMPONENTS
100
AcDbCircle
 62
7
  6
BYLAYER
 10
50.5295246078
 20
52.1092183825
 40
41.081538181
100
AcDbArc
 50
224.3194804921
 51
224.8491916127
  0
ARC
  5
410
100
AcDbEntity
  8
00_COMPONENTS
100
AcDbCircle
 62
7
  6
BYLAYER
 10
51.0086698098
 20
49.8528551041
 40
39.8340432726
100
AcDbArc
 50
221.5148087761
 51
222.119984745
  0
ARC
  5
411
100
AcDbEntity
  8
00_COMPONENTS
100
AcDbCircle
 62
7
  6
BYLAYER
 10
65.51273009
 20
49.6897271307
 40
39.5894096344
100
AcDbArc
 50
221.5129118187
 51
222.121827689
  0
ARC
  5
412
100
AcDbEntity
  8
00_COMPONENTS
100
AcDbCircle
 62
7
  6
BYLAYER
 10
55.9498670264
 20
43.1705062488
 40
39.2051235243
100
AcDbArc
 50
210.1987110555
 51
210.7303662597
  0
ARC
  5
413
100
AcDbEntity
  8
00_COMPONENTS
100
AcDbCircle
 62
7
  6
BYLAYER
 10
73.0474173502
 20
43.0070326427
 40
38.8827068813
100
AcDbArc
 50
210.1964982885
 51
210.7325621607
  0
ARC
  5
414
100
AcDbEntity
  8
00_COMPONENTS
100
AcDbCircle
 62
7
  6
BYLAYER
 10
51.7631404603
 20
47.4546618482
 40
38.726869245
100
AcDbArc
 50
218.3042436762
 51
218.8978593938
  0
ARC
  5
415
100
AcDbEntity
  8
00_COMPONENTS
100
AcDbCircle
 62
7
  6
BYLAYER
 10
67.2631083389
 20
47.2913361604
 40
38.465106206
100
AcDbArc
 50
218.3022027346
 51
218.8998584407
  0
ARC
  5
416
100
AcDbEntity
  8
00_COMPONENTS
100
AcDbCircle
 62
7
  6
BYLAYER
 10
53.2625232422
 20
45.2044126073
 40
38.3592535021
100
AcDbArc
 50
214.5492812204
 51
215.1198943906
  0
ARC
  5
417
100
AcDbEntity
  8
00_COMPONENTS
100
AcDbCircle
 62
7
  6
BYLAYER
 10
69.6308693764
 20
45.0409809038
 40
38.0731558783
100
AcDbArc
 50
214.5471225328
 51
215.1220237762
  0
ARC
  5
418
100
AcDbEntity
  8
00_COMPONENTS_1
100
AcDbCircle
 62
7
  6
BYLAYER
 10
51.8180115406
 20
41.1102786534
 40
0.7874
100
AcDbArc
 50
120.0
 51
180.0
  0
ARC
  5
419
100
AcDbEntity
  8
00_COMPONENTS
100
AcDbCircle
 62
7
  6
BYLAYER
 10
148.3151706635
 20
38.2986828218
 40
124.6039246249
100
AcDbArc
 50
186.8438901662
 51
186.989131615
  0
ARC
  5
41A
100
AcDbEntity
  8
00_COMPONENTS
100
AcDbCircle
 62
7
  6
BYLAYER
 10
166.0633094315
 20
38.1348548568
 40
123.2434250324
100
AcDbArc
 50
186.8430920066
 51
186.9899367214
  0
ARC
  5
41B
100
AcDbEntity
  8
00_COMPONENTS
100
AcDbCircle
 62
7
  6
BYLAYER
 10
106.8176053819
 20
38.7776336457
 40
65.9112422424
100
AcDbArc
 50
193.4469480153
 51
193.7273741719
  0
ARC
  5
41C
100
AcDbEntity
  8
00_COMPONENTS_2
100
AcDbCircle
 62
7
  6
BYLAYER
 10
34.6159060118
 20
137.2786117418
 40
117.0264344863
100
AcDbArc
 50
267.5989565026
 51
268.6569388158
  0
ARC
  5
41D
100
AcDbEntity
  8
00_COMPONENTS_2
100
AcDbCircle
 62
7
  6
BYLAYER
 10
35.5534812096
 20
133.9040102914
 40
113.6502695726
100
AcDbArc
 50
271.2807148765
 51
272.4178343204
  0
ARC
  5
41E
100
AcDbEntity
  8
00_COMPONENTS_2
100
AcDbCircle
 62
7
  6
BYLAYER
 10
35.6854978496
 20
93.2920925265
 40
70.7570358776
100
AcDbArc
 50
271.8350616455
 51
273.8052393554
  0
SPLINE
  5
41F
100
AcDbEntity
  8
00_COMPONENTS
100
AcDbSpline
 62
7
  6
BYLAYER
 70
0
 71
3
 72
15
 73
11
 74
0
 42
0.0000001
 43
0.0000001
 44
0.0000000001
 40
0.0
 40
0.0
 40
0.0
 40
0.0
 40
0.0094446164
 40
0.0268257063
 40
0.0858443048
 40
0.1758786576
 40
0.2946053249
 40
0.4392194897
 40
0.6068413246
 40
1.0
 40
1.0
 40
1.0
 40
1.0
 10
49.0400872192
 20
23.5306782226
 30
0.0
 10
49.0400866714
 20
23.5304605685
 30
0.0
 10
49.0397939967
 20
23.5298805957
 30
0.0
 10
49.0387559775
 20
23.5282300785
 30
0.0
 10
49.0363244668
 20
23.525218815
 30
0.0
 10
49.0323309641
 20
23.5205370167
 30
0.0
 10
49.0268848534
 20
23.5144716916
 30
0.0
 10
49.0201647889
 20
23.5071622334
 30
0.0
 10
49.0090529141
 20
23.4952950263
 30
0.0
 10
49.0001312652
 20
23.4859455771
 30
0.0
 10
48.9938561114
 20
23.4794099096
 30
0.0
  0
SPLINE
  5
420
100
AcDbEntity
  8
00_COMPONENTS
100
AcDbSpline
 62
7
  6
BYLAYER
 70
0
 71
3
 72
13
 73
9
 74
0
 42
0.0000001
 43
0.0000001
 44
0.0000000001
 40
0.0
 40
0.0
 40
0.0
 40
0.0
 40
0.0362205857
 40
0.1030758611
 40
0.1987442034
 40
0.320155987
 40
0.6272883368
 40
1.0
 40
1.0
 40
1.0
 40
1.0
 10
48.5759604004
 20
23.1079322307
 30
0.0
 10
48.5759607561
 20
23.1083801175
 30
0.0
 10
48.5765839322
 20
23.1095702887
 30
0.0
 10
48.577865568
 20
23.1116159363
 30
0.0
 10
48.5799793536
 20
23.1144485277
 30
0.0
 10
48.5840053762
 20
23.1195151705
 30
0.0
 10
48.5904507829
 20
23.1270530769
 30
0.0
 10
48.5960429005
 20
23.1333268442
 30
0.0
 10
48.5991343151
 20
23.1367450309
 30
0.0
  0
SPLINE
  5
421
100
AcDbEntity
  8
00_COMPONENTS
100
AcDbSpline
 62
7
  6
BYLAYER
 70
0
 71
3
 72
14
 73
10
 74
0
 42
0.0000001
 43
0.0000001
 44
0.0000000001
 40
0.0
 40
0.0
 40
0.0
 40
0.0
 40
0.0433692892
 40
0.1145408624
 40
0.2122364542
 40
0.3337368192
 40
0.4759964381
 40
0.6361742241
 40
1.0
 40
1.0
 40
1.0
 40
1.0
 10
48.939089528
 20
23.5288493053
 30
0.0
 10
48.9390900693
 20
23.5274183349
 30
0.0
 10
48.9376486585
 20
23.5237732886
 30
0.0
 10
48.9342491119
 20
23.5177239474
 30
0.0
 10
48.9288370931
 20
23.5097711978
 30
0.0
 10
48.9217083211
 20
23.5002229157
 30
0.0
 10
48.9130034289
 20
23.4892663628
 30
0.0
 10
48.8989730896
 20
23.4723434964
 30
0.0
 10
48.8876221706
 20
23.4592975231
 30
0.0
 10
48.8796647988
 20
23.4503093764
 30
0.0
  0
SPLINE
  5
422
100
AcDbEntity
  8
00_COMPONENTS
100
AcDbSpline
 62
7
  6
BYLAYER
 70
0
 71
3
 72
11
 73
7
 74
0
 42
0.0000001
 43
0.0000001
 44
0.0000000001
 40
0.0
 40
0.0
 40
0.0
 40
0.0
 40
0.1312333663
 40
0.3522728543
 40
0.647622533
 40
1.0
 40
1.0
 40
1.0
 40
1.0
 10
48.4199972776
 20
23.1090668288
 30
0.0
 10
48.4199955571
 20
23.1105183502
 30
0.0
 10
48.4217380491
 20
23.1142103282
 30
0.0
 10
48.4253801956
 20
23.1202598775
 30
0.0
 10
48.4310524628
 20
23.1280834084
 30
0.0
 10
48.4354641576
 20
23.1337119581
 30
0.0
 10
48.4379118788
 20
23.1367449883
 30
0.0
  0
SPLINE
  5
423
100
AcDbEntity
  8
00_COMPONENTS
100
AcDbSpline
 62
7
  6
BYLAYER
 70
0
 71
3
 72
12
 73
8
 74
0
 42
0.0000001
 43
0.0000001
 44
0.0000000001
 40
0.0
 40
0.0
 40
0.0
 40
0.0
 40
0.0600602998
 40
0.1413112664
 40
0.3641210272
 40
0.6553848153
 40
1.0
 40
1.0
 40
1.0
 40
1.0
 10
48.7341716811
 20
23.5251356459
 30
0.0
 10
48.7341719607
 20
23.5233634188
 30
0.0
 10
48.7332872969
 20
23.519221007
 30
0.0
 10
48.7292991472
 20
23.5092416052
 30
0.0
 10
48.7203705166
 20
23.4940191458
 30
0.0
 10
48.7059641895
 20
23.4731888447
 30
0.0
 10
48.6945402177
 20
23.4582886138
 30
0.0
 10
48.6882366752
 20
23.4503093764
 30
0.0
  0
SPLINE
  5
424
100
AcDbEntity
  8
00_COMPONENTS
100
AcDbSpline
 62
7
  6
BYLAYER
 70
0
 71
3
 72
10
 73
6
 74
0
 42
0.0000001
 43
0.0000001
 44
0.0000000001
 40
0.0
 40
0.0
 40
0.0
 40
0.0
 40
0.1583854846
 40
0.3841336271
 40
1.0
 40
1.0
 40
1.0
 40
1.0
 10
48.1613813398
 20
23.110951348
 30
0.0
 10
48.1613823091
 20
23.1124953637
 30
0.0
 10
48.1624353572
 20
23.1161820224
 30
0.0
 10
48.1666151802
 20
23.124961726
 30
0.0
 10
48.1711973418
 20
23.1318345643
 30
0.0
 10
48.1746517926
 20
23.1367449449
 30
0.0
  0
SPLINE
  5
425
100
AcDbEntity
  8
00_COMPONENTS
100
AcDbSpline
 62
7
  6
BYLAYER
 70
0
 71
3
 72
11
 73
7
 74
0
 42
0.0000001
 43
0.0000001
 44
0.0000000001
 40
0.0
 40
0.0
 40
0.0
 40
0.0
 40
0.1657570939
 40
0.3930165368
 40
0.6742723501
 40
1.0
 40
1.0
 40
1.0
 40
1.0
 10
48.4268948053
 20
23.5195655403
 30
0.0
 10
48.4268941457
 20
23.5152636945
 30
0.0
 10
48.4243000851
 20
23.505178835
 30
0.0
 10
48.4171271432
 20
23.4892444413
 30
0.0
 10
48.4063291882
 20
23.4704257609
 30
0.0
 10
48.397660399
 20
23.4572716696
 30
0.0
 10
48.3928657777
 20
23.4503093764
 30
0.0
  0
SPLINE
  5
426
100
AcDbEntity
  8
00_COMPONENTS
100
AcDbSpline
 62
7
  6
BYLAYER
 70
0
 71
3
 72
10
 73
6
 74
0
 42
0.0000001
 43
0.0000001
 44
0.0000000001
 40
0.0
 40
0.0
 40
0.0
 40
0.0
 40
0.188028039
 40
0.4200626538
 40
1.0
 40
1.0
 40
1.0
 40
1.0
 10
48.0195978952
 20
23.5121795152
 30
0.0
 10
48.0195982023
 20
23.5079909776
 30
0.0
 10
48.01804442
 20
23.4986554387
 30
0.0
 10
48.0108306231
 20
23.4775499139
 30
0.0
 10
48.0022989759
 20
23.4614744312
 30
0.0
 10
47.995800057
 20
23.4503093764
 30
0.0
  0
SPLINE
  5
427
100
AcDbEntity
  8
00_COMPONENTS
100
AcDbSpline
 62
7
  6
BYLAYER
 70
0
 71
3
 72
15
 73
11
 74
0
 42
0.0000001
 43
0.0000001
 44
0.0000000001
 40
0.0
 40
0.0
 40
0.0
 40
0.0
 40
0.3931592308
 40
0.5607810297
 40
0.7053951383
 40
0.8241217858
 40
0.9141560053
 40
0.9731743351
 40
0.9905553999
 40
1.0
 40
1.0
 40
1.0
 40
1.0
 10
21.0673662292
 20
23.4794106728
 30
0.0
 10
21.0610911641
 20
23.4859462514
 30
0.0
 10
21.0521696459
 20
23.4952955689
 30
0.0
 10
21.041057938
 20
23.5071626068
 30
0.0
 10
21.0343379811
 20
23.5144719544
 30
0.0
 10
21.0288919614
 20
23.5205371873
 30
0.0
 10
21.0248985276
 20
23.5252189083
 30
0.0
 10
21.0224670658
 20
23.5282301224
 30
0.0
 10
21.0214290675
 20
23.5298806091
 30
0.0
 10
21.0211363997
 20
23.5304605734
 30
0.0
 10
21.0211358529
 20
23.5306782237
 30
0.0
  0
SPLINE
  5
428
100
AcDbEntity
  8
00_COMPONENTS
100
AcDbSpline
 62
7
  6
BYLAYER
 70
0
 71
3
 72
14
 73
10
 74
0
 42
0.0000001
 43
0.0000001
 44
0.0000000001
 40
0.0
 40
0.0
 40
0.0
 40
0.0
 40
0.3638256921
 40
0.5240036085
 40
0.6662632471
 40
0.787763585
 40
0.8854592054
 40
0.9566308451
 40
1.0
 40
1.0
 40
1.0
 40
1.0
 10
21.1815582745
 20
23.4503093764
 30
0.0
 10
21.1736009045
 20
23.4592975212
 30
0.0
 10
21.1622499841
 20
23.4723434957
 30
0.0
 10
21.1482196434
 20
23.4892663643
 30
0.0
 10
21.139514749
 20
23.5002229204
 30
0.0
 10
21.1323859739
 20
23.5097712023
 30
0.0
 10
21.126973962
 20
23.5177239572
 30
0.0
 10
21.1235744039
 20
23.5237732944
 30
0.0
 10
21.122133008
 20
23.52741834
 30
0.0
 10
21.1221335445
 20
23.5288493061
 30
0.0
  0
SPLINE
  5
429
100
AcDbEntity
  8
00_COMPONENTS
100
AcDbSpline
 62
7
  6
BYLAYER
 70
0
 71
3
 72
12
 73
8
 74
0
 42
0.0000001
 43
0.0000001
 44
0.0000000001
 40
0.0
 40
0.0
 40
0.0
 40
0.0
 40
0.3446149955
 40
0.635878917
 40
0.8586886226
 40
0.9399396397
 40
1.0
 40
1.0
 40
1.0
 40
1.0
 10
21.3729863981
 20
23.4503093764
 30
0.0
 10
21.3666828588
 20
23.4582886097
 30
0.0
 10
21.3552588862
 20
23.4731888392
 30
0.0
 10
21.3408525649
 20
23.4940191392
 30
0.0
 10
21.3319239211
 20
23.5092415993
 30
0.0
 10
21.3279357849
 20
23.5192210065
 30
0.0
 10
21.3270511088
 20
23.5233634197
 30
0.0
 10
21.3270513891
 20
23.5251356488
 30
0.0
  0
SPLINE
  5
42A
100
AcDbEntity
  8
00_COMPONENTS
100
AcDbSpline
 62
7
  6
BYLAYER
 70
0
 71
3
 72
11
 73
7
 74
0
 42
0.0000001
 43
0.0000001
 44
0.0000000001
 40
0.0
 40
0.0
 40
0.0
 40
0.0
 40
0.3257274698
 40
0.606983413
 40
0.8342428396
 40
1.0
 40
1.0
 40
1.0
 40
1.0
 10
21.6683572956
 20
23.4503093764
 30
0.0
 10
21.6635626773
 20
23.4572716654
 30
0.0
 10
21.6548938878
 20
23.470425754
 30
0.0
 10
21.6440959376
 20
23.4892444328
 30
0.0
 10
21.6369229859
 20
23.5051788271
 30
0.0
 10
21.6343289329
 20
23.5152636889
 30
0.0
 10
21.6343282728
 20
23.5195655361
 30
0.0
  0
SPLINE
  5
42B
100
AcDbEntity
  8
00_COMPONENTS
100
AcDbSpline
 62
7
  6
BYLAYER
 70
0
 71
3
 72
10
 73
6
 74
0
 42
0.0000001
 43
0.0000001
 44
0.0000000001
 40
0.0
 40
0.0
 40
0.0
 40
0.0
 40
0.579937294
 40
0.8119719988
 40
1.0
 40
1.0
 40
1.0
 40
1.0
 10
22.0654230163
 20
23.4503093764
 30
0.0
 10
22.0589240979
 20
23.4614744304
 30
0.0
 10
22.0503924525
 20
23.4775499149
 30
0.0
 10
22.0431786521
 20
23.4986554385
 30
0.0
 10
22.0416248692
 20
23.5079909789
 30
0.0
 10
22.0416251775
 20
23.5121795157
 30
0.0
  0
SPLINE
  5
42C
100
AcDbEntity
  8
00_COMPONENTS
100
AcDbSpline
 62
7
  6
BYLAYER
 70
0
 71
3
 72
9
 73
5
 74
0
 42
0.0000001
 43
0.0000001
 44
0.0000000001
 40
0.0
 40
0.0
 40
0.0
 40
0.0
 40
0.5568893803
 40
1.0
 40
1.0
 40
1.0
 40
1.0
 10
22.5611616503
 20
23.4503093764
 30
0.0
 10
22.5567958909
 20
23.4595771648
 30
0.0
 10
22.5497805965
 20
23.4765878452
 30
0.0
 10
22.5458438687
 20
23.4948781694
 30
0.0
 10
22.545843904
 20
23.5030296797
 30
0.0
  0
SPLINE
  5
42D
100
AcDbEntity
  8
00_COMPONENTS
100
AcDbSpline
 62
7
  6
BYLAYER
 70
0
 71
3
 72
9
 73
5
 74
0
 42
0.0000001
 43
0.0000001
 44
0.0000000001
 40
0.0
 40
0.0
 40
0.0
 40
0.0
 40
0.4431104617
 40
1.0
 40
1.0
 40
1.0
 40
1.0
 10
47.5153791675
 20
23.5030296784
 30
0.0
 10
47.5153792035
 20
23.4948781713
 30
0.0
 10
47.5114424787
 20
23.4765878469
 30
0.0
 10
47.5044271835
 20
23.4595771672
 30
0.0
 10
47.500061423
 20
23.4503093764
 30
0.0
  0
SPLINE
  5
42E
100
AcDbEntity
  8
00_COMPONENTS
100
AcDbSpline
 62
7
  6
BYLAYER
 70
0
 71
3
 72
10
 73
6
 74
0
 42
0.0000001
 43
0.0000001
 44
0.0000000001
 40
0.0
 40
0.0
 40
0.0
 40
0.0
 40
0.6158589206
 40
0.841608286
 40
1.0
 40
1.0
 40
1.0
 40
1.0
 10
21.8865712939
 20
23.1367446554
 30
0.0
 10
21.8900256914
 20
23.1318343496
 30
0.0
 10
21.894608049
 20
23.1249617057
 30
0.0
 10
21.8987876302
 20
23.1161819541
 30
0.0
 10
21.8998408933
 20
23.1124952839
 30
0.0
 10
21.899841876
 20
23.1109512123
 30
0.0
  0
SPLINE
  5
42F
100
AcDbEntity
  8
00_COMPONENTS
100
AcDbSpline
 62
7
  6
BYLAYER
 70
0
 71
3
 72
11
 73
7
 74
0
 42
0.0000001
 43
0.0000001
 44
0.0000000001
 40
0.0
 40
0.0
 40
0.0
 40
0.0
 40
0.3523748904
 40
0.6477237443
 40
0.8687692795
 40
1.0
 40
1.0
 40
1.0
 40
1.0
 10
21.6233112119
 20
23.1367446951
 30
0.0
 10
21.6257588903
 20
23.1337117175
 30
0.0
 10
21.6301705809
 20
23.1280833355
 30
0.0
 10
21.6358429817
 20
23.1202598795
 30
0.0
 10
21.6394848017
 20
23.1142103893
 30
0.0
 10
21.6412277649
 20
23.1105183791
 30
0.0
 10
21.64122572
 20
23.109066902
 30
0.0
  0
SPLINE
  5
430
100
AcDbEntity
  8
00_COMPONENTS
100
AcDbSpline
 62
7
  6
BYLAYER
 70
0
 71
3
 72
13
 73
9
 74
0
 42
0.0000001
 43
0.0000001
 44
0.0000000001
 40
0.0
 40
0.0
 40
0.0
 40
0.0
 40
0.3727066958
 40
0.6798387436
 40
0.8012539982
 40
0.896927862
 40
0.9637797154
 40
1.0
 40
1.0
 40
1.0
 40
1.0
 10
21.4620887801
 20
23.1367447362
 30
0.0
 10
21.4651801162
 20
23.133326636
 30
0.0
 10
21.4707722408
 20
23.1270530952
 30
0.0
 10
21.4772175977
 20
23.1195153403
 30
0.0
 10
21.481243612
 20
23.1144486366
 30
0.0
 10
21.4833574362
 20
23.111616074
 30
0.0
 10
21.4846391518
 20
23.109570415
 30
0.0
 10
21.4852620941
 20
23.1083802712
 30
0.0
 10
21.4852625111
 20
23.1079323936
 30
0.0
  0
SPLINE
  5
431
100
AcDbEntity
  8
00_COMPONENTS
100
AcDbSpline
 62
7
  6
BYLAYER
 70
0
 71
3
 72
11
 73
7
 74
0
 42
0.0000001
 43
0.0000001
 44
0.0000000001
 40
0.0
 40
0.0
 40
0.0
 40
0.0
 40
0.2876550564
 40
0.5468250641
 40
0.7812007933
 40
1.0
 40
1.0
 40
1.0
 40
1.0
 10
39.2877990459
 20
23.5308842553
 30
0.0
 10
39.3051452381
 20
23.5308842553
 30
0.0
 10
39.3383108748
 20
23.527215281
 30
0.0
 10
39.3827461611
 20
23.5099374271
 30
0.0
 10
39.4174385628
 20
23.483711669
 30
0.0
 10
39.4342408596
 20
23.4617123434
 30
0.0
 10
39.4408782617
 20
23.4503093764
 30
0.0
  0
SPLINE
  5
432
100
AcDbEntity
  8
00_COMPONENTS
100
AcDbSpline
 62
7
  6
BYLAYER
 70
0
 71
3
 72
9
 73
5
 74
0
 42
0.0000001
 43
0.0000001
 44
0.0000000001
 40
0.0
 40
0.0
 40
0.0
 40
0.0
 40
0.4997903927
 40
1.0
 40
1.0
 40
1.0
 40
1.0
 10
40.1525021114
 20
23.4503093764
 30
0.0
 10
40.1813840447
 20
23.4734469893
 30
0.0
 10
40.245173143
 20
23.5126356524
 30
0.0
 10
40.3192895095
 20
23.5308842553
 30
0.0
 10
40.3563275117
 20
23.5308842553
 30
0.0
  0
SPLINE
  5
433
100
AcDbEntity
  8
00_COMPONENTS
100
AcDbSpline
 62
7
  6
BYLAYER
 70
0
 71
3
 72
11
 73
7
 74
0
 42
0.0000001
 43
0.0000001
 44
0.0000000001
 40
0.0
 40
0.0
 40
0.0
 40
0.0
 40
0.2912641486
 40
0.5490876818
 40
0.7811124008
 40
1.0
 40
1.0
 40
1.0
 40
1.0
 10
40.4359006799
 20
23.5308842553
 30
0.0
 10
40.4525162002
 20
23.5308842553
 30
0.0
 10
40.4840547274
 20
23.5273363748
 30
0.0
 10
40.5258146974
 20
23.5100160982
 30
0.0
 10
40.5572088606
 20
23.4835655241
 30
0.0
 10
40.5713394588
 20
23.4616054971
 30
0.0
 10
40.5766607008
 20
23.4503093764
 30
0.0
  0
SPLINE
  5
434
100
AcDbEntity
  8
00_COMPONENTS
100
AcDbSpline
 62
7
  6
BYLAYER
 70
0
 71
3
 72
9
 73
5
 74
0
 42
0.0000001
 43
0.0000001
 44
0.0000000001
 40
0.0
 40
0.0
 40
0.0
 40
0.0
 40
0.5075746382
 40
1.0
 40
1.0
 40
1.0
 40
1.0
 10
41.2630024068
 20
23.4503093764
 30
0.0
 10
41.2926690126
 20
23.4732312465
 30
0.0
 10
41.3563602794
 20
23.5118482889
 30
0.0
 10
41.4300957985
 20
23.5308842553
 30
0.0
 10
41.4664671096
 20
23.5308842553
 30
0.0
  0
SPLINE
  5
435
100
AcDbEntity
  8
00_COMPONENTS
100
AcDbSpline
 62
7
  6
BYLAYER
 70
0
 71
3
 72
11
 73
7
 74
0
 42
0.0000001
 43
0.0000001
 44
0.0000000001
 40
0.0
 40
0.0
 40
0.0
 40
0.0
 40
0.2938822474
 40
0.5494131926
 40
0.7792362652
 40
1.0
 40
1.0
 40
1.0
 40
1.0
 10
41.5428647997
 20
23.5308842553
 30
0.0
 10
41.5586257493
 20
23.5308842553
 30
0.0
 10
41.5883358305
 20
23.5274655778
 30
0.0
 10
41.6271565684
 20
23.5100545724
 30
0.0
 10
41.6549691308
 20
23.4832993059
 30
0.0
 10
41.6662588842
 20
23.4614615766
 30
0.0
 10
41.670234357
 20
23.4503093764
 30
0.0
  0
SPLINE
  5
436
100
AcDbEntity
  8
00_COMPONENTS
100
AcDbSpline
 62
7
  6
BYLAYER
 70
0
 71
3
 72
10
 73
6
 74
0
 42
0.0000001
 43
0.0000001
 44
0.0000000001
 40
0.0
 40
0.0
 40
0.0
 40
0.0
 40
0.5146623063
 40
0.7670876408
 40
1.0
 40
1.0
 40
1.0
 40
1.0
 10
42.3260704444
 20
23.4503093764
 30
0.0
 10
42.3562568366
 20
23.4729994254
 30
0.0
 10
42.4051421783
 20
23.5024370232
 30
0.0
 10
42.4748820653
 20
23.5260084707
 30
0.0
 10
42.5105360986
 20
23.5308842553
 30
0.0
 10
42.5276259605
 20
23.5308842553
 30
0.0
  0
SPLINE
  5
437
100
AcDbEntity
  8
00_COMPONENTS
100
AcDbSpline
 62
7
  6
BYLAYER
 70
0
 71
3
 72
11
 73
7
 74
0
 42
0.0000001
 43
0.0000001
 44
0.0000000001
 40
0.0
 40
0.0
 40
0.0
 40
0.0
 40
0.2949941598
 40
0.5469537072
 40
0.7749204173
 40
1.0
 40
1.0
 40
1.0
 40
1.0
 10
42.60026674
 20
23.5308842553
 30
0.0
 10
42.6150561657
 20
23.5308842553
 30
0.0
 10
42.6427614583
 20
23.527607041
 30
0.0
 10
42.6784077384
 20
23.5100252929
 30
0.0
 10
42.7023303057
 20
23.4828781386
 30
0.0
 10
42.7106516672
 20
23.4612841404
 30
0.0
 10
42.7132764744
 20
23.4503093764
 30
0.0
  0
SPLINE
  5
438
100
AcDbEntity
  8
00_COMPONENTS
100
AcDbSpline
 62
7
  6
BYLAYER
 70
0
 71
3
 72
10
 73
6
 74
0
 42
0.0000001
 43
0.0000001
 44
0.0000000001
 40
0.0
 40
0.0
 40
0.0
 40
0.0
 40
0.5235188636
 40
0.7742084075
 40
1.0
 40
1.0
 40
1.0
 40
1.0
 10
43.3336156346
 20
23.4503093764
 30
0.0
 10
43.3640584651
 20
23.4727534442
 30
0.0
 10
43.4125349629
 20
23.5020238399
 30
0.0
 10
43.4809721346
 20
23.5258475876
 30
0.0
 10
43.5154155365
 20
23.5308842553
 30
0.0
 10
43.5317280049
 20
23.5308842553
 30
0.0
  0
SPLINE
  5
439
100
AcDbEntity
  8
00_COMPONENTS
100
AcDbSpline
 62
7
  6
BYLAYER
 70
0
 71
3
 72
11
 73
7
 74
0
 42
0.0000001
 43
0.0000001
 44
0.0000000001
 40
0.0
 40
0.0
 40
0.0
 40
0.0
 40
0.2938548269
 40
0.5405569069
 40
0.767365814
 40
1.0
 40
1.0
 40
1.0
 40
1.0
 10
43.6000590335
 20
23.5308842553
 30
0.0
 10
43.6137680118
 20
23.5308842553
 30
0.0
 10
43.639326287
 20
23.5277665537
 30
0.0
 10
43.6715804897
 20
23.5098812007
 30
0.0
 10
43.6912573612
 20
23.4822759193
 30
0.0
 10
43.6965553707
 20
23.4610849176
 30
0.0
 10
43.6978488727
 20
23.4503093764
 30
0.0
  0
SPLINE
  5
43A
100
AcDbEntity
  8
00_COMPONENTS
100
AcDbSpline
 62
7
  6
BYLAYER
 70
0
 71
3
 72
10
 73
6
 74
0
 42
0.0000001
 43
0.0000001
 44
0.0000000001
 40
0.0
 40
0.0
 40
0.0
 40
0.0
 40
0.5330738309
 40
0.7818557648
 40
1.0
 40
1.0
 40
1.0
 40
1.0
 10
44.2779699502
 20
23.4503093764
 30
0.0
 10
44.30840923
 20
23.4724943108
 30
0.0
 10
44.3561032304
 20
23.5015784843
 30
0.0
 10
44.4227340631
 20
23.5256663768
 30
0.0
 10
44.4557177913
 20
23.5308842553
 30
0.0
 10
44.4711314198
 20
23.5308842553
 30
0.0
  0
SPLINE
  5
43B
100
AcDbEntity
  8
00_COMPONENTS
100
AcDbSpline
 62
7
  6
BYLAYER
 70
0
 71
3
 72
12
 73
8
 74
0
 42
0.0000001
 43
0.0000001
 44
0.0000000001
 40
0.0
 40
0.0
 40
0.0
 40
0.0
 40
0.288960713
 40
0.4133118692
 40
0.5295529912
 40
0.7561151377
 40
1.0
 40
1.0
 40
1.0
 40
1.0
 10
44.5346326571
 20
23.5308842553
 30
0.0
 10
44.5471614248
 20
23.5308842553
 30
0.0
 10
44.5654919946
 20
23.5284744612
 30
0.0
 10
44.5861285669
 20
23.5179897209
 30
0.0
 10
44.6016602167
 20
23.5046790169
 30
0.0
 10
44.6141466933
 20
23.4815051507
 30
0.0
 10
44.6164583615
 20
23.4608837439
 30
0.0
 10
44.6164583615
 20
23.4503093764
 30
0.0
  0
SPLINE
  5
43C
100
AcDbEntity
  8
00_COMPONENTS
100
AcDbSpline
 62
7
  6
BYLAYER
 70
0
 71
3
 72
11
 73
7
 74
0
 42
0.0000001
 43
0.0000001
 44
0.0000000001
 40
0.0
 40
0.0
 40
0.0
 40
0.0
 40
0.2760926988
 40
0.5437945324
 40
0.7903031307
 40
1.0
 40
1.0
 40
1.0
 40
1.0
 10
45.1519462845
 20
23.4503093764
 30
0.0
 10
45.1672890994
 20
23.4614490649
 30
0.0
 10
45.1983986326
 20
23.4821998217
 30
0.0
 10
45.2463827759
 20
23.5078269623
 30
0.0
 10
45.2930053192
 20
23.5254544741
 30
0.0
 10
45.3242860904
 20
23.5308842553
 30
0.0
 10
45.338686778
 20
23.5308842553
 30
0.0
  0
SPLINE
  5
43D
100
AcDbEntity
  8
00_COMPONENTS
100
AcDbSpline
 62
7
  6
BYLAYER
 70
0
 71
3
 72
11
 73
7
 74
0
 42
0.0000001
 43
0.0000001
 44
0.0000000001
 40
0.0
 40
0.0
 40
0.0
 40
0.0
 40
0.2875715938
 40
0.5248478755
 40
0.7516765581
 40
1.0
 40
1.0
 40
1.0
 40
1.0
 10
45.3968749414
 20
23.5308842553
 30
0.0
 10
45.4069610747
 20
23.5308842553
 30
0.0
 10
45.4257008418
 20
23.528645752
 30
0.0
 10
45.4489512271
 20
23.5140738425
 30
0.0
 10
45.4612255462
 20
23.4912853183
 30
0.0
 10
45.463080363
 20
23.4744364433
 30
0.0
 10
45.463080384
 20
23.4657268788
 30
0.0
  0
SPLINE
  5
43E
100
AcDbEntity
  8
00_COMPONENTS
100
AcDbSpline
 62
7
  6
BYLAYER
 70
0
 71
3
 72
11
 73
7
 74
0
 42
0.0000001
 43
0.0000001
 44
0.0000000001
 40
0.0
 40
0.0
 40
0.0
 40
0.0
 40
0.2839711329
 40
0.5552001873
 40
0.7994006395
 40
1.0
 40
1.0
 40
1.0
 40
1.0
 10
45.9488931499
 20
23.4503093764
 30
0.0
 10
45.9640880138
 20
23.4613837861
 30
0.0
 10
45.9945836436
 20
23.4819813962
 30
0.0
 10
46.0410462097
 20
23.5075789042
 30
0.0
 10
46.0851538673
 20
23.5252100976
 30
0.0
 10
46.1145093731
 20
23.5308842553
 30
0.0
 10
46.1277914594
 20
23.5308842553
 30
0.0
  0
SPLINE
  5
43F
100
AcDbEntity
  8
00_COMPONENTS
100
AcDbSpline
 62
7
  6
BYLAYER
 70
0
 71
3
 72
11
 73
7
 74
0
 42
0.0000001
 43
0.0000001
 44
0.0000000001
 40
0.0
 40
0.0
 40
0.0
 40
0.0
 40
0.2856554169
 40
0.5209636125
 40
0.7476609822
 40
1.0
 40
1.0
 40
1.0
 40
1.0
 10
46.1802237018
 20
23.5308842553
 30
0.0
 10
46.1881050087
 20
23.5308842553
 30
0.0
 10
46.202725335
 20
23.5292187855
 30
0.0
 10
46.221045536
 20
23.5180136976
 30
0.0
 10
46.2307983082
 20
23.500049667
 30
0.0
 10
46.2322382495
 20
23.4866810472
 30
0.0
 10
46.2322380372
 20
23.4797189484
 30
0.0
  0
SPLINE
  5
440
100
AcDbEntity
  8
00_COMPONENTS
100
AcDbSpline
 62
7
  6
BYLAYER
 70
0
 71
3
 72
11
 73
7
 74
0
 42
0.0000001
 43
0.0000001
 44
0.0000000001
 40
0.0
 40
0.0
 40
0.0
 40
0.0
 40
0.2927490443
 40
0.5678932545
 40
0.8095216138
 40
1.0
 40
1.0
 40
1.0
 40
1.0
 10
46.6627452997
 20
23.4503093764
 30
0.0
 10
46.6776734281
 20
23.4613151837
 30
0.0
 10
46.7073194181
 20
23.4817477674
 30
0.0
 10
46.7519120501
 20
23.5073085072
 30
0.0
 10
46.7931581054
 20
23.5249175637
 30
0.0
 10
46.8203724707
 20
23.5308842553
 30
0.0
 10
46.832439901
 20
23.5308842553
 30
0.0
  0
SPLINE
  5
441
100
AcDbEntity
  8
00_COMPONENTS
100
AcDbSpline
 62
7
  6
BYLAYER
 70
0
 71
3
 72
11
 73
7
 74
0
 42
0.0000001
 43
0.0000001
 44
0.0000000001
 40
0.0
 40
0.0
 40
0.0
 40
0.0
 40
0.2837394035
 40
0.5171961992
 40
0.7436798395
 40
1.0
 40
1.0
 40
1.0
 40
1.0
 10
46.8787171813
 20
23.5308842553
 30
0.0
 10
46.8846476442
 20
23.5308842553
 30
0.0
 10
46.8956340835
 20
23.5296841629
 30
0.0
 10
46.9095271576
 20
23.5213838593
 30
0.0
 10
46.9169984818
 20
23.5077537072
 30
0.0
 10
46.9180777161
 20
23.4975410473
 30
0.0
 10
46.91807788
 20
23.4921836765
 30
0.0
  0
SPLINE
  5
442
100
AcDbEntity
  8
00_COMPONENTS
100
AcDbSpline
 62
7
  6
BYLAYER
 70
0
 71
3
 72
12
 73
8
 74
0
 42
0.0000001
 43
0.0000001
 44
0.0000000001
 40
0.0
 40
0.0
 40
0.0
 40
0.0
 40
0.3024622202
 40
0.5818581966
 40
0.8204748465
 40
0.9184504796
 40
1.0
 40
1.0
 40
1.0
 40
1.0
 10
47.2880698878
 20
23.4503093764
 30
0.0
 10
47.3026159678
 20
23.461243153
 30
0.0
 10
47.3312016377
 20
23.481512707
 30
0.0
 10
47.3735307956
 20
23.5069649269
 30
0.0
 10
47.4073208123
 20
23.5226345311
 30
0.0
 10
47.4315669856
 20
23.5295153912
 30
0.0
 10
47.4423630103
 20
23.5308842553
 30
0.0
 10
47.4472693026
 20
23.5308842553
 30
0.0
  0
SPLINE
  5
443
100
AcDbEntity
  8
00_COMPONENTS
100
AcDbSpline
 62
7
  6
BYLAYER
 70
0
 71
3
 72
11
 73
7
 74
0
 42
0.0000001
 43
0.0000001
 44
0.0000000001
 40
0.0
 40
0.0
 40
0.0
 40
0.0
 40
0.281893533
 40
0.5136684611
 40
0.7398762031
 40
1.0
 40
1.0
 40
1.0
 40
1.0
 10
47.4870394228
 20
23.5308842553
 30
0.0
 10
47.4912856233
 20
23.5308842553
 30
0.0
 10
47.4991429389
 20
23.5300558563
 30
0.0
 10
47.5091612852
 20
23.5242007889
 30
0.0
 10
47.5146072921
 20
23.5143661706
 30
0.0
 10
47.5153791502
 20
23.5069479584
 30
0.0
 10
47.5153791675
 20
23.5030296784
 30
0.0
  0
SPLINE
  5
444
100
AcDbEntity
  8
00_COMPONENTS
100
AcDbSpline
 62
7
  6
BYLAYER
 70
0
 71
3
 72
12
 73
8
 74
0
 42
0.0000001
 43
0.0000001
 44
0.0000000001
 40
0.0
 40
0.0
 40
0.0
 40
0.0
 40
0.3136736668
 40
0.5980762802
 40
0.8334428371
 40
0.9261352449
 40
1.0
 40
1.0
 40
1.0
 40
1.0
 10
47.8201078166
 20
23.4503093764
 30
0.0
 10
47.8341610432
 20
23.4611675863
 30
0.0
 10
47.8614611108
 20
23.4812508828
 30
0.0
 10
47.9012630946
 20
23.5066169869
 30
0.0
 10
47.9323196292
 20
23.5224205291
 30
0.0
 10
47.9540050461
 20
23.5294372087
 30
0.0
 10
47.9634184237
 20
23.5308842553
 30
0.0
 10
47.9676004412
 20
23.5308842553
 30
0.0
  0
SPLINE
  5
445
100
AcDbEntity
  8
00_COMPONENTS
100
AcDbSpline
 62
7
  6
BYLAYER
 70
0
 71
3
 72
11
 73
7
 74
0
 42
0.0000001
 43
0.0000001
 44
0.0000000001
 40
0.0
 40
0.0
 40
0.0
 40
0.0
 40
0.2801864992
 40
0.5104957253
 40
0.7363923815
 40
1.0
 40
1.0
 40
1.0
 40
1.0
 10
48.0005607267
 20
23.5308842553
 30
0.0
 10
48.0033978818
 20
23.5308842553
 30
0.0
 10
48.008643208
 20
23.5303463575
 30
0.0
 10
48.0153788452
 20
23.5264868547
 30
0.0
 10
48.0190812906
 20
23.5198710912
 30
0.0
 10
48.0195976995
 20
23.5148487934
 30
0.0
 10
48.0195978952
 20
23.5121795152
 30
0.0
  0
SPLINE
  5
446
100
AcDbEntity
  8
00_COMPONENTS
100
AcDbSpline
 62
7
  6
BYLAYER
 70
0
 71
3
 72
12
 73
8
 74
0
 42
0.0000001
 43
0.0000001
 44
0.0000000001
 40
0.0
 40
0.0
 40
0.0
 40
0.0
 40
0.3265484998
 40
0.6167356387
 40
0.8484421515
 40
0.9350592736
 40
1.0
 40
1.0
 40
1.0
 40
1.0
 10
48.2548099562
 20
23.4503093764
 30
0.0
 10
48.2682651046
 20
23.4610884337
 30
0.0
 10
48.2940819373
 20
23.4809715084
 30
0.0
 10
48.3310661435
 20
23.5062279058
 30
0.0
 10
48.3591444864
 20
23.5221540698
 30
0.0
 10
48.3780824533
 20
23.5293247486
 30
0.0
 10
48.3860446962
 20
23.5308842553
 30
0.0
 10
48.3894732827
 20
23.5308842553
 30
0.0
  0
SPLINE
  5
447
100
AcDbEntity
  8
00_COMPONENTS
100
AcDbSpline
 62
7
  6
BYLAYER
 70
0
 71
3
 72
9
 73
5
 74
0
 42
0.0000001
 43
0.0000001
 44
0.0000000001
 40
0.0
 40
0.0
 40
0.0
 40
0.0
 40
0.5077779917
 40
1.0
 40
1.0
 40
1.0
 40
1.0
 10
48.4153728858
 20
23.5308842553
 30
0.0
 10
48.4184259104
 20
23.5308842553
 30
0.0
 10
48.425326223
 20
23.5293839321
 30
0.0
 10
48.4268952592
 20
23.5225250343
 30
0.0
 10
48.4268948053
 20
23.5195655403
 30
0.0
  0
SPLINE
  5
448
100
AcDbEntity
  8
00_COMPONENTS
100
AcDbSpline
 62
7
  6
BYLAYER
 70
0
 71
3
 72
13
 73
9
 74
0
 42
0.0000001
 43
0.0000001
 44
0.0000000001
 40
0.0
 40
0.0
 40
0.0
 40
0.0
 40
0.341411691
 40
0.6383167828
 40
0.7625571992
 40
0.8659968688
 40
0.9455762534
 40
1.0
 40
1.0
 40
1.0
 40
1.0
 10
48.5888679609
 20
23.4503093764
 30
0.0
 10
48.6016264946
 20
23.4610057887
 30
0.0
 10
48.6257822014
 20
23.480642717
 30
0.0
 10
48.6556366422
 20
23.5028681165
 30
0.0
 10
48.677042772
 20
23.5168744888
 30
0.0
 10
48.6900633725
 20
23.5243555244
 30
0.0
 10
48.7005768787
 20
23.5291467552
 30
0.0
 10
48.7070231164
 20
23.5308842553
 30
0.0
 10
48.70967712
 20
23.5308842553
 30
0.0
  0
SPLINE
  5
449
100
AcDbEntity
  8
00_COMPONENTS
100
AcDbSpline
 62
7
  6
BYLAYER
 70
0
 71
3
 72
14
 73
10
 74
0
 42
0.0000001
 43
0.0000001
 44
0.0000000001
 40
0.0
 40
0.0
 40
0.0
 40
0.0
 40
0.3586959494
 40
0.5194144389
 40
0.6635161302
 40
0.7872264282
 40
0.8865811389
 40
0.9580621773
 40
1.0
 40
1.0
 40
1.0
 40
1.0
 10
48.8197394475
 20
23.4503093764
 30
0.0
 10
48.8317106603
 20
23.4609200177
 30
0.0
 10
48.8491937568
 20
23.4761234736
 30
0.0
 10
48.8719762719
 20
23.4950041354
 30
0.0
 10
48.8869410074
 20
23.506904963
 30
0.0
 10
48.9000332644
 20
23.516710213
 30
0.0
 10
48.910905737
 20
23.5241887017
 30
0.0
 10
48.9190570134
 20
23.5288409678
 30
0.0
 10
48.9239047104
 20
23.5308842553
 30
0.0
 10
48.9257750086
 20
23.5308842553
 30
0.0
  0
SPLINE
  5
44A
100
AcDbEntity
  8
00_COMPONENTS
100
AcDbSpline
 62
7
  6
BYLAYER
 70
0
 71
3
 72
15
 73
11
 74
0
 42
0.0000001
 43
0.0000001
 44
0.0000000001
 40
0.0
 40
0.0
 40
0.0
 40
0.0
 40
0.3921062849
 40
0.5593888236
 40
0.703746964
 40
0.8223148094
 40
0.912414155
 40
0.9718958752
 40
0.9897975112
 40
1.0
 40
1.0
 40
1.0
 40
1.0
 10
48.9826742548
 20
23.4850046223
 30
0.0
 10
48.9894446155
 20
23.4912677065
 30
0.0
 10
48.999141235
 20
23.5001617595
 30
0.0
 10
49.0114724106
 20
23.5112068852
 30
0.0
 10
49.0190812956
 20
23.5178749872
 30
0.0
 10
49.0254081222
 20
23.5232633293
 30
0.0
 10
49.0303107703
 20
23.5272094343
 30
0.0
 10
49.0334851743
 20
23.5295915063
 30
0.0
 10
49.0352508568
 20
23.5306105075
 30
0.0
 10
49.0358823329
 20
23.5308842553
 30
0.0
 10
49.036122313
 20
23.5308842553
 30
0.0
  0
SPLINE
  5
44B
100
AcDbEntity
  8
00_COMPONENTS
100
AcDbSpline
 62
7
  6
BYLAYER
 70
0
 71
3
 72
11
 73
7
 74
0
 42
0.0000001
 43
0.0000001
 44
0.0000000001
 40
0.0
 40
0.0
 40
0.0
 40
0.0
 40
0.2563202413
 40
0.4828041974
 40
0.7162608776
 40
1.0
 40
1.0
 40
1.0
 40
1.0
 10
23.1431451941
 20
23.492183676
 30
0.0
 10
23.1431453569
 20
23.4975410483
 30
0.0
 10
23.1442245864
 20
23.5077537191
 30
0.0
 10
23.1516959346
 20
23.5213838652
 30
0.0
 10
23.1655890031
 20
23.5296841673
 30
0.0
 10
23.1765754351
 20
23.5308842553
 30
0.0
 10
23.182505892
 20
23.5308842553
 30
0.0
  0
SPLINE
  5
44C
100
AcDbEntity
  8
00_COMPONENTS
100
AcDbSpline
 62
7
  6
BYLAYER
 70
0
 71
3
 72
12
 73
8
 74
0
 42
0.0000001
 43
0.0000001
 44
0.0000000001
 40
0.0
 40
0.0
 40
0.0
 40
0.0
 40
0.162403593
 40
0.3332693614
 40
0.4571118327
 40
0.6105758416
 40
1.0
 40
1.0
 40
1.0
 40
1.0
 10
22.2591459476
 20
23.1135676084
 30
0.0
 10
22.2591449214
 20
23.1119509195
 30
0.0
 10
22.2582116194
 20
23.108125217
 30
0.0
 10
22.2530168804
 20
23.1072829505
 30
0.0
 10
22.2487141503
 20
23.1081117922
 30
0.0
 10
22.242357797
 20
23.1101959281
 30
0.0
 10
22.2375400265
 20
23.1126713521
 30
0.0
 10
22.2341550107
 20
23.1145607671
 30
0.0
  0
SPLINE
  5
44D
100
AcDbEntity
  8
00_COMPONENTS
100
AcDbSpline
 62
7
  6
BYLAYER
 70
0
 71
3
 72
9
 73
5
 74
0
 42
0.0000001
 43
0.0000001
 44
0.0000000001
 40
0.0
 40
0.0
 40
0.0
 40
0.0
 40
0.2230842248
 40
1.0
 40
1.0
 40
1.0
 40
1.0
 10
22.2341550107
 20
23.1145607671
 30
0.0
 10
22.2316143511
 20
23.1159788876
 30
0.0
 10
22.220444164
 20
23.1227261579
 30
0.0
 10
22.2099248404
 20
23.1304915135
 30
0.0
 10
22.2019511177
 20
23.1367445575
 30
0.0
  0
SPLINE
  5
44E
100
AcDbEntity
  8
00_COMPONENTS
100
AcDbSpline
 62
7
  6
BYLAYER
 70
0
 71
3
 72
15
 73
11
 74
0
 42
0.0000001
 43
0.0000001
 44
0.0000000001
 40
0.0
 40
0.0
 40
0.0
 40
0.0
 40
0.0102024831
 40
0.0281041658
 40
0.0875860499
 40
0.1776857304
 40
0.2962535455
 40
0.4406116562
 40
0.6078941877
 40
1.0
 40
1.0
 40
1.0
 40
1.0
 10
21.0251007603
 20
23.5308842553
 30
0.0
 10
21.0253407438
 20
23.5308842553
 30
0.0
 10
21.025972229
 20
23.5306105001
 30
0.0
 10
21.0277379391
 20
23.5295914795
 30
0.0
 10
21.0309123974
 20
23.5272093619
 30
0.0
 10
21.0358151206
 20
23.523263188
 30
0.0
 10
21.0421420414
 20
23.5178747609
 30
0.0
 10
21.0497510309
 20
23.5112065586
 30
0.0
 10
21.0620823713
 20
23.5001612761
 30
0.0
 10
21.0717791196
 20
23.4912670987
 30
0.0
 10
21.0785495679
 20
23.4850039292
 30
0.0
  0
SPLINE
  5
44F
100
AcDbEntity
  8
00_COMPONENTS
100
AcDbSpline
 62
7
  6
BYLAYER
 70
0
 71
3
 72
11
 73
7
 74
0
 42
0.0000001
 43
0.0000001
 44
0.0000000001
 40
0.0
 40
0.0
 40
0.0
 40
0.0
 40
0.2636079822
 40
0.4895046772
 40
0.7198135638
 40
1.0
 40
1.0
 40
1.0
 40
1.0
 10
22.0416251775
 20
23.5121795157
 30
0.0
 10
22.041625374
 20
23.5148487976
 30
0.0
 10
22.042141795
 20
23.519871097
 30
0.0
 10
22.0458442313
 20
23.5264868658
 30
0.0
 10
22.0525798706
 20
23.5303463617
 30
0.0
 10
22.057825192
 20
23.5308842553
 30
0.0
 10
22.0606623466
 20
23.5308842553
 30
0.0
  0
SPLINE
  5
450
100
AcDbEntity
  8
00_COMPONENTS
100
AcDbSpline
 62
7
  6
BYLAYER
 70
0
 71
3
 72
14
 73
10
 74
0
 42
0.0000001
 43
0.0000001
 44
0.0000000001
 40
0.0
 40
0.0
 40
0.0
 40
0.0
 40
0.0419378996
 40
0.1134191287
 40
0.2127737735
 40
0.3364840207
 40
0.480585734
 40
0.6413040822
 40
1.0
 40
1.0
 40
1.0
 40
1.0
 10
21.1354480647
 20
23.5308842553
 30
0.0
 10
21.1373183663
 20
23.5308842553
 30
0.0
 10
21.1421660737
 20
23.5288409592
 30
0.0
 10
21.1503173563
 20
23.5241886874
 30
0.0
 10
21.1611898327
 20
23.5167101981
 30
0.0
 10
21.1742820839
 20
23.5069049476
 30
0.0
 10
21.189246814
 20
23.4950041255
 30
0.0
 10
21.2120293235
 20
23.4761234676
 30
0.0
 10
21.2295124141
 20
23.4609200168
 30
0.0
 10
21.2414836258
 20
23.4503093764
 30
0.0
  0
SPLINE
  5
451
100
AcDbEntity
  8
00_COMPONENTS
100
AcDbSpline
 62
7
  6
BYLAYER
 70
0
 71
3
 72
11
 73
7
 74
0
 42
0.0000001
 43
0.0000001
 44
0.0000000001
 40
0.0
 40
0.0
 40
0.0
 40
0.0
 40
0.2483235862
 40
0.4751522878
 40
0.7124287646
 40
1.0
 40
1.0
 40
1.0
 40
1.0
 10
24.5981426883
 20
23.4657268792
 30
0.0
 10
24.5981427093
 20
23.4744364488
 30
0.0
 10
24.5999975314
 20
23.4912853297
 30
0.0
 10
24.6122718612
 20
23.5140738626
 30
0.0
 10
24.6355222509
 20
23.5286457601
 30
0.0
 10
24.6542620111
 20
23.5308842553
 30
0.0
 10
24.6643481319
 20
23.5308842553
 30
0.0
  0
SPLINE
  5
452
100
AcDbEntity
  8
00_COMPONENTS
100
AcDbSpline
 62
7
  6
BYLAYER
 70
0
 71
3
 72
13
 73
9
 74
0
 42
0.0000001
 43
0.0000001
 44
0.0000000001
 40
0.0
 40
0.0
 40
0.0
 40
0.0
 40
0.0544238312
 40
0.1340034113
 40
0.2374430115
 40
0.3616833651
 40
0.65858834
 40
1.0
 40
1.0
 40
1.0
 40
1.0
 10
21.3515459533
 20
23.5308842553
 30
0.0
 10
21.354199961
 20
23.5308842553
 30
0.0
 10
21.3606462115
 20
23.5291467475
 30
0.0
 10
21.371159725
 20
23.5243555095
 30
0.0
 10
21.3841803295
 20
23.5168744745
 30
0.0
 10
21.4055864449
 20
23.5028681025
 30
0.0
 10
21.4354408798
 20
23.4806427129
 30
0.0
 10
21.4595965799
 20
23.4610057877
 30
0.0
 10
21.4723551124
 20
23.4503093764
 30
0.0
  0
SPLINE
  5
453
100
AcDbEntity
  8
00_COMPONENTS
100
AcDbSpline
 62
7
  6
BYLAYER
 70
0
 71
3
 72
12
 73
8
 74
0
 42
0.0000001
 43
0.0000001
 44
0.0000000001
 40
0.0
 40
0.0
 40
0.0
 40
0.0
 40
0.0649408179
 40
0.1515581402
 40
0.3832645065
 40
0.6734515307
 40
1.0
 40
1.0
 40
1.0
 40
1.0
 10
21.6717497906
 20
23.5308842553
 30
0.0
 10
21.6751783819
 20
23.5308842553
 30
0.0
 10
21.6831406396
 20
23.5293247414
 30
0.0
 10
21.7020786113
 20
23.5221540551
 30
0.0
 10
21.7301569504
 20
23.5062278917
 30
0.0
 10
21.7671411439
 20
23.4809715032
 30
0.0
 10
21.79295797
 20
23.4610884327
 30
0.0
 10
21.806413117
 20
23.4503093764
 30
0.0
  0
SPLINE
  5
454
100
AcDbEntity
  8
00_COMPONENTS
100
AcDbSpline
 62
7
  6
BYLAYER
 70
0
 71
3
 72
12
 73
8
 74
0
 42
0.0000001
 43
0.0000001
 44
0.0000000001
 40
0.0
 40
0.0
 40
0.0
 40
0.0
 40
0.0738648526
 40
0.1665574649
 40
0.401923863
 40
0.6863263633
 40
1.0
 40
1.0
 40
1.0
 40
1.0
 10
22.093622632
 20
23.5308842553
 30
0.0
 10
22.0978046551
 20
23.5308842553
 30
0.0
 10
22.1072180493
 20
23.5294372019
 30
0.0
 10
22.1289034717
 20
23.5224205142
 30
0.0
 10
22.1599600015
 20
23.5066169722
 30
0.0
 10
22.199761971
 20
23.4812508775
 30
0.0
 10
22.2270620314
 20
23.4611675853
 30
0.0
 10
22.2411152567
 20
23.4503093764
 30
0.0
  0
SPLINE
  5
455
100
AcDbEntity
  8
00_COMPONENTS
100
AcDbSpline
 62
7
  6
BYLAYER
 70
0
 71
3
 72
13
 73
9
 74
0
 42
0.0000001
 43
0.0000001
 44
0.0000000001
 40
0.0
 40
0.0
 40
0.0
 40
0.0
 40
0.0665108787
 40
0.1232989045
 40
0.1946986948
 40
0.2951818334
 40
0.5917617222
 40
1.0
 40
1.0
 40
1.0
 40
1.0
 10
21.899841876
 20
23.1109512123
 30
0.0
 10
21.8998423013
 20
23.1102830393
 30
0.0
 10
21.899687444
 20
23.1089684926
 30
0.0
 10
21.8980891752
 20
23.1075738979
 30
0.0
 10
21.8956928935
 20
23.1074691817
 30
0.0
 10
21.891115892
 20
23.108563343
 30
0.0
 10
21.8838173864
 20
23.112259027
 30
0.0
 10
21.8778620968
 20
23.1160590282
 30
0.0
 10
21.8744742673
 20
23.1183703879
 30
0.0
  0
SPLINE
  5
456
100
AcDbEntity
  8
00_COMPONENTS
100
AcDbSpline
 62
7
  6
BYLAYER
 70
0
 71
3
 72
9
 73
5
 74
0
 42
0.0000001
 43
0.0000001
 44
0.0000000001
 40
0.0
 40
0.0
 40
0.0
 40
0.0
 40
0.2290683265
 40
1.0
 40
1.0
 40
1.0
 40
1.0
 10
21.8744742673
 20
23.1183703879
 30
0.0
 10
21.8725593018
 20
23.1196768804
 30
0.0
 10
21.8642974529
 20
23.1255238985
 30
0.0
 10
21.8563436873
 20
23.1317951044
 30
0.0
 10
21.8503127506
 20
23.1367445917
 30
0.0
  0
SPLINE
  5
457
100
AcDbEntity
  8
00_COMPONENTS
100
AcDbSpline
 62
7
  6
BYLAYER
 70
0
 71
3
 72
12
 73
8
 74
0
 42
0.0000001
 43
0.0000001
 44
0.0000000001
 40
0.0
 40
0.0
 40
0.0
 40
0.0
 40
0.0815496233
 40
0.1795254645
 40
0.4181419448
 40
0.6975378096
 40
1.0
 40
1.0
 40
1.0
 40
1.0
 10
22.6139537707
 20
23.5308842553
 30
0.0
 10
22.6188600691
 20
23.5308842553
 30
0.0
 10
22.6296561122
 20
23.5295153847
 30
0.0
 10
22.6539022917
 20
23.5226345161
 30
0.0
 10
22.6876923027
 20
23.5069649116
 30
0.0
 10
22.7300214447
 20
23.4815127017
 30
0.0
 10
22.758607107
 20
23.4612431519
 30
0.0
 10
22.7731531855
 20
23.4503093764
 30
0.0
  0
SPLINE
  5
458
100
AcDbEntity
  8
00_COMPONENTS
100
AcDbSpline
 62
7
  6
BYLAYER
 70
0
 71
3
 72
9
 73
5
 74
0
 42
0.0000001
 43
0.0000001
 44
0.0000000001
 40
0.0
 40
0.0
 40
0.0
 40
0.0
 40
0.4922222394
 40
1.0
 40
1.0
 40
1.0
 40
1.0
 10
21.6343282728
 20
23.5195655361
 30
0.0
 10
21.6343278186
 20
23.5225250318
 30
0.0
 10
21.6358968487
 20
23.5293839336
 30
0.0
 10
21.6427971639
 20
23.5308842553
 30
0.0
 10
21.6458501875
 20
23.5308842553
 30
0.0
  0
SPLINE
  5
459
100
AcDbEntity
  8
00_COMPONENTS
100
AcDbSpline
 62
7
  6
BYLAYER
 70
0
 71
3
 72
11
 73
7
 74
0
 42
0.0000001
 43
0.0000001
 44
0.0000000001
 40
0.0
 40
0.0
 40
0.0
 40
0.0
 40
0.1904787043
 40
0.4321068847
 40
0.7072509849
 40
1.0
 40
1.0
 40
1.0
 40
1.0
 10
23.2287831723
 20
23.5308842553
 30
0.0
 10
23.2408506227
 20
23.5308842553
 30
0.0
 10
23.2680649953
 20
23.5249175498
 30
0.0
 10
23.3093110502
 20
23.5073084921
 30
0.0
 10
23.3539036648
 20
23.4817477619
 30
0.0
 10
23.3835496467
 20
23.4613151826
 30
0.0
 10
23.3984777736
 20
23.4503093764
 30
0.0
  0
SPLINE
  5
45A
100
AcDbEntity
  8
00_COMPONENTS
100
AcDbSpline
 62
7
  6
BYLAYER
 70
0
 71
3
 72
9
 73
5
 74
0
 42
0.0000001
 43
0.0000001
 44
0.0000000001
 40
0.0
 40
0.0
 40
0.0
 40
0.0
 40
0.492435359
 40
1.0
 40
1.0
 40
1.0
 40
1.0
 10
39.0030211361
 20
23.4503093764
 30
0.0
 10
39.0308537698
 20
23.4736435097
 30
0.0
 10
39.094207732
 20
23.513381868
 30
0.0
 10
39.1682201988
 20
23.5308842553
 30
0.0
 10
39.2056559995
 20
23.5308842553
 30
0.0
  0
SPLINE
  5
45B
100
AcDbEntity
  8
00_COMPONENTS
100
AcDbSpline
 62
7
  6
BYLAYER
 70
0
 71
3
 72
11
 73
7
 74
0
 42
0.0000001
 43
0.0000001
 44
0.0000000001
 40
0.0
 40
0.0
 40
0.0
 40
0.0
 40
0.2005996856
 40
0.4447999506
 40
0.7160288961
 40
1.0
 40
1.0
 40
1.0
 40
1.0
 10
23.9334316138
 20
23.5308842553
 30
0.0
 10
23.9467137217
 20
23.5308842553
 30
0.0
 10
23.9760692354
 20
23.525210084
 30
0.0
 10
24.0201768923
 20
23.5075788885
 30
0.0
 10
24.0666394397
 20
23.4819813907
 30
0.0
 10
24.0971350611
 20
23.461383785
 30
0.0
 10
24.1123299233
 20
23.4503093764
 30
0.0
  0
SPLINE
  5
45C
100
AcDbEntity
  8
00_COMPONENTS
100
AcDbSpline
 62
7
  6
BYLAYER
 70
0
 71
3
 72
13
 73
9
 74
0
 42
0.0000001
 43
0.0000001
 44
0.0000000001
 40
0.0
 40
0.0
 40
0.0
 40
0.0
 40
0.1998331901
 40
0.2918272491
 40
0.3914891862
 40
0.5093266554
 40
0.6507300977
 40
1.0
 40
1.0
 40
1.0
 40
1.0
 10
23.910133903
 20
23.1255840796
 30
0.0
 10
23.9101337133
 20
23.1218222244
 30
0.0
 10
23.909165513
 20
23.1159879499
 30
0.0
 10
23.9040522199
 20
23.1104051495
 30
0.0
 10
23.8986094434
 20
23.1079710772
 30
0.0
 10
23.8918093547
 20
23.1072813763
 30
0.0
 10
23.880379409
 20
23.10865916
 30
0.0
 10
23.8716034031
 20
23.1118932169
 30
0.0
 10
23.865593837
 20
23.1145607463
 30
0.0
  0
SPLINE
  5
45D
100
AcDbEntity
  8
00_COMPONENTS
100
AcDbSpline
 62
7
  6
BYLAYER
 70
0
 71
3
 72
9
 73
5
 74
0
 42
0.0000001
 43
0.0000001
 44
0.0000000001
 40
0.0
 40
0.0
 40
0.0
 40
0.0
 40
0.2353825988
 40
1.0
 40
1.0
 40
1.0
 40
1.0
 10
23.865593837
 20
23.1145607463
 30
0.0
 10
23.8624771508
 20
23.1159441827
 30
0.0
 10
23.8494670809
 20
23.1223407573
 30
0.0
 10
23.8372573677
 20
23.1302621971
 30
0.0
 10
23.8282753725
 20
23.1367444711
 30
0.0
  0
SPLINE
  5
45E
100
AcDbEntity
  8
00_COMPONENTS
100
AcDbSpline
 62
7
  6
BYLAYER
 70
0
 71
3
 72
11
 73
7
 74
0
 42
0.0000001
 43
0.0000001
 44
0.0000000001
 40
0.0
 40
0.0
 40
0.0
 40
0.0
 40
0.2096972008
 40
0.4562056043
 40
0.72390733
 40
1.0
 40
1.0
 40
1.0
 40
1.0
 10
24.7225362953
 20
23.5308842553
 30
0.0
 10
24.7369370056
 20
23.5308842553
 30
0.0
 10
24.7682177852
 20
23.5254544607
 30
0.0
 10
24.8148403277
 20
23.5078269461
 30
0.0
 10
24.8628244511
 20
23.4821998163
 30
0.0
 10
24.8939339756
 20
23.4614490637
 30
0.0
 10
24.9092767888
 20
23.4503093764
 30
0.0
  0
SPLINE
  5
45F
100
AcDbEntity
  8
00_COMPONENTS
100
AcDbSpline
 62
7
  6
BYLAYER
 70
0
 71
3
 72
12
 73
8
 74
0
 42
0.0000001
 43
0.0000001
 44
0.0000000001
 40
0.0
 40
0.0
 40
0.0
 40
0.0
 40
0.2438848837
 40
0.4704471217
 40
0.5866883835
 40
0.7110396292
 40
1.0
 40
1.0
 40
1.0
 40
1.0
 10
25.4447647118
 20
23.4503093764
 30
0.0
 10
25.4447647118
 20
23.4608837449
 30
0.0
 10
25.4470763849
 20
23.481505154
 30
0.0
 10
25.4595628601
 20
23.5046790389
 30
0.0
 10
25.4750945381
 20
23.5179897316
 30
0.0
 10
25.4957311006
 20
23.5284744785
 30
0.0
 10
25.5140616633
 20
23.5308842553
 30
0.0
 10
25.5265904161
 20
23.5308842553
 30
0.0
  0
SPLINE
  5
460
100
AcDbEntity
  8
00_COMPONENTS
100
AcDbSpline
 62
7
  6
BYLAYER
 70
0
 71
3
 72
10
 73
6
 74
0
 42
0.0000001
 43
0.0000001
 44
0.0000000001
 40
0.0
 40
0.0
 40
0.0
 40
0.0
 40
0.2181445727
 40
0.4669263048
 40
1.0
 40
1.0
 40
1.0
 40
1.0
 10
25.5900916535
 20
23.5308842553
 30
0.0
 10
25.6055053058
 20
23.5308842553
 30
0.0
 10
25.6384890427
 20
23.5256663637
 30
0.0
 10
25.7051198719
 20
23.5015784676
 30
0.0
 10
25.7528138511
 20
23.4724943051
 30
0.0
 10
25.7832531231
 20
23.4503093764
 30
0.0
  0
SPLINE
  5
461
100
AcDbEntity
  8
00_COMPONENTS
100
AcDbSpline
 62
7
  6
BYLAYER
 70
0
 71
3
 72
11
 73
7
 74
0
 42
0.0000001
 43
0.0000001
 44
0.0000000001
 40
0.0
 40
0.0
 40
0.0
 40
0.0
 40
0.2326342065
 40
0.4594432046
 40
0.7061455313
 40
1.0
 40
1.0
 40
1.0
 40
1.0
 10
26.3633742006
 20
23.4503093764
 30
0.0
 10
26.3646677027
 20
23.4610849187
 30
0.0
 10
26.3699657162
 20
23.4822759249
 30
0.0
 10
26.3896425973
 20
23.5098812213
 30
0.0
 10
26.4218968089
 20
23.5277665637
 30
0.0
 10
26.4474550781
 20
23.5308842553
 30
0.0
 10
26.4611640398
 20
23.5308842553
 30
0.0
  0
SPLINE
  5
462
100
AcDbEntity
  8
00_COMPONENTS
100
AcDbSpline
 62
7
  6
BYLAYER
 70
0
 71
3
 72
10
 73
6
 74
0
 42
0.0000001
 43
0.0000001
 44
0.0000000001
 40
0.0
 40
0.0
 40
0.0
 40
0.0
 40
0.2257919352
 40
0.476481271
 40
1.0
 40
1.0
 40
1.0
 40
1.0
 10
26.5294950684
 20
23.5308842553
 30
0.0
 10
26.5458075615
 20
23.5308842553
 30
0.0
 10
26.5802509723
 20
23.5258475747
 30
0.0
 10
26.6486881404
 20
23.5020238227
 30
0.0
 10
26.6971646161
 20
23.4727534384
 30
0.0
 10
26.7276074387
 20
23.4503093764
 30
0.0
  0
SPLINE
  5
463
100
AcDbEntity
  8
00_COMPONENTS
100
AcDbSpline
 62
7
  6
BYLAYER
 70
0
 71
3
 72
11
 73
7
 74
0
 42
0.0000001
 43
0.0000001
 44
0.0000000001
 40
0.0
 40
0.0
 40
0.0
 40
0.0
 40
0.2250796044
 40
0.4530464072
 40
0.7050062065
 40
1.0
 40
1.0
 40
1.0
 40
1.0
 10
27.3479465989
 20
23.4503093764
 30
0.0
 10
27.3505714064
 20
23.4612841416
 30
0.0
 10
27.3588927726
 20
23.4828781443
 30
0.0
 10
27.382815352
 20
23.5100253135
 30
0.0
 10
27.4184616397
 20
23.5276070512
 30
0.0
 10
27.4461669258
 20
23.5308842553
 30
0.0
 10
27.4609563333
 20
23.5308842553
 30
0.0
  0
SPLINE
  5
464
100
AcDbEntity
  8
00_COMPONENTS
100
AcDbSpline
 62
7
  6
BYLAYER
 70
0
 71
3
 72
10
 73
6
 74
0
 42
0.0000001
 43
0.0000001
 44
0.0000000001
 40
0.0
 40
0.0
 40
0.0
 40
0.0
 40
0.2329127067
 40
0.4853378274
 40
1.0
 40
1.0
 40
1.0
 40
1.0
 10
27.5335971127
 20
23.5308842553
 30
0.0
 10
27.5506870001
 20
23.5308842553
 30
0.0
 10
27.5863410426
 20
23.5260084581
 30
0.0
 10
27.6560809258
 20
23.5024370055
 30
0.0
 10
27.7049662446
 20
23.4729994195
 30
0.0
 10
27.7351526289
 20
23.4503093764
 30
0.0
  0
SPLINE
  5
465
100
AcDbEntity
  8
00_COMPONENTS
100
AcDbSpline
 62
7
  6
BYLAYER
 70
0
 71
3
 72
11
 73
7
 74
0
 42
0.0000001
 43
0.0000001
 44
0.0000000001
 40
0.0
 40
0.0
 40
0.0
 40
0.0
 40
0.2207637577
 40
0.4505869244
 40
0.7061181238
 40
1.0
 40
1.0
 40
1.0
 40
1.0
 10
28.3909887163
 20
23.4503093764
 30
0.0
 10
28.3949641895
 20
23.4614615779
 30
0.0
 10
28.4062539485
 20
23.4832993116
 30
0.0
 10
28.434066525
 20
23.5100545928
 30
0.0
 10
28.4728872694
 20
23.5274655881
 30
0.0
 10
28.5025973438
 20
23.5308842553
 30
0.0
 10
28.5183582736
 20
23.5308842553
 30
0.0
  0
SPLINE
  5
466
100
AcDbEntity
  8
00_COMPONENTS
100
AcDbSpline
 62
7
  6
BYLAYER
 70
0
 71
3
 72
9
 73
5
 74
0
 42
0.0000001
 43
0.0000001
 44
0.0000000001
 40
0.0
 40
0.0
 40
0.0
 40
0.0
 40
0.4924254951
 40
1.0
 40
1.0
 40
1.0
 40
1.0
 10
28.5947559636
 20
23.5308842553
 30
0.0
 10
28.6311272845
 20
23.5308842553
 30
0.0
 10
28.7048628026
 20
23.5118482817
 30
0.0
 10
28.7685540685
 20
23.4732312404
 30
0.0
 10
28.7982206665
 20
23.4503093764
 30
0.0
  0
SPLINE
  5
467
100
AcDbEntity
  8
00_COMPONENTS
100
AcDbSpline
 62
7
  6
BYLAYER
 70
0
 71
3
 72
11
 73
7
 74
0
 42
0.0000001
 43
0.0000001
 44
0.0000000001
 40
0.0
 40
0.0
 40
0.0
 40
0.0
 40
0.218887623
 40
0.4509124375
 40
0.7087362252
 40
1.0
 40
1.0
 40
1.0
 40
1.0
 10
29.4845623725
 20
23.4503093764
 30
0.0
 10
29.4898836151
 20
23.4616054984
 30
0.0
 10
29.5040142194
 20
23.4835655298
 30
0.0
 10
29.5354083988
 20
23.5100161185
 30
0.0
 10
29.5771683742
 20
23.5273363853
 30
0.0
 10
29.6087068943
 20
23.5308842553
 30
0.0
 10
29.6253223934
 20
23.5308842553
 30
0.0
  0
SPLINE
  5
468
100
AcDbEntity
  8
00_COMPONENTS
100
AcDbSpline
 62
7
  6
BYLAYER
 70
0
 71
3
 72
9
 73
5
 74
0
 42
0.0000001
 43
0.0000001
 44
0.0000000001
 40
0.0
 40
0.0
 40
0.0
 40
0.0
 40
0.5002097396
 40
1.0
 40
1.0
 40
1.0
 40
1.0
 10
29.7048955615
 20
23.5308842553
 30
0.0
 10
29.7419335734
 20
23.5308842553
 30
0.0
 10
29.8160499391
 20
23.5126356452
 30
0.0
 10
29.8798390364
 20
23.4734469831
 30
0.0
 10
29.9087209619
 20
23.4503093764
 30
0.0
  0
SPLINE
  5
469
100
AcDbEntity
  8
00_COMPONENTS
100
AcDbSpline
 62
7
  6
BYLAYER
 70
0
 71
3
 72
11
 73
7
 74
0
 42
0.0000001
 43
0.0000001
 44
0.0000000001
 40
0.0
 40
0.0
 40
0.0
 40
0.0
 40
0.2187992313
 40
0.4531750571
 40
0.7123453181
 40
1.0
 40
1.0
 40
1.0
 40
1.0
 10
30.6203448116
 20
23.4503093764
 30
0.0
 10
30.6269822144
 20
23.4617123448
 30
0.0
 10
30.6437845181
 20
23.4837116746
 30
0.0
 10
30.6784769376
 20
23.5099374471
 30
0.0
 10
30.7229122286
 20
23.5272152916
 30
0.0
 10
30.7560778577
 20
23.5308842553
 30
0.0
 10
30.7734240274
 20
23.5308842553
 30
0.0
  0
SPLINE
  5
46A
100
AcDbEntity
  8
00_COMPONENTS
100
AcDbSpline
 62
7
  6
BYLAYER
 70
0
 71
3
 72
9
 73
5
 74
0
 42
0.0000001
 43
0.0000001
 44
0.0000000001
 40
0.0
 40
0.0
 40
0.0
 40
0.0
 40
0.5075647723
 40
1.0
 40
1.0
 40
1.0
 40
1.0
 10
30.8555670738
 20
23.5308842553
 30
0.0
 10
30.8930028841
 20
23.5308842553
 30
0.0
 10
30.9670153501
 20
23.5133818609
 30
0.0
 10
31.030369311
 20
23.4736435034
 30
0.0
 10
31.0582019372
 20
23.4503093764
 30
0.0
  0
SPLINE
  5
46B
100
AcDbEntity
  8
00_COMPONENTS
100
AcDbSpline
 62
7
  6
BYLAYER
 70
0
 71
3
 72
11
 73
7
 74
0
 42
0.0000001
 43
0.0000001
 44
0.0000000001
 40
0.0
 40
0.0
 40
0.0
 40
0.0
 40
0.2200056739
 40
0.4567807686
 40
0.7166038234
 40
1.0
 40
1.0
 40
1.0
 40
1.0
 10
31.7896920435
 20
23.4503093764
 30
0.0
 10
31.797594287
 20
23.4617842632
 30
0.0
 10
31.8168765348
 20
23.4837696358
 30
0.0
 10
31.8545891346
 20
23.5098341763
 30
0.0
 10
31.9014064561
 20
23.5270994993
 30
0.0
 10
31.9359783593
 20
23.5308842553
 30
0.0
 10
31.9539254289
 20
23.5308842553
 30
0.0
  0
SPLINE
  5
46C
100
AcDbEntity
  8
00_COMPONENTS
100
AcDbSpline
 62
7
  6
BYLAYER
 70
0
 71
3
 72
9
 73
5
 74
0
 42
0.0000001
 43
0.0000001
 44
0.0000000001
 40
0.0
 40
0.0
 40
0.0
 40
0.0
 40
0.5145367667
 40
1.0
 40
1.0
 40
1.0
 40
1.0
 10
32.0380131953
 20
23.5308842553
 30
0.0
 10
32.0755744723
 20
23.5308842553
 30
0.0
 10
32.1490119433
 20
23.5140961395
 30
0.0
 10
32.211394526
 20
23.4738160115
 30
0.0
 10
32.2379153482
 20
23.4503093764
 30
0.0
  0
SPLINE
  5
46D
100
AcDbEntity
  8
00_COMPONENTS
100
AcDbSpline
 62
7
  6
BYLAYER
 70
0
 71
3
 72
11
 73
7
 74
0
 42
0.0000001
 43
0.0000001
 44
0.0000000001
 40
0.0
 40
0.0
 40
0.0
 40
0.0
 40
0.2221525819
 40
0.4613283113
 40
0.7212940313
 40
1.0
 40
1.0
 40
1.0
 40
1.0
 10
32.9837046296
 20
23.4503093764
 30
0.0
 10
32.9928028742
 20
23.4618262422
 30
0.0
 10
33.0143601239
 20
23.4837644466
 30
0.0
 10
33.0548075202
 20
23.509715075
 30
0.0
 10
33.1036871475
 20
23.5269869596
 30
0.0
 10
33.139428863
 20
23.5308842553
 30
0.0
 10
33.1578422694
 20
23.5308842553
 30
0.0
  0
SPLINE
  5
46E
100
AcDbEntity
  8
00_COMPONENTS
100
AcDbSpline
 62
7
  6
BYLAYER
 70
0
 71
3
 72
9
 73
5
 74
0
 42
0.0000001
 43
0.0000001
 44
0.0000000001
 40
0.0
 40
0.0
 40
0.0
 40
0.0
 40
0.5211477129
 40
1.0
 40
1.0
 40
1.0
 40
1.0
 10
33.2432347972
 20
23.5308842553
 30
0.0
 10
33.280648128
 20
23.5308842553
 30
0.0
 10
33.3530589155
 20
23.5147861395
 30
0.0
 10
33.4139321423
 20
23.4739575245
 30
0.0
 10
33.4388828635
 20
23.4503093764
 30
0.0
  0
SPLINE
  5
46F
100
AcDbEntity
  8
00_COMPONENTS
100
AcDbSpline
 62
7
  6
BYLAYER
 70
0
 71
3
 72
9
 73
5
 74
0
 42
0.0000001
 43
0.0000001
 44
0.0000000001
 40
0.0
 40
0.0
 40
0.0
 40
0.0
 40
0.4667755204
 40
1.0
 40
1.0
 40
1.0
 40
1.0
 10
34.1932954133
 20
23.4503093764
 30
0.0
 10
34.2143617023
 20
23.4741045316
 30
0.0
 10
34.2705912639
 20
23.5161158996
 30
0.0
 10
34.339707365
 20
23.5308842553
 30
0.0
 10
34.3760120149
 20
23.5308842553
 30
0.0
  0
SPLINE
  5
470
100
AcDbEntity
  8
00_COMPONENTS
100
AcDbSpline
 62
7
  6
BYLAYER
 70
0
 71
3
 72
9
 73
5
 74
0
 42
0.0000001
 43
0.0000001
 44
0.0000000001
 40
0.0
 40
0.0
 40
0.0
 40
0.0
 40
0.527391241
 40
1.0
 40
1.0
 40
1.0
 40
1.0
 10
34.4620594154
 20
23.5308842553
 30
0.0
 10
34.4990526622
 20
23.5308842553
 30
0.0
 10
34.5700114078
 20
23.5154579942
 30
0.0
 10
34.6288352856
 20
23.4740581895
 30
0.0
 10
34.651964395
 20
23.4503093764
 30
0.0
  0
SPLINE
  5
471
100
AcDbEntity
  8
00_COMPONENTS
100
AcDbSpline
 62
7
  6
BYLAYER
 70
0
 71
3
 72
9
 73
5
 74
0
 42
0.0000001
 43
0.0000001
 44
0.0000000001
 40
0.0
 40
0.0
 40
0.0
 40
0.0
 40
0.4726088869
 40
1.0
 40
1.0
 40
1.0
 40
1.0
 10
35.4092586782
 20
23.4503093764
 30
0.0
 10
35.432387794
 20
23.474058196
 30
0.0
 10
35.4912116737
 20
23.5154580012
 30
0.0
 10
35.56217042
 20
23.5308842553
 30
0.0
 10
35.5991636579
 20
23.5308842553
 30
0.0
  0
SPLINE
  5
472
100
AcDbEntity
  8
00_COMPONENTS
100
AcDbSpline
 62
7
  6
BYLAYER
 70
0
 71
3
 72
9
 73
5
 74
0
 42
0.0000001
 43
0.0000001
 44
0.0000000001
 40
0.0
 40
0.0
 40
0.0
 40
0.0
 40
0.5332246062
 40
1.0
 40
1.0
 40
1.0
 40
1.0
 10
35.6852110584
 20
23.5308842553
 30
0.0
 10
35.7215157167
 20
23.5308842553
 30
0.0
 10
35.7906318174
 20
23.5161158927
 30
0.0
 10
35.8468613768
 20
23.4741045251
 30
0.0
 10
35.86792766
 20
23.4503093764
 30
0.0
  0
SPLINE
  5
473
100
AcDbEntity
  8
00_COMPONENTS
100
AcDbSpline
 62
7
  6
BYLAYER
 70
0
 71
3
 72
11
 73
7
 74
0
 42
0.0000001
 43
0.0000001
 44
0.0000000001
 40
0.0
 40
0.0
 40
0.0
 40
0.0
 40
0.2523391871
 40
0.4790366711
 40
0.7143449309
 40
1.0
 40
1.0
 40
1.0
 40
1.0
 10
23.8289850366
 20
23.4797189481
 30
0.0
 10
23.8289848257
 20
23.4866810516
 30
0.0
 10
23.8304247611
 20
23.5000496816
 30
0.0
 10
23.8401775587
 20
23.5180137103
 30
0.0
 10
23.8584977554
 20
23.5292187917
 30
0.0
 10
23.8731180743
 20
23.5308842553
 30
0.0
 10
23.8809993715
 20
23.5308842553
 30
0.0
  0
SPLINE
  5
474
100
AcDbEntity
  8
00_COMPONENTS
100
AcDbSpline
 62
7
  6
BYLAYER
 70
0
 71
3
 72
15
 73
11
 74
0
 42
0.0000001
 43
0.0000001
 44
0.0000000001
 40
0.0
 40
0.0
 40
0.0
 40
0.0
 40
0.0401955705
 40
0.0842158996
 40
0.1585564383
 40
0.2677641856
 40
0.4104183325
 40
0.5827420764
 40
0.7805944526
 40
1.0
 40
1.0
 40
1.0
 40
1.0
 10
21.64122572
 20
23.109066902
 30
0.0
 10
21.6412251115
 20
23.1086349794
 30
0.0
 10
21.6409159235
 20
23.1075805286
 30
0.0
 10
21.6389581012
 20
23.1074792426
 30
0.0
 10
21.6367220499
 20
23.1083167444
 30
0.0
 10
21.6335603203
 20
23.1099108362
 30
0.0
 10
21.6297101635
 20
23.1123363867
 30
0.0
 10
21.6251803079
 20
23.1154830652
 30
0.0
 10
21.6201096415
 20
23.1192807382
 30
0.0
 10
21.6165867722
 20
23.1220553514
 30
0.0
 10
21.6147481894
 20
23.1235311681
 30
0.0
  0
LINE
  5
475
100
AcDbEntity
  8
00_COMPONENTS
100
AcDbLine
 62
7
  6
BYLAYER
 10
21.6147481894
 20
23.1235311681
 11
21.5989844165
 21
23.1367446282
  0
SPLINE
  5
476
100
AcDbEntity
  8
00_COMPONENTS
100
AcDbSpline
 62
7
  6
BYLAYER
 70
0
 71
3
 72
13
 73
9
 74
0
 42
0.0000001
 43
0.0000001
 44
0.0000000001
 40
0.0
 40
0.0
 40
0.0
 40
0.0
 40
0.1795739401
 40
0.2626359619
 40
0.3592492189
 40
0.479668181
 40
0.6275153413
 40
1.0
 40
1.0
 40
1.0
 40
1.0
 10
22.7164032256
 20
23.1168961037
 30
0.0
 10
22.7164033299
 20
23.1146289139
 30
0.0
 10
22.7156967704
 20
23.1109647748
 30
0.0
 10
22.7119002472
 20
23.1081670699
 30
0.0
 10
22.7081122011
 20
23.1073899647
 30
0.0
 10
22.7034847935
 20
23.1077221503
 30
0.0
 10
22.6956129192
 20
23.1096924118
 30
0.0
 10
22.6895858257
 20
23.1124240515
 30
0.0
 10
22.6853965008
 20
23.1145607599
 30
0.0
  0
SPLINE
  5
477
100
AcDbEntity
  8
00_COMPONENTS
100
AcDbSpline
 62
7
  6
BYLAYER
 70
0
 71
3
 72
9
 73
5
 74
0
 42
0.0000001
 43
0.0000001
 44
0.0000000001
 40
0.0
 40
0.0
 40
0.0
 40
0.0
 40
0.2275194409
 40
1.0
 40
1.0
 40
1.0
 40
1.0
 10
22.6853965008
 20
23.1145607599
 30
0.0
 10
22.6826418733
 20
23.1159657203
 30
0.0
 10
22.6707613891
 20
23.1225842491
 30
0.0
 10
22.6595968269
 20
23.1304112745
 30
0.0
 10
22.6512233375
 20
23.1367445259
 30
0.0
  0
SPLINE
  5
478
100
AcDbEntity
  8
00_COMPONENTS
100
AcDbSpline
 62
7
  6
BYLAYER
 70
0
 71
3
 72
11
 73
7
 74
0
 42
0.0000001
 43
0.0000001
 44
0.0000000001
 40
0.0
 40
0.0
 40
0.0
 40
0.0
 40
0.2559804848
 40
0.5284761056
 40
0.7822931611
 40
1.0
 40
1.0
 40
1.0
 40
1.0
 10
37.4658068888
 20
23.1367444258
 30
0.0
 10
37.4559501474
 20
23.1281922868
 30
0.0
 10
37.4327502406
 20
23.113531664
 30
0.0
 10
37.3928331065
 20
23.1046544759
 30
0.0
 10
37.3543781131
 20
23.1126037065
 30
0.0
 10
37.3348133777
 20
23.1281076329
 30
0.0
 10
37.3278432575
 20
23.1367444599
 30
0.0
  0
SPLINE
  5
479
100
AcDbEntity
  8
00_COMPONENTS
100
AcDbSpline
 62
7
  6
BYLAYER
 70
0
 71
3
 72
17
 73
13
 74
0
 42
0.0000001
 43
0.0000001
 44
0.0000000001
 40
0.0
 40
0.0
 40
0.0
 40
0.0
 40
0.0094113982
 40
0.020164232
 40
0.038791557
 40
0.0665299118
 40
0.103486407
 40
0.1495168609
 40
0.2671352644
 40
0.4152405345
 40
0.5895017789
 40
1.0
 40
1.0
 40
1.0
 40
1.0
 10
21.4852625111
 20
23.1079323936
 30
0.0
 10
21.4852626163
 20
23.1078194019
 30
0.0
 10
21.4851711118
 20
23.1075359611
 30
0.0
 10
21.484630692
 20
23.1075480895
 30
0.0
 10
21.4840151563
 20
23.1077933818
 30
0.0
 10
21.483117838
 20
23.1082646559
 30
0.0
 10
21.4820010494
 20
23.1089787065
 30
0.0
 10
21.4800269567
 20
23.1103630283
 30
0.0
 10
21.4770704632
 20
23.1126586503
 30
0.0
 10
21.4729951957
 20
23.1160207876
 30
0.0
 10
21.4663257615
 20
23.1217601203
 30
0.0
 10
21.4611027141
 20
23.1264525791
 30
0.0
 10
21.4574595481
 20
23.1297716547
 30
0.0
  0
SPLINE
  5
47A
100
AcDbEntity
  8
00_COMPONENTS
100
AcDbSpline
 62
7
  6
BYLAYER
 70
0
 71
3
 72
13
 73
9
 74
0
 42
0.0000001
 43
0.0000001
 44
0.0000000001
 40
0.0
 40
0.0
 40
0.0
 40
0.0
 40
0.2052007384
 40
0.3006056593
 40
0.4021429878
 40
0.5198243376
 40
0.6593242094
 40
1.0
 40
1.0
 40
1.0
 40
1.0
 10
24.6375235892
 20
23.1308750707
 30
0.0
 10
24.6375237505
 20
23.1262928603
 30
0.0
 10
24.6363852323
 20
23.1192421438
 30
0.0
 10
24.6305958639
 20
23.1121122465
 30
0.0
 10
24.6243009918
 20
23.1086484198
 30
0.0
 10
24.6163033088
 20
23.1072545705
 30
0.0
 10
24.6029021472
 20
23.1081387406
 30
0.0
 10
24.592578389
 20
23.1116073314
 30
0.0
 10
24.5855676678
 20
23.11456074
 30
0.0
  0
SPLINE
  5
47B
100
AcDbEntity
  8
00_COMPONENTS
100
AcDbSpline
 62
7
  6
BYLAYER
 70
0
 71
3
 72
9
 73
5
 74
0
 42
0.0000001
 43
0.0000001
 44
0.0000000001
 40
0.0
 40
0.0
 40
0.0
 40
0.0
 40
0.2388856262
 40
1.0
 40
1.0
 40
1.0
 40
1.0
 10
24.5855676678
 20
23.11456074
 30
0.0
 10
24.5823049245
 20
23.1159352369
 30
0.0
 10
24.568877454
 20
23.1222356345
 30
0.0
 10
24.5562798427
 20
23.130193055
 30
0.0
 10
24.5470971107
 20
23.1367444483
 30
0.0
  0
SPLINE
  5
47C
100
AcDbEntity
  8
00_COMPONENTS
100
AcDbSpline
 62
7
  6
BYLAYER
 70
0
 71
3
 72
11
 73
7
 74
0
 42
0.0000001
 43
0.0000001
 44
0.0000000001
 40
0.0
 40
0.0
 40
0.0
 40
0.0
 40
0.2601239223
 40
0.4863319961
 40
0.7181066701
 40
1.0
 40
1.0
 40
1.0
 40
1.0
 10
22.545843904
 20
23.5030296797
 30
0.0
 10
22.545843921
 20
23.5069479616
 30
0.0
 10
22.5466157865
 20
23.5143661796
 30
0.0
 10
22.5520617946
 20
23.5242008023
 30
0.0
 10
22.5620801453
 20
23.5300558589
 30
0.0
 10
22.569937453
 20
23.5308842553
 30
0.0
 10
22.5741836505
 20
23.5308842553
 30
0.0
  0
SPLINE
  5
47D
100
AcDbEntity
  8
00_COMPONENTS
100
AcDbSpline
 62
7
  6
BYLAYER
 70
0
 71
3
 72
11
 73
7
 74
0
 42
0.0000001
 43
0.0000001
 44
0.0000000001
 40
0.0
 40
0.0
 40
0.0
 40
0.0
 40
0.2665052822
 40
0.5428140924
 40
0.7908955907
 40
1.0
 40
1.0
 40
1.0
 40
1.0
 10
38.6250634628
 20
23.1367444445
 30
0.0
 10
38.6147153146
 20
23.1282518972
 30
0.0
 10
38.5911010091
 20
23.1137808404
 30
0.0
 10
38.5514621852
 20
23.1046658634
 30
0.0
 10
38.5139319841
 20
23.1123860153
 30
0.0
 10
38.4957885802
 20
23.1281538073
 30
0.0
 10
38.4897450281
 20
23.1367444843
 30
0.0
  0
SPLINE
  5
47E
100
AcDbEntity
  8
00_COMPONENTS
100
AcDbSpline
 62
7
  6
BYLAYER
 70
0
 71
3
 72
13
 73
9
 74
0
 42
0.0000001
 43
0.0000001
 44
0.0000000001
 40
0.0
 40
0.0
 40
0.0
 40
0.0
 40
0.2764235188
 40
0.5551543948
 40
0.6829548874
 40
0.7979977324
 40
0.9023065998
 40
1.0
 40
1.0
 40
1.0
 40
1.0
 10
39.756964088
 20
23.1367444666
 30
0.0
 10
39.7462215961
 20
23.1283201371
 30
0.0
 10
39.7224418251
 20
23.1140265161
 30
0.0
 10
39.6887087263
 20
23.1060515779
 30
0.0
 10
39.6628519326
 20
23.1088629978
 30
0.0
 10
39.6466539694
 20
23.1151046309
 30
0.0
 10
39.6339743336
 20
23.1246120273
 30
0.0
 10
39.6277866308
 20
23.1325974839
 30
0.0
 10
39.6253207036
 20
23.1367445118
 30
0.0
  0
SPLINE
  5
47F
100
AcDbEntity
  8
00_COMPONENTS
100
AcDbSpline
 62
7
  6
BYLAYER
 70
0
 71
3
 72
14
 73
10
 74
0
 42
0.0000001
 43
0.0000001
 44
0.0000000001
 40
0.0
 40
0.0
 40
0.0
 40
0.0
 40
0.287271608
 40
0.4319799233
 40
0.5698361704
 40
0.6948417145
 40
0.8054748041
 40
0.9053838137
 40
1.0
 40
1.0
 40
1.0
 40
1.0
 10
40.8528943172
 20
23.1367444919
 30
0.0
 10
40.8418554533
 20
23.1283952964
 30
0.0
 10
40.8236724724
 20
23.1176335077
 30
0.0
 10
40.7974224471
 20
23.1092258656
 30
0.0
 10
40.7777856616
 20
23.1068085715
 30
0.0
 10
40.7597019368
 20
23.1088217068
 30
0.0
 10
40.7445326194
 20
23.1150795313
 30
0.0
 10
40.7330968381
 20
23.1246687255
 30
0.0
 10
40.7279045994
 20
23.1326368221
 30
0.0
 10
40.7259278675
 20
23.1367445422
 30
0.0
  0
SPLINE
  5
480
100
AcDbEntity
  8
00_COMPONENTS
100
AcDbSpline
 62
7
  6
BYLAYER
 70
0
 71
3
 72
11
 73
7
 74
0
 42
0.0000001
 43
0.0000001
 44
0.0000000001
 40
0.0
 40
0.0
 40
0.0
 40
0.0
 40
0.2458566082
 40
0.5142157124
 40
0.7732762175
 40
1.0
 40
1.0
 40
1.0
 40
1.0
 10
36.2880170086
 20
23.1367444106
 30
0.0
 10
36.2787470727
 20
23.1281438134
 30
0.0
 10
36.2561576747
 20
23.1132912647
 30
0.0
 10
36.2162326004
 20
23.1046471898
 30
0.0
 10
36.1770548563
 20
23.1128280155
 30
0.0
 10
36.1562800943
 20
23.1280957214
 30
0.0
 10
36.1484581656
 20
23.1367444387
 30
0.0
  0
SPLINE
  5
481
100
AcDbEntity
  8
00_COMPONENTS
100
AcDbSpline
 62
7
  6
BYLAYER
 70
0
 71
3
 72
14
 73
10
 74
0
 42
0.0000001
 43
0.0000001
 44
0.0000000001
 40
0.0
 40
0.0
 40
0.0
 40
0.0
 40
0.2988898081
 40
0.4462771175
 40
0.5838382793
 40
0.7057179304
 40
0.8117491891
 40
0.9075491203
 40
1.0
 40
1.0
 40
1.0
 40
1.0
 10
41.9045134593
 20
23.1367445203
 30
0.0
 10
41.8932764246
 20
23.1284762617
 30
0.0
 10
41.8750816233
 20
23.1177658491
 30
0.0
 10
41.8490764082
 20
23.1092740298
 30
0.0
 10
41.8300996526
 20
23.1068124794
 30
0.0
 10
41.812935544
 20
23.1087762964
 30
0.0
 10
41.7988895461
 20
23.1150702424
 30
0.0
 10
41.7888022224
 20
23.1247699867
 30
0.0
 10
41.7846668308
 20
23.1326897715
 30
0.0
 10
41.7831902349
 20
23.1367445752
 30
0.0
  0
SPLINE
  5
482
100
AcDbEntity
  8
00_COMPONENTS
100
AcDbSpline
 62
7
  6
BYLAYER
 70
0
 71
3
 72
14
 73
10
 74
0
 42
0.0000001
 43
0.0000001
 44
0.0000000001
 40
0.0
 40
0.0
 40
0.0
 40
0.0
 40
0.3108884053
 40
0.4607489096
 40
0.5975372199
 40
0.7156730884
 40
0.8167091984
 40
0.9086798381
 40
1.0
 40
1.0
 40
1.0
 40
1.0
 10
42.9038180575
 20
23.1367445514
 30
0.0
 10
42.8924806239
 20
23.1285623637
 30
0.0
 10
42.8744158762
 20
23.1179076924
 30
0.0
 10
42.8488429431
 20
23.1093269055
 30
0.0
 10
42.8306668435
 20
23.1068180079
 30
0.0
 10
42.8145317113
 20
23.1087264004
 30
0.0
 10
42.8016941142
 20
23.1150873733
 30
0.0
 10
42.7930692551
 20
23.1249289065
 30
0.0
 10
42.7900361564
 20
23.1327550118
 30
0.0
 10
42.789061401
 20
23.1367446106
 30
0.0
  0
SPLINE
  5
483
100
AcDbEntity
  8
00_COMPONENTS
100
AcDbSpline
 62
7
  6
BYLAYER
 70
0
 71
3
 72
14
 73
10
 74
0
 42
0.0000001
 43
0.0000001
 44
0.0000000001
 40
0.0
 40
0.0
 40
0.0
 40
0.0
 40
0.3231788801
 40
0.4752117798
 40
0.6106098748
 40
0.7242284674
 40
0.8198374167
 40
0.9084656855
 40
1.0
 40
1.0
 40
1.0
 40
1.0
 10
43.8432028003
 20
23.1367445852
 30
0.0
 10
43.8318616401
 20
23.1286532642
 30
0.0
 10
43.8140676678
 20
23.118060886
 30
0.0
 10
43.7891127238
 20
23.1093857834
 30
0.0
 10
43.7718735468
 20
23.1068260143
 30
0.0
 10
43.7568600225
 20
23.1086701032
 30
0.0
 10
43.7453100754
 20
23.1151494706
 30
0.0
 10
43.7382796432
 20
23.1251548761
 30
0.0
 10
43.7363663617
 20
23.1328281046
 30
0.0
 10
43.7358860789
 20
23.1367446482
 30
0.0
  0
SPLINE
  5
484
100
AcDbEntity
  8
00_COMPONENTS
100
AcDbSpline
 62
7
  6
BYLAYER
 70
0
 71
3
 72
11
 73
7
 74
0
 42
0.0000001
 43
0.0000001
 44
0.0000000001
 40
0.0
 40
0.0
 40
0.0
 40
0.0
 40
0.2267193309
 40
0.4857827342
 40
0.7541386293
 40
1.0
 40
1.0
 40
1.0
 40
1.0
 10
33.9127649295
 20
23.1367443912
 30
0.0
 10
33.9049431597
 20
23.128095843
 30
0.0
 10
33.8841684668
 20
23.1128282538
 30
0.0
 10
33.8449910434
 20
23.1046471808
 30
0.0
 10
33.8050656943
 20
23.1132910429
 30
0.0
 10
33.782476212
 20
23.1281436488
 30
0.0
 10
33.7732060957
 20
23.1367444069
 30
0.0
  0
SPLINE
  5
485
100
AcDbEntity
  8
00_COMPONENTS
100
AcDbSpline
 62
7
  6
BYLAYER
 70
0
 71
3
 72
15
 73
11
 74
0
 42
0.0000001
 43
0.0000001
 44
0.0000000001
 40
0.0
 40
0.0
 40
0.0
 40
0.0
 40
0.1702791528
 40
0.3358837322
 40
0.4895830222
 40
0.6227310349
 40
0.7308208955
 40
0.8205344039
 40
0.9065943184
 40
1.0
 40
1.0
 40
1.0
 40
1.0
 10
44.7155184024
 20
23.1367446212
 30
0.0
 10
44.7098076967
 20
23.132685837
 30
0.0
 10
44.6982128771
 20
23.1251272545
 30
0.0
 10
44.6802998182
 20
23.1158268775
 30
0.0
 10
44.6627266837
 20
23.1094537458
 30
0.0
 10
44.6465597298
 20
23.1068371464
 30
0.0
 10
44.6327351034
 20
23.1086061586
 30
0.0
 10
44.6225604774
 20
23.1152854889
 30
0.0
 10
44.6172763781
 20
23.1254445071
 30
0.0
 10
44.6164583654
 20
23.1329015127
 30
0.0
 10
44.6164583615
 20
23.1367446875
 30
0.0
  0
SPLINE
  5
486
100
AcDbEntity
  8
00_COMPONENTS
100
AcDbSpline
 62
7
  6
BYLAYER
 70
0
 71
3
 72
11
 73
7
 74
0
 42
0.0000001
 43
0.0000001
 44
0.0000000001
 40
0.0
 40
0.0
 40
0.0
 40
0.0
 40
0.2177025189
 40
0.4715223213
 40
0.744014575
 40
1.0
 40
1.0
 40
1.0
 40
1.0
 10
32.7333798332
 20
23.1367443872
 30
0.0
 10
32.7264098582
 20
23.1281077337
 30
0.0
 10
32.7068451828
 20
23.1126039517
 30
0.0
 10
32.6683905334
 20
23.104654458
 30
0.0
 10
32.6284731465
 20
23.113531451
 30
0.0
 10
32.6052731495
 20
23.1281921006
 30
0.0
 10
32.59541622
 20
23.1367443964
 30
0.0
  0
SPLINE
  5
487
100
AcDbEntity
  8
00_COMPONENTS
100
AcDbSpline
 62
7
  6
BYLAYER
 70
0
 71
3
 72
15
 73
11
 74
0
 42
0.0000001
 43
0.0000001
 44
0.0000000001
 40
0.0
 40
0.0
 40
0.0
 40
0.0
 40
0.1756029925
 40
0.3448232686
 40
0.5006926559
 40
0.6349836572
 40
0.7426134587
 40
0.8290424084
 40
0.9102418106
 40
1.0
 40
1.0
 40
1.0
 40
1.0
 10
45.5141260151
 20
23.1367446593
 30
0.0
 10
45.5088148651
 20
23.1329554331
 30
0.0
 10
45.4981249724
 20
23.125867886
 30
0.0
 10
45.4817777668
 20
23.1169337296
 30
0.0
 10
45.4659197402
 20
23.1104751757
 30
0.0
 10
45.4514181512
 20
23.1072053945
 30
0.0
 10
45.438989676
 20
23.1076109897
 30
0.0
 10
45.4294687174
 20
23.1125010171
 30
0.0
 10
45.4244187118
 20
23.1211041697
 30
0.0
 10
45.4236993924
 20
23.1275403429
 30
0.0
 10
45.423699499
 20
23.1308751936
 30
0.0
  0
SPLINE
  5
488
100
AcDbEntity
  8
00_COMPONENTS
100
AcDbSpline
 62
7
  6
BYLAYER
 70
0
 71
3
 72
14
 73
10
 74
0
 42
0.0000001
 43
0.0000001
 44
0.0000000001
 40
0.0
 40
0.0
 40
0.0
 40
0.0
 40
0.1818722755
 40
0.3556882169
 40
0.5147281688
 40
0.6511608498
 40
0.8390172968
 40
0.9148175149
 40
1.0
 40
1.0
 40
1.0
 40
1.0
 10
46.2329477521
 20
23.1367446992
 30
0.0
 10
46.2280548042
 20
23.1332134746
 30
0.0
 10
46.2182728054
 20
23.126581548
 30
0.0
 10
46.2035076834
 20
23.1180320084
 30
0.0
 10
46.1891710166
 20
23.1115833885
 30
0.0
 10
46.1741648635
 20
23.1070359195
 30
0.0
 10
46.1587453722
 20
23.1072471727
 30
0.0
 10
46.1516865204
 20
23.117310855
 30
0.0
 10
46.1510893066
 20
23.1227579488
 30
0.0
 10
46.1510891772
 20
23.1255841107
 30
0.0
  0
SPLINE
  5
489
100
AcDbEntity
  8
00_COMPONENTS
100
AcDbSpline
 62
7
  6
BYLAYER
 70
0
 71
3
 72
11
 73
7
 74
0
 42
0.0000001
 43
0.0000001
 44
0.0000000001
 40
0.0
 40
0.0
 40
0.0
 40
0.0
 40
0.209100203
 40
0.4571843003
 40
0.7334895846
 40
1.0
 40
1.0
 40
1.0
 40
1.0
 10
31.5714780584
 20
23.136744387
 30
0.0
 10
31.5654346358
 20
23.1281538878
 30
0.0
 10
31.5472912821
 20
23.1123862662
 30
0.0
 10
31.5097614484
 20
23.1046658368
 30
0.0
 10
31.4701223927
 20
23.1137806365
 30
0.0
 10
31.4465079922
 20
23.1282516895
 30
0.0
 10
31.4361596502
 20
23.1367443897
 30
0.0
  0
SPLINE
  5
48A
100
AcDbEntity
  8
00_COMPONENTS
100
AcDbSpline
 62
7
  6
BYLAYER
 70
0
 71
3
 72
14
 73
10
 74
0
 42
0.0000001
 43
0.0000001
 44
0.0000000001
 40
0.0
 40
0.0
 40
0.0
 40
0.0
 40
0.3640578685
 40
0.525387001
 40
0.6633728055
 40
0.771929118
 40
0.8526854451
 40
0.921637565
 40
1.0
 40
1.0
 40
1.0
 40
1.0
 10
46.8665129459
 20
23.1367447405
 30
0.0
 10
46.8578198237
 20
23.1303483022
 30
0.0
 10
46.8448390654
 20
23.1216317278
 30
0.0
 10
46.8272720033
 20
23.11274059
 30
0.0
 10
46.8158513406
 20
23.1086023879
 30
0.0
 10
46.806220854
 20
23.1070370486
 30
0.0
 10
46.7983221653
 20
23.1085796
 30
0.0
 10
46.7936187173
 20
23.1140757161
 30
0.0
 10
46.7930913634
 20
23.1185893645
 30
0.0
 10
46.7930915058
 20
23.1209124871
 30
0.0
  0
SPLINE
  5
48B
100
AcDbEntity
  8
00_COMPONENTS
100
AcDbSpline
 62
7
  6
BYLAYER
 70
0
 71
3
 72
13
 73
9
 74
0
 42
0.0000001
 43
0.0000001
 44
0.0000000001
 40
0.0
 40
0.0
 40
0.0
 40
0.0
 40
0.0976905332
 40
0.201998034
 40
0.3170378646
 40
0.4448440444
 40
0.7235712046
 40
1.0
 40
1.0
 40
1.0
 40
1.0
 10
30.4359023791
 20
23.1367443907
 30
0.0
 10
30.433436528
 20
23.1325974877
 30
0.0
 10
30.42724893
 20
23.1246122224
 30
0.0
 10
30.414569617
 20
23.1151050788
 30
0.0
 10
30.3983717978
 20
23.1088629583
 30
0.0
 10
30.3725150135
 20
23.1060516214
 30
0.0
 10
30.338781603
 20
23.1140262668
 30
0.0
 10
30.3150017183
 20
23.1283199082
 30
0.0
 10
30.3042590287
 20
23.1367443867
 30
0.0
  0
SPLINE
  5
48C
100
AcDbEntity
  8
00_COMPONENTS
100
AcDbSpline
 62
7
  6
BYLAYER
 70
0
 71
3
 72
15
 73
11
 74
0
 42
0.0000001
 43
0.0000001
 44
0.0000000001
 40
0.0
 40
0.0
 40
0.0
 40
0.0
 40
0.3738981526
 40
0.5382545182
 40
0.678603754
 40
0.7885335085
 40
0.8674474922
 40
0.8993266352
 40
0.9301103636
 40
1.0
 40
1.0
 40
1.0
 40
1.0
 10
47.4099997825
 20
23.1367447829
 30
0.0
 10
47.4021767388
 20
23.1308278568
 30
0.0
 10
47.3905948422
 20
23.1226847491
 30
0.0
 10
47.375067816
 20
23.1139545632
 30
0.0
 10
47.3650685155
 20
23.1095722779
 30
0.0
 10
47.3567119761
 20
23.1073391355
 30
0.0
 10
47.3506775594
 20
23.1075612621
 30
0.0
 10
47.3473997305
 20
23.1094786429
 30
0.0
 10
47.3452264394
 20
23.1122902144
 30
0.0
 10
47.3448197208
 20
23.1150626069
 30
0.0
 10
47.3448198094
 20
23.1168960592
 30
0.0
  0
SPLINE
  5
48D
100
AcDbEntity
  8
00_COMPONENTS
100
AcDbSpline
 62
7
  6
BYLAYER
 70
0
 71
3
 72
14
 73
10
 74
0
 42
0.0000001
 43
0.0000001
 44
0.0000000001
 40
0.0
 40
0.0
 40
0.0
 40
0.0
 40
0.0946133286
 40
0.1945210482
 40
0.3051511802
 40
0.430162281
 40
0.5680120949
 40
0.7127228669
 40
1.0
 40
1.0
 40
1.0
 40
1.0
 10
29.335295212
 20
23.1367443981
 30
0.0
 10
29.3333185437
 20
23.1326368074
 30
0.0
 10
29.3281263884
 20
23.1246689068
 30
0.0
 10
29.3166909092
 20
23.115079981
 30
0.0
 10
29.3015217662
 20
23.1088216644
 30
0.0
 10
29.2834381834
 20
23.1068085932
 30
0.0
 10
29.2638013892
 20
23.1092258231
 30
0.0
 10
29.2375511821
 20
23.1176330575
 30
0.0
 10
29.2193678662
 20
23.128395047
 30
0.0
 10
29.2083288028
 20
23.1367443877
 30
0.0
  0
SPLINE
  5
48E
100
AcDbEntity
  8
00_COMPONENTS
100
AcDbSpline
 62
7
  6
BYLAYER
 70
0
 71
3
 72
16
 73
12
 74
0
 42
0.0000001
 43
0.0000001
 44
0.0000000001
 40
0.0
 40
0.0
 40
0.0
 40
0.0
 40
0.198306984
 40
0.384185451
 40
0.5519628378
 40
0.6951895302
 40
0.8073681298
 40
0.8508258324
 40
0.8862574444
 40
0.9407392974
 40
1.0
 40
1.0
 40
1.0
 40
1.0
 10
47.859271999
 20
23.1367448262
 30
0.0
 10
47.8556771952
 20
23.1339257574
 30
0.0
 10
47.8486290171
 20
23.1285690803
 30
0.0
 10
47.8382083383
 20
23.1212777391
 30
0.0
 10
47.828491943
 20
23.1152061152
 30
0.0
 10
47.8198444646
 20
23.1106962006
 30
0.0
 10
47.8133673858
 20
23.1082276386
 30
0.0
 10
47.8090029905
 20
23.1075109946
 30
0.0
 10
47.8059246224
 20
23.1075350912
 30
0.0
 10
47.8025231243
 20
23.1093138448
 30
0.0
 10
47.8020780706
 20
23.1122024458
 30
0.0
 10
47.8020771325
 20
23.113567618
 30
0.0
  0
SPLINE
  5
48F
100
AcDbEntity
  8
00_COMPONENTS
100
AcDbSpline
 62
7
  6
BYLAYER
 70
0
 71
3
 72
14
 73
10
 74
0
 42
0.0000001
 43
0.0000001
 44
0.0000000001
 40
0.0
 40
0.0
 40
0.0
 40
0.0
 40
0.0924479816
 40
0.1882466863
 40
0.2942750577
 40
0.4161601035
 40
0.5537148135
 40
0.7011044406
 40
1.0
 40
1.0
 40
1.0
 40
1.0
 10
28.2780328419
 20
23.1367444092
 30
0.0
 10
28.2765562958
 20
23.1326897394
 30
0.0
 10
28.2724209687
 20
23.1247701508
 30
0.0
 10
28.2623339194
 20
23.1150706948
 30
0.0
 10
28.248288128
 20
23.1087762468
 30
0.0
 10
28.231124156
 20
23.1068125054
 30
0.0
 10
28.2121474154
 20
23.1092739781
 30
0.0
 10
28.1861420289
 20
23.117765409
 30
0.0
 10
28.1679468972
 20
23.1284759927
 30
0.0
 10
28.1567096634
 20
23.1367443924
 30
0.0
  0
SPLINE
  5
490
100
AcDbEntity
  8
00_COMPONENTS
100
AcDbSpline
 62
7
  6
BYLAYER
 70
0
 71
3
 72
15
 73
11
 74
0
 42
0.0000001
 43
0.0000001
 44
0.0000000001
 40
0.0
 40
0.0
 40
0.0
 40
0.0
 40
0.2034668157
 40
0.3933247851
 40
0.56434988
 40
0.7105368126
 40
0.8256323377
 40
0.9053566505
 40
0.9539171584
 40
1.0
 40
1.0
 40
1.0
 40
1.0
 10
48.2109103624
 20
23.1367448699
 30
0.0
 10
48.2077431138
 20
23.1341455623
 30
0.0
 10
48.2015632672
 20
23.1291894171
 30
0.0
 10
48.1924972772
 20
23.1223347423
 30
0.0
 10
48.1841071996
 20
23.1165031322
 30
0.0
 10
48.1767174972
 20
23.1119089477
 30
0.0
 10
48.1704962352
 20
23.1088852018
 30
0.0
 10
48.1659294983
 20
23.107294942
 30
0.0
 10
48.1619481084
 20
23.1078113251
 30
0.0
 10
48.1613807573
 20
23.110023358
 30
0.0
 10
48.1613813398
 20
23.110951348
 30
0.0
  0
SPLINE
  5
491
100
AcDbEntity
  8
00_COMPONENTS
100
AcDbSpline
 62
7
  6
BYLAYER
 70
0
 71
3
 72
13
 73
9
 74
0
 42
0.0000001
 43
0.0000001
 44
0.0000000001
 40
0.0
 40
0.0
 40
0.0
 40
0.0
 40
0.1916775006
 40
0.2795418857
 40
0.3775189748
 40
0.4961769121
 40
0.6402863
 40
1.0
 40
1.0
 40
1.0
 40
1.0
 10
23.2681315483
 20
23.1209125208
 30
0.0
 10
23.2681317134
 20
23.1179262091
 30
0.0
 10
23.2673069194
 20
23.1132281929
 30
0.0
 10
23.2628602753
 20
23.1090896326
 30
0.0
 10
23.2582539033
 20
23.107559006
 30
0.0
 10
23.2525825455
 20
23.1074427707
 30
0.0
 10
23.243000412
 20
23.1091776503
 30
0.0
 10
23.2356589645
 20
23.1121650492
 30
0.0
 10
23.2305925334
 20
23.114560753
 30
0.0
  0
SPLINE
  5
492
100
AcDbEntity
  8
00_COMPONENTS
100
AcDbSpline
 62
7
  6
BYLAYER
 70
0
 71
3
 72
9
 73
5
 74
0
 42
0.0000001
 43
0.0000001
 44
0.0000000001
 40
0.0
 40
0.0
 40
0.0
 40
0.0
 40
0.2316065476
 40
1.0
 40
1.0
 40
1.0
 40
1.0
 10
23.2305925334
 20
23.114560753
 30
0.0
 10
23.2276455539
 20
23.1159542565
 30
0.0
 10
23.2151514941
 20
23.1224563887
 30
0.0
 10
23.2034212162
 20
23.1303348775
 30
0.0
 10
23.1947101768
 20
23.136744497
 30
0.0
  0
SPLINE
  5
493
100
AcDbEntity
  8
00_COMPONENTS
100
AcDbSpline
 62
7
  6
BYLAYER
 70
0
 71
3
 72
14
 73
10
 74
0
 42
0.0000001
 43
0.0000001
 44
0.0000000001
 40
0.0
 40
0.0
 40
0.0
 40
0.0
 40
0.0913171904
 40
0.183286671
 40
0.2843200089
 40
0.4024610847
 40
0.5392429461
 40
0.6891056076
 40
1.0
 40
1.0
 40
1.0
 40
1.0
 10
27.2721616739
 20
23.1367444241
 30
0.0
 10
27.2711869528
 20
23.1327549633
 30
0.0
 10
27.2681539043
 20
23.1249290504
 30
0.0
 10
27.2595292818
 20
23.1150878279
 30
0.0
 10
27.2466919296
 20
23.1087263445
 30
0.0
 10
27.2305569223
 20
23.106818038
 30
0.0
 10
27.2123808628
 20
23.1093268442
 30
0.0
 10
27.1868077676
 20
23.117907263
 30
0.0
 10
27.1687426976
 20
23.1285620761
 30
0.0
 10
27.1574050671
 20
23.1367444009
 30
0.0
  0
SPLINE
  5
494
100
AcDbEntity
  8
00_COMPONENTS
100
AcDbSpline
 62
7
  6
BYLAYER
 70
0
 71
3
 72
17
 73
13
 74
0
 42
0.0000001
 43
0.0000001
 44
0.0000000001
 40
0.0
 40
0.0
 40
0.0
 40
0.0
 40
0.2066768335
 40
0.3988907219
 40
0.5719469238
 40
0.7203831426
 40
0.838469881
 40
0.9209446398
 40
0.9483752062
 40
0.9676122193
 40
0.982522366
 40
1.0
 40
1.0
 40
1.0
 40
1.0
 10
48.4622386923
 20
23.1367449138
 30
0.0
 10
48.459488478
 20
23.1343587066
 30
0.0
 10
48.454146809
 20
23.1297920863
 30
0.0
 10
48.4463640792
 20
23.123389835
 30
0.0
 10
48.4392318267
 20
23.1178202237
 30
0.0
 10
48.4329559573
 20
23.1132680673
 30
0.0
 10
48.4277835222
 20
23.1099640113
 30
0.0
 10
48.4241767817
 20
23.1081035136
 30
0.0
 10
48.4219780138
 20
23.1075308663
 30
0.0
 10
48.4208476255
 20
23.1075315981
 30
0.0
 10
48.4200741592
 20
23.1081489702
 30
0.0
 10
48.4199976426
 20
23.1087589186
 30
0.0
 10
48.4199972776
 20
23.1090668288
 30
0.0
  0
SPLINE
  5
495
100
AcDbEntity
  8
00_COMPONENTS
100
AcDbSpline
 62
7
  6
BYLAYER
 70
0
 71
3
 72
14
 73
10
 74
0
 42
0.0000001
 43
0.0000001
 44
0.0000000001
 40
0.0
 40
0.0
 40
0.0
 40
0.0
 40
0.0915312366
 40
0.1801584174
 40
0.2757647697
 40
0.3893883484
 40
0.5247800239
 40
0.6768148931
 40
1.0
 40
1.0
 40
1.0
 40
1.0
 10
26.3253369947
 20
23.1367444424
 30
0.0
 10
26.3248567296
 20
23.1328280402
 30
0.0
 10
26.3229434899
 20
23.1251549975
 30
0.0
 10
26.3159132445
 20
23.1151499255
 30
0.0
 10
26.3043635886
 20
23.1086700427
 30
0.0
 10
26.2893501702
 20
23.1068260479
 30
0.0
 10
26.2721110594
 20
23.1093857121
 30
0.0
 10
26.2471559613
 20
23.1180604679
 30
0.0
 10
26.2293616784
 20
23.1286529594
 30
0.0
 10
26.2180203255
 20
23.1367444131
 30
0.0
  0
SPLINE
  5
496
100
AcDbEntity
  8
00_COMPONENTS
100
AcDbSpline
 62
7
  6
BYLAYER
 70
0
 71
3
 72
13
 73
9
 74
0
 42
0.0000001
 43
0.0000001
 44
0.0000000001
 40
0.0
 40
0.0
 40
0.0
 40
0.0
 40
0.4033554558
 40
0.5783746634
 40
0.7294242551
 40
0.8514056344
 40
0.9390590317
 40
1.0
 40
1.0
 40
1.0
 40
1.0
 10
48.6113442284
 20
23.1367449574
 30
0.0
 10
48.6068169976
 20
23.1325446146
 30
0.0
 10
48.600318212
 20
23.1265804781
 30
0.0
 10
48.5918703456
 20
23.1191480796
 30
0.0
 10
48.5868158257
 20
23.1147980374
 30
0.0
 10
48.5820633351
 20
23.111062055
 30
0.0
 10
48.5797965472
 20
23.1092449473
 30
0.0
 10
48.5759596595
 20
23.1069991822
 30
0.0
 10
48.5759604004
 20
23.1079322307
 30
0.0
  0
SPLINE
  5
497
100
AcDbEntity
  8
00_COMPONENTS
100
AcDbSpline
 62
7
  6
BYLAYER
 70
0
 71
3
 72
15
 73
11
 74
0
 42
0.0000001
 43
0.0000001
 44
0.0000000001
 40
0.0
 40
0.0
 40
0.0
 40
0.0
 40
0.0934024699
 40
0.1794613716
 40
0.2691725429
 40
0.3772671248
 40
0.5104087843
 40
0.6641098236
 40
0.8297163677
 40
1.0
 40
1.0
 40
1.0
 40
1.0
 10
25.4447647118
 20
23.1367444642
 30
0.0
 10
25.4447647079
 20
23.1329014325
 30
0.0
 10
25.443946736
 20
23.125444605
 30
0.0
 10
25.4386627594
 20
23.1152859403
 30
0.0
 10
25.4284884804
 20
23.1086060974
 30
0.0
 10
25.4146639317
 20
23.106837181
 30
0.0
 10
25.3984970765
 20
23.109453672
 30
0.0
 10
25.3809239644
 20
23.1158264682
 30
0.0
 10
25.3630106822
 20
23.1251270138
 30
0.0
 10
25.3514155644
 20
23.132685551
 30
0.0
 10
25.3457047239
 20
23.136744429
 30
0.0
  0
SPLINE
  5
498
100
AcDbEntity
  8
00_COMPONENTS
100
AcDbSpline
 62
7
  6
BYLAYER
 70
0
 71
3
 72
9
 73
5
 74
0
 42
0.0000001
 43
0.0000001
 44
0.0000000001
 40
0.0
 40
0.0
 40
0.0
 40
0.0
 40
0.4788524161
 40
1.0
 40
1.0
 40
1.0
 40
1.0
 10
36.6223402098
 20
23.4503093764
 30
0.0
 10
36.6472909377
 20
23.473957531
 30
0.0
 10
36.7081641663
 20
23.5147861465
 30
0.0
 10
36.7805749544
 20
23.5308842553
 30
0.0
 10
36.8179882761
 20
23.5308842553
 30
0.0
  0
SPLINE
  5
499
100
AcDbEntity
  8
00_COMPONENTS
100
AcDbSpline
 62
7
  6
BYLAYER
 70
0
 71
3
 72
11
 73
7
 74
0
 42
0.0000001
 43
0.0000001
 44
0.0000000001
 40
0.0
 40
0.0
 40
0.0
 40
0.0
 40
0.2787063417
 40
0.5386718132
 40
0.7778474438
 40
1.0
 40
1.0
 40
1.0
 40
1.0
 10
36.9033808039
 20
23.5308842553
 30
0.0
 10
36.9217942348
 20
23.5308842553
 30
0.0
 10
36.9575359586
 20
23.5269869486
 30
0.0
 10
37.0064155824
 20
23.5097150554
 30
0.0
 10
37.0468629582
 20
23.483764441
 30
0.0
 10
37.0684202002
 20
23.4618262408
 30
0.0
 10
37.0775184437
 20
23.4503093764
 30
0.0
  0
SPLINE
  5
49A
100
AcDbEntity
  8
00_COMPONENTS
100
AcDbSpline
 62
7
  6
BYLAYER
 70
0
 71
3
 72
9
 73
5
 74
0
 42
0.0000001
 43
0.0000001
 44
0.0000000001
 40
0.0
 40
0.0
 40
0.0
 40
0.0
 40
0.4854633634
 40
1.0
 40
1.0
 40
1.0
 40
1.0
 10
37.8233077251
 20
23.4503093764
 30
0.0
 10
37.8498285544
 20
23.4738160179
 30
0.0
 10
37.9122111387
 20
23.5140961465
 30
0.0
 10
37.9856486104
 20
23.5308842553
 30
0.0
 10
38.023209878
 20
23.5308842553
 30
0.0
  0
SPLINE
  5
49B
100
AcDbEntity
  8
00_COMPONENTS
100
AcDbSpline
 62
7
  6
BYLAYER
 70
0
 71
3
 72
11
 73
7
 74
0
 42
0.0000001
 43
0.0000001
 44
0.0000000001
 40
0.0
 40
0.0
 40
0.0
 40
0.0
 40
0.2833965508
 40
0.5432193544
 40
0.7799943513
 40
1.0
 40
1.0
 40
1.0
 40
1.0
 10
38.1072976444
 20
23.5308842553
 30
0.0
 10
38.1252447376
 20
23.5308842553
 30
0.0
 10
38.1598166487
 20
23.5270994885
 30
0.0
 10
38.2066339663
 20
23.5098341565
 30
0.0
 10
38.2443465467
 20
23.4837696302
 30
0.0
 10
38.2636287872
 20
23.4617842618
 30
0.0
 10
38.2715310298
 20
23.4503093764
 30
0.0
  0
SPLINE
  5
49C
100
AcDbEntity
  8
00_COMPONENTS_2
100
AcDbSpline
 62
7
  6
BYLAYER
 70
0
 71
3
 72
9
 73
5
 74
0
 42
0.0000001
 43
0.0000001
 44
0.0000000001
 40
0.0
 40
0.0
 40
0.0
 40
0.0
 40
0.2450215037
 40
1.0
 40
1.0
 40
1.0
 40
1.0
 10
29.566342848
 20
21.8236711419
 30
0.0
 10
29.5828574743
 20
21.893198163
 30
0.0
 10
29.638910608
 20
22.1795851781
 30
0.0
 10
29.6509080434
 20
22.4741701934
 30
0.0
 10
29.637331257
 20
22.6939435854
 30
0.0
  0
SPLINE
  5
49D
100
AcDbEntity
  8
00_COMPONENTS_2
100
AcDbSpline
 62
7
  6
BYLAYER
 70
0
 71
3
 72
9
 73
5
 74
0
 42
0.0000001
 43
0.0000001
 44
0.0000000001
 40
0.0
 40
0.0
 40
0.0
 40
0.0
 40
0.2556332305
 40
1.0
 40
1.0
 40
1.0
 40
1.0
 10
40.3812938895
 20
22.6910421648
 30
0.0
 10
40.3760433298
 20
22.6063996941
 30
0.0
 10
40.368693216
 20
22.2747108038
 30
0.0
 10
40.4147517203
 20
21.9410054806
 30
0.0
 10
40.4828779627
 20
21.7036485156
 30
0.0
  0
SPLINE
  5
49E
100
AcDbEntity
  8
00_COMPONENTS_2
100
AcDbSpline
 62
7
  6
BYLAYER
 70
0
 71
3
 72
15
 73
11
 74
0
 42
0.0000001
 43
0.0000001
 44
0.0000000001
 40
0.0
 40
0.0
 40
0.0
 40
0.0
 40
0.2971599055
 40
0.4400251969
 40
0.5760130493
 40
0.7026162983
 40
0.8171243272
 40
0.9169135582
 40
0.9606236212
 40
1.0
 40
1.0
 40
1.0
 40
1.0
 10
32.0226903693
 20
22.5742609185
 30
0.0
 10
32.0394267738
 20
22.3782055312
 30
0.0
 10
32.043429993
 20
22.0857142982
 30
0.0
 10
32.0136828359
 20
21.7053762169
 30
0.0
 10
31.9803461019
 20
21.4388942836
 30
0.0
 10
31.942144631
 20
21.192118838
 30
0.0
 10
31.9062967515
 20
20.9692771125
 30
0.0
 10
31.8836947727
 20
20.7998231577
 30
0.0
 10
31.8753015842
 20
20.6789779317
 30
0.0
 10
31.8748958917
 20
20.6238971126
 30
0.0
 10
31.8759425682
 20
20.597844528
 30
0.0
  0
SPLINE
  5
49F
100
AcDbEntity
  8
00_COMPONENTS_2
100
AcDbSpline
 62
7
  6
BYLAYER
 70
0
 71
3
 72
13
 73
9
 74
0
 42
0.0000001
 43
0.0000001
 44
0.0000000001
 40
0.0
 40
0.0
 40
0.0
 40
0.0
 40
0.3750654389
 40
0.6690338434
 40
0.7843477189
 40
0.8780698076
 40
0.9499621594
 40
1.0
 40
1.0
 40
1.0
 40
1.0
 10
31.8759425682
 20
20.597844528
 30
0.0
 10
31.8775186047
 20
20.5586157598
 30
0.0
 10
31.8798643726
 20
20.4886222064
 30
0.0
 10
31.8809073413
 20
20.4065087754
 30
0.0
 10
31.8799467851
 20
20.353864166
 30
0.0
 10
31.8785757915
 20
20.3244759837
 30
0.0
 10
31.8764954307
 20
20.3020058313
 30
0.0
 10
31.8743925637
 20
20.2893651039
 30
0.0
 10
31.8729593071
 20
20.2843272467
 30
0.0
  0
SPLINE
  5
4A0
100
AcDbEntity
  8
00_COMPONENTS_2
100
AcDbSpline
 62
7
  6
BYLAYER
 70
0
 71
3
 72
13
 73
9
 74
0
 42
0.0000001
 43
0.0000001
 44
0.0000000001
 40
0.0
 40
0.0
 40
0.0
 40
0.0
 40
0.0493725651
 40
0.1208191747
 40
0.2143057543
 40
0.3295804562
 40
0.623986939
 40
1.0
 40
1.0
 40
1.0
 40
1.0
 10
38.0936589773
 20
20.2821321273
 30
0.0
 10
38.0921598384
 20
20.2873393939
 30
0.0
 10
38.0899721847
 20
20.300474018
 30
0.0
 10
38.0877941657
 20
20.3238844397
 30
0.0
 10
38.0863440535
 20
20.3546185455
 30
0.0
 10
38.0852909141
 20
20.4098329123
 30
0.0
 10
38.0862847351
 20
20.4960774064
 30
0.0
 10
38.0886385512
 20
20.5696208788
 30
0.0
 10
38.0902291321
 20
20.6108586277
 30
0.0
  0
SPLINE
  5
4A1
100
AcDbEntity
  8
00_COMPONENTS_2
100
AcDbSpline
 62
7
  6
BYLAYER
 70
0
 71
3
 72
15
 73
11
 74
0
 42
0.0000001
 43
0.0000001
 44
0.0000000001
 40
0.0
 40
0.0
 40
0.0
 40
0.0
 40
0.0400301079
 40
0.0842830406
 40
0.184800568
 40
0.2995921706
 40
0.4261241669
 40
0.5617825185
 40
0.7041411166
 40
1.0
 40
1.0
 40
1.0
 40
1.0
 10
38.0902291321
 20
20.6108586277
 30
0.0
 10
38.0912421018
 20
20.6371211008
 30
0.0
 10
38.0908839303
 20
20.6925161312
 30
0.0
 10
38.0829115527
 20
20.8136256517
 30
0.0
 10
38.0613878539
 20
20.9827822799
 30
0.0
 10
38.027210506
 20
21.2045796269
 30
0.0
 10
37.9908566307
 20
21.4494170882
 30
0.0
 10
37.9592174332
 20
21.7132097846
 30
0.0
 10
37.93114988
 20
22.0890227689
 30
0.0
 10
37.9351977074
 20
22.3777668707
 30
0.0
 10
37.9513076472
 20
22.5713455599
 30
0.0
  0
SPLINE
  5
4A2
100
AcDbEntity
  8
0
100
AcDbSpline
 62
7
  6
BYLAYER
 70
0
 71
3
 72
14
 73
10
 74
0
 42
0.0000001
 43
0.0000001
 44
0.0000000001
 40
0.0
 40
0.0
 40
0.0
 40
0.0
 40
0.2805815934
 40
0.4161582185
 40
0.5462378553
 40
0.6696948191
 40
0.78608161
 40
0.8957563072
 40
1.0
 40
1.0
 40
1.0
 40
1.0
 10
54.7572115366
 20
88.8314592908
 30
0.0
 10
55.0434671059
 20
88.8314592908
 30
0.0
 10
55.4707827672
 20
88.7808648153
 30
0.0
 10
56.0026809402
 20
88.6106746843
 30
0.0
 10
56.3620960592
 20
88.4387608881
 30
0.0
 10
56.6756102308
 20
88.2258729082
 30
0.0
 10
56.9342485034
 20
87.9775800645
 30
0.0
 10
57.1300638739
 20
87.7006686396
 30
0.0
 10
57.2160362206
 20
87.4976920312
 30
0.0
 10
57.2456054645
 20
87.3955335753
 30
0.0
  0
SPLINE
  5
4A3
100
AcDbEntity
  8
0
100
AcDbSpline
 62
7
  6
BYLAYER
 70
0
 71
3
 72
9
 73
5
 74
0
 42
0.0000001
 43
0.0000001
 44
0.0000000001
 40
0.0
 40
0.0
 40
0.0
 40
0.0
 40
0.24161918
 40
1.0
 40
1.0
 40
1.0
 40
1.0
 10
53.3492257723
 20
88.5302596375
 30
0.0
 10
53.4546189524
 20
88.579888735
 30
0.0
 10
53.9033925505
 20
88.758057869
 30
0.0
 10
54.391567769
 20
88.8314592908
 30
0.0
 10
54.7572115366
 20
88.8314592908
 30
0.0
  0
SPLINE
  5
4A4
100
AcDbEntity
  8
0
100
AcDbSpline
 62
7
  6
BYLAYER
 70
0
 71
3
 72
14
 73
10
 74
0
 42
0.0000001
 43
0.0000001
 44
0.0000000001
 40
0.0
 40
0.0
 40
0.0
 40
0.0
 40
0.2805815934
 40
0.4161582185
 40
0.5462378553
 40
0.6696948191
 40
0.78608161
 40
0.8957563072
 40
1.0
 40
1.0
 40
1.0
 40
1.0
 10
54.7572115366
 20
79.9769267554
 30
0.0
 10
55.0434671059
 20
79.9769267554
 30
0.0
 10
55.4707827672
 20
79.9263322799
 30
0.0
 10
56.0026809402
 20
79.7561421489
 30
0.0
 10
56.3620960592
 20
79.5842283527
 30
0.0
 10
56.6756102308
 20
79.3713403728
 30
0.0
 10
56.9342485034
 20
79.1230475291
 30
0.0
 10
57.1300638739
 20
78.8461361042
 30
0.0
 10
57.2160362206
 20
78.6431594958
 30
0.0
 10
57.2456054645
 20
78.5410010399
 30
0.0
  0
SPLINE
  5
4A5
100
AcDbEntity
  8
0
100
AcDbSpline
 62
7
  6
BYLAYER
 70
0
 71
3
 72
9
 73
5
 74
0
 42
0.0000001
 43
0.0000001
 44
0.0000000001
 40
0.0
 40
0.0
 40
0.0
 40
0.0
 40
0.24161918
 40
1.0
 40
1.0
 40
1.0
 40
1.0
 10
53.3492257723
 20
79.6757271021
 30
0.0
 10
53.4546189524
 20
79.7253561996
 30
0.0
 10
53.9033925505
 20
79.9035253336
 30
0.0
 10
54.391567769
 20
79.9769267554
 30
0.0
 10
54.7572115366
 20
79.9769267554
 30
0.0
  0
SPLINE
  5
4A6
100
AcDbEntity
  8
0
100
AcDbSpline
 62
7
  6
BYLAYER
 70
0
 71
3
 72
13
 73
9
 74
0
 42
0.0000001
 43
0.0000001
 44
0.0000000001
 40
0.0
 40
0.0
 40
0.0
 40
0.0
 40
0.2826505823
 40
0.5450026185
 40
0.6674178343
 40
0.7837247994
 40
0.8943579211
 40
1.0
 40
1.0
 40
1.0
 40
1.0
 10
55.4064084411
 20
87.3780231171
 30
0.0
 10
55.6459379223
 20
87.3163764156
 30
0.0
 10
56.118849509
 20
87.2357015571
 30
0.0
 10
56.7074590763
 20
87.2493882881
 30
0.0
 10
57.1382527331
 20
87.3362721926
 30
0.0
 10
57.4286644382
 20
87.4347791285
 30
0.0
 10
57.6891615176
 20
87.5667880573
 30
0.0
 10
57.8434040737
 20
87.6781814826
 30
0.0
 10
57.9133641409
 20
87.7386070913
 30
0.0
  0
SPLINE
  5
4A7
100
AcDbEntity
  8
0
100
AcDbSpline
 62
7
  6
BYLAYER
 70
0
 71
3
 72
14
 73
10
 74
0
 42
0.0000001
 43
0.0000001
 44
0.0000000001
 40
0.0
 40
0.0
 40
0.0
 40
0.0
 40
0.2195690269
 40
0.3408031023
 40
0.4680786573
 40
0.5997110568
 40
0.7336841191
 40
0.867857641
 40
1.0
 40
1.0
 40
1.0
 40
1.0
 10
52.4458115366
 20
89.9660458584
 30
0.0
 10
52.5183099422
 20
89.6748466958
 30
0.0
 10
52.7254457276
 20
89.244621255
 30
0.0
 10
53.1186598498
 20
88.7393125905
 30
0.0
 10
53.4898504883
 20
88.3733605285
 30
0.0
 10
53.9161203552
 20
88.0449433112
 30
0.0
 10
54.3854745718
 20
87.7628415238
 30
0.0
 10
54.8842609628
 20
87.5354151717
 30
0.0
 10
55.2315071187
 20
87.4230367395
 30
0.0
 10
55.4064084411
 20
87.3780231171
 30
0.0
  0
SPLINE
  5
4A8
100
AcDbEntity
  8
0
100
AcDbSpline
 62
7
  6
BYLAYER
 70
0
 71
3
 72
13
 73
9
 74
0
 42
0.0000001
 43
0.0000001
 44
0.0000000001
 40
0.0
 40
0.0
 40
0.0
 40
0.0
 40
0.2826505823
 40
0.5450026185
 40
0.6674178343
 40
0.7837247994
 40
0.8943579211
 40
1.0
 40
1.0
 40
1.0
 40
1.0
 10
55.4064084411
 20
78.5234905817
 30
0.0
 10
55.6459379223
 20
78.4618438802
 30
0.0
 10
56.118849509
 20
78.3811690217
 30
0.0
 10
56.7074590762
 20
78.3948557528
 30
0.0
 10
57.1382527331
 20
78.4817396573
 30
0.0
 10
57.4286644382
 20
78.5802465931
 30
0.0
 10
57.6891615176
 20
78.7122555219
 30
0.0
 10
57.8434040737
 20
78.8236489473
 30
0.0
 10
57.9133641409
 20
78.8840745559
 30
0.0
  0
SPLINE
  5
4A9
100
AcDbEntity
  8
0
100
AcDbSpline
 62
7
  6
BYLAYER
 70
0
 71
3
 72
14
 73
10
 74
0
 42
0.0000001
 43
0.0000001
 44
0.0000000001
 40
0.0
 40
0.0
 40
0.0
 40
0.0
 40
0.2195690269
 40
0.3408031023
 40
0.4680786573
 40
0.5997110568
 40
0.7336841191
 40
0.867857641
 40
1.0
 40
1.0
 40
1.0
 40
1.0
 10
52.4458115366
 20
81.1115133231
 30
0.0
 10
52.5183099422
 20
80.8203141604
 30
0.0
 10
52.7254457276
 20
80.3900887197
 30
0.0
 10
53.1186598498
 20
79.8847800551
 30
0.0
 10
53.4898504883
 20
79.5188279931
 30
0.0
 10
53.9161203552
 20
79.1904107758
 30
0.0
 10
54.3854745718
 20
78.9083089884
 30
0.0
 10
54.8842609628
 20
78.6808826363
 30
0.0
 10
55.2315071187
 20
78.5685042041
 30
0.0
 10
55.4064084411
 20
78.5234905817
 30
0.0
  0
SPLINE
  5
4AA
100
AcDbEntity
  8
0
100
AcDbSpline
 62
7
  6
BYLAYER
 70
0
 71
3
 72
15
 73
11
 74
0
 42
0.0000001
 43
0.0000001
 44
0.0000000001
 40
0.0
 40
0.0
 40
0.0
 40
0.0
 40
0.1490561485
 40
0.292233532
 40
0.4281472654
 40
0.5561161092
 40
0.6760577346
 40
0.7887523574
 40
0.895874395
 40
1.0
 40
1.0
 40
1.0
 40
1.0
 10
55.4064084411
 20
83.067500179
 30
0.0
 10
55.2528624785
 20
83.1070176617
 30
0.0
 10
54.9473481783
 20
83.1683785104
 30
0.0
 10
54.4923744996
 20
83.2056547183
 30
0.0
 10
54.0585289549
 20
83.1855644307
 30
0.0
 10
53.6560090619
 20
83.1084105535
 30
0.0
 10
53.2941757564
 20
82.9754186046
 30
0.0
 10
52.9818374364
 20
82.7889005842
 30
0.0
 10
52.7272570907
 20
82.5527701579
 30
0.0
 10
52.6002564964
 20
82.3644794752
 30
0.0
 10
52.5495791113
 20
82.2659958949
 30
0.0
  0
SPLINE
  5
4AB
100
AcDbEntity
  8
0
100
AcDbSpline
 62
7
  6
BYLAYER
 70
0
 71
3
 72
11
 73
7
 74
0
 42
0.0000001
 43
0.0000001
 44
0.0000000001
 40
0.0
 40
0.0
 40
0.0
 40
0.0
 40
0.2380504118
 40
0.489313856
 40
0.7461184123
 40
1.0
 40
1.0
 40
1.0
 40
1.0
 10
57.9133641409
 20
81.416506782
 30
0.0
 10
57.7710032562
 20
81.6127437656
 30
0.0
 10
57.435425537
 20
81.9859476251
 30
0.0
 10
56.8337338397
 20
82.4554736854
 30
0.0
 10
56.1499991849
 20
82.8292195787
 30
0.0
 10
55.6568081411
 20
83.0030558547
 30
0.0
 10
55.4064084411
 20
83.067500179
 30
0.0
  0
SPLINE
  5
4AC
100
AcDbEntity
  8
0
100
AcDbSpline
 62
7
  6
BYLAYER
 70
0
 71
3
 72
15
 73
11
 74
0
 42
0.0000001
 43
0.0000001
 44
0.0000000001
 40
0.0
 40
0.0
 40
0.0
 40
0.0
 40
0.1490561485
 40
0.292233532
 40
0.4281472654
 40
0.5561161092
 40
0.6760577346
 40
0.7887523574
 40
0.895874395
 40
1.0
 40
1.0
 40
1.0
 40
1.0
 10
55.4064084411
 20
91.9220327144
 30
0.0
 10
55.2528624785
 20
91.961550197
 30
0.0
 10
54.9473481783
 20
92.0229110458
 30
0.0
 10
54.4923744996
 20
92.0601872536
 30
0.0
 10
54.0585289549
 20
92.0400969661
 30
0.0
 10
53.6560090619
 20
91.9629430889
 30
0.0
 10
53.2941757564
 20
91.82995114
 30
0.0
 10
52.9818374364
 20
91.6434331195
 30
0.0
 10
52.7272570907
 20
91.4073026932
 30
0.0
 10
52.6002564964
 20
91.2190120106
 30
0.0
 10
52.5495791113
 20
91.1205284303
 30
0.0
  0
SPLINE
  5
4AD
100
AcDbEntity
  8
0
100
AcDbSpline
 62
7
  6
BYLAYER
 70
0
 71
3
 72
11
 73
7
 74
0
 42
0.0000001
 43
0.0000001
 44
0.0000000001
 40
0.0
 40
0.0
 40
0.0
 40
0.0
 40
0.2380504118
 40
0.489313856
 40
0.7461184123
 40
1.0
 40
1.0
 40
1.0
 40
1.0
 10
57.9133641409
 20
90.2710393174
 30
0.0
 10
57.7710032562
 20
90.467276301
 30
0.0
 10
57.435425537
 20
90.8404801605
 30
0.0
 10
56.8337338397
 20
91.3100062208
 30
0.0
 10
56.1499991849
 20
91.6837521141
 30
0.0
 10
55.6568081411
 20
91.85758839
 30
0.0
 10
55.4064084411
 20
91.9220327144
 30
0.0
  0
SPLINE
  5
4AE
100
AcDbEntity
  8
00_COMPONENTS_1
100
AcDbSpline
 62
7
  6
BYLAYER
 70
0
 71
3
 72
15
 73
11
 74
0
 42
0.0000001
 43
0.0000001
 44
0.0000000001
 40
0.0
 40
0.0
 40
0.0
 40
0.0
 40
0.1250002153
 40
0.2500024236
 40
0.3750010983
 40
0.5
 40
0.6249989017
 40
0.7499975764
 40
0.8749997847
 40
1.0
 40
1.0
 40
1.0
 40
1.0
 10
27.7974072037
 20
43.239935461
 30
0.0
 10
28.3909642386
 20
43.1087935555
 30
0.0
 10
29.584130329
 20
42.8728069535
 30
0.0
 10
31.3894135514
 20
42.609092828
 30
0.0
 10
33.2067477367
 20
42.4460528426
 30
0.0
 10
35.0306115366
 20
42.3908808571
 30
0.0
 10
36.8544753366
 20
42.4460528426
 30
0.0
 10
38.6718095218
 20
42.609092828
 30
0.0
 10
40.4770927442
 20
42.8728069535
 30
0.0
 10
41.6702588347
 20
43.1087935555
 30
0.0
 10
42.2638158696
 20
43.239935461
 30
0.0
  0
SPLINE
  5
4AF
100
AcDbEntity
  8
00_COMPONENTS_1
100
AcDbSpline
 62
7
  6
BYLAYER
 70
0
 71
3
 72
15
 73
11
 74
0
 42
0.0000001
 43
0.0000001
 44
0.0000000001
 40
0.0
 40
0.0
 40
0.0
 40
0.0
 40
0.1262633288
 40
0.251511948
 40
0.3759715474
 40
0.5
 40
0.6240284526
 40
0.748488052
 40
0.8737366712
 40
1.0
 40
1.0
 40
1.0
 40
1.0
 10
42.2638158696
 20
43.239935461
 30
0.0
 10
42.6816615091
 20
43.109375532
 30
0.0
 10
43.5220541546
 20
42.8740567999
 30
0.0
 10
44.7996683617
 20
42.6097515161
 30
0.0
 10
46.086532259
 20
42.4462064879
 30
0.0
 10
47.3784637031
 20
42.3908360937
 30
0.0
 10
48.6703951472
 20
42.4462064879
 30
0.0
 10
49.9572590445
 20
42.6097515161
 30
0.0
 10
51.2348732516
 20
42.8740567999
 30
0.0
 10
52.0752658972
 20
43.109375532
 30
0.0
 10
52.4931115366
 20
43.239935461
 30
0.0
  0
SPLINE
  5
4B0
100
AcDbEntity
  8
00_COMPONENTS_1
100
AcDbSpline
 62
7
  6
BYLAYER
 70
0
 71
3
 72
15
 73
11
 74
0
 42
0.0000001
 43
0.0000001
 44
0.0000000001
 40
0.0
 40
0.0
 40
0.0
 40
0.0
 40
0.1262633288
 40
0.251511948
 40
0.3759715474
 40
0.5
 40
0.6240284526
 40
0.748488052
 40
0.8737366712
 40
1.0
 40
1.0
 40
1.0
 40
1.0
 10
17.5681115366
 20
43.239935461
 30
0.0
 10
17.9859571761
 20
43.109375532
 30
0.0
 10
18.8263498216
 20
42.8740567999
 30
0.0
 10
20.1039640288
 20
42.6097515161
 30
0.0
 10
21.3908279261
 20
42.4462064879
 30
0.0
 10
22.6827593702
 20
42.3908360937
 30
0.0
 10
23.9746908143
 20
42.4462064879
 30
0.0
 10
25.2615547116
 20
42.6097515161
 30
0.0
 10
26.5391689187
 20
42.8740567999
 30
0.0
 10
27.3795615642
 20
43.109375532
 30
0.0
 10
27.7974072037
 20
43.239935461
 30
0.0
  0
ELLIPSE
  5
4B1
100
AcDbEntity
  8
00_COMPONENTS_2
100
AcDbEllipse
 62
7
  6
BYLAYER
 10
34.6793972034
 20
9.2585056614
 30
0.0
 11
2.2970175498
 21
0.0002728714
 31
0.0
 40
0.0347530704
 41
0.0314883744
 42
1.4295999874
  0
ELLIPSE
  5
4B2
100
AcDbEntity
  8
00_COMPONENTS_2
100
AcDbEllipse
 62
7
  6
BYLAYER
 10
35.326275101
 20
9.2585056614
 30
0.0
 11
2.2978204694
 21
-0.0002825652
 31
0.0
 40
0.0347409121
 41
1.7121140999
 42
3.1102257128
  0
ELLIPSE
  5
4B3
100
AcDbEntity
  8
0
100
AcDbEllipse
 62
7
  6
BYLAYER
 10
55.7986115366
 20
90.4119843681
 30
0.0
 11
3.4193096007
 21
-0.0
 31
0.0
 40
0.6644630244
 41
2.9440347355
 42
3.3391505717
  0
ELLIPSE
  5
4B4
100
AcDbEntity
  8
0
100
AcDbEllipse
 62
7
  6
BYLAYER
 10
55.3363693391
 20
89.513958756
 30
0.0
 11
3.4193096007
 21
-0.0
 31
0.0
 40
0.6644630244
 41
2.5504474514
 42
2.6099721559
  0
ELLIPSE
  5
4B5
100
AcDbEntity
  8
0
100
AcDbEllipse
 62
7
  6
BYLAYER
 10
54.3379261925
 20
87.5742234338
 30
0.0
 11
3.4193096007
 21
0.0
 31
0.0
 40
0.6644630244
 41
0.5911452022
 42
2.1032571002
  0
ELLIPSE
  5
4B6
100
AcDbEntity
  8
0
100
AcDbEllipse
 62
7
  6
BYLAYER
 10
55.7986115366
 20
81.5574518327
 30
0.0
 11
3.4193096007
 21
-0.0
 31
0.0
 40
0.6644630244
 41
2.9440347355
 42
3.3391505717
  0
ELLIPSE
  5
4B7
100
AcDbEntity
  8
0
100
AcDbEllipse
 62
7
  6
BYLAYER
 10
55.3363693391
 20
80.6594262206
 30
0.0
 11
3.4193096007
 21
-0.0
 31
0.0
 40
0.6644630244
 41
2.5504474514
 42
2.6099721559
  0
ELLIPSE
  5
4B8
100
AcDbEntity
  8
0
100
AcDbEllipse
 62
7
  6
BYLAYER
 10
54.3379261925
 20
78.7196908985
 30
0.0
 11
3.4193096007
 21
0.0
 31
0.0
 40
0.6644630244
 41
0.5911452022
 42
2.1032571002
  0
ENDSEC
  0
SECTION
  2
OBJECTS
  0
DICTIONARY
  5
C
100
AcDbDictionary
280
0
281
1
  3
ACAD_GROUP
350
D
  3
ACAD_MLINESTYLE
350
17
  3
ACAD_LAYOUT
350
1A
  3
ACAD_PLOTSETTINGS
350
19
  3
ACAD_PLOTSTYLENAME
350
E
  0
DICTIONARY
  5
D
102
{ACAD_REACTORS
330
C
102
}
100
AcDbDictionary
280
0
281
1
  0
ACDBDICTIONARYWDFLT
  5
E
102
{ACAD_REACTORS
330
C
102
}
100
AcDbDictionary
281
1
  3
Normal
350
F
100
AcDbDictionaryWithDefault
340
F
  0
DICTIONARY
  5
17
102
{ACAD_REACTORS
330
C
102
}
100
AcDbDictionary
280
0
281
1
  3
Standard
350
18
  0
DICTIONARY
  5
19
102
{ACAD_REACTORS
330
C
102
}
100
AcDbDictionary
281
1
  0
DICTIONARY
  5
1A
102
{ACAD_REACTORS
330
C
102
}
100
AcDbDictionary
281
1
  3
Model
350
4B9
  3
Layout1
350
4BA
  0
ACDBPLACEHOLDER
  5
F
102
{ACAD_REACTORS
330
E
102
}
  0
MLINESTYLE
  5
18
102
{ACAD_REACTORS
330
17
102
}
100
AcDbMlineStyle
  2
STANDARD
 70
0
  3

 62
256
 51
90.0
 52
90.0
 71
2
 49
0.5
 62
256
  6
BYLAYER
 49
-0.5
 62
256
  6
BYLAYER
  0
LAYOUT
  5
4B9
102
{ACAD_REACTORS
330
1A
102
}
100
AcDbPlotSettings
  1

  2
none_device
  4

  6

 40
0.0
 41
0.0
 42
0.0
 43
0.0
 44
210.0
 45
297.0
 46
0.0
 47
0.0
 48
0.0
 49
0.0
140
0.0
141
0.0
142
1.0
143
1.0
 70
1024
 72
1
 73
0
 74
0
  7

 75
0
147
1.0
148
0.0
149
0.0
100
AcDbLayout
  1
Model
 70
0
 71
0
 10
0.0
 20
0.0
 11
210.0
 21
297.0
 12
0.0
 22
0.0
 32
0.0
 14
0.0
 24
0.0
 34
0.0
 15
0.0
 25
0.0
 35
0.0
146
0.0
 13
0.0
 23
0.0
 33
0.0
 16
1.0
 26
0.0
 36
0.0
 17
0.0
 27
1.0
 37
0.0
 76
0
330
220
345
0
346
0
  0
LAYOUT
  5
4BA
102
{ACAD_REACTORS
330
1A
102
}
100
AcDbPlotSettings
  1

  2
none_device
  4

  6

 40
0.0
 41
0.0
 42
0.0
 43
0.0
 44
210.0
 45
297.0
 46
0.0
 47
0.0
 48
0.0
 49
0.0
140
0.0
141
0.0
142
1.0
143
1.0
 70
0
 72
1
 73
0
 74
0
  7

 75
0
147
1.0
148
0.0
149
0.0
100
AcDbLayout
  1
Layout1
 70
0
 71
1
 10
0.0
 20
0.0
 11
210.0
 21
297.0
 12
0.0
 22
0.0
 32
0.0
 14
0.0
 24
0.0
 34
0.0
 15
0.0
 25
0.0
 35
0.0
146
0.0
 13
0.0
 23
0.0
 33
0.0
 16
1.0
 26
0.0
 36
0.0
 17
0.0
 27
1.0
 37
0.0
 76
0
330
221
345
0
346
0
  0
ENDSEC
  0
EOF
