999
DXF file: C:\Users\sesa63760\Dev\_Creo\CAD\MCADID0000515_3D-CAD\drw0001_3.dxf
999
Pro/ENGINEER 2019471 by Parametric Technology Corporation
  0
SECTION
  2
HEADER
  9
$ACADVER
  1
AC1024
  9
$DWGCODEPAGE
  3
ANSI_1252
  9
$EXTMAX
 10
262.9250933846
 20
371.8512035011
 30
0.0
  9
$EXTMIN
 10
0.0
 20
0.0
 30
0.0
  9
$LIMMIN
 10
0.0
 20
0.0
  9
$LIMMAX
 10
262.9250933846
 20
371.8512035011
  9
$VIEWCTR
 10
131.4625466923
 20
185.9256017505
  9
$VIEWSIZE
 40
371.8512035011
  9
$CLAYER
  8
0
  9
$LTSCALE
 40
24.2391895616
  9
$CELTYPE
  6
BYLAYER
  9
$DIMSCALE
 40
1.0
  9
$DIMASZ
 40
3.1300606355
  9
$DIMEXO
 40
1.0
  9
$DIMDLI
 40
16.7470764243
  9
$DIMEXE
 40
1.0
  9
$DIMCEN
 40
3.9664128373
  9
$DIMLFAC
 40
1.0
  9
$DIMBLK
  1
_FILLED
  9
$DIMALT
 70
0
  9
$DIMALTF
 40
0.0393700787
  9
$DIMTXT
 40
4.3820848897
  9
$DIMTOL
 70
1
  9
$DIMLIM
 70
0
  9
$DIMTFAC
 40
1.0
  9
$DIMTP
 40
0.01
  9
$DIMTM
 40
0.01
  9
$DIMGAP
 40
0.625
  9
$DIMDSEP
 70
46
  9
$AUNITS
 70
0
  9
$PDMODE
 70
3
  9
$PDSIZE
 40
0.3125
  9
$HANDSEED
  5
30B
  9
$TILEMODE
 70
1
  9
$MEASUREMENT
 70
1
  9
$INSUNITS
 70
4
  0
ENDSEC
  0
SECTION
  2
CLASSES
  0
CLASS
  1
ACDBDICTIONARYWDFLT
  2
AcDbDictionaryWithDefault
  3
AutoCAD 2000
 90
0
 91
1
280
0
281
0
  0
CLASS
  1
ACDBPLACEHOLDER
  2
AcDbPlaceHolder
  3
AutoCAD 2000
 90
0
 91
1
280
0
281
0
  0
CLASS
  1
LAYOUT
  2
AcDbLayout
  3
AutoCAD 2000
 90
0
 91
0
280
0
281
0
  0
ENDSEC
  0
SECTION
  2
TABLES
  0
TABLE
  2
VPORT
  5
8
100
AcDbSymbolTable
 70
2
  0
VPORT
  5
1F4
100
AcDbSymbolTableRecord
100
AcDbViewportTableRecord
  2
*ACTIVE
 70
0
 10
0.0
 20
0.0
 11
1.0
 21
1.0
 12
131.4625466923
 22
185.9256017505
 13
0.0
 23
0.0
 14
1.0
 24
1.0
 15
0.0
 25
0.0
 16
0.0
 26
0.0
 36
1.0
 17
0.0
 27
0.0
 37
0.0
 40
371.8512035011
 41
0.7070707071
 42
50.0
 43
0.0
 44
0.0
 50
0.0
 51
0.0
 71
0
 72
100
 73
1
 74
1
 75
0
 76
0
 77
0
 78
0
  0
ENDTAB
  0
TABLE
  2
LTYPE
  5
5
100
AcDbSymbolTable
 70
6
  0
LTYPE
  5
14
100
AcDbSymbolTableRecord
100
AcDbLinetypeTableRecord
  2
BYBLOCK
 70
0
  3

 72
65
 73
0
 40
0.0
  0
LTYPE
  5
15
100
AcDbSymbolTableRecord
100
AcDbLinetypeTableRecord
  2
BYLAYER
 70
0
  3

 72
65
 73
0
 40
0.0
  0
LTYPE
  5
16
100
AcDbSymbolTableRecord
100
AcDbLinetypeTableRecord
  2
CONTINUOUS
 70
64
  3
Solid line
 72
65
 73
0
 40
0.0
  0
LTYPE
  5
1F5
100
AcDbSymbolTableRecord
100
AcDbLinetypeTableRecord
  2
CENTER
 70
64
  3
____ _ ____ _ ____ _ ____ _ ____ _ ____ _ ____
 72
65
 73
4
 40
0.6
 49
0.375
 74
0
 49
-0.075
 74
0
 49
0.075
 74
0
 49
-0.075
 74
0
  0
LTYPE
  5
1F6
100
AcDbSymbolTableRecord
100
AcDbLinetypeTableRecord
  2
HIDDEN
 70
64
  3
- - - - - - - - - - - - - - - - - - - -
 72
65
 73
2
 40
0.2
 49
0.1
 74
0
 49
-0.1
 74
0
  0
LTYPE
  5
1F7
100
AcDbSymbolTableRecord
100
AcDbLinetypeTableRecord
  2
PHANTOM
 70
64
  3
_____ _ _ _____ _ _ _____ _ _ _____
 72
65
 73
6
 40
0.8
 49
0.45
 74
0
 49
-0.05
 74
0
 49
0.1
 74
0
 49
-0.05
 74
0
 49
0.1
 74
0
 49
-0.05
 74
0
  0
LTYPE
  5
1F8
100
AcDbSymbolTableRecord
100
AcDbLinetypeTableRecord
  2
DOT
 70
64
  3
. . . . . . . . . . . . . . . . . . . .
 72
65
 73
2
 40
0.2
 49
0.1
 74
0
 49
-0.1
 74
0
  0
LTYPE
  5
1F9
100
AcDbSymbolTableRecord
100
AcDbLinetypeTableRecord
  2
DASHED
 70
64
  3
- - - - - - - - - - - - - - - - - - - -
 72
65
 73
2
 40
0.2
 49
0.1
 74
0
 49
-0.1
 74
0
  0
ENDTAB
  0
TABLE
  2
LAYER
  5
2
100
AcDbSymbolTable
 70
36
  0
LAYER
  5
10
100
AcDbSymbolTableRecord
100
AcDbLayerTableRecord
  2
0
 70
0
 62
7
  6
CONTINUOUS
370
-3
390
F
  0
LAYER
  5
1FA
100
AcDbSymbolTableRecord
100
AcDbLayerTableRecord
  2
DEFAULT_1
 70
0
 62
7
  6
CENTER
370
-3
390
F
  0
LAYER
  5
1FB
100
AcDbSymbolTableRecord
100
AcDbLayerTableRecord
  2
DEFAULT_2
 70
0
 62
8
  6
HIDDEN
370
-3
390
F
  0
LAYER
  5
1FC
100
AcDbSymbolTableRecord
100
AcDbLayerTableRecord
  2
DEFAULT_3
 70
0
 62
7
  6
PHANTOM
370
-3
390
F
  0
LAYER
  5
1FD
100
AcDbSymbolTableRecord
100
AcDbLayerTableRecord
  2
00_COMPONENTS
 70
0
 62
7
  6
CONTINUOUS
370
-3
390
F
  0
LAYER
  5
1FE
100
AcDbSymbolTableRecord
100
AcDbLayerTableRecord
  2
01_1_DEFAULT_DATUMS
 70
0
 62
7
  6
CONTINUOUS
370
-3
390
F
  0
LAYER
  5
1FF
100
AcDbSymbolTableRecord
100
AcDbLayerTableRecord
  2
01_PLANES
 70
0
 62
7
  6
CONTINUOUS
370
-3
390
F
  0
LAYER
  5
200
100
AcDbSymbolTableRecord
100
AcDbLayerTableRecord
  2
02_COORD_SYS
 70
0
 62
7
  6
CONTINUOUS
370
-3
390
F
  0
LAYER
  5
201
100
AcDbSymbolTableRecord
100
AcDbLayerTableRecord
  2
03_AXES
 70
0
 62
7
  6
CONTINUOUS
370
-3
390
F
  0
LAYER
  5
202
100
AcDbSymbolTableRecord
100
AcDbLayerTableRecord
  2
04_POINTS
 70
0
 62
7
  6
CONTINUOUS
370
-3
390
F
  0
LAYER
  5
203
100
AcDbSymbolTableRecord
100
AcDbLayerTableRecord
  2
05_CURVES
 70
0
 62
7
  6
CONTINUOUS
370
-3
390
F
  0
LAYER
  5
204
100
AcDbSymbolTableRecord
100
AcDbLayerTableRecord
  2
06_SURFS
 70
0
 62
7
  6
CONTINUOUS
370
-3
390
F
  0
LAYER
  5
205
100
AcDbSymbolTableRecord
100
AcDbLayerTableRecord
  2
07_COSMETICS
 70
0
 62
7
  6
CONTINUOUS
370
-3
390
F
  0
LAYER
  5
206
100
AcDbSymbolTableRecord
100
AcDbLayerTableRecord
  2
10_NOTES
 70
0
 62
7
  6
CONTINUOUS
370
-3
390
F
  0
LAYER
  5
207
100
AcDbSymbolTableRecord
100
AcDbLayerTableRecord
  2
11_NOTES_PUB
 70
0
 62
7
  6
CONTINUOUS
370
-3
390
F
  0
LAYER
  5
208
100
AcDbSymbolTableRecord
100
AcDbLayerTableRecord
  2
13_REF_GTOL
 70
0
 62
7
  6
CONTINUOUS
370
-3
390
F
  0
LAYER
  5
209
100
AcDbSymbolTableRecord
100
AcDbLayerTableRecord
  2
16_MISC
 70
0
 62
7
  6
CONTINUOUS
370
-3
390
F
  0
LAYER
  5
20A
100
AcDbSymbolTableRecord
100
AcDbLayerTableRecord
  2
17_NO_PRINT
 70
0
 62
7
  6
CONTINUOUS
370
-3
390
F
  0
LAYER
  5
20B
100
AcDbSymbolTableRecord
100
AcDbLayerTableRecord
  2
18_DATUM_CAMS_JOINTS
 70
0
 62
7
  6
CONTINUOUS
370
-3
390
F
  0
LAYER
  5
20C
100
AcDbSymbolTableRecord
100
AcDbLayerTableRecord
  2
19_DATUM_FUNCTIONAL
 70
0
 62
7
  6
CONTINUOUS
370
-3
390
F
  0
LAYER
  5
20D
100
AcDbSymbolTableRecord
100
AcDbLayerTableRecord
  2
20_DATUM_KINEMATIC_SCHEME
 70
0
 62
7
  6
CONTINUOUS
370
-3
390
F
  0
ENDTAB
  0
TABLE
  2
STYLE
  5
3
100
AcDbSymbolTable
 70
1
  0
STYLE
  5
11
100
AcDbSymbolTableRecord
100
AcDbTextStyleTableRecord
  2
STANDARD
 70
0
 40
0.0
 41
0.8
 50
0.0
 71
0
 42
0.2
  3
txt
  4

  0
STYLE
  5
20E
100
AcDbSymbolTableRecord
100
AcDbTextStyleTableRecord
  2
TEXTSTYLE_1
 70
0
 40
0.0
 41
0.8
 50
0.0
 71
0
 42
0.2
  3
gdt
  4

  0
ENDTAB
  0
TABLE
  2
VIEW
  5
6
100
AcDbSymbolTable
 70
0
  0
ENDTAB
  0
TABLE
  2
UCS
  5
7
100
AcDbSymbolTable
 70
0
  0
ENDTAB
  0
TABLE
  2
APPID
  5
9
100
AcDbSymbolTable
 70
1
  0
APPID
  5
20F
100
AcDbSymbolTableRecord
100
AcDbRegAppTableRecord
  2
ACAD
 70
0
  0
ENDTAB
  0
TABLE
  2
BLOCK_RECORD
  5
1
100
AcDbSymbolTable
 70
0
  0
BLOCK_RECORD
  5
210
100
AcDbSymbolTableRecord
100
AcDbBlockTableRecord
  2
*Model_Space
  0
BLOCK_RECORD
  5
211
100
AcDbSymbolTableRecord
100
AcDbBlockTableRecord
  2
*Paper_Space
  0
BLOCK_RECORD
  5
212
100
AcDbSymbolTableRecord
100
AcDbBlockTableRecord
  2
_FILLED
  0
ENDTAB
  0
TABLE
  2
DIMSTYLE
  5
A
100
AcDbSymbolTable
 70
1
100
AcDbDimStyleTable
 71
0
  0
DIMSTYLE
105
213
100
AcDbSymbolTableRecord
100
AcDbDimStyleTableRecord
  2
STANDARD
 70
0
  3

  4

 40
1.0
 41
3.1300606355
 42
1.0
 43
0.38
 44
1.0
 45
0.0
 46
0.0
 47
0.01
 48
0.01
140
4.3820848897
141
0.09
142
0.0
143
25.4
144
1.0
145
0.0
146
1.0
147
0.625
 71
1
 72
0
 73
0
 74
0
 75
0
 76
0
 77
1
 78
8
 79
2
170
0
171
1
172
0
173
0
174
0
175
0
176
0
177
0
178
0
270
2
179
2
271
2
272
2
273
2
274
2
275
0
280
0
281
0
282
0
283
1
284
8
285
0
286
0
287
3
288
0
340
11
278
46
341
212
342
212
343
212
344
212
  0
ENDTAB
  0
ENDSEC
  0
SECTION
  2
BLOCKS
  0
BLOCK
  5
20
100
AcDbEntity
  8
0
100
AcDbBlockBegin
  2
*Model_Space
 70
0
 10
0.0
 20
0.0
 30
0.0
  3
*Model_Space
  1

  0
ENDBLK
  5
21
100
AcDbEntity
  8
0
100
AcDbBlockEnd
  0
BLOCK
  5
1C
100
AcDbEntity
  8
0
100
AcDbBlockBegin
  2
*Paper_Space
 70
0
 10
0.0
 20
0.0
 30
0.0
  3
*Paper_Space
  1

  0
ENDBLK
  5
1D
100
AcDbEntity
  8
0
100
AcDbBlockEnd
  0
BLOCK
  5
214
100
AcDbEntity
  8
0
100
AcDbBlockBegin
  2
_FILLED
 70
64
 10
0.0
 20
0.0
  3
_FILLED
  1

  0
SOLID
  5
215
100
AcDbEntity
  8
0
  6
BYBLOCK
 62
0
100
AcDbTrace
 10
0.0
 20
0.0
 11
-1.0
 21
0.25
 12
-1.0
 22
-0.25
 13
-1.0
 23
-0.25
  0
ENDBLK
  5
216
100
AcDbEntity
  8
0
  6
BYBLOCK
 62
0
100
AcDbBlockEnd
  0
ENDSEC
  0
SECTION
  2
ENTITIES
  0
LINE
  5
217
100
AcDbEntity
  8
0
100
AcDbLine
 62
7
  6
CONTINUOUS
 10
31.1036845479
 20
212.9418013354
 11
31.1036845479
 21
208.9418013256
  0
LINE
  5
218
100
AcDbEntity
  8
0
100
AcDbLine
 62
7
  6
CONTINUOUS
 10
31.6036845479
 20
208.9418013256
 11
31.6036845479
 21
207.4418013256
  0
LINE
  5
219
100
AcDbEntity
  8
0
100
AcDbLine
 62
7
  6
CONTINUOUS
 10
33.9036845479
 20
214.0418013256
 11
33.9036845479
 21
213.9418013256
  0
LINE
  5
21A
100
AcDbEntity
  8
0
100
AcDbLine
 62
7
  6
CONTINUOUS
 10
42.3288631318
 20
169.2287155094
 11
40.6735420565
 21
207.1418013256
  0
LINE
  5
21B
100
AcDbEntity
  8
0
100
AcDbLine
 62
7
  6
CONTINUOUS
 10
39.1036845479
 20
208.9418013256
 11
39.1036845479
 21
213.941801337
  0
LINE
  5
21C
100
AcDbEntity
  8
0
100
AcDbLine
 62
7
  6
CONTINUOUS
 10
39.3036845479
 20
213.9418013256
 11
39.3036845479
 21
214.0418013256
  0
LINE
  5
21D
100
AcDbEntity
  8
0
100
AcDbLine
 62
7
  6
CONTINUOUS
 10
39.6036845479
 20
207.1418013256
 11
39.6036845479
 21
208.9418013256
  0
LINE
  5
21E
100
AcDbEntity
  8
0
100
AcDbLine
 62
7
  6
CONTINUOUS
 10
45.6687831645
 20
207.1418013256
 11
46.3286347416
 21
192.0287155094
  0
LINE
  5
21F
100
AcDbEntity
  8
0
100
AcDbLine
 62
7
  6
CONTINUOUS
 10
46.362039925
 20
191.2636110193
 11
47.3241042399
 21
169.2287155094
  0
LINE
  5
220
100
AcDbEntity
  8
0
100
AcDbLine
 62
7
  6
CONTINUOUS
 10
46.3286347414
 20
191.7418013256
 11
46.3286347414
 21
192.0287155094
  0
LINE
  5
221
100
AcDbEntity
  8
0
100
AcDbLine
 62
7
  6
CONTINUOUS
 10
46.3620399252
 20
191.2636110193
 11
46.3620399252
 21
191.7418013256
  0
LINE
  5
222
100
AcDbEntity
  8
0
100
AcDbLine
 62
7
  6
CONTINUOUS
 10
47.3241042398
 20
168.9418013256
 11
47.3241042398
 21
169.2287155094
  0
LINE
  5
223
100
AcDbEntity
  8
0
100
AcDbLine
 62
7
  6
CONTINUOUS
 10
49.5887850575
 20
197.556700816
 11
49.5887850575
 21
196.5180654691
  0
LINE
  5
224
100
AcDbEntity
  8
0
100
AcDbLine
 62
7
  6
CONTINUOUS
 10
49.8098154881
 20
193.4929082429
 11
49.8098154881
 21
193.5841843432
  0
LINE
  5
225
100
AcDbEntity
  8
0
100
AcDbLine
 62
7
  6
CONTINUOUS
 10
49.8883739179
 20
196.5180654106
 11
49.8883739179
 21
197.5418013256
  0
LINE
  5
226
100
AcDbEntity
  8
0
100
AcDbLine
 62
7
  6
CONTINUOUS
 10
49.3417065316
 20
197.8125032194
 11
49.3341857242
 21
194.5256856472
  0
LINE
  5
227
100
AcDbEntity
  8
0
100
AcDbLine
 62
7
  6
CONTINUOUS
 10
49.5412044576
 20
197.6042814159
 11
49.5339116311
 21
194.5169617697
  0
LINE
  5
228
100
AcDbEntity
  8
0
100
AcDbLine
 62
7
  6
CONTINUOUS
 10
49.5339116311
 20
194.5169617697
 11
49.5838701382
 21
196.1680653598
  0
LINE
  5
229
100
AcDbEntity
  8
0
100
AcDbLine
 62
7
  6
CONTINUOUS
 10
49.8834590002
 20
196.0180654106
 11
49.8098154891
 21
193.5841843432
  0
LINE
  5
22A
100
AcDbEntity
  8
0
100
AcDbLine
 62
7
  6
CONTINUOUS
 10
32.1036845593
 20
213.941801337
 11
31.1036845528
 21
212.9418013305
  0
LINE
  5
22B
100
AcDbEntity
  8
0
100
AcDbLine
 62
7
  6
CONTINUOUS
 10
51.3975534748
 20
193.5841843432
 11
51.3239100956
 21
196.0180654106
  0
LINE
  5
22C
100
AcDbEntity
  8
0
100
AcDbLine
 62
7
  6
CONTINUOUS
 10
51.6234989564
 20
196.1680653995
 11
51.6734574647
 21
194.5169617697
  0
LINE
  5
22D
100
AcDbEntity
  8
0
100
AcDbLine
 62
7
  6
CONTINUOUS
 10
51.6734574647
 20
194.5169617697
 11
51.6661646382
 21
197.6042814159
  0
LINE
  5
22E
100
AcDbEntity
  8
0
100
AcDbLine
 62
7
  6
CONTINUOUS
 10
51.8731833716
 20
194.5256856472
 11
51.8656625642
 21
197.8125032194
  0
LINE
  5
22F
100
AcDbEntity
  8
0
100
AcDbLine
 62
7
  6
CONTINUOUS
 10
51.3189951779
 20
197.5418013256
 11
51.3189951779
 21
196.5180654105
  0
LINE
  5
230
100
AcDbEntity
  8
0
100
AcDbLine
 62
7
  6
CONTINUOUS
 10
51.3975533436
 20
193.4929082429
 11
51.3975533436
 21
193.5841843432
  0
LINE
  5
231
100
AcDbEntity
  8
0
100
AcDbLine
 62
7
  6
CONTINUOUS
 10
51.6185840383
 20
196.518065438
 11
51.6185840383
 21
197.556700816
  0
LINE
  5
232
100
AcDbEntity
  8
0
100
AcDbLine
 62
7
  6
CONTINUOUS
 10
54.6295811898
 20
192.0287155094
 11
54.6295811898
 21
191.7418013256
  0
LINE
  5
233
100
AcDbEntity
  8
0
100
AcDbLine
 62
7
  6
CONTINUOUS
 10
57.3038920861
 20
188.2418013256
 11
57.3038920861
 21
188.5287155069
  0
LINE
  5
234
100
AcDbEntity
  8
0
100
AcDbLine
 62
7
  6
CONTINUOUS
 10
56.3641994656
 20
188.8997811815
 11
55.5692738106
 21
191.0838214687
  0
LINE
  5
235
100
AcDbEntity
  8
0
100
AcDbLine
 62
7
  6
CONTINUOUS
 10
55.8511815968
 20
191.1733416957
 11
56.6461086813
 21
188.9892974666
  0
LINE
  5
236
100
AcDbEntity
  8
0
100
AcDbLine
 62
7
  6
CONTINUOUS
 10
51.6185840383
 20
197.556700816
 11
51.6661645978
 21
197.6042813756
  0
LINE
  5
237
100
AcDbEntity
  8
0
100
AcDbLine
 62
7
  6
CONTINUOUS
 10
74.4536845479
 20
187.0418013256
 11
74.4536845479
 21
172.7418013256
  0
LINE
  5
238
100
AcDbEntity
  8
0
100
AcDbLine
 62
7
  6
CONTINUOUS
 10
77.9034770097
 20
188.5287155069
 11
77.9034770097
 21
188.2418013256
  0
LINE
  5
239
100
AcDbEntity
  8
0
100
AcDbLine
 62
7
  6
CONTINUOUS
 10
80.577787906
 20
191.7418013256
 11
80.577787906
 21
192.0287155094
  0
LINE
  5
23A
100
AcDbEntity
  8
0
100
AcDbLine
 62
7
  6
CONTINUOUS
 10
78.5612784271
 20
188.9893469702
 11
79.356187855
 21
191.1733426738
  0
LINE
  5
23B
100
AcDbEntity
  8
0
100
AcDbLine
 62
7
  6
CONTINUOUS
 10
79.6380952854
 20
191.0838214695
 11
78.843169629
 21
188.8997811783
  0
LINE
  5
23C
100
AcDbEntity
  8
0
100
AcDbLine
 62
7
  6
CONTINUOUS
 10
49.5412044979
 20
197.6042813756
 11
49.5887850575
 21
197.556700816
  0
LINE
  5
23D
100
AcDbEntity
  8
0
100
AcDbLine
 62
7
  6
CONTINUOUS
 10
107.7536845479
 20
172.7418013256
 11
107.7536845479
 21
187.0418013552
  0
LINE
  5
23E
100
AcDbEntity
  8
0
100
AcDbLine
 62
7
  6
CONTINUOUS
 10
122.3636845479
 20
159.6299711033
 11
147.8636845479
 21
159.6299711033
  0
LINE
  5
23F
100
AcDbEntity
  8
0
100
AcDbLine
 62
7
  6
CONTINUOUS
 10
147.8636845479
 20
159.6489976128
 11
122.3636845479
 21
159.6489976128
  0
LINE
  5
240
100
AcDbEntity
  8
0
100
AcDbLine
 62
7
  6
CONTINUOUS
 10
122.3636845479
 20
160.5205550403
 11
147.8636845479
 21
160.5205550403
  0
LINE
  5
241
100
AcDbEntity
  8
0
100
AcDbLine
 62
7
  6
CONTINUOUS
 10
147.8636845479
 20
165.065749817
 11
122.3636845479
 21
165.065749817
  0
LINE
  5
242
100
AcDbEntity
  8
0
100
AcDbLine
 62
7
  6
CONTINUOUS
 10
42.6285775983
 20
168.9418013256
 11
227.5787914974
 21
168.9418013256
  0
LINE
  5
243
100
AcDbEntity
  8
0
100
AcDbLine
 62
7
  6
CONTINUOUS
 10
222.8832648552
 20
169.2287155094
 11
47.3241042399
 21
169.2287155094
  0
LINE
  5
244
100
AcDbEntity
  8
0
100
AcDbLine
 62
7
  6
CONTINUOUS
 10
107.5536845479
 20
172.5418013256
 11
74.6536845479
 21
172.5418013256
  0
LINE
  5
245
100
AcDbEntity
  8
0
100
AcDbLine
 62
7
  6
CONTINUOUS
 10
121.8356114022
 20
188.2243834551
 11
121.8356114022
 21
188.1946389501
  0
LINE
  5
246
100
AcDbEntity
  8
0
100
AcDbLine
 62
7
  6
CONTINUOUS
 10
122.3636845479
 20
159.6299711033
 11
122.3636845479
 21
168.9418013256
  0
LINE
  5
247
100
AcDbEntity
  8
0
100
AcDbLine
 62
7
  6
CONTINUOUS
 10
210.5036845479
 20
175.2418013256
 11
208.3036845479
 21
175.2418013256
  0
LINE
  5
248
100
AcDbEntity
  8
0
100
AcDbLine
 62
7
  6
CONTINUOUS
 10
203.9036845479
 20
175.2418013256
 11
201.7036845479
 21
175.2418013256
  0
LINE
  5
249
100
AcDbEntity
  8
0
100
AcDbLine
 62
7
  6
CONTINUOUS
 10
215.4036845479
 20
177.4418013256
 11
210.9036411551
 21
177.4418013256
  0
LINE
  5
24A
100
AcDbEntity
  8
0
100
AcDbLine
 62
7
  6
CONTINUOUS
 10
207.9036845479
 20
177.4418013256
 11
204.3036845479
 21
177.4418013256
  0
LINE
  5
24B
100
AcDbEntity
  8
0
100
AcDbLine
 62
7
  6
CONTINUOUS
 10
201.3036845479
 20
177.4418013256
 11
196.8036845479
 21
177.4418013256
  0
LINE
  5
24C
100
AcDbEntity
  8
0
100
AcDbLine
 62
7
  6
CONTINUOUS
 10
74.6536845105
 20
187.2418013256
 11
107.5536845479
 21
187.2418013256
  0
LINE
  5
24D
100
AcDbEntity
  8
0
100
AcDbLine
 62
7
  6
CONTINUOUS
 10
196.8036845105
 20
187.2418013256
 11
215.4036845479
 21
187.2418013256
  0
LINE
  5
24E
100
AcDbEntity
  8
0
100
AcDbLine
 62
7
  6
CONTINUOUS
 10
57.3038920866
 20
188.2418013256
 11
77.9034770097
 21
188.2418013256
  0
LINE
  5
24F
100
AcDbEntity
  8
0
100
AcDbLine
 62
7
  6
CONTINUOUS
 10
192.3038920866
 20
188.2418013256
 11
212.9034770097
 21
188.2418013256
  0
LINE
  5
250
100
AcDbEntity
  8
0
100
AcDbLine
 62
7
  6
CONTINUOUS
 10
212.9035577283
 20
188.5287155094
 11
192.3038795772
 21
188.5287155045
  0
LINE
  5
251
100
AcDbEntity
  8
0
100
AcDbLine
 62
7
  6
CONTINUOUS
 10
77.9035577281
 20
188.5287155094
 11
57.3038795771
 21
188.5287155045
  0
LINE
  5
252
100
AcDbEntity
  8
0
100
AcDbLine
 62
7
  6
CONTINUOUS
 10
46.362039925
 20
191.2636110193
 11
55.4808030972
 21
191.2636110193
  0
LINE
  5
253
100
AcDbEntity
  8
0
100
AcDbLine
 62
7
  6
CONTINUOUS
 10
79.7265659617
 20
191.2636110193
 11
190.4808030972
 21
191.2636110193
  0
LINE
  5
254
100
AcDbEntity
  8
0
100
AcDbLine
 62
7
  6
CONTINUOUS
 10
214.7265659617
 20
191.2636110193
 11
223.8453291609
 21
191.2636110193
  0
LINE
  5
255
100
AcDbEntity
  8
0
100
AcDbLine
 62
7
  6
CONTINUOUS
 10
41.6331099119
 20
191.7418013256
 11
54.6295811897
 21
191.7418013256
  0
LINE
  5
256
100
AcDbEntity
  8
0
100
AcDbLine
 62
7
  6
CONTINUOUS
 10
80.5777879059
 20
191.7418013256
 11
189.6295811897
 21
191.7418013256
  0
LINE
  5
257
100
AcDbEntity
  8
0
100
AcDbLine
 62
7
  6
CONTINUOUS
 10
215.5777879059
 20
191.7418013256
 11
228.5742609958
 21
191.7418013256
  0
LINE
  5
258
100
AcDbEntity
  8
0
100
AcDbLine
 62
7
  6
CONTINUOUS
 10
223.8787343511
 20
192.0287155094
 11
215.577787906
 21
192.0287155094
  0
LINE
  5
259
100
AcDbEntity
  8
0
100
AcDbLine
 62
7
  6
CONTINUOUS
 10
189.6295811898
 20
192.0287155094
 11
80.577787906
 21
192.0287155094
  0
LINE
  5
25A
100
AcDbEntity
  8
0
100
AcDbLine
 62
7
  6
CONTINUOUS
 10
54.6295811898
 20
192.0287155094
 11
46.3286347416
 21
192.0287155094
  0
LINE
  5
25B
100
AcDbEntity
  8
0
100
AcDbLine
 62
7
  6
CONTINUOUS
 10
218.8098154851
 20
193.4929082253
 11
220.3975527845
 21
193.4929082605
  0
LINE
  5
25C
100
AcDbEntity
  8
0
100
AcDbLine
 62
7
  6
CONTINUOUS
 10
49.8098154851
 20
193.4929082253
 11
51.3975527845
 21
193.4929082605
  0
LINE
  5
25D
100
AcDbEntity
  8
0
100
AcDbLine
 62
7
  6
CONTINUOUS
 10
220.3975534748
 20
193.5841843432
 11
218.8098154891
 21
193.5841843432
  0
LINE
  5
25E
100
AcDbEntity
  8
0
100
AcDbLine
 62
7
  6
CONTINUOUS
 10
51.3975534748
 20
193.5841843432
 11
49.8098154891
 21
193.5841843432
  0
LINE
  5
25F
100
AcDbEntity
  8
0
100
AcDbLine
 62
7
  6
CONTINUOUS
 10
147.8636845479
 20
168.9418013256
 11
147.8636845479
 21
159.6299711033
  0
LINE
  5
260
100
AcDbEntity
  8
0
100
AcDbLine
 62
7
  6
CONTINUOUS
 10
49.8834590002
 20
196.0180654106
 11
51.3239100956
 21
196.0180654106
  0
LINE
  5
261
100
AcDbEntity
  8
0
100
AcDbLine
 62
7
  6
CONTINUOUS
 10
218.8834590002
 20
196.0180654106
 11
220.3239100956
 21
196.0180654106
  0
LINE
  5
262
100
AcDbEntity
  8
0
100
AcDbLine
 62
7
  6
CONTINUOUS
 10
220.6185840383
 20
196.5180654105
 11
218.5887850575
 21
196.5180654105
  0
LINE
  5
263
100
AcDbEntity
  8
0
100
AcDbLine
 62
7
  6
CONTINUOUS
 10
51.6185840383
 20
196.5180654105
 11
49.5887850575
 21
196.5180654105
  0
LINE
  5
264
100
AcDbEntity
  8
0
100
AcDbLine
 62
7
  6
CONTINUOUS
 10
220.3189951779
 20
197.5418013256
 11
218.8883739179
 21
197.5418013256
  0
LINE
  5
265
100
AcDbEntity
  8
0
100
AcDbLine
 62
7
  6
CONTINUOUS
 10
51.3189951779
 20
197.5418013256
 11
49.8883739179
 21
197.5418013256
  0
LINE
  5
266
100
AcDbEntity
  8
0
100
AcDbLine
 62
7
  6
CONTINUOUS
 10
49.5412044979
 20
197.6042813756
 11
51.6661645978
 21
197.6042813756
  0
LINE
  5
267
100
AcDbEntity
  8
0
100
AcDbLine
 62
7
  6
CONTINUOUS
 10
218.5412044979
 20
197.6042813756
 11
220.6661645978
 21
197.6042813756
  0
LINE
  5
268
100
AcDbEntity
  8
0
100
AcDbLine
 62
7
  6
CONTINUOUS
 10
220.8656625642
 20
197.8125032194
 11
218.3417065316
 21
197.8125032194
  0
LINE
  5
269
100
AcDbEntity
  8
0
100
AcDbLine
 62
7
  6
CONTINUOUS
 10
51.8656625642
 20
197.8125032194
 11
49.3417065316
 21
197.8125032194
  0
LINE
  5
26A
100
AcDbEntity
  8
0
100
AcDbLine
 62
7
  6
CONTINUOUS
 10
31.9036845479
 20
207.1418013256
 11
238.3036845479
 21
207.1418013256
  0
LINE
  5
26B
100
AcDbEntity
  8
0
100
AcDbLine
 62
7
  6
CONTINUOUS
 10
238.6036845479
 20
207.4418013256
 11
31.6036845479
 21
207.4418013256
  0
LINE
  5
26C
100
AcDbEntity
  8
0
100
AcDbLine
 62
7
  6
CONTINUOUS
 10
239.1036845479
 20
208.9418013256
 11
31.1036845479
 21
208.9418013256
  0
LINE
  5
26D
100
AcDbEntity
  8
0
100
AcDbLine
 62
7
  6
CONTINUOUS
 10
31.1036845479
 20
212.9418013256
 11
239.1036845479
 21
212.9418013256
  0
LINE
  5
26E
100
AcDbEntity
  8
0
100
AcDbLine
 62
7
  6
CONTINUOUS
 10
32.1036845593
 20
213.9418013256
 11
238.1036845479
 21
213.9418013256
  0
LINE
  5
26F
100
AcDbEntity
  8
0
100
AcDbLine
 62
7
  6
CONTINUOUS
 10
33.9036845479
 20
214.0418013256
 11
236.3036845479
 21
214.0418013256
  0
LINE
  5
270
100
AcDbEntity
  8
0
100
AcDbLine
 62
7
  6
CONTINUOUS
 10
189.6295811898
 20
192.0287155094
 11
189.6295811898
 21
191.7418013256
  0
LINE
  5
271
100
AcDbEntity
  8
0
100
AcDbLine
 62
7
  6
CONTINUOUS
 10
192.3038920861
 20
188.2418013256
 11
192.3038920861
 21
188.528715507
  0
LINE
  5
272
100
AcDbEntity
  8
0
100
AcDbLine
 62
7
  6
CONTINUOUS
 10
220.6661646382
 20
197.6042814159
 11
220.6185840383
 21
197.556700816
  0
LINE
  5
273
100
AcDbEntity
  8
0
100
AcDbLine
 62
7
  6
CONTINUOUS
 10
191.3641994656
 20
188.8997811815
 11
190.5692738106
 21
191.0838214687
  0
LINE
  5
274
100
AcDbEntity
  8
0
100
AcDbLine
 62
7
  6
CONTINUOUS
 10
190.8511815968
 20
191.1733416957
 11
191.6461086813
 21
188.9892974665
  0
LINE
  5
275
100
AcDbEntity
  8
0
100
AcDbLine
 62
7
  6
CONTINUOUS
 10
196.6036845479
 20
187.0418013256
 11
196.6036845479
 21
177.6418013256
  0
LINE
  5
276
100
AcDbEntity
  8
0
100
AcDbLine
 62
7
  6
CONTINUOUS
 10
201.5036845479
 20
177.2418013256
 11
201.5036845479
 21
175.4418013256
  0
LINE
  5
277
100
AcDbEntity
  8
0
100
AcDbLine
 62
7
  6
CONTINUOUS
 10
204.1036845479
 20
175.4418013256
 11
204.1036845479
 21
177.2418013256
  0
LINE
  5
278
100
AcDbEntity
  8
0
100
AcDbLine
 62
7
  6
CONTINUOUS
 10
218.5887850575
 20
197.556700816
 11
218.5412044576
 21
197.6042814159
  0
LINE
  5
279
100
AcDbEntity
  8
0
100
AcDbLine
 62
7
  6
CONTINUOUS
 10
208.1036845479
 20
177.2418013256
 11
208.1036845479
 21
175.4418013256
  0
LINE
  5
27A
100
AcDbEntity
  8
0
100
AcDbLine
 62
7
  6
CONTINUOUS
 10
210.7036845479
 20
175.4418013256
 11
210.7036845479
 21
177.2418013256
  0
LINE
  5
27B
100
AcDbEntity
  8
0
100
AcDbLine
 62
7
  6
CONTINUOUS
 10
212.9034770097
 20
188.528715507
 11
212.9034770097
 21
188.2418013256
  0
LINE
  5
27C
100
AcDbEntity
  8
0
100
AcDbLine
 62
7
  6
CONTINUOUS
 10
213.5612784271
 20
188.9893469701
 11
214.356187855
 21
191.1733426738
  0
LINE
  5
27D
100
AcDbEntity
  8
0
100
AcDbLine
 62
7
  6
CONTINUOUS
 10
214.6380952854
 20
191.0838214695
 11
213.843169629
 21
188.8997811783
  0
LINE
  5
27E
100
AcDbEntity
  8
0
100
AcDbLine
 62
7
  6
CONTINUOUS
 10
220.3975534748
 20
193.5841843432
 11
220.3239100956
 21
196.0180654106
  0
LINE
  5
27F
100
AcDbEntity
  8
0
100
AcDbLine
 62
7
  6
CONTINUOUS
 10
220.6234989564
 20
196.1680653979
 11
220.6734574647
 21
194.5169617697
  0
LINE
  5
280
100
AcDbEntity
  8
0
100
AcDbLine
 62
7
  6
CONTINUOUS
 10
220.6734574647
 20
194.5169617697
 11
220.6661646382
 21
197.6042814159
  0
LINE
  5
281
100
AcDbEntity
  8
0
100
AcDbLine
 62
7
  6
CONTINUOUS
 10
220.8731833716
 20
194.5256856472
 11
220.8656625642
 21
197.8125032194
  0
LINE
  5
282
100
AcDbEntity
  8
0
100
AcDbLine
 62
7
  6
CONTINUOUS
 10
215.577787906
 20
191.7418013256
 11
215.577787906
 21
192.0287155094
  0
LINE
  5
283
100
AcDbEntity
  8
0
100
AcDbLine
 62
7
  6
CONTINUOUS
 10
215.6036845479
 20
177.6418013256
 11
215.6036845479
 21
187.0418013552
  0
LINE
  5
284
100
AcDbEntity
  8
0
100
AcDbLine
 62
7
  6
CONTINUOUS
 10
218.5887850575
 20
197.556700816
 11
218.5887850575
 21
196.51806547
  0
LINE
  5
285
100
AcDbEntity
  8
0
100
AcDbLine
 62
7
  6
CONTINUOUS
 10
218.8098154881
 20
193.4929082429
 11
218.8098154881
 21
193.5841843432
  0
LINE
  5
286
100
AcDbEntity
  8
0
100
AcDbLine
 62
7
  6
CONTINUOUS
 10
218.8883739179
 20
196.5180654106
 11
218.8883739179
 21
197.5418013256
  0
LINE
  5
287
100
AcDbEntity
  8
0
100
AcDbLine
 62
7
  6
CONTINUOUS
 10
220.3189951779
 20
197.5418013256
 11
220.3189951779
 21
196.5180654105
  0
LINE
  5
288
100
AcDbEntity
  8
0
100
AcDbLine
 62
7
  6
CONTINUOUS
 10
220.3975533436
 20
193.4929082429
 11
220.3975533436
 21
193.5841843432
  0
LINE
  5
289
100
AcDbEntity
  8
0
100
AcDbLine
 62
7
  6
CONTINUOUS
 10
220.6185840383
 20
196.518065425
 11
220.6185840383
 21
197.556700816
  0
LINE
  5
28A
100
AcDbEntity
  8
0
100
AcDbLine
 62
7
  6
CONTINUOUS
 10
218.3417065316
 20
197.8125032194
 11
218.3341857242
 21
194.5256856472
  0
LINE
  5
28B
100
AcDbEntity
  8
0
100
AcDbLine
 62
7
  6
CONTINUOUS
 10
218.5412044576
 20
197.6042814159
 11
218.5339116311
 21
194.5169617697
  0
LINE
  5
28C
100
AcDbEntity
  8
0
100
AcDbLine
 62
7
  6
CONTINUOUS
 10
218.5339116311
 20
194.5169617697
 11
218.5838701382
 21
196.168065359
  0
LINE
  5
28D
100
AcDbEntity
  8
0
100
AcDbLine
 62
7
  6
CONTINUOUS
 10
218.8834590002
 20
196.0180654106
 11
218.8098154891
 21
193.5841843432
  0
LINE
  5
28E
100
AcDbEntity
  8
0
100
AcDbLine
 62
7
  6
CONTINUOUS
 10
222.883264856
 20
169.2287155094
 11
222.883264856
 21
168.9418013256
  0
LINE
  5
28F
100
AcDbEntity
  8
0
100
AcDbLine
 62
7
  6
CONTINUOUS
 10
223.8453291707
 20
191.7418013256
 11
223.8453291707
 21
191.2636110193
  0
LINE
  5
290
100
AcDbEntity
  8
0
100
AcDbLine
 62
7
  6
CONTINUOUS
 10
223.8787343499
 20
192.0287155094
 11
223.8787343499
 21
191.7418013256
  0
LINE
  5
291
100
AcDbEntity
  8
0
100
AcDbLine
 62
7
  6
CONTINUOUS
 10
222.8832648552
 20
169.2287155094
 11
223.8453291609
 21
191.2636110193
  0
LINE
  5
292
100
AcDbEntity
  8
0
100
AcDbLine
 62
7
  6
CONTINUOUS
 10
223.8787343511
 20
192.0287155094
 11
224.5385859312
 21
207.1418013256
  0
LINE
  5
293
100
AcDbEntity
  8
0
100
AcDbLine
 62
7
  6
CONTINUOUS
 10
229.5338270392
 20
207.1418013256
 11
227.8785059639
 21
169.2287155094
  0
LINE
  5
294
100
AcDbEntity
  8
0
100
AcDbLine
 62
7
  6
CONTINUOUS
 10
239.1036845479
 20
212.9418013256
 11
238.1036845479
 21
213.9418013256
  0
LINE
  5
295
100
AcDbEntity
  8
0
100
AcDbLine
 62
7
  6
CONTINUOUS
 10
230.6036845427
 20
208.9418013256
 11
230.6036845479
 21
207.1418013256
  0
LINE
  5
296
100
AcDbEntity
  8
0
100
AcDbLine
 62
7
  6
CONTINUOUS
 10
230.9036845479
 20
214.0418013256
 11
230.9036845479
 21
213.9418013256
  0
LINE
  5
297
100
AcDbEntity
  8
0
100
AcDbLine
 62
7
  6
CONTINUOUS
 10
231.1036845318
 20
213.941801337
 11
231.1036845158
 21
208.9418013256
  0
LINE
  5
298
100
AcDbEntity
  8
0
100
AcDbLine
 62
7
  6
CONTINUOUS
 10
236.3036845479
 20
213.9418013256
 11
236.3036845479
 21
214.0418013256
  0
LINE
  5
299
100
AcDbEntity
  8
0
100
AcDbLine
 62
7
  6
CONTINUOUS
 10
238.6036845479
 20
207.4418013256
 11
238.6036845479
 21
208.9418013256
  0
LINE
  5
29A
100
AcDbEntity
  8
0
100
AcDbLine
 62
7
  6
CONTINUOUS
 10
239.1036845479
 20
208.9418013256
 11
239.1036845479
 21
212.9418013256
  0
ARC
  5
29B
100
AcDbEntity
  8
0
100
AcDbCircle
 62
7
  6
CONTINUOUS
 10
42.6285775983
 20
169.2418013256
 40
0.3
100
AcDbArc
 50
182.4999999981
 51
270.0
  0
ARC
  5
29C
100
AcDbEntity
  8
0
100
AcDbCircle
 62
7
  6
CONTINUOUS
 10
74.6536845479
 20
187.0418013256
 40
0.2
100
AcDbArc
 50
90.0000428286
 51
180.0
  0
ARC
  5
29D
100
AcDbEntity
  8
0
100
AcDbCircle
 62
7
  6
CONTINUOUS
 10
107.5536845479
 20
187.0418013256
 40
0.2
100
AcDbArc
 50
0.0
 51
90.0
  0
ARC
  5
29E
100
AcDbEntity
  8
0
100
AcDbCircle
 62
7
  6
CONTINUOUS
 10
107.5536845479
 20
172.7418013256
 40
0.2
100
AcDbArc
 50
270.0
 51
360.0
  0
ARC
  5
29F
100
AcDbEntity
  8
0
100
AcDbCircle
 62
7
  6
CONTINUOUS
 10
74.6536845479
 20
172.7418013256
 40
0.2
100
AcDbArc
 50
180.0
 51
270.0
  0
ARC
  5
2A0
100
AcDbEntity
  8
0
100
AcDbCircle
 62
7
  6
CONTINUOUS
 10
76.3164706112
 20
196.5137623252
 40
24.9974758037
100
AcDbArc
 50
179.990137059
 51
181.1362428361
  0
ARC
  5
2A1
100
AcDbEntity
  8
0
100
AcDbCircle
 62
7
  6
CONTINUOUS
 10
26.622245335
 20
196.4967434704
 40
23.266138353
100
AcDbArc
 50
358.8211121502
 51
0.0525079553
  0
ARC
  5
2A2
100
AcDbEntity
  8
0
100
AcDbCircle
 62
7
  6
CONTINUOUS
 10
54.553617042
 20
190.7008244806
 40
1.3809222615
100
AcDbArc
 50
20.0094485348
 51
21.5965230626
  0
ARC
  5
2A3
100
AcDbEntity
  8
0
100
AcDbCircle
 62
7
  6
CONTINUOUS
 10
54.6135944709
 20
190.7259923864
 40
1.3158924821
100
AcDbArc
 50
21.5388172588
 51
30.2172254972
  0
ARC
  5
2A4
100
AcDbEntity
  8
0
100
AcDbCircle
 62
7
  6
CONTINUOUS
 10
80.5807241243
 20
190.7240013483
 40
1.3055280624
100
AcDbArc
 50
115.8936289787
 51
126.9910147907
  0
ARC
  5
2A5
100
AcDbEntity
  8
0
100
AcDbCircle
 62
7
  6
CONTINUOUS
 10
54.6266565629
 20
190.7240269308
 40
1.3054999789
100
AcDbArc
 50
53.0094982324
 51
64.1063894286
  0
ARC
  5
2A6
100
AcDbEntity
  8
0
100
AcDbCircle
 62
7
  6
CONTINUOUS
 10
80.5797547223
 20
190.7272564511
 40
1.3024200026
100
AcDbArc
 50
128.8206908331
 51
158.2685667569
  0
ARC
  5
2A7
100
AcDbEntity
  8
0
100
AcDbCircle
 62
7
  6
CONTINUOUS
 10
80.5722648696
 20
190.7307101517
 40
1.2941278357
100
AcDbArc
 50
158.273862339
 51
159.9993057974
  0
ARC
  5
2A8
100
AcDbEntity
  8
0
100
AcDbCircle
 62
7
  6
CONTINUOUS
 10
80.5733602351
 20
190.7341538344
 40
1.2929882115
100
AcDbArc
 50
127.001068841
 51
128.8022343979
  0
ARC
  5
2A9
100
AcDbEntity
  8
0
100
AcDbCircle
 62
7
  6
CONTINUOUS
 10
54.6340267643
 20
190.7341884091
 40
1.2929491457
100
AcDbArc
 50
51.1977766684
 51
52.9994325187
  0
ARC
  5
2AA
100
AcDbEntity
  8
0
100
AcDbCircle
 62
7
  6
CONTINUOUS
 10
54.662723573
 20
190.7524374049
 40
1.2601310195
100
AcDbArc
 50
30.3024291296
 51
40.912313155
  0
ARC
  5
2AB
100
AcDbEntity
  8
0
100
AcDbCircle
 62
7
  6
CONTINUOUS
 10
57.3038920861
 20
189.2418013256
 40
1.0
100
AcDbArc
 50
200.0000000491
 51
270.0000000298
  0
ARC
  5
2AC
100
AcDbEntity
  8
0
100
AcDbCircle
 62
7
  6
CONTINUOUS
 10
77.9034770097
 20
189.2418013256
 40
1.0
100
AcDbArc
 50
270.0
 51
339.9999997559
  0
ARC
  5
2AD
100
AcDbEntity
  8
0
100
AcDbCircle
 62
7
  6
CONTINUOUS
 10
54.6295811897
 20
190.7418013256
 40
1.0
100
AcDbArc
 50
19.9999999831
 51
90.0
  0
ARC
  5
2AE
100
AcDbEntity
  8
0
100
AcDbCircle
 62
7
  6
CONTINUOUS
 10
80.577787906
 20
190.7418013256
 40
1.0
100
AcDbArc
 50
90.000000008
 51
159.9999999656
  0
ARC
  5
2AF
100
AcDbEntity
  8
0
100
AcDbCircle
 62
7
  6
CONTINUOUS
 10
77.9035615235
 20
189.2285948303
 40
0.6998793209
100
AcDbArc
 50
269.999689292
 51
340.0108865166
  0
ARC
  5
2B0
100
AcDbEntity
  8
0
100
AcDbCircle
 62
7
  6
CONTINUOUS
 10
57.3037884837
 20
189.2285675516
 40
0.699852053
100
AcDbArc
 50
199.9918617036
 51
270.0074576775
  0
ARC
  5
2B1
100
AcDbEntity
  8
0
100
AcDbCircle
 62
7
  6
CONTINUOUS
 10
31.9036845479
 20
207.4418013256
 40
0.3
100
AcDbArc
 50
179.9999999999
 51
315.0000000062
  0
ARC
  5
2B2
100
AcDbEntity
  8
0
100
AcDbCircle
 62
7
  6
CONTINUOUS
 10
41.6331081
 20
192.0418013256
 40
0.3
100
AcDbArc
 50
182.5001419708
 51
270.0003460448
  0
ARC
  5
2B3
100
AcDbEntity
  8
0
100
AcDbCircle
 62
7
  6
CONTINUOUS
 10
227.5787914974
 20
169.2418013256
 40
0.3
100
AcDbArc
 50
270.0
 51
357.5000000019
  0
ARC
  5
2B4
100
AcDbEntity
  8
0
100
AcDbCircle
 62
7
  6
CONTINUOUS
 10
201.3036845479
 20
177.2418013256
 40
0.2
100
AcDbArc
 50
0.0
 51
90.0
  0
ARC
  5
2B5
100
AcDbEntity
  8
0
100
AcDbCircle
 62
7
  6
CONTINUOUS
 10
204.3036845479
 20
177.2418013256
 40
0.2
100
AcDbArc
 50
90.0
 51
180.0
  0
ARC
  5
2B6
100
AcDbEntity
  8
0
100
AcDbCircle
 62
7
  6
CONTINUOUS
 10
207.9036845479
 20
177.2418013256
 40
0.2
100
AcDbArc
 50
0.0
 51
90.0
  0
ARC
  5
2B7
100
AcDbEntity
  8
0
100
AcDbCircle
 62
7
  6
CONTINUOUS
 10
210.5036845479
 20
175.4418013256
 40
0.2
100
AcDbArc
 50
269.9999999997
 51
360.0
  0
ARC
  5
2B8
100
AcDbEntity
  8
0
100
AcDbCircle
 62
7
  6
CONTINUOUS
 10
210.9036845479
 20
177.2418013256
 40
0.2
100
AcDbArc
 50
89.9999999997
 51
179.9999982118
  0
ARC
  5
2B9
100
AcDbEntity
  8
0
100
AcDbCircle
 62
7
  6
CONTINUOUS
 10
201.7036845479
 20
175.4418013256
 40
0.2
100
AcDbArc
 50
180.0
 51
270.0
  0
ARC
  5
2BA
100
AcDbEntity
  8
0
100
AcDbCircle
 62
7
  6
CONTINUOUS
 10
203.9036845479
 20
175.4418013256
 40
0.2
100
AcDbArc
 50
270.0
 51
360.0
  0
ARC
  5
2BB
100
AcDbEntity
  8
0
100
AcDbCircle
 62
7
  6
CONTINUOUS
 10
208.3036845479
 20
175.4418013256
 40
0.2
100
AcDbArc
 50
180.0
 51
270.0
  0
ARC
  5
2BC
100
AcDbEntity
  8
0
100
AcDbCircle
 62
7
  6
CONTINUOUS
 10
215.4036845479
 20
187.0418013256
 40
0.2
100
AcDbArc
 50
0.0
 51
90.0
  0
ARC
  5
2BD
100
AcDbEntity
  8
0
100
AcDbCircle
 62
7
  6
CONTINUOUS
 10
196.8036845479
 20
187.0418013256
 40
0.2
100
AcDbArc
 50
90.0000428286
 51
180.0
  0
ARC
  5
2BE
100
AcDbEntity
  8
0
100
AcDbCircle
 62
7
  6
CONTINUOUS
 10
196.8036845479
 20
177.6418013256
 40
0.2
100
AcDbArc
 50
180.0
 51
268.4498931674
  0
ARC
  5
2BF
100
AcDbEntity
  8
0
100
AcDbCircle
 62
7
  6
CONTINUOUS
 10
215.4036845479
 20
177.6418013256
 40
0.2
100
AcDbArc
 50
271.5496746508
 51
360.0
  0
ARC
  5
2C0
100
AcDbEntity
  8
0
100
AcDbCircle
 62
7
  6
CONTINUOUS
 10
236.9760011672
 20
196.4317768827
 40
16.6572294886
100
AcDbArc
 50
179.7031925039
 51
181.4231873913
  0
ARC
  5
2C1
100
AcDbEntity
  8
0
100
AcDbCircle
 62
7
  6
CONTINUOUS
 10
189.5536170422
 20
190.7008244807
 40
1.3809222613
100
AcDbArc
 50
20.0094485347
 51
21.5965230627
  0
ARC
  5
2C2
100
AcDbEntity
  8
0
100
AcDbCircle
 62
7
  6
CONTINUOUS
 10
189.6135944709
 20
190.7259923864
 40
1.3158924821
100
AcDbArc
 50
21.5388172587
 51
30.2172254972
  0
ARC
  5
2C3
100
AcDbEntity
  8
0
100
AcDbCircle
 62
7
  6
CONTINUOUS
 10
215.5807241245
 20
190.7240013478
 40
1.3055280629
100
AcDbArc
 50
115.8936289782
 51
126.9910147907
  0
ARC
  5
2C4
100
AcDbEntity
  8
0
100
AcDbCircle
 62
7
  6
CONTINUOUS
 10
189.6266565629
 20
190.7240269308
 40
1.3054999789
100
AcDbArc
 50
53.0094982324
 51
64.1063894287
  0
ARC
  5
2C5
100
AcDbEntity
  8
0
100
AcDbCircle
 62
7
  6
CONTINUOUS
 10
215.5797547227
 20
190.7272564508
 40
1.3024200031
100
AcDbArc
 50
128.8206908374
 51
158.2685667564
  0
ARC
  5
2C6
100
AcDbEntity
  8
0
100
AcDbCircle
 62
7
  6
CONTINUOUS
 10
215.5722648687
 20
190.7307101521
 40
1.2941278347
100
AcDbArc
 50
158.2738623395
 51
159.9993057988
  0
ARC
  5
2C7
100
AcDbEntity
  8
0
100
AcDbCircle
 62
7
  6
CONTINUOUS
 10
215.5733602356
 20
190.7341538336
 40
1.2929882125
100
AcDbArc
 50
127.0010688407
 51
128.8022343975
  0
ARC
  5
2C8
100
AcDbEntity
  8
0
100
AcDbCircle
 62
7
  6
CONTINUOUS
 10
189.6340267646
 20
190.7341884094
 40
1.2929491453
100
AcDbArc
 50
51.1977766681
 51
52.999432519
  0
ARC
  5
2C9
100
AcDbEntity
  8
0
100
AcDbCircle
 62
7
  6
CONTINUOUS
 10
189.662723573
 20
190.7524374049
 40
1.2601310195
100
AcDbArc
 50
30.3024291295
 51
40.912313155
  0
ARC
  5
2CA
100
AcDbEntity
  8
0
100
AcDbCircle
 62
7
  6
CONTINUOUS
 10
192.3038920861
 20
189.2418013256
 40
1.0
100
AcDbArc
 50
200.0000000491
 51
270.0000000298
  0
ARC
  5
2CB
100
AcDbEntity
  8
0
100
AcDbCircle
 62
7
  6
CONTINUOUS
 10
212.9034770097
 20
189.2418013256
 40
1.0
100
AcDbArc
 50
270.0
 51
339.9999997559
  0
ARC
  5
2CC
100
AcDbEntity
  8
0
100
AcDbCircle
 62
7
  6
CONTINUOUS
 10
189.6295811897
 20
190.7418013256
 40
1.0
100
AcDbArc
 50
19.9999999831
 51
90.0
  0
ARC
  5
2CD
100
AcDbEntity
  8
0
100
AcDbCircle
 62
7
  6
CONTINUOUS
 10
215.577787906
 20
190.7418013256
 40
1.0
100
AcDbArc
 50
90.000000008
 51
159.9999999656
  0
ARC
  5
2CE
100
AcDbEntity
  8
0
100
AcDbCircle
 62
7
  6
CONTINUOUS
 10
212.9035615235
 20
189.2285948304
 40
0.699879321
100
AcDbArc
 50
269.9996893092
 51
340.0108864985
  0
ARC
  5
2CF
100
AcDbEntity
  8
0
100
AcDbCircle
 62
7
  6
CONTINUOUS
 10
192.3037884836
 20
189.2285675514
 40
0.6998520528
100
AcDbArc
 50
199.9918616995
 51
270.0074576887
  0
ARC
  5
2D0
100
AcDbEntity
  8
0
100
AcDbCircle
 62
7
  6
CONTINUOUS
 10
238.3036845479
 20
207.4418013256
 40
0.3
100
AcDbArc
 50
270.0
 51
360.0
  0
ARC
  5
2D1
100
AcDbEntity
  8
0
100
AcDbCircle
 62
7
  6
CONTINUOUS
 10
228.5742609958
 20
192.0418013256
 40
0.3
100
AcDbArc
 50
270.0
 51
357.4996282471
  0
SPLINE
  5
2D2
100
AcDbEntity
  8
0
100
AcDbSpline
 62
7
  6
CONTINUOUS
 70
0
 71
3
 72
9
 73
5
 74
0
 42
0.0000001
 43
0.0000001
 44
0.0000000001
 40
0.0
 40
0.0
 40
0.0
 40
0.0
 40
0.296573323
 40
1.0
 40
1.0
 40
1.0
 40
1.0
 10
228.8405206808
 20
191.2636122424
 30
0.0
 10
228.8430363378
 20
191.3197952061
 30
0.0
 10
228.8339246451
 20
191.4993120218
 30
0.0
 10
228.7076412966
 20
191.7417952294
 30
0.0
 10
228.5742503608
 20
191.7417988604
 30
0.0
  0
SPLINE
  5
2D3
100
AcDbEntity
  8
0
100
AcDbSpline
 62
7
  6
CONTINUOUS
 70
0
 71
3
 72
11
 73
7
 74
0
 42
0.0000001
 43
0.0000001
 44
0.0000000001
 40
0.0
 40
0.0
 40
0.0
 40
0.0
 40
0.0899659103
 40
0.3119081581
 40
0.6409646824
 40
1.0
 40
1.0
 40
1.0
 40
1.0
 10
218.5339116311
 20
194.5169617697
 30
0.0
 10
218.5293057748
 20
194.5208094495
 30
0.0
 10
218.5060498819
 20
194.5188875233
 30
0.0
 10
218.465486314
 20
194.5248030192
 30
0.0
 10
218.4037618462
 20
194.5246596485
 30
0.0
 10
218.3581365881
 20
194.5256309477
 30
0.0
 10
218.3341857242
 20
194.5256856472
 30
0.0
  0
SPLINE
  5
2D4
100
AcDbEntity
  8
0
100
AcDbSpline
 62
7
  6
CONTINUOUS
 70
0
 71
3
 72
13
 73
9
 74
0
 42
0.0000001
 43
0.0000001
 44
0.0000000001
 40
0.0
 40
0.0
 40
0.0
 40
0.0
 40
0.2500804322
 40
0.5000413552
 40
0.6251387953
 40
0.750081258
 40
0.8753000371
 40
1.0
 40
1.0
 40
1.0
 40
1.0
 10
218.3341857242
 20
194.5256856472
 30
0.0
 10
218.3353337274
 20
194.4236292146
 30
0.0
 10
218.345554613
 20
194.2192470633
 30
0.0
 10
218.4002275347
 20
193.9684151725
 30
0.0
 10
218.473888082
 20
193.7775260317
 30
0.0
 10
218.5508300839
 20
193.6443896534
 30
0.0
 10
218.6561852409
 20
193.5298349405
 30
0.0
 10
218.7589258416
 20
193.493454971
 30
0.0
 10
218.8098154851
 20
193.4929082253
 30
0.0
  0
SPLINE
  5
2D5
100
AcDbEntity
  8
0
100
AcDbSpline
 62
7
  6
CONTINUOUS
 70
0
 71
3
 72
9
 73
5
 74
0
 42
0.0000001
 43
0.0000001
 44
0.0000000001
 40
0.0
 40
0.0
 40
0.0
 40
0.0
 40
0.2344121128
 40
1.0
 40
1.0
 40
1.0
 40
1.0
 10
220.6234989564
 20
196.1680653979
 30
0.0
 10
220.6226717127
 20
196.1954042622
 30
0.0
 10
220.6196588878
 20
196.3120471289
 30
0.0
 10
220.6185847122
 20
196.4287360694
 30
0.0
 10
220.6185840383
 20
196.518065425
 30
0.0
  0
SPLINE
  5
2D6
100
AcDbEntity
  8
0
100
AcDbSpline
 62
7
  6
CONTINUOUS
 70
0
 71
3
 72
10
 73
6
 74
0
 42
0.0000001
 43
0.0000001
 44
0.0000000001
 40
0.0
 40
0.0
 40
0.0
 40
0.0
 40
0.318476356
 40
0.6056402834
 40
1.0
 40
1.0
 40
1.0
 40
1.0
 10
220.3239100956
 20
196.0180654105
 30
0.0
 10
220.3613136036
 20
196.0189142171
 30
0.0
 10
220.4332933829
 20
196.0278158493
 30
0.0
 10
220.5422425116
 20
196.0610525442
 30
0.0
 10
220.6193222637
 20
196.1219265048
 30
0.0
 10
220.623498956
 20
196.1680654105
 30
0.0
  0
SPLINE
  5
2D7
100
AcDbEntity
  8
0
100
AcDbSpline
 62
7
  6
CONTINUOUS
 70
0
 71
3
 72
11
 73
7
 74
0
 42
0.0000001
 43
0.0000001
 44
0.0000000001
 40
0.0
 40
0.0
 40
0.0
 40
0.0
 40
0.5322781904
 40
0.6626123888
 40
0.7888634968
 40
1.0
 40
1.0
 40
1.0
 40
1.0
 10
218.5339115712
 20
194.5169620272
 30
0.0
 10
218.5317967678
 20
194.337182414
 30
0.0
 10
218.5449218529
 20
194.1131043861
 30
0.0
 10
218.607706513
 20
193.8504825098
 30
0.0
 10
218.656865046
 20
193.7088220288
 30
0.0
 10
218.7385063397
 20
193.5831038405
 30
0.0
 10
218.8098155104
 20
193.5841833064
 30
0.0
  0
SPLINE
  5
2D8
100
AcDbEntity
  8
0
100
AcDbSpline
 62
7
  6
CONTINUOUS
 70
0
 71
3
 72
9
 73
5
 74
0
 42
0.0000001
 43
0.0000001
 44
0.0000000001
 40
0.0
 40
0.0
 40
0.0
 40
0.0
 40
0.2611515404
 40
1.0
 40
1.0
 40
1.0
 40
1.0
 10
218.5887850575
 20
196.51806547
 30
0.0
 10
218.5887850087
 20
196.487594156
 30
0.0
 10
218.5884100784
 20
196.3709144754
 30
0.0
 10
218.586477024
 20
196.2542352042
 30
0.0
 10
218.5838701382
 20
196.168065359
 30
0.0
  0
SPLINE
  5
2D9
100
AcDbEntity
  8
0
100
AcDbSpline
 62
7
  6
CONTINUOUS
 70
0
 71
3
 72
10
 73
6
 74
0
 42
0.0000001
 43
0.0000001
 44
0.0000000001
 40
0.0
 40
0.0
 40
0.0
 40
0.0
 40
0.3939424527
 40
0.6813016396
 40
1.0
 40
1.0
 40
1.0
 40
1.0
 10
218.5838701397
 20
196.1680654105
 30
0.0
 10
218.5880424864
 20
196.1219745109
 30
0.0
 10
218.6650422699
 20
196.0610797723
 30
0.0
 10
218.7740043118
 20
196.0278581638
 30
0.0
 10
218.846028759
 20
196.0189148237
 30
0.0
 10
218.8834590002
 20
196.0180654105
 30
0.0
  0
SPLINE
  5
2DA
100
AcDbEntity
  8
0
100
AcDbSpline
 62
7
  6
CONTINUOUS
 70
0
 71
3
 72
9
 73
5
 74
0
 42
0.0000001
 43
0.0000001
 44
0.0000000001
 40
0.0
 40
0.0
 40
0.0
 40
0.0
 40
0.2610192303
 40
1.0
 40
1.0
 40
1.0
 40
1.0
 10
218.8883739179
 20
196.5180654105
 30
0.0
 10
218.8885431211
 20
196.4745596069
 30
0.0
 10
218.8886241323
 20
196.307882254
 30
0.0
 10
218.8866317716
 20
196.1411962902
 30
0.0
 10
218.8834590002
 20
196.0180654106
 30
0.0
  0
SPLINE
  5
2DB
100
AcDbEntity
  8
0
100
AcDbSpline
 62
7
  6
CONTINUOUS
 70
0
 71
3
 72
12
 73
8
 74
0
 42
0.0000001
 43
0.0000001
 44
0.0000000001
 40
0.0
 40
0.0
 40
0.0
 40
0.0
 40
0.3227158935
 40
0.6268392911
 40
0.878813069
 40
0.9616170139
 40
1.0
 40
1.0
 40
1.0
 40
1.0
 10
218.3412957985
 20
197.8125032194
 30
0.0
 10
218.3632435483
 20
197.790526177
 30
0.0
 10
218.4061998676
 20
197.748109416
 30
0.0
 10
218.4641234866
 20
197.6866383437
 30
0.0
 10
218.5083261926
 20
197.6434166372
 30
0.0
 10
218.5315149301
 20
197.6164313289
 30
0.0
 10
218.5397836529
 20
197.6077457285
 30
0.0
 10
218.5411874004
 20
197.6043286895
 30
0.0
  0
SPLINE
  5
2DC
100
AcDbEntity
  8
0
100
AcDbSpline
 62
7
  6
CONTINUOUS
 70
0
 71
3
 72
13
 73
9
 74
0
 42
0.0000001
 43
0.0000001
 44
0.0000000001
 40
0.0
 40
0.0
 40
0.0
 40
0.0
 40
0.0391557999
 40
0.122541963
 40
0.2372337347
 40
0.3725449182
 40
0.6772119687
 40
1.0
 40
1.0
 40
1.0
 40
1.0
 10
220.6661816954
 20
197.6043286895
 30
0.0
 10
220.6676094871
 20
197.6078042576
 30
0.0
 10
220.6765818724
 20
197.6160821734
 30
0.0
 10
220.6909728617
 20
197.6333607134
 30
0.0
 10
220.7131223991
 20
197.656639573
 30
0.0
 10
220.7496896736
 20
197.695231453
 30
0.0
 10
220.801040653
 20
197.7474455812
 30
0.0
 10
220.8430308733
 20
197.7905860307
 30
0.0
 10
220.8649188493
 20
197.8125032194
 30
0.0
  0
SPLINE
  5
2DD
100
AcDbEntity
  8
0
100
AcDbSpline
 62
7
  6
CONTINUOUS
 70
0
 71
3
 72
12
 73
8
 74
0
 42
0.0000001
 43
0.0000001
 44
0.0000000001
 40
0.0
 40
0.0
 40
0.0
 40
0.0
 40
0.0396069891
 40
0.1238004345
 40
0.3734372143
 40
0.6783301425
 40
1.0
 40
1.0
 40
1.0
 40
1.0
 10
49.5411569699
 20
197.6042984053
 30
0.0
 10
49.5397135621
 20
197.6078119866
 30
0.0
 10
49.5309757549
 20
197.6164134768
 30
0.0
 10
49.5083322542
 20
197.6436999576
 30
0.0
 10
49.4649555527
 20
197.6874507705
 30
0.0
 10
49.4061995636
 20
197.747321122
 30
0.0
 10
49.3635037314
 20
197.7896586952
 30
0.0
 10
49.341704207
 20
197.8114873143
 30
0.0
  0
SPLINE
  5
2DE
100
AcDbEntity
  8
0
100
AcDbSpline
 62
7
  6
CONTINUOUS
 70
0
 71
3
 72
13
 73
9
 74
0
 42
0.0000001
 43
0.0000001
 44
0.0000000001
 40
0.0
 40
0.0
 40
0.0
 40
0.0
 40
0.3226990573
 40
0.6269466529
 40
0.7628050801
 40
0.878181747
 40
0.9613026125
 40
1.0
 40
1.0
 40
1.0
 40
1.0
 10
51.8656621395
 20
197.8126887991
 30
0.0
 10
51.8437296642
 20
197.7907270515
 30
0.0
 10
51.8014211393
 20
197.7477745423
 30
0.0
 10
51.7498176296
 20
197.695565164
 30
0.0
 10
51.7131164097
 20
197.656821907
 30
0.0
 10
51.6908659012
 20
197.6334107325
 30
0.0
 10
51.6764669411
 20
197.6160659793
 30
0.0
 10
51.6676264605
 20
197.6077412159
 30
0.0
 10
51.6662121258
 20
197.6042984053
 30
0.0
  0
SPLINE
  5
2DF
100
AcDbEntity
  8
0
100
AcDbSpline
 62
7
  6
CONTINUOUS
 70
0
 71
3
 72
13
 73
9
 74
0
 42
0.0000001
 43
0.0000001
 44
0.0000000001
 40
0.0
 40
0.0
 40
0.0
 40
0.0
 40
0.1238863574
 40
0.248818853
 40
0.3740157259
 40
0.4992757234
 40
0.749579602
 40
1.0
 40
1.0
 40
1.0
 40
1.0
 10
51.3975527845
 20
193.4929082605
 30
0.0
 10
51.448102262
 20
193.4929119806
 30
0.0
 10
51.5500918874
 20
193.5304026164
 30
0.0
 10
51.6559278762
 20
193.6434833383
 30
0.0
 10
51.7330475929
 20
193.7767117797
 30
0.0
 10
51.8072028781
 20
193.9676924224
 30
0.0
 10
51.8606229658
 20
194.2189635916
 30
0.0
 10
51.8734162719
 20
194.4235066205
 30
0.0
 10
51.8731833716
 20
194.5256856472
 30
0.0
  0
SPLINE
  5
2E0
100
AcDbEntity
  8
0
100
AcDbSpline
 62
7
  6
CONTINUOUS
 70
0
 71
3
 72
11
 73
7
 74
0
 42
0.0000001
 43
0.0000001
 44
0.0000000001
 40
0.0
 40
0.0
 40
0.0
 40
0.0
 40
0.3590383488
 40
0.6880953355
 40
0.9100356452
 40
1.0
 40
1.0
 40
1.0
 40
1.0
 10
51.8731833716
 20
194.5256856472
 30
0.0
 10
51.8492323053
 20
194.5256309473
 30
0.0
 10
51.803606817
 20
194.5246596371
 30
0.0
 10
51.7418822419
 20
194.5248029915
 30
0.0
 10
51.7013188599
 20
194.5188875408
 30
0.0
 10
51.6780632413
 20
194.520809383
 30
0.0
 10
51.6734574647
 20
194.5169617697
 30
0.0
  0
SPLINE
  5
2E1
100
AcDbEntity
  8
0
100
AcDbSpline
 62
7
  6
CONTINUOUS
 70
0
 71
3
 72
11
 73
7
 74
0
 42
0.0000001
 43
0.0000001
 44
0.0000000001
 40
0.0
 40
0.0
 40
0.0
 40
0.0
 40
0.5323557279
 40
0.6627057117
 40
0.7889900554
 40
1.0
 40
1.0
 40
1.0
 40
1.0
 10
51.6734573999
 20
194.5169614917
 30
0.0
 10
51.6755720781
 20
194.3371544019
 30
0.0
 10
51.6624220262
 20
194.1130468352
 30
0.0
 10
51.5996495334
 20
193.850376114
 30
0.0
 10
51.5504605977
 20
193.7087469219
 30
0.0
 10
51.4688206632
 20
193.5831132419
 30
0.0
 10
51.3975536281
 20
193.5841854543
 30
0.0
  0
SPLINE
  5
2E2
100
AcDbEntity
  8
0
100
AcDbSpline
 62
7
  6
CONTINUOUS
 70
0
 71
3
 72
9
 73
5
 74
0
 42
0.0000001
 43
0.0000001
 44
0.0000000001
 40
0.0
 40
0.0
 40
0.0
 40
0.0
 40
0.2344121127
 40
1.0
 40
1.0
 40
1.0
 40
1.0
 10
51.6234989564
 20
196.1680653995
 30
0.0
 10
51.6226717126
 20
196.1954042646
 30
0.0
 10
51.6196588877
 20
196.3120471352
 30
0.0
 10
51.6185847122
 20
196.4287360794
 30
0.0
 10
51.6185840383
 20
196.518065438
 30
0.0
  0
SPLINE
  5
2E3
100
AcDbEntity
  8
0
100
AcDbSpline
 62
7
  6
CONTINUOUS
 70
0
 71
3
 72
10
 73
6
 74
0
 42
0.0000001
 43
0.0000001
 44
0.0000000001
 40
0.0
 40
0.0
 40
0.0
 40
0.0
 40
0.318476356
 40
0.6056402834
 40
1.0
 40
1.0
 40
1.0
 40
1.0
 10
51.3239100956
 20
196.0180654105
 30
0.0
 10
51.3613136036
 20
196.0189142171
 30
0.0
 10
51.4332933829
 20
196.0278158493
 30
0.0
 10
51.5422425116
 20
196.0610525442
 30
0.0
 10
51.6193222637
 20
196.1219265048
 30
0.0
 10
51.623498956
 20
196.1680654105
 30
0.0
  0
SPLINE
  5
2E4
100
AcDbEntity
  8
0
100
AcDbSpline
 62
7
  6
CONTINUOUS
 70
0
 71
3
 72
9
 73
5
 74
0
 42
0.0000001
 43
0.0000001
 44
0.0000000001
 40
0.0
 40
0.0
 40
0.0
 40
0.0
 40
0.2611515404
 40
1.0
 40
1.0
 40
1.0
 40
1.0
 10
49.5887850575
 20
196.5180654691
 30
0.0
 10
49.5887850087
 20
196.4875941553
 30
0.0
 10
49.5884100784
 20
196.3709144752
 30
0.0
 10
49.586477024
 20
196.2542352046
 30
0.0
 10
49.5838701382
 20
196.1680653598
 30
0.0
  0
SPLINE
  5
2E5
100
AcDbEntity
  8
0
100
AcDbSpline
 62
7
  6
CONTINUOUS
 70
0
 71
3
 72
10
 73
6
 74
0
 42
0.0000001
 43
0.0000001
 44
0.0000000001
 40
0.0
 40
0.0
 40
0.0
 40
0.0
 40
0.3939424527
 40
0.6813016396
 40
1.0
 40
1.0
 40
1.0
 40
1.0
 10
49.5838701397
 20
196.1680654105
 30
0.0
 10
49.5880424864
 20
196.1219745109
 30
0.0
 10
49.6650422699
 20
196.0610797723
 30
0.0
 10
49.7740043118
 20
196.0278581638
 30
0.0
 10
49.846028759
 20
196.0189148237
 30
0.0
 10
49.8834590002
 20
196.0180654105
 30
0.0
  0
SPLINE
  5
2E6
100
AcDbEntity
  8
0
100
AcDbSpline
 62
7
  6
CONTINUOUS
 70
0
 71
3
 72
11
 73
7
 74
0
 42
0.0000001
 43
0.0000001
 44
0.0000000001
 40
0.0
 40
0.0
 40
0.0
 40
0.0
 40
0.5322781904
 40
0.6626123888
 40
0.7888634968
 40
1.0
 40
1.0
 40
1.0
 40
1.0
 10
49.5339115712
 20
194.5169620272
 30
0.0
 10
49.5317967678
 20
194.337182414
 30
0.0
 10
49.5449218529
 20
194.1131043861
 30
0.0
 10
49.607706513
 20
193.8504825098
 30
0.0
 10
49.656865046
 20
193.7088220288
 30
0.0
 10
49.7385063397
 20
193.5831038405
 30
0.0
 10
49.8098155104
 20
193.5841833064
 30
0.0
  0
SPLINE
  5
2E7
100
AcDbEntity
  8
0
100
AcDbSpline
 62
7
  6
CONTINUOUS
 70
0
 71
3
 72
11
 73
7
 74
0
 42
0.0000001
 43
0.0000001
 44
0.0000000001
 40
0.0
 40
0.0
 40
0.0
 40
0.0
 40
0.0899659103
 40
0.3119081581
 40
0.6409646824
 40
1.0
 40
1.0
 40
1.0
 40
1.0
 10
49.5339116311
 20
194.5169617697
 30
0.0
 10
49.5293057748
 20
194.5208094495
 30
0.0
 10
49.5060498819
 20
194.5188875233
 30
0.0
 10
49.465486314
 20
194.5248030192
 30
0.0
 10
49.4037618462
 20
194.5246596485
 30
0.0
 10
49.3581365881
 20
194.5256309477
 30
0.0
 10
49.3341857242
 20
194.5256856472
 30
0.0
  0
SPLINE
  5
2E8
100
AcDbEntity
  8
0
100
AcDbSpline
 62
7
  6
CONTINUOUS
 70
0
 71
3
 72
13
 73
9
 74
0
 42
0.0000001
 43
0.0000001
 44
0.0000000001
 40
0.0
 40
0.0
 40
0.0
 40
0.0
 40
0.2500804322
 40
0.5000413552
 40
0.6251387953
 40
0.750081258
 40
0.8753000371
 40
1.0
 40
1.0
 40
1.0
 40
1.0
 10
49.3341857242
 20
194.5256856472
 30
0.0
 10
49.3353337274
 20
194.4236292146
 30
0.0
 10
49.345554613
 20
194.2192470633
 30
0.0
 10
49.4002275347
 20
193.9684151725
 30
0.0
 10
49.473888082
 20
193.7775260317
 30
0.0
 10
49.5508300839
 20
193.6443896534
 30
0.0
 10
49.6561852409
 20
193.5298349405
 30
0.0
 10
49.7589258416
 20
193.493454971
 30
0.0
 10
49.8098154851
 20
193.4929082253
 30
0.0
  0
SPLINE
  5
2E9
100
AcDbEntity
  8
0
100
AcDbSpline
 62
7
  6
CONTINUOUS
 70
0
 71
3
 72
23
 73
19
 74
0
 42
0.0000001
 43
0.0000001
 44
0.0000000001
 40
0.0
 40
0.0
 40
0.0
 40
0.0
 40
0.0012234491
 40
0.0048476549
 40
0.010860451
 40
0.0192411294
 40
0.029968028
 40
0.0430192252
 40
0.0760063672
 40
0.1179665872
 40
0.1684261024
 40
0.2268516454
 40
0.2927098997
 40
0.3654265736
 40
0.4442635624
 40
0.6171822166
 40
0.804960274
 40
1.0
 40
1.0
 40
1.0
 40
1.0
 10
228.8405171731
 20
191.2634316304
 30
0.0
 10
228.8405970792
 20
191.2654672532
 30
0.0
 10
228.8276214962
 20
191.2629565923
 30
0.0
 10
228.8142797874
 20
191.2668791356
 30
0.0
 10
228.7816122581
 20
191.265980576
 30
0.0
 10
228.7409683951
 20
191.2675805521
 30
0.0
 10
228.6869726877
 20
191.2680665489
 30
0.0
 10
228.5926716813
 20
191.26926007
 30
0.0
 10
228.4460078324
 20
191.2702408104
 30
0.0
 10
228.2372522948
 20
191.2712450003
 30
0.0
 10
227.9860563507
 20
191.2719282311
 30
0.0
 10
227.6950949732
 20
191.2723536116
 30
0.0
 10
227.3670631116
 20
191.2724850509
 30
0.0
 10
227.0050467284
 20
191.2723242858
 30
0.0
 10
226.464761208
 20
191.2717021334
 30
0.0
 10
225.7328861007
 20
191.2701801239
 30
0.0
 10
224.8075220244
 20
191.2673452231
 30
0.0
 10
224.1700890308
 20
191.2648440014
 30
0.0
 10
223.8453274135
 20
191.2634318187
 30
0.0
  0
SPLINE
  5
2EA
100
AcDbEntity
  8
0
100
AcDbSpline
 62
7
  6
CONTINUOUS
 70
0
 71
3
 72
24
 73
20
 74
0
 42
0.0000001
 43
0.0000001
 44
0.0000000001
 40
0.0
 40
0.0
 40
0.0
 40
0.0
 40
0.1950357614
 40
0.3827363548
 40
0.5556070302
 40
0.6344392554
 40
0.7071713366
 40
0.7730683151
 40
0.8315236983
 40
0.8819644468
 40
0.9238970145
 40
0.9569507014
 40
0.9700356498
 40
0.9807774354
 40
0.9891595678
 40
0.9951670439
 40
0.9972756376
 40
0.9987850384
 40
1.0
 40
1.0
 40
1.0
 40
1.0
 10
222.8832645415
 20
169.2287083061
 30
0.0
 10
223.2080173008
 20
169.2281367686
 30
0.0
 10
223.8453081182
 20
169.2265355381
 30
0.0
 10
224.7704455169
 20
169.2247601094
 30
0.0
 10
225.5020942098
 20
169.2239889648
 30
0.0
 10
226.0423093972
 20
169.2236170618
 30
0.0
 10
226.4044034967
 20
169.2235164237
 30
0.0
 10
226.732567411
 20
169.2236010741
 30
0.0
 10
227.0236165164
 20
169.2238500501
 30
0.0
 10
227.2747548586
 20
169.2242405965
 30
0.0
 10
227.4836182302
 20
169.2247448471
 30
0.0
 10
227.6302269269
 20
169.2253862718
 30
0.0
 10
227.7249934877
 20
169.2259951182
 30
0.0
 10
227.7785006633
 20
169.2266179923
 30
0.0
 10
227.8206579907
 20
169.2268733099
 30
0.0
 10
227.8474703066
 20
169.2279398123
 30
0.0
 10
227.8643759161
 20
169.2275383984
 30
0.0
 10
227.8708633918
 20
169.2292023109
 30
0.0
 10
227.8784179596
 20
169.2266937778
 30
0.0
 10
227.878505937
 20
169.2287148916
 30
0.0
  0
SPLINE
  5
2EB
100
AcDbEntity
  8
0
100
AcDbSpline
 62
7
  6
CONTINUOUS
 70
0
 71
3
 72
13
 73
9
 74
0
 42
0.0000001
 43
0.0000001
 44
0.0000000001
 40
0.0
 40
0.0
 40
0.0
 40
0.0
 40
0.1238863574
 40
0.248818853
 40
0.3740157259
 40
0.4992757234
 40
0.749579602
 40
1.0
 40
1.0
 40
1.0
 40
1.0
 10
220.3975527845
 20
193.4929082605
 30
0.0
 10
220.448102262
 20
193.4929119806
 30
0.0
 10
220.5500918874
 20
193.5304026164
 30
0.0
 10
220.6559278762
 20
193.6434833383
 30
0.0
 10
220.7330475929
 20
193.7767117797
 30
0.0
 10
220.8072028781
 20
193.9676924224
 30
0.0
 10
220.8606229658
 20
194.2189635916
 30
0.0
 10
220.8734162719
 20
194.4235066205
 30
0.0
 10
220.8731833716
 20
194.5256856472
 30
0.0
  0
SPLINE
  5
2EC
100
AcDbEntity
  8
0
100
AcDbSpline
 62
7
  6
CONTINUOUS
 70
0
 71
3
 72
11
 73
7
 74
0
 42
0.0000001
 43
0.0000001
 44
0.0000000001
 40
0.0
 40
0.0
 40
0.0
 40
0.0
 40
0.3590383488
 40
0.6880953355
 40
0.9100356452
 40
1.0
 40
1.0
 40
1.0
 40
1.0
 10
220.8731833716
 20
194.5256856472
 30
0.0
 10
220.8492323053
 20
194.5256309473
 30
0.0
 10
220.803606817
 20
194.5246596371
 30
0.0
 10
220.7418822419
 20
194.5248029915
 30
0.0
 10
220.7013188599
 20
194.5188875408
 30
0.0
 10
220.6780632413
 20
194.520809383
 30
0.0
 10
220.6734574647
 20
194.5169617697
 30
0.0
  0
SPLINE
  5
2ED
100
AcDbEntity
  8
0
100
AcDbSpline
 62
7
  6
CONTINUOUS
 70
0
 71
3
 72
11
 73
7
 74
0
 42
0.0000001
 43
0.0000001
 44
0.0000000001
 40
0.0
 40
0.0
 40
0.0
 40
0.0
 40
0.5323557279
 40
0.6627057117
 40
0.7889900554
 40
1.0
 40
1.0
 40
1.0
 40
1.0
 10
220.6734573999
 20
194.5169614917
 30
0.0
 10
220.6755720781
 20
194.3371544019
 30
0.0
 10
220.6624220264
 20
194.1130468351
 30
0.0
 10
220.5996495333
 20
193.8503761141
 30
0.0
 10
220.5504605978
 20
193.7087469219
 30
0.0
 10
220.4688206632
 20
193.5831132421
 30
0.0
 10
220.3975536281
 20
193.5841854543
 30
0.0
  0
SPLINE
  5
2EE
100
AcDbEntity
  8
0
100
AcDbSpline
 62
7
  6
CONTINUOUS
 70
0
 71
3
 72
23
 73
19
 74
0
 42
0.0000001
 43
0.0000001
 44
0.0000000001
 40
0.0
 40
0.0
 40
0.0
 40
0.0
 40
0.1949823246
 40
0.3825833131
 40
0.5554252982
 40
0.6342658332
 40
0.7070053883
 40
0.7728996421
 40
0.8313693807
 40
0.8818767897
 40
0.9238841041
 40
0.9569131776
 40
0.9699824471
 40
0.9807250931
 40
0.9891188971
 40
0.9951418999
 40
0.9987730952
 40
1.0
 40
1.0
 40
1.0
 40
1.0
 10
46.3620392793
 20
191.2634416955
 30
0.0
 10
46.0373727195
 20
191.2648535571
 30
0.0
 10
45.4003291218
 20
191.2673538619
 30
0.0
 10
44.47548164
 20
191.2701870485
 30
0.0
 10
43.7440219562
 20
191.2717092205
 30
0.0
 10
43.2038192295
 20
191.2723328644
 30
0.0
 10
42.8416983105
 20
191.2724949798
 30
0.0
 10
42.5134943035
 20
191.2723647705
 30
0.0
 10
42.2223191204
 20
191.2719403863
 30
0.0
 10
41.9708911611
 20
191.2712578838
 30
0.0
 10
41.7619068861
 20
191.2702539359
 30
0.0
 10
41.6150653903
 20
191.269273327
 30
0.0
 10
41.5206366991
 20
191.2680791016
 30
0.0
 10
41.4665656094
 20
191.2675935689
 30
0.0
 10
41.425849296
 20
191.2659908617
 30
0.0
 10
41.3931473592
 20
191.2668943489
 30
0.0
 10
41.3797442388
 20
191.2629605099
 30
0.0
 10
41.3667767537
 20
191.2654834342
 30
0.0
 10
41.3668413142
 20
191.2634415068
 30
0.0
  0
SPLINE
  5
2EF
100
AcDbEntity
  8
0
100
AcDbSpline
 62
7
  6
CONTINUOUS
 70
0
 71
3
 72
24
 73
20
 74
0
 42
0.0000001
 43
0.0000001
 44
0.0000000001
 40
0.0
 40
0.0
 40
0.0
 40
0.0
 40
0.0012149577
 40
0.002724359
 40
0.0048329534
 40
0.0108404314
 40
0.0192225655
 40
0.0299643523
 40
0.0430493014
 40
0.0761029884
 40
0.1180355552
 40
0.1684763027
 40
0.2269316854
 40
0.2928286638
 40
0.3655607456
 40
0.444392972
 40
0.6172636476
 40
0.8049642386
 40
1.0
 40
1.0
 40
1.0
 40
1.0
 10
42.3288634955
 20
169.2287071793
 30
0.0
 10
42.3289517392
 20
169.2266860838
 30
0.0
 10
42.3365059472
 20
169.2291954819
 30
0.0
 10
42.342993611
 20
169.2275315706
 30
0.0
 10
42.3598991309
 20
169.2279336131
 30
0.0
 10
42.3867115356
 20
169.2268675074
 30
0.0
 10
42.4288688362
 20
169.2266128614
 30
0.0
 10
42.4823760306
 20
169.2259905825
 30
0.0
 10
42.5771425817
 20
169.2253826636
 30
0.0
 10
42.7237512671
 20
169.224742336
 30
0.0
 10
42.9326146089
 20
169.2242393182
 30
0.0
 10
43.1837529158
 20
169.2238499255
 30
0.0
 10
43.47480198
 20
169.2236020083
 30
0.0
 10
43.8029658507
 20
169.2235183047
 30
0.0
 10
44.1650599043
 20
169.2236197617
 30
0.0
 10
44.7052750219
 20
169.2239926143
 30
0.0
 10
45.4369236141
 20
169.2247645485
 30
0.0
 10
46.3620608838
 20
169.2265405144
 30
0.0
 10
46.9993516115
 20
169.2281419355
 30
0.0
 10
47.3241043271
 20
169.2287135116
 30
0.0
  0
SPLINE
  5
2F0
100
AcDbEntity
  8
0
100
AcDbSpline
 62
7
  6
CONTINUOUS
 70
0
 71
3
 72
11
 73
7
 74
0
 42
0.0000001
 43
0.0000001
 44
0.0000000001
 40
0.0
 40
0.0
 40
0.0
 40
0.0
 40
0.2055540452
 40
0.3843194433
 40
0.5798240681
 40
1.0
 40
1.0
 40
1.0
 40
1.0
 10
41.6332140249
 20
191.7417968367
 30
0.0
 10
41.5925662243
 20
191.7418213839
 30
0.0
 10
41.5173895827
 20
191.7052632665
 30
0.0
 10
41.4466035032
 20
191.6142228368
 30
0.0
 10
41.3791114747
 20
191.471136671
 30
0.0
 10
41.3631349627
 20
191.3464192584
 30
0.0
 10
41.3668427477
 20
191.2634132691
 30
0.0
  0
SPLINE
  5
2F1
100
AcDbEntity
  8
0
100
AcDbSpline
 62
7
  6
CONTINUOUS
 70
0
 71
3
 72
24
 73
20
 74
0
 42
0.0000001
 43
0.0000001
 44
0.0000000001
 40
0.0
 40
0.0
 40
0.0
 40
0.0
 40
0.1950326545
 40
0.3827297986
 40
0.5556003118
 40
0.6344329219
 40
0.7071653818
 40
0.7730628089
 40
0.8315188435
 40
0.8819602328
 40
0.9238933388
 40
0.956947638
 40
0.9700329834
 40
0.9807751611
 40
0.9891576806
 40
0.9951655772
 40
0.9972744133
 40
0.9987840978
 40
1.0
 40
1.0
 40
1.0
 40
1.0
 10
46.3286416692
 20
192.0285568401
 30
0.0
 10
46.0038932551
 20
192.0279470686
 30
0.0
 10
45.3666118176
 20
192.0262574305
 30
0.0
 10
44.4414832211
 20
192.024388674
 30
0.0
 10
43.709837913
 20
192.0235772652
 30
0.0
 10
43.169620237
 20
192.0231947895
 30
0.0
 10
42.8075231152
 20
192.0230981448
 30
0.0
 10
42.479355832
 20
192.0231987392
 30
0.0
 10
42.1883030489
 20
192.0234747405
 30
0.0
 10
41.9371610081
 20
192.0239020772
 30
0.0
 10
41.7282942214
 20
192.0244527764
 30
0.0
 10
41.5816826622
 20
192.025142549
 30
0.0
 10
41.4869139388
 20
192.0257995917
 30
0.0
 10
41.4334047877
 20
192.0264560992
 30
0.0
 10
41.3912463549
 20
192.0267522302
 30
0.0
 10
41.3644316971
 20
192.0278433944
 30
0.0
 10
41.3475265823
 20
192.0274819823
 30
0.0
 10
41.3410351928
 20
192.0291461091
 30
0.0
 10
41.3334820044
 20
192.0266914779
 30
0.0
 10
41.3333936929
 20
192.0287141503
 30
0.0
  0
SPLINE
  5
2F2
100
AcDbEntity
  8
0
100
AcDbSpline
 62
7
  6
CONTINUOUS
 70
0
 71
3
 72
8
 73
4
 74
0
 42
0.0000001
 43
0.0000001
 44
0.0000000001
 40
0.0
 40
0.0
 40
0.0
 40
0.0
 40
1.0
 40
1.0
 40
1.0
 40
1.0
 10
55.1967703228
 20
191.8984631767
 30
0.0
 10
55.0222382753
 20
191.9831300154
 30
0.0
 10
54.8235654912
 20
192.0287135482
 30
0.0
 10
54.6295811898
 20
192.0287155094
 30
0.0
  0
SPLINE
  5
2F3
100
AcDbEntity
  8
0
100
AcDbSpline
 62
7
  6
CONTINUOUS
 70
0
 71
3
 72
14
 73
10
 74
0
 42
0.0000001
 43
0.0000001
 44
0.0000000001
 40
0.0
 40
0.0
 40
0.0
 40
0.0
 40
0.0193722945
 40
0.0749820948
 40
0.1660822171
 40
0.2916467444
 40
0.4487874996
 40
0.6272746403
 40
1.0
 40
1.0
 40
1.0
 40
1.0
 10
55.256236219
 20
191.5210981075
 30
0.0
 10
55.2576963347
 20
191.5199239904
 30
0.0
 10
55.2638709952
 20
191.5293781109
 30
0.0
 10
55.27412692
 20
191.5368002257
 30
0.0
 10
55.2920904305
 20
191.5588263344
 30
0.0
 10
55.3154914173
 20
191.5852018012
 30
0.0
 10
55.3442621027
 20
191.6197269444
 30
0.0
 10
55.3879334681
 20
191.6723332624
 30
0.0
 10
55.4216163975
 20
191.7137295827
 30
0.0
 10
55.4442327274
 20
191.7418013262
 30
0.0
  0
SPLINE
  5
2F4
100
AcDbEntity
  8
0
100
AcDbSpline
 62
7
  6
CONTINUOUS
 70
0
 71
3
 72
8
 73
4
 74
0
 42
0.0000001
 43
0.0000001
 44
0.0000000001
 40
0.0
 40
0.0
 40
0.0
 40
0.0
 40
1.0
 40
1.0
 40
1.0
 40
1.0
 10
55.6150206443
 20
191.5777012866
 30
0.0
 10
55.5633063013
 20
191.6373558256
 30
0.0
 10
55.5057625974
 20
191.6923330294
 30
0.0
 10
55.4442327274
 20
191.7418013262
 30
0.0
  0
SPLINE
  5
2F5
100
AcDbEntity
  8
0
100
AcDbSpline
 62
7
  6
CONTINUOUS
 70
0
 71
3
 72
14
 73
10
 74
0
 42
0.0000001
 43
0.0000001
 44
0.0000000001
 40
0.0
 40
0.0
 40
0.0
 40
0.0
 40
0.0202232464
 40
0.0763028908
 40
0.1677994027
 40
0.2936900286
 40
0.451026811
 40
0.629391458
 40
1.0
 40
1.0
 40
1.0
 40
1.0
 10
55.5692738105
 20
191.0838214689
 30
0.0
 10
55.5699569412
 20
191.0819445804
 30
0.0
 10
55.5805732403
 20
191.08550132
 30
0.0
 10
55.5938459994
 20
191.0869164165
 30
0.0
 10
55.6214404804
 20
191.0955331749
 30
0.0
 10
55.6561207039
 20
191.1058907976
 30
0.0
 10
55.6996885776
 20
191.1203232157
 30
0.0
 10
55.7656226749
 20
191.1427163298
 30
0.0
 10
55.8167783391
 20
191.1608437585
 30
0.0
 10
55.8511815945
 20
191.1733416948
 30
0.0
  0
SPLINE
  5
2F6
100
AcDbEntity
  8
0
100
AcDbSpline
 62
7
  6
CONTINUOUS
 70
0
 71
3
 72
13
 73
9
 74
0
 42
0.0000001
 43
0.0000001
 44
0.0000000001
 40
0.0
 40
0.0
 40
0.0
 40
0.0
 40
0.3818799264
 40
0.7060248555
 40
0.8299874913
 40
0.9220410709
 40
0.9791778434
 40
1.0
 40
1.0
 40
1.0
 40
1.0
 10
56.6461072492
 20
188.9893014082
 30
0.0
 10
56.6094278707
 20
188.9805082904
 30
0.0
 10
56.5446591531
 20
188.9543929468
 30
0.0
 10
56.4672276955
 20
188.9253874707
 30
0.0
 10
56.4167890256
 20
188.9114436907
 30
0.0
 10
56.3891616436
 20
188.903134784
 30
0.0
 10
56.3757619122
 20
188.901565931
 30
0.0
 10
56.3649028537
 20
188.8978485812
 30
0.0
 10
56.3641994653
 20
188.8997811823
 30
0.0
  0
SPLINE
  5
2F7
100
AcDbEntity
  8
0
100
AcDbSpline
 62
7
  6
CONTINUOUS
 70
0
 71
3
 72
14
 73
10
 74
0
 42
0.0000001
 43
0.0000001
 44
0.0000000001
 40
0.0
 40
0.0
 40
0.0
 40
0.0
 40
0.0209376273
 40
0.0780956449
 40
0.1701139926
 40
0.2940560727
 40
0.4450675134
 40
0.6179451612
 40
1.0
 40
1.0
 40
1.0
 40
1.0
 10
78.8431696305
 20
188.8997811823
 30
0.0
 10
78.8424623014
 20
188.8978378116
 30
0.0
 10
78.8315919744
 20
188.9013482902
 30
0.0
 10
78.818133777
 20
188.9029451105
 30
0.0
 10
78.7906055238
 20
188.9115588003
 30
0.0
 10
78.756643635
 20
188.9217822992
 30
0.0
 10
78.7143591405
 20
188.9357102307
 30
0.0
 10
78.6484330637
 20
188.9580533853
 30
0.0
 10
78.5967309684
 20
188.9764162663
 30
0.0
 10
78.5612618442
 20
188.9893014091
 30
0.0
  0
SPLINE
  5
2F8
100
AcDbEntity
  8
0
100
AcDbSpline
 62
7
  6
CONTINUOUS
 70
0
 71
3
 72
14
 73
10
 74
0
 42
0.0000001
 43
0.0000001
 44
0.0000000001
 40
0.0
 40
0.0
 40
0.0
 40
0.0
 40
0.4015272711
 40
0.5689787432
 40
0.7062579347
 40
0.820811651
 40
0.9142887809
 40
0.9765446936
 40
1.0
 40
1.0
 40
1.0
 40
1.0
 10
79.3561875001
 20
191.1733417478
 30
0.0
 10
79.3934639238
 20
191.1598004221
 30
0.0
 10
79.4464766029
 20
191.1409802499
 30
0.0
 10
79.5124622011
 20
191.1187030799
 30
0.0
 10
79.5520419086
 20
191.1056965933
 30
0.0
 10
79.584033429
 20
191.0960591871
 30
0.0
 10
79.6112372776
 20
191.0874187701
 30
0.0
 10
79.6253426728
 20
191.0857575835
 30
0.0
 10
79.6373027422
 20
191.0816445122
 30
0.0
 10
79.6380952851
 20
191.0838214689
 30
0.0
  0
SPLINE
  5
2F9
100
AcDbEntity
  8
0
100
AcDbSpline
 62
7
  6
CONTINUOUS
 70
0
 71
3
 72
14
 73
10
 74
0
 42
0.0000001
 43
0.0000001
 44
0.0000000001
 40
0.0
 40
0.0
 40
0.0
 40
0.0
 40
0.0225530641
 40
0.0845121439
 40
0.1779886477
 40
0.2928710527
 40
0.4298867983
 40
0.5971364659
 40
1.0
 40
1.0
 40
1.0
 40
1.0
 10
79.9511328738
 20
191.5210981054
 30
0.0
 10
79.9494327676
 20
191.5197313741
 30
0.0
 10
79.9425111887
 20
191.5304893871
 30
0.0
 10
79.9316032637
 20
191.5384866085
 30
0.0
 10
79.9138578201
 20
191.560379431
 30
0.0
 10
79.892250403
 20
191.5848458425
 30
0.0
 10
79.8660677066
 20
191.6161517421
 30
0.0
 10
79.822403673
 20
191.6686307661
 30
0.0
 10
79.787581185
 20
191.7114605384
 30
0.0
 10
79.7631348983
 20
191.7418032597
 30
0.0
  0
SPLINE
  5
2FA
100
AcDbEntity
  8
0
100
AcDbSpline
 62
7
  6
CONTINUOUS
 70
0
 71
3
 72
8
 73
4
 74
0
 42
0.0000001
 43
0.0000001
 44
0.0000000001
 40
0.0
 40
0.0
 40
0.0
 40
0.0
 40
1.0
 40
1.0
 40
1.0
 40
1.0
 10
80.577787906
 20
192.0287155094
 30
0.0
 10
80.383803226
 20
192.0287135139
 30
0.0
 10
80.1851301074
 20
191.9831296865
 30
0.0
 10
80.0105977229
 20
191.8984626751
 30
0.0
  0
SPLINE
  5
2FB
100
AcDbEntity
  8
0
100
AcDbSpline
 62
7
  6
CONTINUOUS
 70
0
 71
3
 72
8
 73
4
 74
0
 42
0.0000001
 43
0.0000001
 44
0.0000000001
 40
0.0
 40
0.0
 40
0.0
 40
0.0
 40
1.0
 40
1.0
 40
1.0
 40
1.0
 10
190.1967703228
 20
191.8984631767
 30
0.0
 10
190.0222382753
 20
191.9831300154
 30
0.0
 10
189.8235654912
 20
192.0287135482
 30
0.0
 10
189.6295811898
 20
192.0287155094
 30
0.0
  0
SPLINE
  5
2FC
100
AcDbEntity
  8
0
100
AcDbSpline
 62
7
  6
CONTINUOUS
 70
0
 71
3
 72
14
 73
10
 74
0
 42
0.0000001
 43
0.0000001
 44
0.0000000001
 40
0.0
 40
0.0
 40
0.0
 40
0.0
 40
0.0193722945
 40
0.0749820948
 40
0.1660822171
 40
0.2916467444
 40
0.4487874996
 40
0.6272746403
 40
1.0
 40
1.0
 40
1.0
 40
1.0
 10
190.256236219
 20
191.5210981075
 30
0.0
 10
190.2576963347
 20
191.5199239904
 30
0.0
 10
190.2638709952
 20
191.5293781109
 30
0.0
 10
190.27412692
 20
191.5368002257
 30
0.0
 10
190.2920904305
 20
191.5588263344
 30
0.0
 10
190.3154914173
 20
191.5852018012
 30
0.0
 10
190.3442621027
 20
191.6197269444
 30
0.0
 10
190.3879334681
 20
191.6723332624
 30
0.0
 10
190.4216163975
 20
191.7137295827
 30
0.0
 10
190.4442327274
 20
191.7418013262
 30
0.0
  0
SPLINE
  5
2FD
100
AcDbEntity
  8
0
100
AcDbSpline
 62
7
  6
CONTINUOUS
 70
0
 71
3
 72
8
 73
4
 74
0
 42
0.0000001
 43
0.0000001
 44
0.0000000001
 40
0.0
 40
0.0
 40
0.0
 40
0.0
 40
1.0
 40
1.0
 40
1.0
 40
1.0
 10
190.6150206443
 20
191.5777012866
 30
0.0
 10
190.5633063013
 20
191.6373558256
 30
0.0
 10
190.5057625974
 20
191.6923330294
 30
0.0
 10
190.4442327274
 20
191.7418013262
 30
0.0
  0
SPLINE
  5
2FE
100
AcDbEntity
  8
0
100
AcDbSpline
 62
7
  6
CONTINUOUS
 70
0
 71
3
 72
14
 73
10
 74
0
 42
0.0000001
 43
0.0000001
 44
0.0000000001
 40
0.0
 40
0.0
 40
0.0
 40
0.0
 40
0.0202232464
 40
0.0763028908
 40
0.1677994027
 40
0.2936900286
 40
0.451026811
 40
0.629391458
 40
1.0
 40
1.0
 40
1.0
 40
1.0
 10
190.5692738105
 20
191.0838214689
 30
0.0
 10
190.5699569412
 20
191.0819445804
 30
0.0
 10
190.5805732403
 20
191.08550132
 30
0.0
 10
190.5938459994
 20
191.0869164165
 30
0.0
 10
190.6214404804
 20
191.0955331749
 30
0.0
 10
190.6561207039
 20
191.1058907976
 30
0.0
 10
190.6996885776
 20
191.1203232157
 30
0.0
 10
190.7656226749
 20
191.1427163298
 30
0.0
 10
190.8167783391
 20
191.1608437585
 30
0.0
 10
190.8511815945
 20
191.1733416948
 30
0.0
  0
SPLINE
  5
2FF
100
AcDbEntity
  8
0
100
AcDbSpline
 62
7
  6
CONTINUOUS
 70
0
 71
3
 72
13
 73
9
 74
0
 42
0.0000001
 43
0.0000001
 44
0.0000000001
 40
0.0
 40
0.0
 40
0.0
 40
0.0
 40
0.3818799264
 40
0.7060248555
 40
0.8299874913
 40
0.9220410709
 40
0.9791778434
 40
1.0
 40
1.0
 40
1.0
 40
1.0
 10
191.6461072492
 20
188.9893014082
 30
0.0
 10
191.6094278707
 20
188.9805082906
 30
0.0
 10
191.5446591531
 20
188.9543929468
 30
0.0
 10
191.4672276955
 20
188.9253874707
 30
0.0
 10
191.4167890256
 20
188.9114436906
 30
0.0
 10
191.3891616436
 20
188.9031347841
 30
0.0
 10
191.3757619122
 20
188.901565931
 30
0.0
 10
191.3649028537
 20
188.8978485812
 30
0.0
 10
191.3641994653
 20
188.8997811823
 30
0.0
  0
SPLINE
  5
300
100
AcDbEntity
  8
0
100
AcDbSpline
 62
7
  6
CONTINUOUS
 70
0
 71
3
 72
14
 73
10
 74
0
 42
0.0000001
 43
0.0000001
 44
0.0000000001
 40
0.0
 40
0.0
 40
0.0
 40
0.0
 40
0.0209376273
 40
0.0780956449
 40
0.1701139926
 40
0.2940560727
 40
0.4450675134
 40
0.6179451612
 40
1.0
 40
1.0
 40
1.0
 40
1.0
 10
213.8431696305
 20
188.8997811823
 30
0.0
 10
213.8424623014
 20
188.8978378116
 30
0.0
 10
213.8315919744
 20
188.9013482902
 30
0.0
 10
213.818133777
 20
188.9029451105
 30
0.0
 10
213.7906055238
 20
188.9115588003
 30
0.0
 10
213.756643635
 20
188.9217822992
 30
0.0
 10
213.7143591405
 20
188.9357102307
 30
0.0
 10
213.6484330637
 20
188.9580533853
 30
0.0
 10
213.5967309684
 20
188.9764162663
 30
0.0
 10
213.5612618442
 20
188.9893014091
 30
0.0
  0
SPLINE
  5
301
100
AcDbEntity
  8
0
100
AcDbSpline
 62
7
  6
CONTINUOUS
 70
0
 71
3
 72
14
 73
10
 74
0
 42
0.0000001
 43
0.0000001
 44
0.0000000001
 40
0.0
 40
0.0
 40
0.0
 40
0.0
 40
0.4015272711
 40
0.5689787432
 40
0.7062579347
 40
0.820811651
 40
0.9142887809
 40
0.9765446936
 40
1.0
 40
1.0
 40
1.0
 40
1.0
 10
214.3561875001
 20
191.1733417478
 30
0.0
 10
214.3934639238
 20
191.1598004221
 30
0.0
 10
214.4464766029
 20
191.1409802499
 30
0.0
 10
214.5124622011
 20
191.1187030799
 30
0.0
 10
214.5520419086
 20
191.1056965933
 30
0.0
 10
214.584033429
 20
191.0960591871
 30
0.0
 10
214.6112372776
 20
191.0874187701
 30
0.0
 10
214.6253426728
 20
191.0857575835
 30
0.0
 10
214.6373027422
 20
191.0816445122
 30
0.0
 10
214.6380952851
 20
191.0838214689
 30
0.0
  0
SPLINE
  5
302
100
AcDbEntity
  8
0
100
AcDbSpline
 62
7
  6
CONTINUOUS
 70
0
 71
3
 72
14
 73
10
 74
0
 42
0.0000001
 43
0.0000001
 44
0.0000000001
 40
0.0
 40
0.0
 40
0.0
 40
0.0
 40
0.0225530641
 40
0.0845121439
 40
0.1779886477
 40
0.2928710527
 40
0.4298867983
 40
0.5971364659
 40
1.0
 40
1.0
 40
1.0
 40
1.0
 10
214.9511328738
 20
191.5210981054
 30
0.0
 10
214.9494327676
 20
191.5197313741
 30
0.0
 10
214.9425111887
 20
191.5304893871
 30
0.0
 10
214.9316032637
 20
191.5384866085
 30
0.0
 10
214.91385782
 20
191.560379431
 30
0.0
 10
214.892250403
 20
191.5848458425
 30
0.0
 10
214.8660677066
 20
191.6161517421
 30
0.0
 10
214.822403673
 20
191.6686307661
 30
0.0
 10
214.787581185
 20
191.7114605385
 30
0.0
 10
214.7631348983
 20
191.7418032597
 30
0.0
  0
SPLINE
  5
303
100
AcDbEntity
  8
0
100
AcDbSpline
 62
7
  6
CONTINUOUS
 70
0
 71
3
 72
8
 73
4
 74
0
 42
0.0000001
 43
0.0000001
 44
0.0000000001
 40
0.0
 40
0.0
 40
0.0
 40
0.0
 40
1.0
 40
1.0
 40
1.0
 40
1.0
 10
215.577787906
 20
192.0287155094
 30
0.0
 10
215.383803226
 20
192.028713514
 30
0.0
 10
215.1851301074
 20
191.9831296865
 30
0.0
 10
215.0105977229
 20
191.8984626751
 30
0.0
  0
SPLINE
  5
304
100
AcDbEntity
  8
0
100
AcDbSpline
 62
7
  6
CONTINUOUS
 70
0
 71
3
 72
24
 73
20
 74
0
 42
0.0000001
 43
0.0000001
 44
0.0000000001
 40
0.0
 40
0.0
 40
0.0
 40
0.0
 40
0.0012156245
 40
0.0027251904
 40
0.0048339052
 40
0.0108415527
 40
0.0192238299
 40
0.029965797
 40
0.0430509369
 40
0.0761045197
 40
0.1180369242
 40
0.1684778609
 40
0.2269332446
 40
0.292830355
 40
0.3655626852
 40
0.4443950763
 40
0.6172661049
 40
0.8049656278
 40
1.0
 40
1.0
 40
1.0
 40
1.0
 10
228.8739685163
 20
192.0285564203
 30
0.0
 10
228.8738802226
 20
192.0265342161
 30
0.0
 10
228.8663270824
 20
192.0290016971
 30
0.0
 10
228.859836848
 20
192.0273372147
 30
0.0
 10
228.8429321445
 20
192.0277075686
 30
0.0
 10
228.8161187006
 20
192.0266213566
 30
0.0
 10
228.7739613392
 20
192.0263342947
 30
0.0
 10
228.72045341
 20
192.0256858834
 30
0.0
 10
228.6256867415
 20
192.0250423162
 30
0.0
 10
228.4790782765
 20
192.0243692983
 30
0.0
 10
228.2702151818
 20
192.0238388721
 30
0.0
 10
228.0190768817
 20
192.023432273
 30
0.0
 10
227.7280273307
 20
192.0231778421
 30
0.0
 10
227.3998628701
 20
192.0230992726
 30
0.0
 10
227.037767967
 20
192.0232179568
 30
0.0
 10
226.4975516827
 20
192.0236301001
 30
0.0
 10
225.7659041922
 20
192.0244764954
 30
0.0
 10
224.8407708144
 20
192.0263820899
 30
0.0
 10
224.2034845536
 20
192.0280916064
 30
0.0
 10
223.8787342938
 20
192.0287141607
 30
0.0
  0
ELLIPSE
  5
305
100
AcDbEntity
  8
0
100
AcDbEllipse
 62
7
  6
CONTINUOUS
 10
218.8883739179
 20
197.5575236594
 30
0.0
 11
0.3
 21
-0.0
 31
0.0
 40
0.0524077793
 41
-3.089232776
 42
-1.5707963268
  0
ELLIPSE
  5
306
100
AcDbEntity
  8
0
100
AcDbEllipse
 62
7
  6
CONTINUOUS
 10
220.3189951779
 20
197.5575236594
 30
0.0
 11
0.3
 21
-0.0
 31
0.0
 40
0.0524077793
 41
-1.5707963268
 42
-0.0523598776
  0
ELLIPSE
  5
307
100
AcDbEntity
  8
0
100
AcDbEllipse
 62
7
  6
CONTINUOUS
 10
51.3189951779
 20
197.5575236594
 30
0.0
 11
0.3
 21
-0.0
 31
0.0
 40
0.0524077793
 41
-1.5707963268
 42
-0.0523598776
  0
ELLIPSE
  5
308
100
AcDbEntity
  8
0
100
AcDbEllipse
 62
7
  6
CONTINUOUS
 10
49.8883739179
 20
197.5575236594
 30
0.0
 11
0.3
 21
0.0
 31
0.0
 40
0.0524077793
 41
-3.089232776
 42
-1.5707963268
  0
ENDSEC
  0
SECTION
  2
OBJECTS
  0
DICTIONARY
  5
C
100
AcDbDictionary
280
0
281
1
  3
ACAD_GROUP
350
D
  3
ACAD_MLINESTYLE
350
17
  3
ACAD_LAYOUT
350
1A
  3
ACAD_PLOTSETTINGS
350
19
  3
ACAD_PLOTSTYLENAME
350
E
  0
DICTIONARY
  5
D
102
{ACAD_REACTORS
330
C
102
}
100
AcDbDictionary
280
0
281
1
  0
ACDBDICTIONARYWDFLT
  5
E
102
{ACAD_REACTORS
330
C
102
}
100
AcDbDictionary
281
1
  3
Normal
350
F
100
AcDbDictionaryWithDefault
340
F
  0
DICTIONARY
  5
17
102
{ACAD_REACTORS
330
C
102
}
100
AcDbDictionary
280
0
281
1
  3
Standard
350
18
  0
DICTIONARY
  5
19
102
{ACAD_REACTORS
330
C
102
}
100
AcDbDictionary
281
1
  0
DICTIONARY
  5
1A
102
{ACAD_REACTORS
330
C
102
}
100
AcDbDictionary
281
1
  3
Model
350
309
  3
Layout1
350
30A
  0
ACDBPLACEHOLDER
  5
F
102
{ACAD_REACTORS
330
E
102
}
  0
MLINESTYLE
  5
18
102
{ACAD_REACTORS
330
17
102
}
100
AcDbMlineStyle
  2
STANDARD
 70
0
  3

 62
256
 51
90.0
 52
90.0
 71
2
 49
0.5
 62
256
  6
BYLAYER
 49
-0.5
 62
256
  6
BYLAYER
  0
LAYOUT
  5
309
102
{ACAD_REACTORS
330
1A
102
}
100
AcDbPlotSettings
  1

  2
none_device
  4

  6

 40
0.0
 41
0.0
 42
0.0
 43
0.0
 44
210.0
 45
297.0
 46
0.0
 47
0.0
 48
0.0
 49
0.0
140
0.0
141
0.0
142
1.0
143
1.0
 70
1024
 72
1
 73
0
 74
0
  7

 75
0
147
1.0
148
0.0
149
0.0
100
AcDbLayout
  1
Model
 70
0
 71
0
 10
0.0
 20
0.0
 11
210.0
 21
297.0
 12
0.0
 22
0.0
 32
0.0
 14
0.0
 24
0.0
 34
0.0
 15
0.0
 25
0.0
 35
0.0
146
0.0
 13
0.0
 23
0.0
 33
0.0
 16
1.0
 26
0.0
 36
0.0
 17
0.0
 27
1.0
 37
0.0
 76
0
330
210
345
0
346
0
  0
LAYOUT
  5
30A
102
{ACAD_REACTORS
330
1A
102
}
100
AcDbPlotSettings
  1

  2
none_device
  4

  6

 40
0.0
 41
0.0
 42
0.0
 43
0.0
 44
210.0
 45
297.0
 46
0.0
 47
0.0
 48
0.0
 49
0.0
140
0.0
141
0.0
142
1.0
143
1.0
 70
0
 72
1
 73
0
 74
0
  7

 75
0
147
1.0
148
0.0
149
0.0
100
AcDbLayout
  1
Layout1
 70
0
 71
1
 10
0.0
 20
0.0
 11
210.0
 21
297.0
 12
0.0
 22
0.0
 32
0.0
 14
0.0
 24
0.0
 34
0.0
 15
0.0
 25
0.0
 35
0.0
146
0.0
 13
0.0
 23
0.0
 33
0.0
 16
1.0
 26
0.0
 36
0.0
 17
0.0
 27
1.0
 37
0.0
 76
0
330
211
345
0
346
0
  0
ENDSEC
  0
EOF
