  0
SECTION
  2
HEADER
  9
$ACADVER
  1
AC1009
  9
$DWGCODEPAGE
  3
ansi_1250
  9
$INSBASE
 10
0.0
 20
0.0
 30
0.0
  9
$EXTMIN
 10
-1.2992
 20
-1.626073
 30
0.0
  9
$EXTMAX
 10
1.952947
 20
1.626073
 30
0.0
  9
$LIMMIN
 10
0.0
 20
0.0
  9
$LIMMAX
 10
0.0
 20
0.0
  9
$ORTHOMODE
 70
     0
  9
$REGENMODE
 70
     1
  9
$FILLMODE
 70
     1
  9
$QTEXTMODE
 70
     0
  9
$MIRRTEXT
 70
     1
  9
$DRAGMODE
 70
     2
  9
$LTSCALE
 40
1.0
  9
$OSMODE
 70
     0
  9
$ATTMODE
 70
     1
  9
$TEXTSIZE
 40
0.2
  9
$TRACEWID
 40
0.05
  9
$TEXTSTYLE
  7
STANDARD
  9
$CLAYER
  8
0
  9
$CELTYPE
  6
CONTINUOUS
  9
$CECOLOR
 62
   256
  9
$DIMSCALE
 40
1.0
  9
$DIMASZ
 40
0.18
  9
$DIMEXO
 40
0.0625
  9
$DIMDLI
 40
0.38
  9
$DIMRND
 40
0.0
  9
$DIMDLE
 40
0.0
  9
$DIMEXE
 40
0.18
  9
$DIMTP
 40
0.0
  9
$DIMTM
 40
0.0
  9
$DIMTXT
 40
0.18
  9
$DIMCEN
 40
0.09
  9
$DIMTSZ
 40
0.0
  9
$DIMTOL
 70
     0
  9
$DIMLIM
 70
     0
  9
$DIMTIH
 70
     1
  9
$DIMTOH
 70
     1
  9
$DIMSE1
 70
     0
  9
$DIMSE2
 70
     0
  9
$DIMTAD
 70
     0
  9
$DIMZIN
 70
     0
  9
$DIMBLK
  1

  9
$DIMASO
 70
     1
  9
$DIMSHO
 70
     1
  9
$DIMPOST
  1

  9
$DIMAPOST
  1

  9
$DIMALT
 70
     0
  9
$DIMALTD
 70
     2
  9
$DIMALTF
 40
25.4
  9
$DIMLFAC
 40
1.0
  9
$DIMTOFL
 70
     0
  9
$DIMTVP
 40
0.0
  9
$DIMTIX
 70
     0
  9
$DIMSOXD
 70
     0
  9
$DIMSAH
 70
     0
  9
$DIMBLK1
  1

  9
$DIMBLK2
  1

  9
$DIMSTYLE
  2
STANDARD
  9
$DIMCLRD
 70
     0
  9
$DIMCLRE
 70
     0
  9
$DIMCLRT
 70
     0
  9
$DIMTFAC
 40
1.0
  9
$DIMGAP
 40
0.09
  9
$LUNITS
 70
     2
  9
$LUPREC
 70
     4
  9
$AXISMODE
 70
     0
  9
$AXISUNIT
 10
0.0
 20
0.0
  9
$SKETCHINC
 40
0.1
  9
$FILLETRAD
 40
0.0
  9
$AUNITS
 70
     0
  9
$AUPREC
 70
     0
  9
$MENU
  1
acad
  9
$ELEVATION
 40
0.0
  9
$PELEVATION
 40
0.0
  9
$THICKNESS
 40
0.0
  9
$LIMCHECK
 70
     0
  9
$BLIPMODE
 70
     1
  9
$CHAMFERA
 40
0.0
  9
$CHAMFERB
 40
0.0
  9
$SKPOLY
 70
     0
  9
$TDCREATE
 40
0.000000000
  9
$TDUPDATE
 40
0.000000000
  9
$TDINDWG
 40
0.0000000000
  9
$TDUSRTIMER
 40
0.0000000000
  9
$USRTIMER
 70
     1
  9
$ANGBASE
 50
0.0
  9
$ANGDIR
 70
     0
  9
$PDMODE
 70
     0
  9
$PDSIZE
 40
0.0
  9
$PLINEWID
 40
0.0
  9
$COORDS
 70
     0
  9
$SPLFRAME
 70
     0
  9
$SPLINETYPE
 70
     6
  9
$SPLINESEGS
 70
     8
  9
$ATTDIA
 70
     0
  9
$ATTREQ
 70
     1
  9
$HANDLING
 70
     1
  9
$HANDSEED
  5
27F
  9
$SURFTAB1
 70
     6
  9
$SURFTAB2
 70
     6
  9
$SURFTYPE
 70
     6
  9
$SURFU
 70
     6
  9
$SURFV
 70
     6
  9
$UCSNAME
  2

  9
$UCSORG
 10
0.0
 20
0.0
 30
0.0
  9
$UCSXDIR
 10
1.0
 20
0.0
 30
0.0
  9
$UCSYDIR
 10
0.0
 20
1.0
 30
0.0
  9
$PUCSNAME
  2

  9
$PUCSORG
 10
0.0
 20
0.0
 30
0.0
  9
$PUCSXDIR
 10
1.0
 20
0.0
 30
0.0
  9
$PUCSYDIR
 10
0.0
 20
1.0
 30
0.0
  9
$USERI1
 70
     0
  9
$USERI2
 70
     0
  9
$USERI3
 70
     0
  9
$USERI4
 70
     0
  9
$USERI5
 70
     0
  9
$USERR1
 40
0.0
  9
$USERR2
 40
0.0
  9
$USERR3
 40
0.0
  9
$USERR4
 40
0.0
  9
$USERR5
 40
0.0
  9
$WORLDVIEW
 70
     1
  9
$SHADEDGE
 70
     3
  9
$SHADEDIF
 70
    70
  9
$TILEMODE
 70
     1
  9
$MAXACTVP
 70
    16
  9
$PINSBASE
 10
0.0
 20
0.0
 30
0.0
  9
$PLIMCHECK
 70
     0
  9
$PEXTMIN
 10
1.000000E+20
 20
1.000000E+20
 30
1.000000E+20
  9
$PEXTMAX
 10
-1.000000E+20
 20
-1.000000E+20
 30
-1.000000E+20
  9
$PLIMMIN
 10
0.0
 20
0.0
  9
$PLIMMAX
 10
12.0
 20
9.0
  9
$UNITMODE
 70
     0
  9
$VISRETAIN
 70
     0
  9
$PLINEGEN
 70
     1
  9
$PSLTSCALE
 70
     0
  9
$TREEDEPTH
 70
  3020
  0
ENDSEC
  0
SECTION
  2
TABLES
  0
TABLE
  2
VPORT
 70
     1
  0
VPORT
  2
*ACTIVE
 70
     0
 10
0.0
 20
0.0
 11
1.0
 21
1.0
 12
6.591288
 22
4.579184
 13
0.0
 23
0.0
 14
1.0
 24
1.0
 15
0.0
 25
0.0
 16
0.0
 26
0.0
 36
1.0
 17
0.0
 27
0.0
 37
0.0
 40
9.158369
 41
0.688564
 42
50.0
 43
0.0
 44
0.0
 50
0.0
 51
0.0
 71
     0
 72
   100
 73
     1
 74
     1
 75
     0
 76
     0
 77
     0
 78
     0
  0
ENDTAB
  0
TABLE
  2
LTYPE
 70
     5
  0
LTYPE
  2
CONTINUOUS
 70
    64
  3
Solid line
 72
    65
 73
     0
 40
0.0
  0
LTYPE
  2
CENTER
 70
    64
  3
Center ____ _ ____ _ ____ _ ____ _ ____ _ ____
 72
    65
 73
     4
 40
50.8
 49
31.75
 49
-6.35
 49
6.35
 49
-6.35
  0
LTYPE
  2
HIDDEN
 70
    64
  3
Hidden __ __ __ __ __ __ __ __ __ __ __ __ __ __
 72
    65
 73
     2
 40
9.525
 49
6.35
 49
-3.175
  0
LTYPE
  2
CENTER2
 70
    64
  3
Center (.5x) ___ _ ___ _ ___ _ ___ _ ___ _ ___
 72
    65
 73
     4
 40
28.575
 49
19.05
 49
-3.175
 49
3.175
 49
-3.175
  0
LTYPE
  2
HIDDEN2
 70
    64
  3
Hidden (.5x) _ _ _ _ _ _ _ _ _ _ _ _ _ _ _ _ _
 72
    65
 73
     2
 40
4.7625
 49
3.175
 49
-1.5875
  0
ENDTAB
  0
TABLE
  2
LAYER
 70
     1
  0
LAYER
  2
0
 70
     0
 62
     7
  6
CONTINUOUS
  0
ENDTAB
  0
TABLE
  2
STYLE
 70
     1
  0
STYLE
  2
STANDARD
 70
     0
 40
0.0
 41
1.0
 50
0.0
 71
     0
 42
0.0
  3
txt
  4

  0
ENDTAB
  0
TABLE
  2
VIEW
 70
     0
  0
ENDTAB
  0
TABLE
  2
UCS
 70
     0
  0
ENDTAB
  0
TABLE
  2
APPID
 70
     1
  0
APPID
  2
ACAD
 70
     0
  0
ENDTAB
  0
TABLE
  2
DIMSTYLE
 70
     1
  0
DIMSTYLE
  2
STANDARD
 70
     0
  3

  4

  5

  6

  7

 40
1.0
 41
0.18
 42
0.0625
 43
0.38
 44
0.18
 45
0.0
 46
0.0
 47
0.0
 48
0.0
 71
     0
 72
     0
 73
     1
 74
     1
 75
     0
 76
     0
 77
     0
 78
     0
140
0.18
141
0.09
142
0.0
143
25.4
144
1.0
145
0.0
146
1.0
147
0.09
170
     0
171
     2
172
     0
173
     0
174
     0
175
     0
176
     0
177
     0
178
     0
  0
ENDTAB
  0
ENDSEC
  0
SECTION
  2
BLOCKS
  0
ENDSEC
  0
SECTION
  2
ENTITIES
  0
LINE
  8
0
  6
CONTINUOUS
 62
     7
  5
160
 10
0.0
 20
0.561024
 30
0.0
 11
0.0
 21
-0.561024
 31
0.0
  0
LINE
  8
0
  6
CONTINUOUS
 62
     7
  5
161
 10
-1.233843
 20
0.062071
 30
0.0
 11
-1.234355
 21
0.06355
 31
0.0
  0
LINE
  8
0
  6
CONTINUOUS
 62
     7
  5
162
 10
-1.234355
 20
0.06355
 30
0.0
 11
-1.234864
 21
0.065029
 31
0.0
  0
LINE
  8
0
  6
CONTINUOUS
 62
     7
  5
163
 10
-1.234864
 20
0.065029
 30
0.0
 11
-1.235369
 21
0.06651
 31
0.0
  0
LINE
  8
0
  6
CONTINUOUS
 62
     7
  5
164
 10
-1.235369
 20
0.06651
 30
0.0
 11
-1.23587
 21
0.06799
 31
0.0
  0
LINE
  8
0
  6
CONTINUOUS
 62
     7
  5
165
 10
-1.23587
 20
0.06799
 30
0.0
 11
-1.236367
 21
0.069471
 31
0.0
  0
LINE
  8
0
  6
CONTINUOUS
 62
     7
  5
166
 10
-1.236367
 20
0.069471
 30
0.0
 11
-1.23686
 21
0.070953
 31
0.0
  0
LINE
  8
0
  6
CONTINUOUS
 62
     7
  5
167
 10
-1.23686
 20
0.070953
 30
0.0
 11
-1.237349
 21
0.072435
 31
0.0
  0
LINE
  8
0
  6
CONTINUOUS
 62
     7
  5
168
 10
-1.237349
 20
0.072435
 30
0.0
 11
-1.237834
 21
0.073917
 31
0.0
  0
LINE
  8
0
  6
CONTINUOUS
 62
     7
  5
169
 10
-1.237834
 20
0.073917
 30
0.0
 11
-1.238315
 21
0.0754
 31
0.0
  0
LINE
  8
0
  6
CONTINUOUS
 62
     7
  5
16A
 10
-1.238315
 20
0.0754
 30
0.0
 11
-1.238792
 21
0.076884
 31
0.0
  0
LINE
  8
0
  6
CONTINUOUS
 62
     7
  5
16B
 10
-1.238792
 20
0.076884
 30
0.0
 11
-1.239266
 21
0.078368
 31
0.0
  0
LINE
  8
0
  6
CONTINUOUS
 62
     7
  5
16C
 10
-1.239266
 20
0.078368
 30
0.0
 11
-1.239735
 21
0.079852
 31
0.0
  0
LINE
  8
0
  6
CONTINUOUS
 62
     7
  5
16D
 10
-1.239735
 20
0.079852
 30
0.0
 11
-1.240201
 21
0.081337
 31
0.0
  0
LINE
  8
0
  6
CONTINUOUS
 62
     7
  5
16E
 10
-1.240201
 20
0.081337
 30
0.0
 11
-1.240663
 21
0.082822
 31
0.0
  0
LINE
  8
0
  6
CONTINUOUS
 62
     7
  5
16F
 10
-1.240663
 20
0.082822
 30
0.0
 11
-1.24112
 21
0.084307
 31
0.0
  0
LINE
  8
0
  6
CONTINUOUS
 62
     7
  5
170
 10
-1.24112
 20
0.084307
 30
0.0
 11
-1.241574
 21
0.085794
 31
0.0
  0
LINE
  8
0
  6
CONTINUOUS
 62
     7
  5
171
 10
-1.241574
 20
0.085794
 30
0.0
 11
-1.242024
 21
0.08728
 31
0.0
  0
LINE
  8
0
  6
CONTINUOUS
 62
     7
  5
172
 10
-1.242024
 20
0.08728
 30
0.0
 11
-1.24247
 21
0.088767
 31
0.0
  0
LINE
  8
0
  6
CONTINUOUS
 62
     7
  5
173
 10
-1.24247
 20
0.088767
 30
0.0
 11
-1.242912
 21
0.090254
 31
0.0
  0
LINE
  8
0
  6
CONTINUOUS
 62
     7
  5
174
 10
-1.242912
 20
0.090254
 30
0.0
 11
-1.24335
 21
0.091742
 31
0.0
  0
LINE
  8
0
  6
CONTINUOUS
 62
     7
  5
175
 10
-1.24335
 20
0.091742
 30
0.0
 11
-1.243784
 21
0.09323
 31
0.0
  0
LINE
  8
0
  6
CONTINUOUS
 62
     7
  5
176
 10
-1.243784
 20
0.09323
 30
0.0
 11
-1.244214
 21
0.094719
 31
0.0
  0
LINE
  8
0
  6
CONTINUOUS
 62
     7
  5
177
 10
-1.244214
 20
0.094719
 30
0.0
 11
-1.24464
 21
0.096208
 31
0.0
  0
LINE
  8
0
  6
CONTINUOUS
 62
     7
  5
178
 10
-1.24464
 20
0.096208
 30
0.0
 11
-1.245063
 21
0.097697
 31
0.0
  0
LINE
  8
0
  6
CONTINUOUS
 62
     7
  5
179
 10
-1.245063
 20
0.097697
 30
0.0
 11
-1.245481
 21
0.099187
 31
0.0
  0
LINE
  8
0
  6
CONTINUOUS
 62
     7
  5
17A
 10
-1.245481
 20
0.099187
 30
0.0
 11
-1.245895
 21
0.100677
 31
0.0
  0
LINE
  8
0
  6
CONTINUOUS
 62
     7
  5
17B
 10
-1.245895
 20
0.100677
 30
0.0
 11
-1.246306
 21
0.102167
 31
0.0
  0
LINE
  8
0
  6
CONTINUOUS
 62
     7
  5
17C
 10
-1.246306
 20
0.102167
 30
0.0
 11
-1.246712
 21
0.103658
 31
0.0
  0
LINE
  8
0
  6
CONTINUOUS
 62
     7
  5
17D
 10
-1.246712
 20
0.103658
 30
0.0
 11
-1.247115
 21
0.10515
 31
0.0
  0
LINE
  8
0
  6
CONTINUOUS
 62
     7
  5
17E
 10
-1.247115
 20
0.10515
 30
0.0
 11
-1.247514
 21
0.106641
 31
0.0
  0
LINE
  8
0
  6
CONTINUOUS
 62
     7
  5
17F
 10
-1.247514
 20
0.106641
 30
0.0
 11
-1.247908
 21
0.108134
 31
0.0
  0
LINE
  8
0
  6
CONTINUOUS
 62
     7
  5
180
 10
-1.247908
 20
0.108134
 30
0.0
 11
-1.248299
 21
0.109626
 31
0.0
  0
LINE
  8
0
  6
CONTINUOUS
 62
     7
  5
181
 10
-1.248299
 20
0.109626
 30
0.0
 11
-1.248686
 21
0.111119
 31
0.0
  0
LINE
  8
0
  6
CONTINUOUS
 62
     7
  5
182
 10
-1.248686
 20
0.111119
 30
0.0
 11
-1.249069
 21
0.112612
 31
0.0
  0
LINE
  8
0
  6
CONTINUOUS
 62
     7
  5
183
 10
-1.249069
 20
0.112612
 30
0.0
 11
-1.249448
 21
0.114106
 31
0.0
  0
LINE
  8
0
  6
CONTINUOUS
 62
     7
  5
184
 10
-1.249448
 20
0.114106
 30
0.0
 11
-1.223447
 21
0.114106
 31
0.0
  0
LINE
  8
0
  6
CONTINUOUS
 62
     7
  5
185
 10
-1.249448
 20
0.114106
 30
0.0
 11
-1.249438
 21
0.128305
 31
0.0
  0
LINE
  8
0
  6
CONTINUOUS
 62
     7
  5
186
 10
-1.249438
 20
0.128305
 30
0.0
 11
-1.249429
 21
0.142314
 31
0.0
  0
LINE
  8
0
  6
CONTINUOUS
 62
     7
  5
187
 10
-1.249429
 20
0.142314
 30
0.0
 11
-1.24942
 21
0.156103
 31
0.0
  0
LINE
  8
0
  6
CONTINUOUS
 62
     7
  5
188
 10
-1.24942
 20
0.156103
 30
0.0
 11
-1.249412
 21
0.16964
 31
0.0
  0
LINE
  8
0
  6
CONTINUOUS
 62
     7
  5
189
 10
-1.249412
 20
0.16964
 30
0.0
 11
-1.249404
 21
0.182892
 31
0.0
  0
LINE
  8
0
  6
CONTINUOUS
 62
     7
  5
18A
 10
-1.249404
 20
0.182892
 30
0.0
 11
-1.249397
 21
0.19583
 31
0.0
  0
LINE
  8
0
  6
CONTINUOUS
 62
     7
  5
18B
 10
-1.249397
 20
0.19583
 30
0.0
 11
-1.24939
 21
0.208425
 31
0.0
  0
LINE
  8
0
  6
CONTINUOUS
 62
     7
  5
18C
 10
-1.24939
 20
0.208425
 30
0.0
 11
-1.249384
 21
0.220649
 31
0.0
  0
LINE
  8
0
  6
CONTINUOUS
 62
     7
  5
18D
 10
-1.249384
 20
0.220649
 30
0.0
 11
-1.249379
 21
0.232477
 31
0.0
  0
LINE
  8
0
  6
CONTINUOUS
 62
     7
  5
18E
 10
-1.249379
 20
0.232477
 30
0.0
 11
-1.249374
 21
0.243887
 31
0.0
  0
LINE
  8
0
  6
CONTINUOUS
 62
     7
  5
18F
 10
-1.249374
 20
0.243887
 30
0.0
 11
-1.24937
 21
0.254887
 31
0.0
  0
LINE
  8
0
  6
CONTINUOUS
 62
     7
  5
190
 10
-1.24937
 20
0.254887
 30
0.0
 11
-1.249366
 21
0.265653
 31
0.0
  0
LINE
  8
0
  6
CONTINUOUS
 62
     7
  5
191
 10
-1.249366
 20
0.265653
 30
0.0
 11
-1.249363
 21
0.276192
 31
0.0
  0
LINE
  8
0
  6
CONTINUOUS
 62
     7
  5
192
 10
-1.249363
 20
0.276192
 30
0.0
 11
-1.24936
 21
0.286466
 31
0.0
  0
LINE
  8
0
  6
CONTINUOUS
 62
     7
  5
193
 10
-1.24936
 20
0.286466
 30
0.0
 11
-1.249358
 21
0.296439
 31
0.0
  0
LINE
  8
0
  6
CONTINUOUS
 62
     7
  5
194
 10
-1.249358
 20
0.296439
 30
0.0
 11
-1.249356
 21
0.306078
 31
0.0
  0
LINE
  8
0
  6
CONTINUOUS
 62
     7
  5
195
 10
-1.249356
 20
0.306078
 30
0.0
 11
-1.249355
 21
0.315349
 31
0.0
  0
LINE
  8
0
  6
CONTINUOUS
 62
     7
  5
196
 10
-1.249355
 20
0.315349
 30
0.0
 11
-1.249354
 21
0.324223
 31
0.0
  0
LINE
  8
0
  6
CONTINUOUS
 62
     7
  5
197
 10
-1.249354
 20
0.324223
 30
0.0
 11
-1.249354
 21
0.332674
 31
0.0
  0
LINE
  8
0
  6
CONTINUOUS
 62
     7
  5
198
 10
-1.249354
 20
0.332674
 30
0.0
 11
-1.249355
 21
0.340678
 31
0.0
  0
LINE
  8
0
  6
CONTINUOUS
 62
     7
  5
199
 10
-1.249355
 20
0.340678
 30
0.0
 11
-1.249356
 21
0.348214
 31
0.0
  0
LINE
  8
0
  6
CONTINUOUS
 62
     7
  5
19A
 10
-1.249356
 20
0.348214
 30
0.0
 11
-1.249358
 21
0.355265
 31
0.0
  0
LINE
  8
0
  6
CONTINUOUS
 62
     7
  5
19B
 10
-1.249358
 20
0.355265
 30
0.0
 11
-1.24936
 21
0.361818
 31
0.0
  0
LINE
  8
0
  6
CONTINUOUS
 62
     7
  5
19C
 10
-1.24936
 20
0.361818
 30
0.0
 11
-1.249363
 21
0.367857
 31
0.0
  0
LINE
  8
0
  6
CONTINUOUS
 62
     7
  5
19D
 10
-1.249363
 20
0.367857
 30
0.0
 11
-1.249367
 21
0.373373
 31
0.0
  0
LINE
  8
0
  6
CONTINUOUS
 62
     7
  5
19E
 10
-1.249367
 20
0.373373
 30
0.0
 11
-1.249371
 21
0.378356
 31
0.0
  0
LINE
  8
0
  6
CONTINUOUS
 62
     7
  5
19F
 10
-1.249371
 20
0.378356
 30
0.0
 11
-1.249376
 21
0.382799
 31
0.0
  0
LINE
  8
0
  6
CONTINUOUS
 62
     7
  5
1A0
 10
-1.249376
 20
0.382799
 30
0.0
 11
-1.249381
 21
0.3867
 31
0.0
  0
LINE
  8
0
  6
CONTINUOUS
 62
     7
  5
1A1
 10
-1.249381
 20
0.3867
 30
0.0
 11
-1.249386
 21
0.390058
 31
0.0
  0
LINE
  8
0
  6
CONTINUOUS
 62
     7
  5
1A2
 10
-1.249386
 20
0.390058
 30
0.0
 11
-1.249393
 21
0.392876
 31
0.0
  0
LINE
  8
0
  6
CONTINUOUS
 62
     7
  5
1A3
 10
-1.249393
 20
0.392876
 30
0.0
 11
-1.249399
 21
0.395161
 31
0.0
  0
LINE
  8
0
  6
CONTINUOUS
 62
     7
  5
1A4
 10
-1.249399
 20
0.395161
 30
0.0
 11
-1.249406
 21
0.396923
 31
0.0
  0
LINE
  8
0
  6
CONTINUOUS
 62
     7
  5
1A5
 10
-1.249406
 20
0.396923
 30
0.0
 11
-1.249414
 21
0.398191
 31
0.0
  0
LINE
  8
0
  6
CONTINUOUS
 62
     7
  5
1A6
 10
-1.249414
 20
0.398191
 30
0.0
 11
-1.249422
 21
0.398964
 31
0.0
  0
LINE
  8
0
  6
CONTINUOUS
 62
     7
  5
1A7
 10
-1.249422
 20
0.398964
 30
0.0
 11
-1.24943
 21
0.399225
 31
0.0
  0
LINE
  8
0
  6
CONTINUOUS
 62
     7
  5
1A8
 10
-1.2182
 20
0.136869
 30
0.0
 11
-1.218708
 21
0.134743
 31
0.0
  0
LINE
  8
0
  6
CONTINUOUS
 62
     7
  5
1A9
 10
-1.218708
 20
0.134743
 30
0.0
 11
-1.219213
 21
0.132616
 31
0.0
  0
LINE
  8
0
  6
CONTINUOUS
 62
     7
  5
1AA
 10
-1.219213
 20
0.132616
 30
0.0
 11
-1.219714
 21
0.130488
 31
0.0
  0
LINE
  8
0
  6
CONTINUOUS
 62
     7
  5
1AB
 10
-1.219714
 20
0.130488
 30
0.0
 11
-1.220212
 21
0.12836
 31
0.0
  0
LINE
  8
0
  6
CONTINUOUS
 62
     7
  5
1AC
 10
-1.220212
 20
0.12836
 30
0.0
 11
-1.220706
 21
0.126231
 31
0.0
  0
LINE
  8
0
  6
CONTINUOUS
 62
     7
  5
1AD
 10
-1.220706
 20
0.126231
 30
0.0
 11
-1.221196
 21
0.124101
 31
0.0
  0
LINE
  8
0
  6
CONTINUOUS
 62
     7
  5
1AE
 10
-1.221196
 20
0.124101
 30
0.0
 11
-1.221683
 21
0.121971
 31
0.0
  0
LINE
  8
0
  6
CONTINUOUS
 62
     7
  5
1AF
 10
-1.221683
 20
0.121971
 30
0.0
 11
-1.222166
 21
0.11984
 31
0.0
  0
LINE
  8
0
  6
CONTINUOUS
 62
     7
  5
1B0
 10
-1.222166
 20
0.11984
 30
0.0
 11
-1.222645
 21
0.117709
 31
0.0
  0
LINE
  8
0
  6
CONTINUOUS
 62
     7
  5
1B1
 10
-1.222645
 20
0.117709
 30
0.0
 11
-1.223121
 21
0.115576
 31
0.0
  0
LINE
  8
0
  6
CONTINUOUS
 62
     7
  5
1B2
 10
-1.223121
 20
0.115576
 30
0.0
 11
-1.223593
 21
0.113443
 31
0.0
  0
LINE
  8
0
  6
CONTINUOUS
 62
     7
  5
1B3
 10
-1.223593
 20
0.113443
 30
0.0
 11
-1.224062
 21
0.11131
 31
0.0
  0
LINE
  8
0
  6
CONTINUOUS
 62
     7
  5
1B4
 10
-1.224062
 20
0.11131
 30
0.0
 11
-1.224527
 21
0.109176
 31
0.0
  0
LINE
  8
0
  6
CONTINUOUS
 62
     7
  5
1B5
 10
-1.224527
 20
0.109176
 30
0.0
 11
-1.224988
 21
0.107041
 31
0.0
  0
LINE
  8
0
  6
CONTINUOUS
 62
     7
  5
1B6
 10
-1.224988
 20
0.107041
 30
0.0
 11
-1.225446
 21
0.104905
 31
0.0
  0
LINE
  8
0
  6
CONTINUOUS
 62
     7
  5
1B7
 10
-1.225446
 20
0.104905
 30
0.0
 11
-1.225901
 21
0.102769
 31
0.0
  0
LINE
  8
0
  6
CONTINUOUS
 62
     7
  5
1B8
 10
-1.225901
 20
0.102769
 30
0.0
 11
-1.226351
 21
0.100632
 31
0.0
  0
LINE
  8
0
  6
CONTINUOUS
 62
     7
  5
1B9
 10
-1.226351
 20
0.100632
 30
0.0
 11
-1.226798
 21
0.098495
 31
0.0
  0
LINE
  8
0
  6
CONTINUOUS
 62
     7
  5
1BA
 10
-1.226798
 20
0.098495
 30
0.0
 11
-1.227242
 21
0.096357
 31
0.0
  0
LINE
  8
0
  6
CONTINUOUS
 62
     7
  5
1BB
 10
-1.227242
 20
0.096357
 30
0.0
 11
-1.227681
 21
0.094219
 31
0.0
  0
LINE
  8
0
  6
CONTINUOUS
 62
     7
  5
1BC
 10
-1.227681
 20
0.094219
 30
0.0
 11
-1.228117
 21
0.092079
 31
0.0
  0
LINE
  8
0
  6
CONTINUOUS
 62
     7
  5
1BD
 10
-1.228117
 20
0.092079
 30
0.0
 11
-1.22855
 21
0.08994
 31
0.0
  0
LINE
  8
0
  6
CONTINUOUS
 62
     7
  5
1BE
 10
-1.22855
 20
0.08994
 30
0.0
 11
-1.228979
 21
0.087799
 31
0.0
  0
LINE
  8
0
  6
CONTINUOUS
 62
     7
  5
1BF
 10
-1.228979
 20
0.087799
 30
0.0
 11
-1.229404
 21
0.085658
 31
0.0
  0
LINE
  8
0
  6
CONTINUOUS
 62
     7
  5
1C0
 10
-1.229404
 20
0.085658
 30
0.0
 11
-1.229826
 21
0.083517
 31
0.0
  0
LINE
  8
0
  6
CONTINUOUS
 62
     7
  5
1C1
 10
-1.229826
 20
0.083517
 30
0.0
 11
-1.230244
 21
0.081375
 31
0.0
  0
LINE
  8
0
  6
CONTINUOUS
 62
     7
  5
1C2
 10
-1.230244
 20
0.081375
 30
0.0
 11
-1.230658
 21
0.079232
 31
0.0
  0
LINE
  8
0
  6
CONTINUOUS
 62
     7
  5
1C3
 10
-1.230658
 20
0.079232
 30
0.0
 11
-1.231069
 21
0.077089
 31
0.0
  0
LINE
  8
0
  6
CONTINUOUS
 62
     7
  5
1C4
 10
-1.231069
 20
0.077089
 30
0.0
 11
-1.231476
 21
0.074945
 31
0.0
  0
LINE
  8
0
  6
CONTINUOUS
 62
     7
  5
1C5
 10
-1.231476
 20
0.074945
 30
0.0
 11
-1.23188
 21
0.072801
 31
0.0
  0
LINE
  8
0
  6
CONTINUOUS
 62
     7
  5
1C6
 10
-1.23188
 20
0.072801
 30
0.0
 11
-1.23228
 21
0.070656
 31
0.0
  0
LINE
  8
0
  6
CONTINUOUS
 62
     7
  5
1C7
 10
-1.23228
 20
0.070656
 30
0.0
 11
-1.232676
 21
0.06851
 31
0.0
  0
LINE
  8
0
  6
CONTINUOUS
 62
     7
  5
1C8
 10
-1.232676
 20
0.06851
 30
0.0
 11
-1.233068
 21
0.066364
 31
0.0
  0
LINE
  8
0
  6
CONTINUOUS
 62
     7
  5
1C9
 10
-1.233068
 20
0.066364
 30
0.0
 11
-1.233457
 21
0.064218
 31
0.0
  0
LINE
  8
0
  6
CONTINUOUS
 62
     7
  5
1CA
 10
-1.233457
 20
0.064218
 30
0.0
 11
-1.233843
 21
0.062071
 31
0.0
  0
LINE
  8
0
  6
CONTINUOUS
 62
     7
  5
1CB
 10
-1.2182
 20
0.506816
 30
0.0
 11
-1.2182
 21
0.136869
 31
0.0
  0
LINE
  8
0
  6
CONTINUOUS
 62
     7
  5
1CC
 10
-1.249431
 20
-0.399224
 30
0.0
 11
-1.249441
 21
-0.398843
 31
0.0
  0
LINE
  8
0
  6
CONTINUOUS
 62
     7
  5
1CD
 10
-1.249441
 20
-0.398843
 30
0.0
 11
-1.249452
 21
-0.397771
 31
0.0
  0
LINE
  8
0
  6
CONTINUOUS
 62
     7
  5
1CE
 10
-1.249452
 20
-0.397771
 30
0.0
 11
-1.249464
 21
-0.395998
 31
0.0
  0
LINE
  8
0
  6
CONTINUOUS
 62
     7
  5
1CF
 10
-1.249464
 20
-0.395998
 30
0.0
 11
-1.249476
 21
-0.393517
 31
0.0
  0
LINE
  8
0
  6
CONTINUOUS
 62
     7
  5
1D0
 10
-1.249476
 20
-0.393517
 30
0.0
 11
-1.249489
 21
-0.390329
 31
0.0
  0
LINE
  8
0
  6
CONTINUOUS
 62
     7
  5
1D1
 10
-1.249489
 20
-0.390329
 30
0.0
 11
-1.249503
 21
-0.38644
 31
0.0
  0
LINE
  8
0
  6
CONTINUOUS
 62
     7
  5
1D2
 10
-1.249503
 20
-0.38644
 30
0.0
 11
-1.249516
 21
-0.381858
 31
0.0
  0
LINE
  8
0
  6
CONTINUOUS
 62
     7
  5
1D3
 10
-1.249516
 20
-0.381858
 30
0.0
 11
-1.249531
 21
-0.376594
 31
0.0
  0
LINE
  8
0
  6
CONTINUOUS
 62
     7
  5
1D4
 10
-1.249531
 20
-0.376594
 30
0.0
 11
-1.249546
 21
-0.370666
 31
0.0
  0
LINE
  8
0
  6
CONTINUOUS
 62
     7
  5
1D5
 10
-1.249546
 20
-0.370666
 30
0.0
 11
-1.249561
 21
-0.364094
 31
0.0
  0
LINE
  8
0
  6
CONTINUOUS
 62
     7
  5
1D6
 10
-1.249561
 20
-0.364094
 30
0.0
 11
-1.249576
 21
-0.356907
 31
0.0
  0
LINE
  8
0
  6
CONTINUOUS
 62
     7
  5
1D7
 10
-1.249576
 20
-0.356907
 30
0.0
 11
-1.249592
 21
-0.349135
 31
0.0
  0
LINE
  8
0
  6
CONTINUOUS
 62
     7
  5
1D8
 10
-1.249592
 20
-0.349135
 30
0.0
 11
-1.249608
 21
-0.340817
 31
0.0
  0
LINE
  8
0
  6
CONTINUOUS
 62
     7
  5
1D9
 10
-1.249608
 20
-0.340817
 30
0.0
 11
-1.249624
 21
-0.331994
 31
0.0
  0
LINE
  8
0
  6
CONTINUOUS
 62
     7
  5
1DA
 10
-1.249624
 20
-0.331994
 30
0.0
 11
-1.249641
 21
-0.322711
 31
0.0
  0
LINE
  8
0
  6
CONTINUOUS
 62
     7
  5
1DB
 10
-1.249641
 20
-0.322711
 30
0.0
 11
-1.249657
 21
-0.313017
 31
0.0
  0
LINE
  8
0
  6
CONTINUOUS
 62
     7
  5
1DC
 10
-1.249657
 20
-0.313017
 30
0.0
 11
-1.249673
 21
-0.302849
 31
0.0
  0
LINE
  8
0
  6
CONTINUOUS
 62
     7
  5
1DD
 10
-1.249673
 20
-0.302849
 30
0.0
 11
-1.24969
 21
-0.29206
 31
0.0
  0
LINE
  8
0
  6
CONTINUOUS
 62
     7
  5
1DE
 10
-1.24969
 20
-0.29206
 30
0.0
 11
-1.249707
 21
-0.280667
 31
0.0
  0
LINE
  8
0
  6
CONTINUOUS
 62
     7
  5
1DF
 10
-1.249707
 20
-0.280667
 30
0.0
 11
-1.249725
 21
-0.268692
 31
0.0
  0
LINE
  8
0
  6
CONTINUOUS
 62
     7
  5
1E0
 10
-1.249725
 20
-0.268692
 30
0.0
 11
-1.249742
 21
-0.256165
 31
0.0
  0
LINE
  8
0
  6
CONTINUOUS
 62
     7
  5
1E1
 10
-1.249742
 20
-0.256165
 30
0.0
 11
-1.24976
 21
-0.243118
 31
0.0
  0
LINE
  8
0
  6
CONTINUOUS
 62
     7
  5
1E2
 10
-1.24976
 20
-0.243118
 30
0.0
 11
-1.249778
 21
-0.229587
 31
0.0
  0
LINE
  8
0
  6
CONTINUOUS
 62
     7
  5
1E3
 10
-1.249778
 20
-0.229587
 30
0.0
 11
-1.249796
 21
-0.21561
 31
0.0
  0
LINE
  8
0
  6
CONTINUOUS
 62
     7
  5
1E4
 10
-1.249796
 20
-0.21561
 30
0.0
 11
-1.249814
 21
-0.201228
 31
0.0
  0
LINE
  8
0
  6
CONTINUOUS
 62
     7
  5
1E5
 10
-1.249814
 20
-0.201228
 30
0.0
 11
-1.249832
 21
-0.186479
 31
0.0
  0
LINE
  8
0
  6
CONTINUOUS
 62
     7
  5
1E6
 10
-1.249832
 20
-0.186479
 30
0.0
 11
-1.24985
 21
-0.171405
 31
0.0
  0
LINE
  8
0
  6
CONTINUOUS
 62
     7
  5
1E7
 10
-1.24985
 20
-0.171405
 30
0.0
 11
-1.249867
 21
-0.156048
 31
0.0
  0
LINE
  8
0
  6
CONTINUOUS
 62
     7
  5
1E8
 10
-1.249867
 20
-0.156048
 30
0.0
 11
-1.249885
 21
-0.140457
 31
0.0
  0
LINE
  8
0
  6
CONTINUOUS
 62
     7
  5
1E9
 10
-1.249885
 20
-0.140457
 30
0.0
 11
-1.249902
 21
-0.124683
 31
0.0
  0
LINE
  8
0
  6
CONTINUOUS
 62
     7
  5
1EA
 10
-1.249902
 20
-0.124683
 30
0.0
 11
-1.249919
 21
-0.108782
 31
0.0
  0
LINE
  8
0
  6
CONTINUOUS
 62
     7
  5
1EB
 10
-1.249919
 20
-0.108782
 30
0.0
 11
-1.249935
 21
-0.092809
 31
0.0
  0
LINE
  8
0
  6
CONTINUOUS
 62
     7
  5
1EC
 10
-1.249935
 20
-0.092809
 30
0.0
 11
-1.249952
 21
-0.076822
 31
0.0
  0
LINE
  8
0
  6
CONTINUOUS
 62
     7
  5
1ED
 10
-1.249952
 20
-0.076822
 30
0.0
 11
-1.249967
 21
-0.060879
 31
0.0
  0
LINE
  8
0
  6
CONTINUOUS
 62
     7
  5
1EE
 10
-1.249967
 20
-0.060879
 30
0.0
 11
-1.249982
 21
-0.045035
 31
0.0
  0
LINE
  8
0
  6
CONTINUOUS
 62
     7
  5
1EF
 10
-1.249982
 20
-0.045035
 30
0.0
 11
-1.249611
 21
-0.047416
 31
0.0
  0
LINE
  8
0
  6
CONTINUOUS
 62
     7
  5
1F0
 10
-1.249611
 20
-0.047416
 30
0.0
 11
-1.249235
 21
-0.049797
 31
0.0
  0
LINE
  8
0
  6
CONTINUOUS
 62
     7
  5
1F1
 10
-1.249235
 20
-0.049797
 30
0.0
 11
-1.248854
 21
-0.052177
 31
0.0
  0
LINE
  8
0
  6
CONTINUOUS
 62
     7
  5
1F2
 10
-1.248854
 20
-0.052177
 30
0.0
 11
-1.248469
 21
-0.054557
 31
0.0
  0
LINE
  8
0
  6
CONTINUOUS
 62
     7
  5
1F3
 10
-1.248469
 20
-0.054557
 30
0.0
 11
-1.248079
 21
-0.056936
 31
0.0
  0
LINE
  8
0
  6
CONTINUOUS
 62
     7
  5
1F4
 10
-1.248079
 20
-0.056936
 30
0.0
 11
-1.247685
 21
-0.059314
 31
0.0
  0
LINE
  8
0
  6
CONTINUOUS
 62
     7
  5
1F5
 10
-1.247685
 20
-0.059314
 30
0.0
 11
-1.247286
 21
-0.061692
 31
0.0
  0
LINE
  8
0
  6
CONTINUOUS
 62
     7
  5
1F6
 10
-1.247286
 20
-0.061692
 30
0.0
 11
-1.246883
 21
-0.064069
 31
0.0
  0
LINE
  8
0
  6
CONTINUOUS
 62
     7
  5
1F7
 10
-1.246883
 20
-0.064069
 30
0.0
 11
-1.246475
 21
-0.066445
 31
0.0
  0
LINE
  8
0
  6
CONTINUOUS
 62
     7
  5
1F8
 10
-1.246475
 20
-0.066445
 30
0.0
 11
-1.246063
 21
-0.068821
 31
0.0
  0
LINE
  8
0
  6
CONTINUOUS
 62
     7
  5
1F9
 10
-1.246063
 20
-0.068821
 30
0.0
 11
-1.245646
 21
-0.071197
 31
0.0
  0
LINE
  8
0
  6
CONTINUOUS
 62
     7
  5
1FA
 10
-1.245646
 20
-0.071197
 30
0.0
 11
-1.245225
 21
-0.073571
 31
0.0
  0
LINE
  8
0
  6
CONTINUOUS
 62
     7
  5
1FB
 10
-1.245225
 20
-0.073571
 30
0.0
 11
-1.244799
 21
-0.075945
 31
0.0
  0
LINE
  8
0
  6
CONTINUOUS
 62
     7
  5
1FC
 10
-1.244799
 20
-0.075945
 30
0.0
 11
-1.244368
 21
-0.078319
 31
0.0
  0
LINE
  8
0
  6
CONTINUOUS
 62
     7
  5
1FD
 10
-1.244368
 20
-0.078319
 30
0.0
 11
-1.243934
 21
-0.080692
 31
0.0
  0
LINE
  8
0
  6
CONTINUOUS
 62
     7
  5
1FE
 10
-1.243934
 20
-0.080692
 30
0.0
 11
-1.243494
 21
-0.083064
 31
0.0
  0
LINE
  8
0
  6
CONTINUOUS
 62
     7
  5
1FF
 10
-1.243494
 20
-0.083064
 30
0.0
 11
-1.243051
 21
-0.085435
 31
0.0
  0
LINE
  8
0
  6
CONTINUOUS
 62
     7
  5
200
 10
-1.243051
 20
-0.085435
 30
0.0
 11
-1.242602
 21
-0.087806
 31
0.0
  0
LINE
  8
0
  6
CONTINUOUS
 62
     7
  5
201
 10
-1.242602
 20
-0.087806
 30
0.0
 11
-1.242149
 21
-0.090176
 31
0.0
  0
LINE
  8
0
  6
CONTINUOUS
 62
     7
  5
202
 10
-1.242149
 20
-0.090176
 30
0.0
 11
-1.241692
 21
-0.092545
 31
0.0
  0
LINE
  8
0
  6
CONTINUOUS
 62
     7
  5
203
 10
-1.241692
 20
-0.092545
 30
0.0
 11
-1.24123
 21
-0.094914
 31
0.0
  0
LINE
  8
0
  6
CONTINUOUS
 62
     7
  5
204
 10
-1.24123
 20
-0.094914
 30
0.0
 11
-1.240764
 21
-0.097282
 31
0.0
  0
LINE
  8
0
  6
CONTINUOUS
 62
     7
  5
205
 10
-1.240764
 20
-0.097282
 30
0.0
 11
-1.240293
 21
-0.099649
 31
0.0
  0
LINE
  8
0
  6
CONTINUOUS
 62
     7
  5
206
 10
-1.240293
 20
-0.099649
 30
0.0
 11
-1.239818
 21
-0.102016
 31
0.0
  0
LINE
  8
0
  6
CONTINUOUS
 62
     7
  5
207
 10
-1.239818
 20
-0.102016
 30
0.0
 11
-1.239338
 21
-0.104381
 31
0.0
  0
LINE
  8
0
  6
CONTINUOUS
 62
     7
  5
208
 10
-1.239338
 20
-0.104381
 30
0.0
 11
-1.238854
 21
-0.106746
 31
0.0
  0
LINE
  8
0
  6
CONTINUOUS
 62
     7
  5
209
 10
-1.238854
 20
-0.106746
 30
0.0
 11
-1.238365
 21
-0.109111
 31
0.0
  0
LINE
  8
0
  6
CONTINUOUS
 62
     7
  5
20A
 10
-1.238365
 20
-0.109111
 30
0.0
 11
-1.237872
 21
-0.111474
 31
0.0
  0
LINE
  8
0
  6
CONTINUOUS
 62
     7
  5
20B
 10
-1.237872
 20
-0.111474
 30
0.0
 11
-1.237375
 21
-0.113837
 31
0.0
  0
LINE
  8
0
  6
CONTINUOUS
 62
     7
  5
20C
 10
-1.237375
 20
-0.113837
 30
0.0
 11
-1.236872
 21
-0.116199
 31
0.0
  0
LINE
  8
0
  6
CONTINUOUS
 62
     7
  5
20D
 10
-1.236872
 20
-0.116199
 30
0.0
 11
-1.236366
 21
-0.118561
 31
0.0
  0
LINE
  8
0
  6
CONTINUOUS
 62
     7
  5
20E
 10
-1.236366
 20
-0.118561
 30
0.0
 11
-1.235855
 21
-0.120921
 31
0.0
  0
LINE
  8
0
  6
CONTINUOUS
 62
     7
  5
20F
 10
-1.235855
 20
-0.120921
 30
0.0
 11
-1.235339
 21
-0.123281
 31
0.0
  0
LINE
  8
0
  6
CONTINUOUS
 62
     7
  5
210
 10
-1.235339
 20
-0.123281
 30
0.0
 11
-1.234819
 21
-0.12564
 31
0.0
  0
LINE
  8
0
  6
CONTINUOUS
 62
     7
  5
211
 10
-1.234819
 20
-0.12564
 30
0.0
 11
-1.234295
 21
-0.127998
 31
0.0
  0
LINE
  8
0
  6
CONTINUOUS
 62
     7
  5
212
 10
-1.234295
 20
-0.127998
 30
0.0
 11
-1.2182
 21
-0.127998
 31
0.0
  0
LINE
  8
0
  6
CONTINUOUS
 62
     7
  5
213
 10
-1.234295
 20
-0.127998
 30
0.0
 11
-1.233913
 21
-0.126106
 31
0.0
  0
LINE
  8
0
  6
CONTINUOUS
 62
     7
  5
214
 10
-1.233913
 20
-0.126106
 30
0.0
 11
-1.233527
 21
-0.124214
 31
0.0
  0
LINE
  8
0
  6
CONTINUOUS
 62
     7
  5
215
 10
-1.233527
 20
-0.124214
 30
0.0
 11
-1.233137
 21
-0.122323
 31
0.0
  0
LINE
  8
0
  6
CONTINUOUS
 62
     7
  5
216
 10
-1.233137
 20
-0.122323
 30
0.0
 11
-1.232741
 21
-0.120432
 31
0.0
  0
LINE
  8
0
  6
CONTINUOUS
 62
     7
  5
217
 10
-1.232741
 20
-0.120432
 30
0.0
 11
-1.232342
 21
-0.118541
 31
0.0
  0
LINE
  8
0
  6
CONTINUOUS
 62
     7
  5
218
 10
-1.232342
 20
-0.118541
 30
0.0
 11
-1.231937
 21
-0.116651
 31
0.0
  0
LINE
  8
0
  6
CONTINUOUS
 62
     7
  5
219
 10
-1.231937
 20
-0.116651
 30
0.0
 11
-1.231528
 21
-0.114762
 31
0.0
  0
LINE
  8
0
  6
CONTINUOUS
 62
     7
  5
21A
 10
-1.231528
 20
-0.114762
 30
0.0
 11
-1.231114
 21
-0.112873
 31
0.0
  0
LINE
  8
0
  6
CONTINUOUS
 62
     7
  5
21B
 10
-1.231114
 20
-0.112873
 30
0.0
 11
-1.230696
 21
-0.110984
 31
0.0
  0
LINE
  8
0
  6
CONTINUOUS
 62
     7
  5
21C
 10
-1.230696
 20
-0.110984
 30
0.0
 11
-1.230273
 21
-0.109096
 31
0.0
  0
LINE
  8
0
  6
CONTINUOUS
 62
     7
  5
21D
 10
-1.230273
 20
-0.109096
 30
0.0
 11
-1.229845
 21
-0.107209
 31
0.0
  0
LINE
  8
0
  6
CONTINUOUS
 62
     7
  5
21E
 10
-1.229845
 20
-0.107209
 30
0.0
 11
-1.229413
 21
-0.105322
 31
0.0
  0
LINE
  8
0
  6
CONTINUOUS
 62
     7
  5
21F
 10
-1.229413
 20
-0.105322
 30
0.0
 11
-1.228976
 21
-0.103435
 31
0.0
  0
LINE
  8
0
  6
CONTINUOUS
 62
     7
  5
220
 10
-1.228976
 20
-0.103435
 30
0.0
 11
-1.228535
 21
-0.101549
 31
0.0
  0
LINE
  8
0
  6
CONTINUOUS
 62
     7
  5
221
 10
-1.228535
 20
-0.101549
 30
0.0
 11
-1.228089
 21
-0.099664
 31
0.0
  0
LINE
  8
0
  6
CONTINUOUS
 62
     7
  5
222
 10
-1.228089
 20
-0.099664
 30
0.0
 11
-1.227638
 21
-0.097779
 31
0.0
  0
LINE
  8
0
  6
CONTINUOUS
 62
     7
  5
223
 10
-1.227638
 20
-0.097779
 30
0.0
 11
-1.227183
 21
-0.095895
 31
0.0
  0
LINE
  8
0
  6
CONTINUOUS
 62
     7
  5
224
 10
-1.227183
 20
-0.095895
 30
0.0
 11
-1.226723
 21
-0.094011
 31
0.0
  0
LINE
  8
0
  6
CONTINUOUS
 62
     7
  5
225
 10
-1.226723
 20
-0.094011
 30
0.0
 11
-1.226258
 21
-0.092128
 31
0.0
  0
LINE
  8
0
  6
CONTINUOUS
 62
     7
  5
226
 10
-1.226258
 20
-0.092128
 30
0.0
 11
-1.225789
 21
-0.090245
 31
0.0
  0
LINE
  8
0
  6
CONTINUOUS
 62
     7
  5
227
 10
-1.225789
 20
-0.090245
 30
0.0
 11
-1.225315
 21
-0.088363
 31
0.0
  0
LINE
  8
0
  6
CONTINUOUS
 62
     7
  5
228
 10
-1.225315
 20
-0.088363
 30
0.0
 11
-1.224837
 21
-0.086482
 31
0.0
  0
LINE
  8
0
  6
CONTINUOUS
 62
     7
  5
229
 10
-1.224837
 20
-0.086482
 30
0.0
 11
-1.224354
 21
-0.084601
 31
0.0
  0
LINE
  8
0
  6
CONTINUOUS
 62
     7
  5
22A
 10
-1.224354
 20
-0.084601
 30
0.0
 11
-1.223867
 21
-0.082721
 31
0.0
  0
LINE
  8
0
  6
CONTINUOUS
 62
     7
  5
22B
 10
-1.223867
 20
-0.082721
 30
0.0
 11
-1.223374
 21
-0.080841
 31
0.0
  0
LINE
  8
0
  6
CONTINUOUS
 62
     7
  5
22C
 10
-1.223374
 20
-0.080841
 30
0.0
 11
-1.222878
 21
-0.078962
 31
0.0
  0
LINE
  8
0
  6
CONTINUOUS
 62
     7
  5
22D
 10
-1.222878
 20
-0.078962
 30
0.0
 11
-1.222376
 21
-0.077084
 31
0.0
  0
LINE
  8
0
  6
CONTINUOUS
 62
     7
  5
22E
 10
-1.222376
 20
-0.077084
 30
0.0
 11
-1.22187
 21
-0.075206
 31
0.0
  0
LINE
  8
0
  6
CONTINUOUS
 62
     7
  5
22F
 10
-1.22187
 20
-0.075206
 30
0.0
 11
-1.22136
 21
-0.073329
 31
0.0
  0
LINE
  8
0
  6
CONTINUOUS
 62
     7
  5
230
 10
-1.22136
 20
-0.073329
 30
0.0
 11
-1.220845
 21
-0.071452
 31
0.0
  0
LINE
  8
0
  6
CONTINUOUS
 62
     7
  5
231
 10
-1.220845
 20
-0.071452
 30
0.0
 11
-1.220325
 21
-0.069576
 31
0.0
  0
LINE
  8
0
  6
CONTINUOUS
 62
     7
  5
232
 10
-1.220325
 20
-0.069576
 30
0.0
 11
-1.219801
 21
-0.067701
 31
0.0
  0
LINE
  8
0
  6
CONTINUOUS
 62
     7
  5
233
 10
-1.219801
 20
-0.067701
 30
0.0
 11
-1.219272
 21
-0.065826
 31
0.0
  0
LINE
  8
0
  6
CONTINUOUS
 62
     7
  5
234
 10
-1.219272
 20
-0.065826
 30
0.0
 11
-1.218738
 21
-0.063952
 31
0.0
  0
LINE
  8
0
  6
CONTINUOUS
 62
     7
  5
235
 10
-1.218738
 20
-0.063952
 30
0.0
 11
-1.2182
 21
-0.062078
 31
0.0
  0
LINE
  8
0
  6
CONTINUOUS
 62
     7
  5
236
 10
-1.2182
 20
-0.062078
 30
0.0
 11
-1.2182
 21
-0.506816
 31
0.0
  0
LINE
  8
0
  6
CONTINUOUS
 62
     7
  5
237
 10
-0.994869
 20
-0.698719
 30
0.0
 11
-0.994869
 21
0.698719
 31
0.0
  0
LINE
  8
0
  6
CONTINUOUS
 62
     7
  5
238
 10
-1.172231
 20
0.698719
 30
0.0
 11
-1.172231
 21
-0.698719
 31
0.0
  0
LINE
  8
0
  6
CONTINUOUS
 62
     7
  5
239
 10
-0.452743
 20
0.5905
 30
0.0
 11
-0.452743
 21
-0.5905
 31
0.0
  0
LINE
  8
0
  6
CONTINUOUS
 62
     7
  5
23A
 10
-0.135823
 20
0.561024
 30
0.0
 11
-0.135823
 21
-0.561024
 31
0.0
  0
LINE
  8
0
  6
CONTINUOUS
 62
     7
  5
23B
 10
0.7441
 20
0.351734
 30
0.0
 11
0.680517
 21
0.351734
 31
0.0
  0
LINE
  8
0
  6
CONTINUOUS
 62
     7
  5
23C
 10
0.680517
 20
0.351734
 30
0.0
 11
0.680517
 21
0.368572
 31
0.0
  0
LINE
  8
0
  6
CONTINUOUS
 62
     7
  5
23D
 10
0.680517
 20
-0.368572
 30
0.0
 11
0.680517
 21
-0.351734
 31
0.0
  0
LINE
  8
0
  6
CONTINUOUS
 62
     7
  5
23E
 10
0.7441
 20
0.368572
 30
0.0
 11
0.7441
 21
0.351734
 31
0.0
  0
LINE
  8
0
  6
CONTINUOUS
 62
     7
  5
23F
 10
0.680517
 20
0.368572
 30
0.0
 11
0.7441
 21
0.368572
 31
0.0
  0
LINE
  8
0
  6
CONTINUOUS
 62
     7
  5
240
 10
0.7441
 20
-0.368572
 30
0.0
 11
0.680517
 21
-0.368572
 31
0.0
  0
LINE
  8
0
  6
CONTINUOUS
 62
     7
  5
241
 10
0.7441
 20
-0.351734
 30
0.0
 11
0.7441
 21
-0.368572
 31
0.0
  0
LINE
  8
0
  6
CONTINUOUS
 62
     7
  5
242
 10
0.680517
 20
-0.351734
 30
0.0
 11
0.7441
 21
-0.351734
 31
0.0
  0
LINE
  8
0
  6
CONTINUOUS
 62
     7
  5
243
 10
0.7441
 20
-0.368572
 30
0.0
 11
0.7441
 21
-0.374016
 31
0.0
  0
LINE
  8
0
  6
CONTINUOUS
 62
     7
  5
244
 10
0.7441
 20
0.125
 30
0.0
 11
0.7441
 21
-0.125
 31
0.0
  0
LINE
  8
0
  6
CONTINUOUS
 62
     7
  5
245
 10
0.7441
 20
0.374016
 30
0.0
 11
0.7441
 21
0.368572
 31
0.0
  0
LINE
  8
0
  6
CONTINUOUS
 62
     7
  5
246
 10
0.7441
 20
0.351734
 30
0.0
 11
0.7441
 21
0.125
 31
0.0
  0
LINE
  8
0
  6
CONTINUOUS
 62
     7
  5
247
 10
0.680517
 20
-0.374016
 30
0.0
 11
0.7441
 21
-0.374016
 31
0.0
  0
LINE
  8
0
  6
CONTINUOUS
 62
     7
  5
248
 10
0.7441
 20
0.374016
 30
0.0
 11
0.680517
 21
0.374016
 31
0.0
  0
LINE
  8
0
  6
CONTINUOUS
 62
     7
  5
249
 10
0.7441
 20
-0.351734
 30
0.0
 11
0.7441
 21
-0.368572
 31
0.0
  0
LINE
  8
0
  6
CONTINUOUS
 62
     7
  5
24A
 10
0.7441
 20
-0.125
 30
0.0
 11
0.7441
 21
-0.351734
 31
0.0
  0
LINE
  8
0
  6
CONTINUOUS
 62
     7
  5
24B
 10
0.7441
 20
-0.125
 30
0.0
 11
0.6191
 21
-0.125
 31
0.0
  0
LINE
  8
0
  6
CONTINUOUS
 62
     7
  5
24C
 10
0.6191
 20
-0.125
 30
0.0
 11
0.6191
 21
0.125
 31
0.0
  0
LINE
  8
0
  6
CONTINUOUS
 62
     7
  5
24D
 10
0.6191
 20
0.125
 30
0.0
 11
0.7441
 21
0.125
 31
0.0
  0
LINE
  8
0
  6
CONTINUOUS
 62
     7
  5
24E
 10
0.124017
 20
0.391926
 30
0.0
 11
0.124017
 21
0.433071
 31
0.0
  0
LINE
  8
0
  6
CONTINUOUS
 62
     7
  5
24F
 10
0.124017
 20
0.222793
 30
0.0
 11
0.024803
 21
0.222793
 31
0.0
  0
LINE
  8
0
  6
CONTINUOUS
 62
     7
  5
250
 10
0.124017
 20
0.222793
 30
0.0
 11
0.124017
 21
0.391926
 31
0.0
  0
LINE
  8
0
  6
CONTINUOUS
 62
     7
  5
251
 10
0.024803
 20
-0.222793
 30
0.0
 11
0.124017
 21
-0.222793
 31
0.0
  0
LINE
  8
0
  6
CONTINUOUS
 62
     7
  5
252
 10
0.124017
 20
-0.222793
 30
0.0
 11
0.124017
 21
0.222793
 31
0.0
  0
LINE
  8
0
  6
CONTINUOUS
 62
     7
  5
253
 10
0.124017
 20
-0.391926
 30
0.0
 11
0.124017
 21
-0.222793
 31
0.0
  0
LINE
  8
0
  6
CONTINUOUS
 62
     7
  5
254
 10
0.124017
 20
-0.433071
 30
0.0
 11
0.124017
 21
-0.391926
 31
0.0
  0
LINE
  8
0
  6
CONTINUOUS
 62
     7
  5
255
 10
0.142619
 20
0.324102
 30
0.0
 11
0.496067
 21
0.324102
 31
0.0
  0
LINE
  8
0
  6
CONTINUOUS
 62
     7
  5
256
 10
0.142619
 20
0.316788
 30
0.0
 11
0.496067
 21
0.316788
 31
0.0
  0
LINE
  8
0
  6
CONTINUOUS
 62
     7
  5
257
 10
0.496067
 20
0.324102
 30
0.0
 11
0.496067
 21
0.316788
 31
0.0
  0
LINE
  8
0
  6
CONTINUOUS
 62
     7
  5
258
 10
0.142619
 20
0.230378
 30
0.0
 11
0.142619
 21
0.324102
 31
0.0
  0
LINE
  8
0
  6
CONTINUOUS
 62
     7
  5
259
 10
0.496067
 20
0.230378
 30
0.0
 11
0.142619
 21
0.230378
 31
0.0
  0
LINE
  8
0
  6
CONTINUOUS
 62
     7
  5
25A
 10
0.496067
 20
0.316788
 30
0.0
 11
0.496067
 21
0.230378
 31
0.0
  0
LINE
  8
0
  6
CONTINUOUS
 62
     7
  5
25B
 10
0.496067
 20
0.324102
 30
0.0
 11
0.496067
 21
0.397638
 31
0.0
  0
LINE
  8
0
  6
CONTINUOUS
 62
     7
  5
25C
 10
0.496067
 20
-0.397638
 30
0.0
 11
0.496067
 21
-0.324102
 31
0.0
  0
LINE
  8
0
  6
CONTINUOUS
 62
     7
  5
25D
 10
0.496067
 20
-0.324102
 30
0.0
 11
0.142619
 21
-0.324102
 31
0.0
  0
LINE
  8
0
  6
CONTINUOUS
 62
     7
  5
25E
 10
0.142619
 20
-0.324102
 30
0.0
 11
0.142619
 21
-0.230378
 31
0.0
  0
LINE
  8
0
  6
CONTINUOUS
 62
     7
  5
25F
 10
0.142619
 20
-0.230378
 30
0.0
 11
0.496067
 21
-0.230378
 31
0.0
  0
LINE
  8
0
  6
CONTINUOUS
 62
     7
  5
260
 10
0.496067
 20
-0.230378
 30
0.0
 11
0.496067
 21
0.230378
 31
0.0
  0
LINE
  8
0
  6
CONTINUOUS
 62
     7
  5
261
 10
0.496067
 20
-0.316788
 30
0.0
 11
0.496067
 21
-0.324102
 31
0.0
  0
LINE
  8
0
  6
CONTINUOUS
 62
     7
  5
262
 10
0.142619
 20
-0.316788
 30
0.0
 11
0.496067
 21
-0.316788
 31
0.0
  0
LINE
  8
0
  6
CONTINUOUS
 62
     7
  5
263
 10
0.496067
 20
-0.230378
 30
0.0
 11
0.496067
 21
-0.316788
 31
0.0
  0
LINE
  8
0
  6
CONTINUOUS
 62
     7
  5
264
 10
0.024803
 20
-0.531496
 30
0.0
 11
0.024803
 21
0.531496
 31
0.0
  0
LINE
  8
0
  6
CONTINUOUS
 62
     7
  5
265
 10
-1.2182
 20
0.399225
 30
0.0
 11
-1.24943
 21
0.399225
 31
0.0
  0
LINE
  8
0
  6
CONTINUOUS
 62
     7
  5
266
 10
-1.24943
 20
-0.399225
 30
0.0
 11
-1.2182
 21
-0.399225
 31
0.0
  0
ARC
  8
0
  6
CONTINUOUS
 62
     7
  5
267
 10
-1.08355
 20
-0.698719
 30
0.0
 40
0.088681
 50
180.0
 51
0.0
  0
ARC
  8
0
  6
CONTINUOUS
 62
     7
  5
268
 10
-1.08355
 20
0.698719
 30
0.0
 40
0.088681
 50
0.0
 51
180.0
  0
ARC
  8
0
  6
CONTINUOUS
 62
     7
  5
269
 10
0.326873
 20
0.0
 30
0.0
 40
1.626073
 50
157.20798
 51
161.839426
  0
ARC
  8
0
  6
CONTINUOUS
 62
     7
  5
26A
 10
0.326873
 20
0.0
 30
0.0
 40
1.626073
 50
165.787784
 51
180.0
  0
ARC
  8
0
  6
CONTINUOUS
 62
     7
  5
26B
 10
0.326873
 20
0.0
 30
0.0
 40
1.626073
 50
180.0
 51
194.212216
  0
ARC
  8
0
  6
CONTINUOUS
 62
     7
  5
26C
 10
0.326873
 20
0.0
 30
0.0
 40
1.626073
 50
198.160574
 51
202.79202
  0
LINE
  8
0
  6
CONTINUOUS
 62
     7
  5
26D
 10
-0.452743
 20
0.5905
 30
0.0
 11
-0.994869
 21
0.5905
 31
0.0
  0
LINE
  8
0
  6
CONTINUOUS
 62
     7
  5
26E
 10
-0.994869
 20
-0.5905
 30
0.0
 11
-0.452743
 21
-0.5905
 31
0.0
  0
LINE
  8
0
  6
CONTINUOUS
 62
     7
  5
26F
 10
-0.135823
 20
0.516142
 30
0.0
 11
-0.452743
 21
0.516142
 31
0.0
  0
LINE
  8
0
  6
CONTINUOUS
 62
     7
  5
270
 10
-0.452743
 20
-0.516142
 30
0.0
 11
-0.135823
 21
-0.516142
 31
0.0
  0
LINE
  8
0
  6
CONTINUOUS
 62
     7
  5
271
 10
0.0
 20
0.561024
 30
0.0
 11
-0.135823
 21
0.561024
 31
0.0
  0
LINE
  8
0
  6
CONTINUOUS
 62
     7
  5
272
 10
-0.135823
 20
-0.561024
 30
0.0
 11
0.0
 21
-0.561024
 31
0.0
  0
LINE
  8
0
  6
CONTINUOUS
 62
     7
  5
273
 10
0.680517
 20
0.374016
 30
0.0
 11
0.496067
 21
0.374016
 31
0.0
  0
LINE
  8
0
  6
CONTINUOUS
 62
     7
  5
274
 10
0.496067
 20
-0.374016
 30
0.0
 11
0.680517
 21
-0.374016
 31
0.0
  0
LINE
  8
0
  6
CONTINUOUS
 62
     7
  5
275
 10
0.124017
 20
0.433071
 30
0.0
 11
0.024803
 21
0.433071
 31
0.0
  0
LINE
  8
0
  6
CONTINUOUS
 62
     7
  5
276
 10
0.124017
 20
0.391926
 30
0.0
 11
0.024803
 21
0.391926
 31
0.0
  0
LINE
  8
0
  6
CONTINUOUS
 62
     7
  5
277
 10
0.024803
 20
-0.391926
 30
0.0
 11
0.124017
 21
-0.391926
 31
0.0
  0
LINE
  8
0
  6
CONTINUOUS
 62
     7
  5
278
 10
0.024803
 20
-0.433071
 30
0.0
 11
0.124017
 21
-0.433071
 31
0.0
  0
LINE
  8
0
  6
CONTINUOUS
 62
     7
  5
279
 10
0.124017
 20
-0.397638
 30
0.0
 11
0.496067
 21
-0.397638
 31
0.0
  0
LINE
  8
0
  6
CONTINUOUS
 62
     7
  5
27A
 10
0.496067
 20
0.397638
 30
0.0
 11
0.124017
 21
0.397638
 31
0.0
  0
LINE
  8
0
  6
CONTINUOUS
 62
     7
  5
27B
 10
0.0
 20
-0.531496
 30
0.0
 11
0.024803
 21
-0.531496
 31
0.0
  0
LINE
  8
0
  6
CONTINUOUS
 62
     7
  5
27C
 10
0.024803
 20
0.531496
 30
0.0
 11
0.0
 21
0.531496
 31
0.0
  0
ENDSEC
  0
EOF
