999
DXF file: C:\Users\sesa63760\Dev\_Creo\CAD\MCADFD0002525_3D-CAD\drw0001_5.dxf
999
Pro/ENGINEER 2019471 by Parametric Technology Corporation
  0
SECTION
  2
HEADER
  9
$ACADVER
  1
AC1024
  9
$DWGCODEPAGE
  3
ANSI_1252
  9
$EXTMAX
 10
1270.8888888889
 20
1797.4
 30
0.0
  9
$EXTMIN
 10
0.0
 20
0.0
 30
0.0
  9
$LIMMIN
 10
0.0
 20
0.0
  9
$LIMMAX
 10
1270.8888888889
 20
1797.4
  9
$VIEWCTR
 10
635.4444444445
 20
898.7
  9
$VIEWSIZE
 40
1797.4
  9
$CLAYER
  8
0
  9
$LTSCALE
 40
117.1638518519
  9
$CELTYPE
  6
BYLAYER
  9
$DIMSCALE
 40
1.0
  9
$DIMASZ
 40
15.1296296296
  9
$DIMEXO
 40
1.0
  9
$DIMDLI
 40
80.9495703704
  9
$DIMEXE
 40
1.0
  9
$DIMCEN
 40
19.1722666667
  9
$DIMLFAC
 40
1.0
  9
$DIMBLK
  1
_FILLED
  9
$DIMALT
 70
0
  9
$DIMALTF
 40
0.0393700787
  9
$DIMTXT
 40
21.1814814815
  9
$DIMTOL
 70
1
  9
$DIMLIM
 70
0
  9
$DIMTFAC
 40
1.0
  9
$DIMTP
 40
0.01
  9
$DIMTM
 40
0.01
  9
$DIMGAP
 40
0.625
  9
$DIMDSEP
 70
46
  9
$AUNITS
 70
0
  9
$PDMODE
 70
3
  9
$PDSIZE
 40
0.3125
  9
$HANDSEED
  5
5B4
  9
$TILEMODE
 70
1
  9
$MEASUREMENT
 70
1
  9
$INSUNITS
 70
4
  0
ENDSEC
  0
SECTION
  2
CLASSES
  0
CLASS
  1
ACDBDICTIONARYWDFLT
  2
AcDbDictionaryWithDefault
  3
AutoCAD 2000
 90
0
 91
1
280
0
281
0
  0
CLASS
  1
ACDBPLACEHOLDER
  2
AcDbPlaceHolder
  3
AutoCAD 2000
 90
0
 91
1
280
0
281
0
  0
CLASS
  1
LAYOUT
  2
AcDbLayout
  3
AutoCAD 2000
 90
0
 91
0
280
0
281
0
  0
ENDSEC
  0
SECTION
  2
TABLES
  0
TABLE
  2
VPORT
  5
8
100
AcDbSymbolTable
 70
2
  0
VPORT
  5
1F4
100
AcDbSymbolTableRecord
100
AcDbViewportTableRecord
  2
*ACTIVE
 70
0
 10
0.0
 20
0.0
 11
1.0
 21
1.0
 12
635.4444444445
 22
898.7
 13
0.0
 23
0.0
 14
1.0
 24
1.0
 15
0.0
 25
0.0
 16
0.0
 26
0.0
 36
1.0
 17
0.0
 27
0.0
 37
0.0
 40
1797.4
 41
0.7070707071
 42
50.0
 43
0.0
 44
0.0
 50
0.0
 51
0.0
 71
0
 72
100
 73
1
 74
1
 75
0
 76
0
 77
0
 78
0
  0
ENDTAB
  0
TABLE
  2
LTYPE
  5
5
100
AcDbSymbolTable
 70
6
  0
LTYPE
  5
14
100
AcDbSymbolTableRecord
100
AcDbLinetypeTableRecord
  2
BYBLOCK
 70
0
  3

 72
65
 73
0
 40
0.0
  0
LTYPE
  5
15
100
AcDbSymbolTableRecord
100
AcDbLinetypeTableRecord
  2
BYLAYER
 70
0
  3

 72
65
 73
0
 40
0.0
  0
LTYPE
  5
16
100
AcDbSymbolTableRecord
100
AcDbLinetypeTableRecord
  2
CONTINUOUS
 70
64
  3
Solid line
 72
65
 73
0
 40
0.0
  0
LTYPE
  5
1F5
100
AcDbSymbolTableRecord
100
AcDbLinetypeTableRecord
  2
CENTER
 70
64
  3
____ _ ____ _ ____ _ ____ _ ____ _ ____ _ ____
 72
65
 73
4
 40
0.6
 49
0.375
 74
0
 49
-0.075
 74
0
 49
0.075
 74
0
 49
-0.075
 74
0
  0
LTYPE
  5
1F6
100
AcDbSymbolTableRecord
100
AcDbLinetypeTableRecord
  2
HIDDEN
 70
64
  3
- - - - - - - - - - - - - - - - - - - -
 72
65
 73
2
 40
0.2
 49
0.1
 74
0
 49
-0.1
 74
0
  0
LTYPE
  5
1F7
100
AcDbSymbolTableRecord
100
AcDbLinetypeTableRecord
  2
PHANTOM
 70
64
  3
_____ _ _ _____ _ _ _____ _ _ _____
 72
65
 73
6
 40
0.8
 49
0.45
 74
0
 49
-0.05
 74
0
 49
0.1
 74
0
 49
-0.05
 74
0
 49
0.1
 74
0
 49
-0.05
 74
0
  0
LTYPE
  5
1F8
100
AcDbSymbolTableRecord
100
AcDbLinetypeTableRecord
  2
DOT
 70
64
  3
. . . . . . . . . . . . . . . . . . . .
 72
65
 73
2
 40
0.2
 49
0.1
 74
0
 49
-0.1
 74
0
  0
LTYPE
  5
1F9
100
AcDbSymbolTableRecord
100
AcDbLinetypeTableRecord
  2
DASHED
 70
64
  3
- - - - - - - - - - - - - - - - - - - -
 72
65
 73
2
 40
0.2
 49
0.1
 74
0
 49
-0.1
 74
0
  0
ENDTAB
  0
TABLE
  2
LAYER
  5
2
100
AcDbSymbolTable
 70
36
  0
LAYER
  5
10
100
AcDbSymbolTableRecord
100
AcDbLayerTableRecord
  2
0
 70
0
 62
7
  6
CONTINUOUS
370
-3
390
F
  0
LAYER
  5
1FA
100
AcDbSymbolTableRecord
100
AcDbLayerTableRecord
  2
DEFAULT_1
 70
0
 62
7
  6
CENTER
370
-3
390
F
  0
LAYER
  5
1FB
100
AcDbSymbolTableRecord
100
AcDbLayerTableRecord
  2
DEFAULT_2
 70
0
 62
8
  6
HIDDEN
370
-3
390
F
  0
LAYER
  5
1FC
100
AcDbSymbolTableRecord
100
AcDbLayerTableRecord
  2
DEFAULT_3
 70
0
 62
7
  6
PHANTOM
370
-3
390
F
  0
LAYER
  5
1FD
100
AcDbSymbolTableRecord
100
AcDbLayerTableRecord
  2
00_COMPONENTS
 70
0
 62
7
  6
CONTINUOUS
370
-3
390
F
  0
LAYER
  5
1FE
100
AcDbSymbolTableRecord
100
AcDbLayerTableRecord
  2
01_1_DEFAULT_DATUMS
 70
0
 62
7
  6
CONTINUOUS
370
-3
390
F
  0
LAYER
  5
1FF
100
AcDbSymbolTableRecord
100
AcDbLayerTableRecord
  2
01_PLANES
 70
0
 62
7
  6
CONTINUOUS
370
-3
390
F
  0
LAYER
  5
200
100
AcDbSymbolTableRecord
100
AcDbLayerTableRecord
  2
02_COORD_SYS
 70
0
 62
7
  6
CONTINUOUS
370
-3
390
F
  0
LAYER
  5
201
100
AcDbSymbolTableRecord
100
AcDbLayerTableRecord
  2
03_AXES
 70
0
 62
7
  6
CONTINUOUS
370
-3
390
F
  0
LAYER
  5
202
100
AcDbSymbolTableRecord
100
AcDbLayerTableRecord
  2
04_POINTS
 70
0
 62
7
  6
CONTINUOUS
370
-3
390
F
  0
LAYER
  5
203
100
AcDbSymbolTableRecord
100
AcDbLayerTableRecord
  2
05_CURVES
 70
0
 62
7
  6
CONTINUOUS
370
-3
390
F
  0
LAYER
  5
204
100
AcDbSymbolTableRecord
100
AcDbLayerTableRecord
  2
06_SURFS
 70
0
 62
7
  6
CONTINUOUS
370
-3
390
F
  0
LAYER
  5
205
100
AcDbSymbolTableRecord
100
AcDbLayerTableRecord
  2
07_COSMETICS
 70
0
 62
7
  6
CONTINUOUS
370
-3
390
F
  0
LAYER
  5
206
100
AcDbSymbolTableRecord
100
AcDbLayerTableRecord
  2
10_NOTES
 70
0
 62
7
  6
CONTINUOUS
370
-3
390
F
  0
LAYER
  5
207
100
AcDbSymbolTableRecord
100
AcDbLayerTableRecord
  2
11_NOTES_PUB
 70
0
 62
7
  6
CONTINUOUS
370
-3
390
F
  0
LAYER
  5
208
100
AcDbSymbolTableRecord
100
AcDbLayerTableRecord
  2
13_REF_GTOL
 70
0
 62
7
  6
CONTINUOUS
370
-3
390
F
  0
LAYER
  5
209
100
AcDbSymbolTableRecord
100
AcDbLayerTableRecord
  2
16_MISC
 70
0
 62
7
  6
CONTINUOUS
370
-3
390
F
  0
LAYER
  5
20A
100
AcDbSymbolTableRecord
100
AcDbLayerTableRecord
  2
17_NO_PRINT
 70
0
 62
7
  6
CONTINUOUS
370
-3
390
F
  0
LAYER
  5
20B
100
AcDbSymbolTableRecord
100
AcDbLayerTableRecord
  2
18_DATUM_CAMS_JOINTS
 70
0
 62
7
  6
CONTINUOUS
370
-3
390
F
  0
LAYER
  5
20C
100
AcDbSymbolTableRecord
100
AcDbLayerTableRecord
  2
19_DATUM_FUNCTIONAL
 70
0
 62
7
  6
CONTINUOUS
370
-3
390
F
  0
LAYER
  5
20D
100
AcDbSymbolTableRecord
100
AcDbLayerTableRecord
  2
20_DATUM_KINEMATIC_SCHEME
 70
0
 62
7
  6
CONTINUOUS
370
-3
390
F
  0
ENDTAB
  0
TABLE
  2
STYLE
  5
3
100
AcDbSymbolTable
 70
1
  0
STYLE
  5
11
100
AcDbSymbolTableRecord
100
AcDbTextStyleTableRecord
  2
STANDARD
 70
0
 40
0.0
 41
0.8
 50
0.0
 71
0
 42
0.2
  3
txt
  4

  0
STYLE
  5
20E
100
AcDbSymbolTableRecord
100
AcDbTextStyleTableRecord
  2
TEXTSTYLE_1
 70
0
 40
0.0
 41
0.8
 50
0.0
 71
0
 42
0.2
  3
gdt
  4

  0
ENDTAB
  0
TABLE
  2
VIEW
  5
6
100
AcDbSymbolTable
 70
0
  0
ENDTAB
  0
TABLE
  2
UCS
  5
7
100
AcDbSymbolTable
 70
0
  0
ENDTAB
  0
TABLE
  2
APPID
  5
9
100
AcDbSymbolTable
 70
1
  0
APPID
  5
20F
100
AcDbSymbolTableRecord
100
AcDbRegAppTableRecord
  2
ACAD
 70
0
  0
ENDTAB
  0
TABLE
  2
BLOCK_RECORD
  5
1
100
AcDbSymbolTable
 70
0
  0
BLOCK_RECORD
  5
210
100
AcDbSymbolTableRecord
100
AcDbBlockTableRecord
  2
*Model_Space
  0
BLOCK_RECORD
  5
211
100
AcDbSymbolTableRecord
100
AcDbBlockTableRecord
  2
*Paper_Space
  0
BLOCK_RECORD
  5
212
100
AcDbSymbolTableRecord
100
AcDbBlockTableRecord
  2
_FILLED
  0
ENDTAB
  0
TABLE
  2
DIMSTYLE
  5
A
100
AcDbSymbolTable
 70
1
100
AcDbDimStyleTable
 71
0
  0
DIMSTYLE
105
213
100
AcDbSymbolTableRecord
100
AcDbDimStyleTableRecord
  2
STANDARD
 70
0
  3

  4

 40
1.0
 41
15.1296296296
 42
1.0
 43
0.38
 44
1.0
 45
0.0
 46
0.0
 47
0.01
 48
0.01
140
21.1814814815
141
0.09
142
0.0
143
25.4
144
1.0
145
0.0
146
1.0
147
0.625
 71
1
 72
0
 73
0
 74
0
 75
0
 76
0
 77
1
 78
8
 79
2
170
0
171
1
172
0
173
0
174
0
175
0
176
0
177
0
178
0
270
2
179
2
271
2
272
2
273
2
274
2
275
0
280
0
281
0
282
0
283
1
284
8
285
0
286
0
287
3
288
0
340
11
278
46
341
212
342
212
343
212
344
212
  0
ENDTAB
  0
ENDSEC
  0
SECTION
  2
BLOCKS
  0
BLOCK
  5
20
100
AcDbEntity
  8
0
100
AcDbBlockBegin
  2
*Model_Space
 70
0
 10
0.0
 20
0.0
 30
0.0
  3
*Model_Space
  1

  0
ENDBLK
  5
21
100
AcDbEntity
  8
0
100
AcDbBlockEnd
  0
BLOCK
  5
1C
100
AcDbEntity
  8
0
100
AcDbBlockBegin
  2
*Paper_Space
 70
0
 10
0.0
 20
0.0
 30
0.0
  3
*Paper_Space
  1

  0
ENDBLK
  5
1D
100
AcDbEntity
  8
0
100
AcDbBlockEnd
  0
BLOCK
  5
214
100
AcDbEntity
  8
0
100
AcDbBlockBegin
  2
_FILLED
 70
64
 10
0.0
 20
0.0
  3
_FILLED
  1

  0
SOLID
  5
215
100
AcDbEntity
  8
0
  6
BYBLOCK
 62
0
100
AcDbTrace
 10
0.0
 20
0.0
 11
-1.0
 21
0.25
 12
-1.0
 22
-0.25
 13
-1.0
 23
-0.25
  0
ENDBLK
  5
216
100
AcDbEntity
  8
0
  6
BYBLOCK
 62
0
100
AcDbBlockEnd
  0
ENDSEC
  0
SECTION
  2
ENTITIES
  0
LINE
  5
217
100
AcDbEntity
  8
0
100
AcDbLine
 62
7
  6
CONTINUOUS
 10
148.1444444444
 20
901.0010074755
 11
148.1444444444
 21
872.5019362158
  0
LINE
  5
218
100
AcDbEntity
  8
0
100
AcDbLine
 62
7
  6
CONTINUOUS
 10
153.7444444444
 20
901.0015158376
 11
153.7444444444
 21
902.5019362158
  0
LINE
  5
219
100
AcDbEntity
  8
0
100
AcDbLine
 62
7
  6
CONTINUOUS
 10
154.8444444445
 20
906.7019362158
 11
154.8444444445
 21
902.5019362158
  0
LINE
  5
21A
100
AcDbEntity
  8
0
100
AcDbLine
 62
7
  6
CONTINUOUS
 10
155.7444444445
 20
915.5019362158
 11
155.7444444445
 21
906.7019362158
  0
LINE
  5
21B
100
AcDbEntity
  8
0
100
AcDbLine
 62
7
  6
CONTINUOUS
 10
157.7444444445
 20
929.2980637843
 11
157.7444444445
 21
915.5019362158
  0
LINE
  5
21C
100
AcDbEntity
  8
0
100
AcDbLine
 62
7
  6
CONTINUOUS
 10
162.7444444445
 20
915.5019362158
 11
162.7444444445
 21
929.2980637843
  0
LINE
  5
21D
100
AcDbEntity
  8
0
100
AcDbLine
 62
7
  6
CONTINUOUS
 10
164.7444444445
 20
915.5019362158
 11
164.7444444445
 21
906.7019362158
  0
LINE
  5
21E
100
AcDbEntity
  8
0
100
AcDbLine
 62
7
  6
CONTINUOUS
 10
165.6444444445
 20
902.5019362158
 11
165.6444444445
 21
906.7019362158
  0
LINE
  5
21F
100
AcDbEntity
  8
0
100
AcDbLine
 62
7
  6
CONTINUOUS
 10
166.7444444445
 20
901.0015158376
 11
166.7444444445
 21
902.5019362158
  0
LINE
  5
220
100
AcDbEntity
  8
0
100
AcDbLine
 62
7
  6
CONTINUOUS
 10
171.3444444445
 20
901.0015158376
 11
171.3444444445
 21
902.5019362158
  0
LINE
  5
221
100
AcDbEntity
  8
0
100
AcDbLine
 62
7
  6
CONTINUOUS
 10
172.4444444445
 20
906.7019362158
 11
172.4444444445
 21
902.5019362158
  0
LINE
  5
222
100
AcDbEntity
  8
0
100
AcDbLine
 62
7
  6
CONTINUOUS
 10
173.3444444445
 20
915.5019362158
 11
173.3444444445
 21
906.7019362158
  0
LINE
  5
223
100
AcDbEntity
  8
0
100
AcDbLine
 62
7
  6
CONTINUOUS
 10
175.3444444445
 20
929.2980637843
 11
175.3444444445
 21
915.5019362158
  0
LINE
  5
224
100
AcDbEntity
  8
0
100
AcDbLine
 62
7
  6
CONTINUOUS
 10
180.3444444445
 20
915.5019362158
 11
180.3444444444
 21
929.2980637843
  0
LINE
  5
225
100
AcDbEntity
  8
0
100
AcDbLine
 62
7
  6
CONTINUOUS
 10
182.3444444444
 20
915.5019362158
 11
182.3444444444
 21
906.7019362158
  0
LINE
  5
226
100
AcDbEntity
  8
0
100
AcDbLine
 62
7
  6
CONTINUOUS
 10
183.2444444444
 20
902.5019362158
 11
183.2444444444
 21
906.7019362158
  0
LINE
  5
227
100
AcDbEntity
  8
0
100
AcDbLine
 62
7
  6
CONTINUOUS
 10
184.3444444444
 20
901.0015158376
 11
184.3444444444
 21
902.5019362158
  0
LINE
  5
228
100
AcDbEntity
  8
0
100
AcDbLine
 62
7
  6
CONTINUOUS
 10
188.9444444444
 20
901.0015158376
 11
188.9444444444
 21
902.5019362158
  0
LINE
  5
229
100
AcDbEntity
  8
0
100
AcDbLine
 62
7
  6
CONTINUOUS
 10
190.0444444444
 20
906.7019362158
 11
190.0444444444
 21
902.5019362158
  0
LINE
  5
22A
100
AcDbEntity
  8
0
100
AcDbLine
 62
7
  6
CONTINUOUS
 10
190.9444444444
 20
915.5019362158
 11
190.9444444444
 21
906.7019362158
  0
LINE
  5
22B
100
AcDbEntity
  8
0
100
AcDbLine
 62
7
  6
CONTINUOUS
 10
192.9444444445
 20
929.2980637843
 11
192.9444444445
 21
915.5019362158
  0
LINE
  5
22C
100
AcDbEntity
  8
0
100
AcDbLine
 62
7
  6
CONTINUOUS
 10
197.9444444445
 20
915.5019362158
 11
197.9444444445
 21
929.2980637843
  0
LINE
  5
22D
100
AcDbEntity
  8
0
100
AcDbLine
 62
7
  6
CONTINUOUS
 10
199.9444444444
 20
915.5019362158
 11
199.9444444444
 21
906.7019362158
  0
LINE
  5
22E
100
AcDbEntity
  8
0
100
AcDbLine
 62
7
  6
CONTINUOUS
 10
200.8444444444
 20
902.5019362158
 11
200.8444444444
 21
906.7019362158
  0
LINE
  5
22F
100
AcDbEntity
  8
0
100
AcDbLine
 62
7
  6
CONTINUOUS
 10
201.9444444444
 20
901.0015158376
 11
201.9444444444
 21
902.5019362158
  0
LINE
  5
230
100
AcDbEntity
  8
0
100
AcDbLine
 62
7
  6
CONTINUOUS
 10
206.5444444444
 20
901.0015158376
 11
206.5444444444
 21
902.5019362158
  0
LINE
  5
231
100
AcDbEntity
  8
0
100
AcDbLine
 62
7
  6
CONTINUOUS
 10
207.6444444444
 20
906.7019362158
 11
207.6444444444
 21
902.5019362158
  0
LINE
  5
232
100
AcDbEntity
  8
0
100
AcDbLine
 62
7
  6
CONTINUOUS
 10
208.5444444444
 20
915.5019362158
 11
208.5444444444
 21
906.7019362158
  0
LINE
  5
233
100
AcDbEntity
  8
0
100
AcDbLine
 62
7
  6
CONTINUOUS
 10
210.5444444445
 20
929.2980637843
 11
210.5444444445
 21
915.5019362158
  0
LINE
  5
234
100
AcDbEntity
  8
0
100
AcDbLine
 62
7
  6
CONTINUOUS
 10
215.5444444445
 20
915.5019362158
 11
215.5444444445
 21
929.2980637843
  0
LINE
  5
235
100
AcDbEntity
  8
0
100
AcDbLine
 62
7
  6
CONTINUOUS
 10
217.5444444444
 20
915.5019362158
 11
217.5444444444
 21
906.7019362158
  0
LINE
  5
236
100
AcDbEntity
  8
0
100
AcDbLine
 62
7
  6
CONTINUOUS
 10
218.4444444444
 20
902.5019362158
 11
218.4444444444
 21
906.7019362158
  0
LINE
  5
237
100
AcDbEntity
  8
0
100
AcDbLine
 62
7
  6
CONTINUOUS
 10
219.5444444444
 20
901.0015158376
 11
219.5444444444
 21
902.5019362158
  0
LINE
  5
238
100
AcDbEntity
  8
0
100
AcDbLine
 62
7
  6
CONTINUOUS
 10
224.1444444444
 20
901.0015158376
 11
224.1444444444
 21
902.5019362158
  0
LINE
  5
239
100
AcDbEntity
  8
0
100
AcDbLine
 62
7
  6
CONTINUOUS
 10
225.2444444444
 20
906.7019362158
 11
225.2444444444
 21
902.5019362158
  0
LINE
  5
23A
100
AcDbEntity
  8
0
100
AcDbLine
 62
7
  6
CONTINUOUS
 10
226.1444444444
 20
915.5019362158
 11
226.1444444444
 21
906.7019362158
  0
LINE
  5
23B
100
AcDbEntity
  8
0
100
AcDbLine
 62
7
  6
CONTINUOUS
 10
228.1444444445
 20
929.2980637843
 11
228.1444444445
 21
915.5019362158
  0
LINE
  5
23C
100
AcDbEntity
  8
0
100
AcDbLine
 62
7
  6
CONTINUOUS
 10
233.1444444445
 20
915.5019362158
 11
233.1444444445
 21
929.2980637843
  0
LINE
  5
23D
100
AcDbEntity
  8
0
100
AcDbLine
 62
7
  6
CONTINUOUS
 10
235.1444444444
 20
915.5019362158
 11
235.1444444444
 21
906.7019362158
  0
LINE
  5
23E
100
AcDbEntity
  8
0
100
AcDbLine
 62
7
  6
CONTINUOUS
 10
236.0444444444
 20
902.5019362158
 11
236.0444444444
 21
906.7019362158
  0
LINE
  5
23F
100
AcDbEntity
  8
0
100
AcDbLine
 62
7
  6
CONTINUOUS
 10
237.1444444444
 20
901.0015158376
 11
237.1444444444
 21
902.5019362158
  0
LINE
  5
240
100
AcDbEntity
  8
0
100
AcDbLine
 62
7
  6
CONTINUOUS
 10
241.7444444444
 20
901.0015158376
 11
241.7444444444
 21
902.5019362158
  0
LINE
  5
241
100
AcDbEntity
  8
0
100
AcDbLine
 62
7
  6
CONTINUOUS
 10
242.8444444444
 20
906.7019362158
 11
242.8444444444
 21
902.5019362158
  0
LINE
  5
242
100
AcDbEntity
  8
0
100
AcDbLine
 62
7
  6
CONTINUOUS
 10
243.7444444444
 20
915.5019362158
 11
243.7444444444
 21
906.7019362158
  0
LINE
  5
243
100
AcDbEntity
  8
0
100
AcDbLine
 62
7
  6
CONTINUOUS
 10
245.7444444445
 20
929.2980637843
 11
245.7444444445
 21
915.5019362158
  0
LINE
  5
244
100
AcDbEntity
  8
0
100
AcDbLine
 62
7
  6
CONTINUOUS
 10
250.7444444445
 20
915.5019362158
 11
250.7444444445
 21
929.2980637843
  0
LINE
  5
245
100
AcDbEntity
  8
0
100
AcDbLine
 62
7
  6
CONTINUOUS
 10
252.7444444444
 20
915.5019362158
 11
252.7444444444
 21
906.7019362158
  0
LINE
  5
246
100
AcDbEntity
  8
0
100
AcDbLine
 62
7
  6
CONTINUOUS
 10
253.6444444444
 20
902.5019362158
 11
253.6444444444
 21
906.7019362158
  0
LINE
  5
247
100
AcDbEntity
  8
0
100
AcDbLine
 62
7
  6
CONTINUOUS
 10
254.7444444444
 20
901.0015158376
 11
254.7444444444
 21
902.5019362158
  0
LINE
  5
248
100
AcDbEntity
  8
0
100
AcDbLine
 62
7
  6
CONTINUOUS
 10
259.3444444444
 20
901.0015158376
 11
259.3444444444
 21
902.5019362158
  0
LINE
  5
249
100
AcDbEntity
  8
0
100
AcDbLine
 62
7
  6
CONTINUOUS
 10
260.4444444444
 20
906.7019362158
 11
260.4444444444
 21
902.5019362158
  0
LINE
  5
24A
100
AcDbEntity
  8
0
100
AcDbLine
 62
7
  6
CONTINUOUS
 10
261.3444444444
 20
915.5019362158
 11
261.3444444444
 21
906.7019362158
  0
LINE
  5
24B
100
AcDbEntity
  8
0
100
AcDbLine
 62
7
  6
CONTINUOUS
 10
263.3444444445
 20
929.2980637843
 11
263.3444444445
 21
915.5019362158
  0
LINE
  5
24C
100
AcDbEntity
  8
0
100
AcDbLine
 62
7
  6
CONTINUOUS
 10
268.3444444445
 20
915.5019362158
 11
268.3444444445
 21
929.2980637843
  0
LINE
  5
24D
100
AcDbEntity
  8
0
100
AcDbLine
 62
7
  6
CONTINUOUS
 10
270.3444444445
 20
915.5019362158
 11
270.3444444445
 21
906.7019362158
  0
LINE
  5
24E
100
AcDbEntity
  8
0
100
AcDbLine
 62
7
  6
CONTINUOUS
 10
271.2444444445
 20
902.5019362158
 11
271.2444444445
 21
906.7019362158
  0
LINE
  5
24F
100
AcDbEntity
  8
0
100
AcDbLine
 62
7
  6
CONTINUOUS
 10
272.3444444445
 20
901.0015158376
 11
272.3444444445
 21
902.5019362158
  0
LINE
  5
250
100
AcDbEntity
  8
0
100
AcDbLine
 62
7
  6
CONTINUOUS
 10
276.9444444445
 20
901.0015158376
 11
276.9444444445
 21
902.5019362158
  0
LINE
  5
251
100
AcDbEntity
  8
0
100
AcDbLine
 62
7
  6
CONTINUOUS
 10
278.0444444445
 20
906.7019362158
 11
278.0444444445
 21
902.5019362158
  0
LINE
  5
252
100
AcDbEntity
  8
0
100
AcDbLine
 62
7
  6
CONTINUOUS
 10
278.9444444445
 20
915.5019362158
 11
278.9444444445
 21
906.7019362158
  0
LINE
  5
253
100
AcDbEntity
  8
0
100
AcDbLine
 62
7
  6
CONTINUOUS
 10
280.9444444445
 20
929.2980637843
 11
280.9444444445
 21
915.5019362158
  0
LINE
  5
254
100
AcDbEntity
  8
0
100
AcDbLine
 62
7
  6
CONTINUOUS
 10
285.9444444445
 20
915.5019362158
 11
285.9444444445
 21
929.2980637843
  0
LINE
  5
255
100
AcDbEntity
  8
0
100
AcDbLine
 62
7
  6
CONTINUOUS
 10
287.9444444445
 20
915.5019362158
 11
287.9444444445
 21
906.7019362158
  0
LINE
  5
256
100
AcDbEntity
  8
0
100
AcDbLine
 62
7
  6
CONTINUOUS
 10
288.8444444445
 20
902.5019362158
 11
288.8444444445
 21
906.7019362158
  0
LINE
  5
257
100
AcDbEntity
  8
0
100
AcDbLine
 62
7
  6
CONTINUOUS
 10
289.9444444445
 20
901.0015158376
 11
289.9444444445
 21
902.5019362158
  0
LINE
  5
258
100
AcDbEntity
  8
0
100
AcDbLine
 62
7
  6
CONTINUOUS
 10
294.5444444445
 20
901.0015158376
 11
294.5444444445
 21
902.5019362158
  0
LINE
  5
259
100
AcDbEntity
  8
0
100
AcDbLine
 62
7
  6
CONTINUOUS
 10
295.6444444445
 20
906.7019362158
 11
295.6444444445
 21
902.5019362158
  0
LINE
  5
25A
100
AcDbEntity
  8
0
100
AcDbLine
 62
7
  6
CONTINUOUS
 10
296.5444444445
 20
915.5019362158
 11
296.5444444445
 21
906.7019362158
  0
LINE
  5
25B
100
AcDbEntity
  8
0
100
AcDbLine
 62
7
  6
CONTINUOUS
 10
298.5444444445
 20
929.2980637843
 11
298.5444444445
 21
915.5019362158
  0
LINE
  5
25C
100
AcDbEntity
  8
0
100
AcDbLine
 62
7
  6
CONTINUOUS
 10
303.5444444445
 20
915.5019362158
 11
303.5444444445
 21
929.2980637843
  0
LINE
  5
25D
100
AcDbEntity
  8
0
100
AcDbLine
 62
7
  6
CONTINUOUS
 10
305.5444444445
 20
915.5019362158
 11
305.5444444445
 21
906.7019362158
  0
LINE
  5
25E
100
AcDbEntity
  8
0
100
AcDbLine
 62
7
  6
CONTINUOUS
 10
306.4444444445
 20
902.5019362158
 11
306.4444444445
 21
906.7019362158
  0
LINE
  5
25F
100
AcDbEntity
  8
0
100
AcDbLine
 62
7
  6
CONTINUOUS
 10
307.5444444445
 20
901.0015158376
 11
307.5444444445
 21
902.5019362158
  0
LINE
  5
260
100
AcDbEntity
  8
0
100
AcDbLine
 62
7
  6
CONTINUOUS
 10
312.1444444445
 20
901.0015158376
 11
312.1444444445
 21
902.5019362158
  0
LINE
  5
261
100
AcDbEntity
  8
0
100
AcDbLine
 62
7
  6
CONTINUOUS
 10
313.2444444445
 20
906.7019362158
 11
313.2444444445
 21
902.5019362158
  0
LINE
  5
262
100
AcDbEntity
  8
0
100
AcDbLine
 62
7
  6
CONTINUOUS
 10
314.1444444445
 20
915.5019362158
 11
314.1444444445
 21
906.7019362158
  0
LINE
  5
263
100
AcDbEntity
  8
0
100
AcDbLine
 62
7
  6
CONTINUOUS
 10
316.1444444445
 20
929.2980637843
 11
316.1444444445
 21
915.5019362158
  0
LINE
  5
264
100
AcDbEntity
  8
0
100
AcDbLine
 62
7
  6
CONTINUOUS
 10
321.1444444445
 20
915.5019362158
 11
321.1444444445
 21
929.2980637843
  0
LINE
  5
265
100
AcDbEntity
  8
0
100
AcDbLine
 62
7
  6
CONTINUOUS
 10
323.1444444445
 20
915.5019362158
 11
323.1444444445
 21
906.7019362158
  0
LINE
  5
266
100
AcDbEntity
  8
0
100
AcDbLine
 62
7
  6
CONTINUOUS
 10
324.0444444445
 20
902.5019362158
 11
324.0444444445
 21
906.7019362158
  0
LINE
  5
267
100
AcDbEntity
  8
0
100
AcDbLine
 62
7
  6
CONTINUOUS
 10
325.1444444445
 20
901.0015158376
 11
325.1444444445
 21
902.5019362158
  0
LINE
  5
268
100
AcDbEntity
  8
0
100
AcDbLine
 62
7
  6
CONTINUOUS
 10
329.7444444445
 20
901.0015158376
 11
329.7444444445
 21
902.5019362158
  0
LINE
  5
269
100
AcDbEntity
  8
0
100
AcDbLine
 62
7
  6
CONTINUOUS
 10
330.8444444445
 20
906.7019362158
 11
330.8444444445
 21
902.5019362158
  0
LINE
  5
26A
100
AcDbEntity
  8
0
100
AcDbLine
 62
7
  6
CONTINUOUS
 10
331.7444444445
 20
915.5019362158
 11
331.7444444445
 21
906.7019362158
  0
LINE
  5
26B
100
AcDbEntity
  8
0
100
AcDbLine
 62
7
  6
CONTINUOUS
 10
333.7444444445
 20
929.2980637843
 11
333.7444444445
 21
915.5019362158
  0
LINE
  5
26C
100
AcDbEntity
  8
0
100
AcDbLine
 62
7
  6
CONTINUOUS
 10
338.7444444445
 20
915.5019362158
 11
338.7444444445
 21
929.2980637843
  0
LINE
  5
26D
100
AcDbEntity
  8
0
100
AcDbLine
 62
7
  6
CONTINUOUS
 10
340.7444444445
 20
915.5019362158
 11
340.7444444445
 21
906.7019362158
  0
LINE
  5
26E
100
AcDbEntity
  8
0
100
AcDbLine
 62
7
  6
CONTINUOUS
 10
341.6444444445
 20
902.5019362158
 11
341.6444444445
 21
906.7019362158
  0
LINE
  5
26F
100
AcDbEntity
  8
0
100
AcDbLine
 62
7
  6
CONTINUOUS
 10
342.7444444445
 20
901.0015158376
 11
342.7444444445
 21
902.5019362158
  0
LINE
  5
270
100
AcDbEntity
  8
0
100
AcDbLine
 62
7
  6
CONTINUOUS
 10
347.3444444445
 20
901.0015158376
 11
347.3444444445
 21
902.5019362158
  0
LINE
  5
271
100
AcDbEntity
  8
0
100
AcDbLine
 62
7
  6
CONTINUOUS
 10
348.4444444445
 20
906.7019362158
 11
348.4444444445
 21
902.5019362158
  0
LINE
  5
272
100
AcDbEntity
  8
0
100
AcDbLine
 62
7
  6
CONTINUOUS
 10
349.3444444445
 20
915.5019362158
 11
349.3444444445
 21
906.7019362158
  0
LINE
  5
273
100
AcDbEntity
  8
0
100
AcDbLine
 62
7
  6
CONTINUOUS
 10
351.3444444445
 20
929.2980637843
 11
351.3444444445
 21
915.5019362158
  0
LINE
  5
274
100
AcDbEntity
  8
0
100
AcDbLine
 62
7
  6
CONTINUOUS
 10
356.3444444445
 20
915.5019362158
 11
356.3444444445
 21
929.2980637843
  0
LINE
  5
275
100
AcDbEntity
  8
0
100
AcDbLine
 62
7
  6
CONTINUOUS
 10
358.3444444445
 20
915.5019362158
 11
358.3444444445
 21
906.7019362158
  0
LINE
  5
276
100
AcDbEntity
  8
0
100
AcDbLine
 62
7
  6
CONTINUOUS
 10
359.2444444445
 20
902.5019362158
 11
359.2444444445
 21
906.7019362158
  0
LINE
  5
277
100
AcDbEntity
  8
0
100
AcDbLine
 62
7
  6
CONTINUOUS
 10
360.3444444445
 20
901.0015158376
 11
360.3444444445
 21
902.5019362158
  0
LINE
  5
278
100
AcDbEntity
  8
0
100
AcDbLine
 62
7
  6
CONTINUOUS
 10
364.9444444445
 20
901.0015158376
 11
364.9444444445
 21
902.5019362158
  0
LINE
  5
279
100
AcDbEntity
  8
0
100
AcDbLine
 62
7
  6
CONTINUOUS
 10
366.0444444445
 20
906.7019362158
 11
366.0444444445
 21
902.5019362158
  0
LINE
  5
27A
100
AcDbEntity
  8
0
100
AcDbLine
 62
7
  6
CONTINUOUS
 10
366.9444444445
 20
915.5019362158
 11
366.9444444445
 21
906.7019362158
  0
LINE
  5
27B
100
AcDbEntity
  8
0
100
AcDbLine
 62
7
  6
CONTINUOUS
 10
368.9444444445
 20
929.2980637843
 11
368.9444444445
 21
915.5019362158
  0
LINE
  5
27C
100
AcDbEntity
  8
0
100
AcDbLine
 62
7
  6
CONTINUOUS
 10
373.9444444445
 20
915.5019362158
 11
373.9444444445
 21
929.2980637843
  0
LINE
  5
27D
100
AcDbEntity
  8
0
100
AcDbLine
 62
7
  6
CONTINUOUS
 10
375.9444444445
 20
915.5019362158
 11
375.9444444445
 21
906.7019362158
  0
LINE
  5
27E
100
AcDbEntity
  8
0
100
AcDbLine
 62
7
  6
CONTINUOUS
 10
376.8444444445
 20
902.5019362158
 11
376.8444444445
 21
906.7019362158
  0
LINE
  5
27F
100
AcDbEntity
  8
0
100
AcDbLine
 62
7
  6
CONTINUOUS
 10
377.9444444445
 20
901.0015158376
 11
377.9444444445
 21
902.5019362158
  0
LINE
  5
280
100
AcDbEntity
  8
0
100
AcDbLine
 62
7
  6
CONTINUOUS
 10
382.5444444445
 20
901.0015158376
 11
382.5444444445
 21
902.5019362158
  0
LINE
  5
281
100
AcDbEntity
  8
0
100
AcDbLine
 62
7
  6
CONTINUOUS
 10
383.6444444445
 20
906.7019362158
 11
383.6444444445
 21
902.5019362158
  0
LINE
  5
282
100
AcDbEntity
  8
0
100
AcDbLine
 62
7
  6
CONTINUOUS
 10
384.5444444445
 20
915.5019362158
 11
384.5444444445
 21
906.7019362158
  0
LINE
  5
283
100
AcDbEntity
  8
0
100
AcDbLine
 62
7
  6
CONTINUOUS
 10
386.5444444445
 20
929.2980637843
 11
386.5444444445
 21
915.5019362158
  0
LINE
  5
284
100
AcDbEntity
  8
0
100
AcDbLine
 62
7
  6
CONTINUOUS
 10
391.5444444445
 20
915.5019362158
 11
391.5444444445
 21
929.2980637843
  0
LINE
  5
285
100
AcDbEntity
  8
0
100
AcDbLine
 62
7
  6
CONTINUOUS
 10
393.5444444445
 20
915.5019362158
 11
393.5444444445
 21
906.7019362158
  0
LINE
  5
286
100
AcDbEntity
  8
0
100
AcDbLine
 62
7
  6
CONTINUOUS
 10
394.4444444445
 20
902.5019362158
 11
394.4444444445
 21
906.7019362158
  0
LINE
  5
287
100
AcDbEntity
  8
0
100
AcDbLine
 62
7
  6
CONTINUOUS
 10
395.5444444445
 20
901.0015158376
 11
395.5444444445
 21
902.5019362158
  0
LINE
  5
288
100
AcDbEntity
  8
0
100
AcDbLine
 62
7
  6
CONTINUOUS
 10
400.1444444445
 20
901.0015158376
 11
400.1444444445
 21
902.5019362158
  0
LINE
  5
289
100
AcDbEntity
  8
0
100
AcDbLine
 62
7
  6
CONTINUOUS
 10
401.2444444445
 20
906.7019362158
 11
401.2444444445
 21
902.5019362158
  0
LINE
  5
28A
100
AcDbEntity
  8
0
100
AcDbLine
 62
7
  6
CONTINUOUS
 10
402.1444444445
 20
915.5019362158
 11
402.1444444445
 21
906.7019362158
  0
LINE
  5
28B
100
AcDbEntity
  8
0
100
AcDbLine
 62
7
  6
CONTINUOUS
 10
404.1444444445
 20
929.2980637843
 11
404.1444444445
 21
915.5019362158
  0
LINE
  5
28C
100
AcDbEntity
  8
0
100
AcDbLine
 62
7
  6
CONTINUOUS
 10
409.1444444445
 20
915.5019362158
 11
409.1444444445
 21
929.2980637843
  0
LINE
  5
28D
100
AcDbEntity
  8
0
100
AcDbLine
 62
7
  6
CONTINUOUS
 10
411.1444444445
 20
915.5019362158
 11
411.1444444445
 21
906.7019362158
  0
LINE
  5
28E
100
AcDbEntity
  8
0
100
AcDbLine
 62
7
  6
CONTINUOUS
 10
412.0444444445
 20
902.5019362158
 11
412.0444444445
 21
906.7019362158
  0
LINE
  5
28F
100
AcDbEntity
  8
0
100
AcDbLine
 62
7
  6
CONTINUOUS
 10
413.1444444445
 20
901.0015158376
 11
413.1444444445
 21
902.5019362158
  0
LINE
  5
290
100
AcDbEntity
  8
0
100
AcDbLine
 62
7
  6
CONTINUOUS
 10
417.7444444445
 20
901.0015158376
 11
417.7444444445
 21
902.5019362158
  0
LINE
  5
291
100
AcDbEntity
  8
0
100
AcDbLine
 62
7
  6
CONTINUOUS
 10
418.8444444445
 20
906.7019362158
 11
418.8444444445
 21
902.5019362158
  0
LINE
  5
292
100
AcDbEntity
  8
0
100
AcDbLine
 62
7
  6
CONTINUOUS
 10
419.7444444445
 20
915.5019362158
 11
419.7444444445
 21
906.7019362158
  0
LINE
  5
293
100
AcDbEntity
  8
0
100
AcDbLine
 62
7
  6
CONTINUOUS
 10
421.7444444445
 20
929.2980637843
 11
421.7444444445
 21
915.5019362158
  0
LINE
  5
294
100
AcDbEntity
  8
0
100
AcDbLine
 62
7
  6
CONTINUOUS
 10
426.7444444445
 20
915.5019362158
 11
426.7444444445
 21
929.2980637843
  0
LINE
  5
295
100
AcDbEntity
  8
0
100
AcDbLine
 62
7
  6
CONTINUOUS
 10
428.7444444445
 20
915.5019362158
 11
428.7444444445
 21
906.7019362158
  0
LINE
  5
296
100
AcDbEntity
  8
0
100
AcDbLine
 62
7
  6
CONTINUOUS
 10
429.6444444445
 20
902.5019362158
 11
429.6444444445
 21
906.7019362158
  0
LINE
  5
297
100
AcDbEntity
  8
0
100
AcDbLine
 62
7
  6
CONTINUOUS
 10
430.7444444445
 20
901.0015158376
 11
430.7444444445
 21
902.5019362158
  0
LINE
  5
298
100
AcDbEntity
  8
0
100
AcDbLine
 62
7
  6
CONTINUOUS
 10
435.3444444445
 20
901.0015158376
 11
435.3444444445
 21
902.5019362158
  0
LINE
  5
299
100
AcDbEntity
  8
0
100
AcDbLine
 62
7
  6
CONTINUOUS
 10
436.4444444445
 20
906.7019362158
 11
436.4444444445
 21
902.5019362158
  0
LINE
  5
29A
100
AcDbEntity
  8
0
100
AcDbLine
 62
7
  6
CONTINUOUS
 10
437.3444444445
 20
915.5019362158
 11
437.3444444445
 21
906.7019362158
  0
LINE
  5
29B
100
AcDbEntity
  8
0
100
AcDbLine
 62
7
  6
CONTINUOUS
 10
439.3444444445
 20
929.2980637843
 11
439.3444444445
 21
915.5019362158
  0
LINE
  5
29C
100
AcDbEntity
  8
0
100
AcDbLine
 62
7
  6
CONTINUOUS
 10
444.3444444445
 20
915.5019362158
 11
444.3444444445
 21
929.2980637843
  0
LINE
  5
29D
100
AcDbEntity
  8
0
100
AcDbLine
 62
7
  6
CONTINUOUS
 10
446.3444444445
 20
915.5019362158
 11
446.3444444445
 21
906.7019362158
  0
LINE
  5
29E
100
AcDbEntity
  8
0
100
AcDbLine
 62
7
  6
CONTINUOUS
 10
447.2444444445
 20
902.5019362158
 11
447.2444444445
 21
906.7019362158
  0
LINE
  5
29F
100
AcDbEntity
  8
0
100
AcDbLine
 62
7
  6
CONTINUOUS
 10
448.3444444445
 20
901.0015158376
 11
448.3444444445
 21
902.5019362158
  0
LINE
  5
2A0
100
AcDbEntity
  8
0
100
AcDbLine
 62
7
  6
CONTINUOUS
 10
452.9444444445
 20
901.0015158376
 11
452.9444444445
 21
902.5019362158
  0
LINE
  5
2A1
100
AcDbEntity
  8
0
100
AcDbLine
 62
7
  6
CONTINUOUS
 10
454.0444444445
 20
906.7019362158
 11
454.0444444445
 21
902.5019362158
  0
LINE
  5
2A2
100
AcDbEntity
  8
0
100
AcDbLine
 62
7
  6
CONTINUOUS
 10
454.9444444445
 20
915.5019362158
 11
454.9444444445
 21
906.7019362158
  0
LINE
  5
2A3
100
AcDbEntity
  8
0
100
AcDbLine
 62
7
  6
CONTINUOUS
 10
456.9444444445
 20
929.2980637843
 11
456.9444444445
 21
915.5019362158
  0
LINE
  5
2A4
100
AcDbEntity
  8
0
100
AcDbLine
 62
7
  6
CONTINUOUS
 10
461.9444444445
 20
915.5019362158
 11
461.9444444445
 21
929.2980637843
  0
LINE
  5
2A5
100
AcDbEntity
  8
0
100
AcDbLine
 62
7
  6
CONTINUOUS
 10
463.9444444445
 20
915.5019362158
 11
463.9444444445
 21
906.7019362158
  0
LINE
  5
2A6
100
AcDbEntity
  8
0
100
AcDbLine
 62
7
  6
CONTINUOUS
 10
464.8444444445
 20
902.5019362158
 11
464.8444444445
 21
906.7019362158
  0
LINE
  5
2A7
100
AcDbEntity
  8
0
100
AcDbLine
 62
7
  6
CONTINUOUS
 10
465.9444444445
 20
901.0015158376
 11
465.9444444445
 21
902.5019362158
  0
LINE
  5
2A8
100
AcDbEntity
  8
0
100
AcDbLine
 62
7
  6
CONTINUOUS
 10
470.5444444445
 20
901.0015158376
 11
470.5444444445
 21
902.5019362158
  0
LINE
  5
2A9
100
AcDbEntity
  8
0
100
AcDbLine
 62
7
  6
CONTINUOUS
 10
471.6444444445
 20
906.7019362158
 11
471.6444444445
 21
902.5019362158
  0
LINE
  5
2AA
100
AcDbEntity
  8
0
100
AcDbLine
 62
7
  6
CONTINUOUS
 10
472.5444444445
 20
915.5019362158
 11
472.5444444445
 21
906.7019362158
  0
LINE
  5
2AB
100
AcDbEntity
  8
0
100
AcDbLine
 62
7
  6
CONTINUOUS
 10
474.5444444445
 20
929.2980637843
 11
474.5444444445
 21
915.5019362158
  0
LINE
  5
2AC
100
AcDbEntity
  8
0
100
AcDbLine
 62
7
  6
CONTINUOUS
 10
479.5444444445
 20
915.5019362158
 11
479.5444444445
 21
929.2980637843
  0
LINE
  5
2AD
100
AcDbEntity
  8
0
100
AcDbLine
 62
7
  6
CONTINUOUS
 10
481.5444444445
 20
915.5019362158
 11
481.5444444445
 21
906.7019362158
  0
LINE
  5
2AE
100
AcDbEntity
  8
0
100
AcDbLine
 62
7
  6
CONTINUOUS
 10
482.4444444445
 20
902.5019362158
 11
482.4444444445
 21
906.7019362158
  0
LINE
  5
2AF
100
AcDbEntity
  8
0
100
AcDbLine
 62
7
  6
CONTINUOUS
 10
483.5444444445
 20
901.0015158376
 11
483.5444444445
 21
902.5019362158
  0
LINE
  5
2B0
100
AcDbEntity
  8
0
100
AcDbLine
 62
7
  6
CONTINUOUS
 10
488.1444444445
 20
901.0015158376
 11
488.1444444445
 21
902.5019362158
  0
LINE
  5
2B1
100
AcDbEntity
  8
0
100
AcDbLine
 62
7
  6
CONTINUOUS
 10
489.2444444445
 20
906.7019362158
 11
489.2444444445
 21
902.5019362158
  0
LINE
  5
2B2
100
AcDbEntity
  8
0
100
AcDbLine
 62
7
  6
CONTINUOUS
 10
490.1444444445
 20
915.5019362158
 11
490.1444444445
 21
906.7019362158
  0
LINE
  5
2B3
100
AcDbEntity
  8
0
100
AcDbLine
 62
7
  6
CONTINUOUS
 10
492.1444444445
 20
929.2980637843
 11
492.1444444445
 21
915.5019362158
  0
LINE
  5
2B4
100
AcDbEntity
  8
0
100
AcDbLine
 62
7
  6
CONTINUOUS
 10
497.1444444445
 20
915.5019362158
 11
497.1444444445
 21
929.2980637843
  0
LINE
  5
2B5
100
AcDbEntity
  8
0
100
AcDbLine
 62
7
  6
CONTINUOUS
 10
499.1444444445
 20
915.5019362158
 11
499.1444444445
 21
906.7019362158
  0
LINE
  5
2B6
100
AcDbEntity
  8
0
100
AcDbLine
 62
7
  6
CONTINUOUS
 10
500.0444444445
 20
902.5019362158
 11
500.0444444445
 21
906.7019362158
  0
LINE
  5
2B7
100
AcDbEntity
  8
0
100
AcDbLine
 62
7
  6
CONTINUOUS
 10
501.1444444445
 20
901.0015158376
 11
501.1444444445
 21
902.5019362158
  0
LINE
  5
2B8
100
AcDbEntity
  8
0
100
AcDbLine
 62
7
  6
CONTINUOUS
 10
505.7444444445
 20
901.0015158376
 11
505.7444444445
 21
902.5019362158
  0
LINE
  5
2B9
100
AcDbEntity
  8
0
100
AcDbLine
 62
7
  6
CONTINUOUS
 10
506.8444444445
 20
906.7019362158
 11
506.8444444445
 21
902.5019362158
  0
LINE
  5
2BA
100
AcDbEntity
  8
0
100
AcDbLine
 62
7
  6
CONTINUOUS
 10
507.7444444445
 20
915.5019362158
 11
507.7444444445
 21
906.7019362158
  0
LINE
  5
2BB
100
AcDbEntity
  8
0
100
AcDbLine
 62
7
  6
CONTINUOUS
 10
509.7444444445
 20
929.2980637843
 11
509.7444444445
 21
915.5019362158
  0
LINE
  5
2BC
100
AcDbEntity
  8
0
100
AcDbLine
 62
7
  6
CONTINUOUS
 10
514.7444444445
 20
915.5019362158
 11
514.7444444445
 21
929.2980637843
  0
LINE
  5
2BD
100
AcDbEntity
  8
0
100
AcDbLine
 62
7
  6
CONTINUOUS
 10
516.7444444445
 20
915.5019362158
 11
516.7444444445
 21
906.7019362158
  0
LINE
  5
2BE
100
AcDbEntity
  8
0
100
AcDbLine
 62
7
  6
CONTINUOUS
 10
517.6444444445
 20
902.5019362158
 11
517.6444444445
 21
906.7019362158
  0
LINE
  5
2BF
100
AcDbEntity
  8
0
100
AcDbLine
 62
7
  6
CONTINUOUS
 10
518.7444444445
 20
901.0015158376
 11
518.7444444445
 21
902.5019362158
  0
LINE
  5
2C0
100
AcDbEntity
  8
0
100
AcDbLine
 62
7
  6
CONTINUOUS
 10
523.3444444445
 20
901.0015158376
 11
523.3444444445
 21
902.5019362158
  0
LINE
  5
2C1
100
AcDbEntity
  8
0
100
AcDbLine
 62
7
  6
CONTINUOUS
 10
524.4444444445
 20
906.7019362158
 11
524.4444444445
 21
902.5019362158
  0
LINE
  5
2C2
100
AcDbEntity
  8
0
100
AcDbLine
 62
7
  6
CONTINUOUS
 10
525.3444444445
 20
915.5019362158
 11
525.3444444445
 21
906.7019362158
  0
LINE
  5
2C3
100
AcDbEntity
  8
0
100
AcDbLine
 62
7
  6
CONTINUOUS
 10
527.3444444445
 20
929.2980637843
 11
527.3444444445
 21
915.5019362158
  0
LINE
  5
2C4
100
AcDbEntity
  8
0
100
AcDbLine
 62
7
  6
CONTINUOUS
 10
532.3444444445
 20
915.5019362158
 11
532.3444444445
 21
929.2980637843
  0
LINE
  5
2C5
100
AcDbEntity
  8
0
100
AcDbLine
 62
7
  6
CONTINUOUS
 10
534.3444444445
 20
915.5019362158
 11
534.3444444445
 21
906.7019362158
  0
LINE
  5
2C6
100
AcDbEntity
  8
0
100
AcDbLine
 62
7
  6
CONTINUOUS
 10
535.2444444445
 20
902.5019362158
 11
535.2444444445
 21
906.7019362158
  0
LINE
  5
2C7
100
AcDbEntity
  8
0
100
AcDbLine
 62
7
  6
CONTINUOUS
 10
536.3444444445
 20
901.0015158376
 11
536.3444444445
 21
902.5019362158
  0
LINE
  5
2C8
100
AcDbEntity
  8
0
100
AcDbLine
 62
7
  6
CONTINUOUS
 10
540.9444444445
 20
901.0015158376
 11
540.9444444445
 21
902.5019362158
  0
LINE
  5
2C9
100
AcDbEntity
  8
0
100
AcDbLine
 62
7
  6
CONTINUOUS
 10
542.0444444445
 20
906.7019362158
 11
542.0444444445
 21
902.5019362158
  0
LINE
  5
2CA
100
AcDbEntity
  8
0
100
AcDbLine
 62
7
  6
CONTINUOUS
 10
542.9444444445
 20
915.5019362158
 11
542.9444444445
 21
906.7019362158
  0
LINE
  5
2CB
100
AcDbEntity
  8
0
100
AcDbLine
 62
7
  6
CONTINUOUS
 10
544.9444444445
 20
929.2980637843
 11
544.9444444445
 21
915.5019362158
  0
LINE
  5
2CC
100
AcDbEntity
  8
0
100
AcDbLine
 62
7
  6
CONTINUOUS
 10
549.9444444445
 20
915.5019362158
 11
549.9444444445
 21
929.2980637843
  0
LINE
  5
2CD
100
AcDbEntity
  8
0
100
AcDbLine
 62
7
  6
CONTINUOUS
 10
551.9444444445
 20
915.5019362158
 11
551.9444444445
 21
906.7019362158
  0
LINE
  5
2CE
100
AcDbEntity
  8
0
100
AcDbLine
 62
7
  6
CONTINUOUS
 10
552.8444444445
 20
902.5019362158
 11
552.8444444445
 21
906.7019362158
  0
LINE
  5
2CF
100
AcDbEntity
  8
0
100
AcDbLine
 62
7
  6
CONTINUOUS
 10
553.9444444445
 20
901.0015158376
 11
553.9444444445
 21
902.5019362158
  0
LINE
  5
2D0
100
AcDbEntity
  8
0
100
AcDbLine
 62
7
  6
CONTINUOUS
 10
558.5444444445
 20
901.0015158376
 11
558.5444444445
 21
902.5019362158
  0
LINE
  5
2D1
100
AcDbEntity
  8
0
100
AcDbLine
 62
7
  6
CONTINUOUS
 10
559.6444444445
 20
906.7019362158
 11
559.6444444445
 21
902.5019362158
  0
LINE
  5
2D2
100
AcDbEntity
  8
0
100
AcDbLine
 62
7
  6
CONTINUOUS
 10
560.5444444445
 20
915.5019362158
 11
560.5444444445
 21
906.7019362158
  0
LINE
  5
2D3
100
AcDbEntity
  8
0
100
AcDbLine
 62
7
  6
CONTINUOUS
 10
562.5444444445
 20
929.2980637843
 11
562.5444444445
 21
915.5019362158
  0
LINE
  5
2D4
100
AcDbEntity
  8
0
100
AcDbLine
 62
7
  6
CONTINUOUS
 10
567.5444444445
 20
915.5019362158
 11
567.5444444445
 21
929.2980637843
  0
LINE
  5
2D5
100
AcDbEntity
  8
0
100
AcDbLine
 62
7
  6
CONTINUOUS
 10
569.5444444445
 20
915.5019362158
 11
569.5444444445
 21
906.7019362158
  0
LINE
  5
2D6
100
AcDbEntity
  8
0
100
AcDbLine
 62
7
  6
CONTINUOUS
 10
570.4444444445
 20
902.5019362158
 11
570.4444444445
 21
906.7019362158
  0
LINE
  5
2D7
100
AcDbEntity
  8
0
100
AcDbLine
 62
7
  6
CONTINUOUS
 10
571.5444444445
 20
901.0015158376
 11
571.5444444445
 21
902.5019362158
  0
LINE
  5
2D8
100
AcDbEntity
  8
0
100
AcDbLine
 62
7
  6
CONTINUOUS
 10
576.1444444445
 20
901.0015158376
 11
576.1444444445
 21
902.5019362158
  0
LINE
  5
2D9
100
AcDbEntity
  8
0
100
AcDbLine
 62
7
  6
CONTINUOUS
 10
577.2444444445
 20
906.7019362158
 11
577.2444444445
 21
902.5019362158
  0
LINE
  5
2DA
100
AcDbEntity
  8
0
100
AcDbLine
 62
7
  6
CONTINUOUS
 10
578.1444444445
 20
915.5019362158
 11
578.1444444445
 21
906.7019362158
  0
LINE
  5
2DB
100
AcDbEntity
  8
0
100
AcDbLine
 62
7
  6
CONTINUOUS
 10
580.1444444445
 20
929.2980637843
 11
580.1444444445
 21
915.5019362158
  0
LINE
  5
2DC
100
AcDbEntity
  8
0
100
AcDbLine
 62
7
  6
CONTINUOUS
 10
585.1444444445
 20
915.5019362158
 11
585.1444444445
 21
929.2980637843
  0
LINE
  5
2DD
100
AcDbEntity
  8
0
100
AcDbLine
 62
7
  6
CONTINUOUS
 10
587.1444444445
 20
915.5019362158
 11
587.1444444445
 21
906.7019362158
  0
LINE
  5
2DE
100
AcDbEntity
  8
0
100
AcDbLine
 62
7
  6
CONTINUOUS
 10
588.0444444445
 20
902.5019362158
 11
588.0444444445
 21
906.7019362158
  0
LINE
  5
2DF
100
AcDbEntity
  8
0
100
AcDbLine
 62
7
  6
CONTINUOUS
 10
589.1444444445
 20
901.0015158376
 11
589.1444444445
 21
902.5019362158
  0
LINE
  5
2E0
100
AcDbEntity
  8
0
100
AcDbLine
 62
7
  6
CONTINUOUS
 10
593.7444444445
 20
901.0015158376
 11
593.7444444445
 21
902.5019362158
  0
LINE
  5
2E1
100
AcDbEntity
  8
0
100
AcDbLine
 62
7
  6
CONTINUOUS
 10
594.8444444445
 20
906.7019362158
 11
594.8444444445
 21
902.5019362158
  0
LINE
  5
2E2
100
AcDbEntity
  8
0
100
AcDbLine
 62
7
  6
CONTINUOUS
 10
595.7444444445
 20
915.5019362158
 11
595.7444444445
 21
906.7019362158
  0
LINE
  5
2E3
100
AcDbEntity
  8
0
100
AcDbLine
 62
7
  6
CONTINUOUS
 10
597.7444444445
 20
929.2980637843
 11
597.7444444445
 21
915.5019362158
  0
LINE
  5
2E4
100
AcDbEntity
  8
0
100
AcDbLine
 62
7
  6
CONTINUOUS
 10
602.7444444445
 20
915.5019362158
 11
602.7444444445
 21
929.2980637843
  0
LINE
  5
2E5
100
AcDbEntity
  8
0
100
AcDbLine
 62
7
  6
CONTINUOUS
 10
604.7444444445
 20
915.5019362158
 11
604.7444444445
 21
906.7019362158
  0
LINE
  5
2E6
100
AcDbEntity
  8
0
100
AcDbLine
 62
7
  6
CONTINUOUS
 10
605.6444444445
 20
902.5019362158
 11
605.6444444445
 21
906.7019362158
  0
LINE
  5
2E7
100
AcDbEntity
  8
0
100
AcDbLine
 62
7
  6
CONTINUOUS
 10
606.7444444445
 20
901.0015158376
 11
606.7444444445
 21
902.5019362158
  0
LINE
  5
2E8
100
AcDbEntity
  8
0
100
AcDbLine
 62
7
  6
CONTINUOUS
 10
611.3444444445
 20
901.0015158376
 11
611.3444444445
 21
902.5019362158
  0
LINE
  5
2E9
100
AcDbEntity
  8
0
100
AcDbLine
 62
7
  6
CONTINUOUS
 10
612.4444444445
 20
906.7019362158
 11
612.4444444445
 21
902.5019362158
  0
LINE
  5
2EA
100
AcDbEntity
  8
0
100
AcDbLine
 62
7
  6
CONTINUOUS
 10
613.3444444445
 20
915.5019362158
 11
613.3444444445
 21
906.7019362158
  0
LINE
  5
2EB
100
AcDbEntity
  8
0
100
AcDbLine
 62
7
  6
CONTINUOUS
 10
615.3444444445
 20
929.2980637843
 11
615.3444444445
 21
915.5019362158
  0
LINE
  5
2EC
100
AcDbEntity
  8
0
100
AcDbLine
 62
7
  6
CONTINUOUS
 10
620.3444444445
 20
915.5019362158
 11
620.3444444445
 21
929.2980637843
  0
LINE
  5
2ED
100
AcDbEntity
  8
0
100
AcDbLine
 62
7
  6
CONTINUOUS
 10
622.3444444445
 20
915.5019362158
 11
622.3444444445
 21
906.7019362158
  0
LINE
  5
2EE
100
AcDbEntity
  8
0
100
AcDbLine
 62
7
  6
CONTINUOUS
 10
623.2444444445
 20
902.5019362158
 11
623.2444444445
 21
906.7019362158
  0
LINE
  5
2EF
100
AcDbEntity
  8
0
100
AcDbLine
 62
7
  6
CONTINUOUS
 10
624.3444444445
 20
901.0015158376
 11
624.3444444445
 21
902.5019362158
  0
LINE
  5
2F0
100
AcDbEntity
  8
0
100
AcDbLine
 62
7
  6
CONTINUOUS
 10
628.9444444445
 20
901.0015158376
 11
628.9444444445
 21
902.5019362158
  0
LINE
  5
2F1
100
AcDbEntity
  8
0
100
AcDbLine
 62
7
  6
CONTINUOUS
 10
630.0444444445
 20
906.7019362158
 11
630.0444444445
 21
902.5019362158
  0
LINE
  5
2F2
100
AcDbEntity
  8
0
100
AcDbLine
 62
7
  6
CONTINUOUS
 10
630.9444444445
 20
915.5019362158
 11
630.9444444445
 21
906.7019362158
  0
LINE
  5
2F3
100
AcDbEntity
  8
0
100
AcDbLine
 62
7
  6
CONTINUOUS
 10
632.9444444445
 20
929.2980637843
 11
632.9444444445
 21
915.5019362158
  0
LINE
  5
2F4
100
AcDbEntity
  8
0
100
AcDbLine
 62
7
  6
CONTINUOUS
 10
637.9444444445
 20
915.5019362158
 11
637.9444444445
 21
929.2980637843
  0
LINE
  5
2F5
100
AcDbEntity
  8
0
100
AcDbLine
 62
7
  6
CONTINUOUS
 10
639.9444444445
 20
915.5019362158
 11
639.9444444445
 21
906.7019362158
  0
LINE
  5
2F6
100
AcDbEntity
  8
0
100
AcDbLine
 62
7
  6
CONTINUOUS
 10
640.8444444445
 20
902.5019362158
 11
640.8444444445
 21
906.7019362158
  0
LINE
  5
2F7
100
AcDbEntity
  8
0
100
AcDbLine
 62
7
  6
CONTINUOUS
 10
641.9444444445
 20
901.0015158376
 11
641.9444444445
 21
902.5019362158
  0
LINE
  5
2F8
100
AcDbEntity
  8
0
100
AcDbLine
 62
7
  6
CONTINUOUS
 10
646.5444444445
 20
901.0015158376
 11
646.5444444445
 21
902.5019362158
  0
LINE
  5
2F9
100
AcDbEntity
  8
0
100
AcDbLine
 62
7
  6
CONTINUOUS
 10
647.6444444445
 20
906.7019362158
 11
647.6444444445
 21
902.5019362158
  0
LINE
  5
2FA
100
AcDbEntity
  8
0
100
AcDbLine
 62
7
  6
CONTINUOUS
 10
648.5444444445
 20
915.5019362158
 11
648.5444444445
 21
906.7019362158
  0
LINE
  5
2FB
100
AcDbEntity
  8
0
100
AcDbLine
 62
7
  6
CONTINUOUS
 10
650.5444444445
 20
929.2980637843
 11
650.5444444445
 21
915.5019362158
  0
LINE
  5
2FC
100
AcDbEntity
  8
0
100
AcDbLine
 62
7
  6
CONTINUOUS
 10
655.5444444445
 20
915.5019362158
 11
655.5444444445
 21
929.2980637843
  0
LINE
  5
2FD
100
AcDbEntity
  8
0
100
AcDbLine
 62
7
  6
CONTINUOUS
 10
657.5444444445
 20
915.5019362158
 11
657.5444444445
 21
906.7019362158
  0
LINE
  5
2FE
100
AcDbEntity
  8
0
100
AcDbLine
 62
7
  6
CONTINUOUS
 10
1157.9444444445
 20
872.5019362158
 11
148.1444444444
 21
872.5019362158
  0
LINE
  5
2FF
100
AcDbEntity
  8
0
100
AcDbLine
 62
7
  6
CONTINUOUS
 10
148.1444444444
 20
873.0019362158
 11
1157.9444444445
 21
873.0019362158
  0
LINE
  5
300
100
AcDbEntity
  8
0
100
AcDbLine
 62
7
  6
CONTINUOUS
 10
1157.9444444445
 20
896.3019362158
 11
148.1444444444
 21
896.3019362158
  0
LINE
  5
301
100
AcDbEntity
  8
0
100
AcDbLine
 62
7
  6
CONTINUOUS
 10
148.1444444444
 20
896.4479315817
 11
1157.9444444445
 21
896.4479315817
  0
LINE
  5
302
100
AcDbEntity
  8
0
100
AcDbLine
 62
7
  6
CONTINUOUS
 10
1157.9444444445
 20
896.5533756289
 11
148.1444444444
 21
896.5533756289
  0
LINE
  5
303
100
AcDbEntity
  8
0
100
AcDbLine
 62
7
  6
CONTINUOUS
 10
1157.9444444445
 20
896.6398207485
 11
148.1444444444
 21
896.6398207485
  0
LINE
  5
304
100
AcDbEntity
  8
0
100
AcDbLine
 62
7
  6
CONTINUOUS
 10
148.1444444444
 20
896.8019362158
 11
1157.9444444445
 21
896.8019362158
  0
LINE
  5
305
100
AcDbEntity
  8
0
100
AcDbLine
 62
7
  6
CONTINUOUS
 10
1157.9444444445
 20
900.7019362158
 11
148.1444444444
 21
900.7019362158
  0
LINE
  5
306
100
AcDbEntity
  8
0
100
AcDbLine
 62
7
  6
CONTINUOUS
 10
1157.9444444445
 20
901.0010088228
 11
148.1444444444
 21
901.0010088228
  0
LINE
  5
307
100
AcDbEntity
  8
0
100
AcDbLine
 62
7
  6
CONTINUOUS
 10
1152.3444444445
 20
902.5019362158
 11
1151.2444444445
 21
902.5019362158
  0
LINE
  5
308
100
AcDbEntity
  8
0
100
AcDbLine
 62
7
  6
CONTINUOUS
 10
1140.4444444445
 20
902.5019362158
 11
1139.3444444445
 21
902.5019362158
  0
LINE
  5
309
100
AcDbEntity
  8
0
100
AcDbLine
 62
7
  6
CONTINUOUS
 10
1134.7444444445
 20
902.5019362158
 11
1133.6444444445
 21
902.5019362158
  0
LINE
  5
30A
100
AcDbEntity
  8
0
100
AcDbLine
 62
7
  6
CONTINUOUS
 10
1122.8444444445
 20
902.5019362158
 11
1121.7444444445
 21
902.5019362158
  0
LINE
  5
30B
100
AcDbEntity
  8
0
100
AcDbLine
 62
7
  6
CONTINUOUS
 10
1117.1444444445
 20
902.5019362158
 11
1116.0444444445
 21
902.5019362158
  0
LINE
  5
30C
100
AcDbEntity
  8
0
100
AcDbLine
 62
7
  6
CONTINUOUS
 10
1105.2444444445
 20
902.5019362158
 11
1104.1444444445
 21
902.5019362158
  0
LINE
  5
30D
100
AcDbEntity
  8
0
100
AcDbLine
 62
7
  6
CONTINUOUS
 10
1099.5444444445
 20
902.5019362158
 11
1098.4444444445
 21
902.5019362158
  0
LINE
  5
30E
100
AcDbEntity
  8
0
100
AcDbLine
 62
7
  6
CONTINUOUS
 10
1087.6444444445
 20
902.5019362158
 11
1086.5444444445
 21
902.5019362158
  0
LINE
  5
30F
100
AcDbEntity
  8
0
100
AcDbLine
 62
7
  6
CONTINUOUS
 10
1081.9444444445
 20
902.5019362158
 11
1080.8444444445
 21
902.5019362158
  0
LINE
  5
310
100
AcDbEntity
  8
0
100
AcDbLine
 62
7
  6
CONTINUOUS
 10
1070.0444444445
 20
902.5019362158
 11
1068.9444444445
 21
902.5019362158
  0
LINE
  5
311
100
AcDbEntity
  8
0
100
AcDbLine
 62
7
  6
CONTINUOUS
 10
1064.3444444445
 20
902.5019362158
 11
1063.2444444445
 21
902.5019362158
  0
LINE
  5
312
100
AcDbEntity
  8
0
100
AcDbLine
 62
7
  6
CONTINUOUS
 10
1052.4444444445
 20
902.5019362158
 11
1051.3444444445
 21
902.5019362158
  0
LINE
  5
313
100
AcDbEntity
  8
0
100
AcDbLine
 62
7
  6
CONTINUOUS
 10
1046.7444444445
 20
902.5019362158
 11
1045.6444444445
 21
902.5019362158
  0
LINE
  5
314
100
AcDbEntity
  8
0
100
AcDbLine
 62
7
  6
CONTINUOUS
 10
1034.8444444445
 20
902.5019362158
 11
1033.7444444445
 21
902.5019362158
  0
LINE
  5
315
100
AcDbEntity
  8
0
100
AcDbLine
 62
7
  6
CONTINUOUS
 10
1029.1444444445
 20
902.5019362158
 11
1028.0444444445
 21
902.5019362158
  0
LINE
  5
316
100
AcDbEntity
  8
0
100
AcDbLine
 62
7
  6
CONTINUOUS
 10
1017.2444444445
 20
902.5019362158
 11
1016.1444444445
 21
902.5019362158
  0
LINE
  5
317
100
AcDbEntity
  8
0
100
AcDbLine
 62
7
  6
CONTINUOUS
 10
1011.5444444445
 20
902.5019362158
 11
1010.4444444445
 21
902.5019362158
  0
LINE
  5
318
100
AcDbEntity
  8
0
100
AcDbLine
 62
7
  6
CONTINUOUS
 10
999.6444444445
 20
902.5019362158
 11
998.5444444445
 21
902.5019362158
  0
LINE
  5
319
100
AcDbEntity
  8
0
100
AcDbLine
 62
7
  6
CONTINUOUS
 10
993.9444444445
 20
902.5019362158
 11
992.8444444445
 21
902.5019362158
  0
LINE
  5
31A
100
AcDbEntity
  8
0
100
AcDbLine
 62
7
  6
CONTINUOUS
 10
982.0444444445
 20
902.5019362158
 11
980.9444444445
 21
902.5019362158
  0
LINE
  5
31B
100
AcDbEntity
  8
0
100
AcDbLine
 62
7
  6
CONTINUOUS
 10
976.3444444445
 20
902.5019362158
 11
975.2444444445
 21
902.5019362158
  0
LINE
  5
31C
100
AcDbEntity
  8
0
100
AcDbLine
 62
7
  6
CONTINUOUS
 10
964.4444444445
 20
902.5019362158
 11
963.3444444445
 21
902.5019362158
  0
LINE
  5
31D
100
AcDbEntity
  8
0
100
AcDbLine
 62
7
  6
CONTINUOUS
 10
958.7444444445
 20
902.5019362158
 11
957.6444444445
 21
902.5019362158
  0
LINE
  5
31E
100
AcDbEntity
  8
0
100
AcDbLine
 62
7
  6
CONTINUOUS
 10
946.8444444445
 20
902.5019362158
 11
945.7444444445
 21
902.5019362158
  0
LINE
  5
31F
100
AcDbEntity
  8
0
100
AcDbLine
 62
7
  6
CONTINUOUS
 10
941.1444444445
 20
902.5019362158
 11
940.0444444445
 21
902.5019362158
  0
LINE
  5
320
100
AcDbEntity
  8
0
100
AcDbLine
 62
7
  6
CONTINUOUS
 10
929.2444444445
 20
902.5019362158
 11
928.1444444445
 21
902.5019362158
  0
LINE
  5
321
100
AcDbEntity
  8
0
100
AcDbLine
 62
7
  6
CONTINUOUS
 10
923.5444444445
 20
902.5019362158
 11
922.4444444445
 21
902.5019362158
  0
LINE
  5
322
100
AcDbEntity
  8
0
100
AcDbLine
 62
7
  6
CONTINUOUS
 10
911.6444444445
 20
902.5019362158
 11
910.5444444445
 21
902.5019362158
  0
LINE
  5
323
100
AcDbEntity
  8
0
100
AcDbLine
 62
7
  6
CONTINUOUS
 10
905.9444444445
 20
902.5019362158
 11
904.8444444445
 21
902.5019362158
  0
LINE
  5
324
100
AcDbEntity
  8
0
100
AcDbLine
 62
7
  6
CONTINUOUS
 10
894.0444444445
 20
902.5019362158
 11
892.9444444445
 21
902.5019362158
  0
LINE
  5
325
100
AcDbEntity
  8
0
100
AcDbLine
 62
7
  6
CONTINUOUS
 10
888.3444444445
 20
902.5019362158
 11
887.2444444445
 21
902.5019362158
  0
LINE
  5
326
100
AcDbEntity
  8
0
100
AcDbLine
 62
7
  6
CONTINUOUS
 10
876.4444444445
 20
902.5019362158
 11
875.3444444445
 21
902.5019362158
  0
LINE
  5
327
100
AcDbEntity
  8
0
100
AcDbLine
 62
7
  6
CONTINUOUS
 10
870.7444444445
 20
902.5019362158
 11
869.6444444445
 21
902.5019362158
  0
LINE
  5
328
100
AcDbEntity
  8
0
100
AcDbLine
 62
7
  6
CONTINUOUS
 10
858.8444444445
 20
902.5019362158
 11
857.7444444445
 21
902.5019362158
  0
LINE
  5
329
100
AcDbEntity
  8
0
100
AcDbLine
 62
7
  6
CONTINUOUS
 10
853.1444444445
 20
902.5019362158
 11
852.0444444445
 21
902.5019362158
  0
LINE
  5
32A
100
AcDbEntity
  8
0
100
AcDbLine
 62
7
  6
CONTINUOUS
 10
841.2444444445
 20
902.5019362158
 11
840.1444444445
 21
902.5019362158
  0
LINE
  5
32B
100
AcDbEntity
  8
0
100
AcDbLine
 62
7
  6
CONTINUOUS
 10
835.5444444445
 20
902.5019362158
 11
834.4444444445
 21
902.5019362158
  0
LINE
  5
32C
100
AcDbEntity
  8
0
100
AcDbLine
 62
7
  6
CONTINUOUS
 10
823.6444444445
 20
902.5019362158
 11
822.5444444445
 21
902.5019362158
  0
LINE
  5
32D
100
AcDbEntity
  8
0
100
AcDbLine
 62
7
  6
CONTINUOUS
 10
817.9444444445
 20
902.5019362158
 11
816.8444444445
 21
902.5019362158
  0
LINE
  5
32E
100
AcDbEntity
  8
0
100
AcDbLine
 62
7
  6
CONTINUOUS
 10
806.0444444445
 20
902.5019362158
 11
804.9444444445
 21
902.5019362158
  0
LINE
  5
32F
100
AcDbEntity
  8
0
100
AcDbLine
 62
7
  6
CONTINUOUS
 10
800.3444444445
 20
902.5019362158
 11
799.2444444445
 21
902.5019362158
  0
LINE
  5
330
100
AcDbEntity
  8
0
100
AcDbLine
 62
7
  6
CONTINUOUS
 10
788.4444444445
 20
902.5019362158
 11
787.3444444445
 21
902.5019362158
  0
LINE
  5
331
100
AcDbEntity
  8
0
100
AcDbLine
 62
7
  6
CONTINUOUS
 10
782.7444444445
 20
902.5019362158
 11
781.6444444445
 21
902.5019362158
  0
LINE
  5
332
100
AcDbEntity
  8
0
100
AcDbLine
 62
7
  6
CONTINUOUS
 10
770.8444444445
 20
902.5019362158
 11
769.7444444445
 21
902.5019362158
  0
LINE
  5
333
100
AcDbEntity
  8
0
100
AcDbLine
 62
7
  6
CONTINUOUS
 10
765.1444444445
 20
902.5019362158
 11
764.0444444445
 21
902.5019362158
  0
LINE
  5
334
100
AcDbEntity
  8
0
100
AcDbLine
 62
7
  6
CONTINUOUS
 10
753.2444444445
 20
902.5019362158
 11
752.1444444445
 21
902.5019362158
  0
LINE
  5
335
100
AcDbEntity
  8
0
100
AcDbLine
 62
7
  6
CONTINUOUS
 10
747.5444444445
 20
902.5019362158
 11
746.4444444445
 21
902.5019362158
  0
LINE
  5
336
100
AcDbEntity
  8
0
100
AcDbLine
 62
7
  6
CONTINUOUS
 10
735.6444444445
 20
902.5019362158
 11
734.5444444445
 21
902.5019362158
  0
LINE
  5
337
100
AcDbEntity
  8
0
100
AcDbLine
 62
7
  6
CONTINUOUS
 10
729.9444444445
 20
902.5019362158
 11
728.8444444445
 21
902.5019362158
  0
LINE
  5
338
100
AcDbEntity
  8
0
100
AcDbLine
 62
7
  6
CONTINUOUS
 10
718.0444444445
 20
902.5019362158
 11
716.9444444445
 21
902.5019362158
  0
LINE
  5
339
100
AcDbEntity
  8
0
100
AcDbLine
 62
7
  6
CONTINUOUS
 10
712.3444444445
 20
902.5019362158
 11
711.2444444445
 21
902.5019362158
  0
LINE
  5
33A
100
AcDbEntity
  8
0
100
AcDbLine
 62
7
  6
CONTINUOUS
 10
700.4444444445
 20
902.5019362158
 11
699.3444444445
 21
902.5019362158
  0
LINE
  5
33B
100
AcDbEntity
  8
0
100
AcDbLine
 62
7
  6
CONTINUOUS
 10
694.7444444445
 20
902.5019362158
 11
693.6444444445
 21
902.5019362158
  0
LINE
  5
33C
100
AcDbEntity
  8
0
100
AcDbLine
 62
7
  6
CONTINUOUS
 10
682.8444444445
 20
902.5019362158
 11
681.7444444445
 21
902.5019362158
  0
LINE
  5
33D
100
AcDbEntity
  8
0
100
AcDbLine
 62
7
  6
CONTINUOUS
 10
677.1444444445
 20
902.5019362158
 11
676.0444444445
 21
902.5019362158
  0
LINE
  5
33E
100
AcDbEntity
  8
0
100
AcDbLine
 62
7
  6
CONTINUOUS
 10
665.2444444445
 20
902.5019362158
 11
664.1444444445
 21
902.5019362158
  0
LINE
  5
33F
100
AcDbEntity
  8
0
100
AcDbLine
 62
7
  6
CONTINUOUS
 10
659.5444444445
 20
902.5019362158
 11
658.4444444445
 21
902.5019362158
  0
LINE
  5
340
100
AcDbEntity
  8
0
100
AcDbLine
 62
7
  6
CONTINUOUS
 10
647.6444444445
 20
902.5019362158
 11
646.5444444445
 21
902.5019362158
  0
LINE
  5
341
100
AcDbEntity
  8
0
100
AcDbLine
 62
7
  6
CONTINUOUS
 10
641.9444444445
 20
902.5019362158
 11
640.8444444445
 21
902.5019362158
  0
LINE
  5
342
100
AcDbEntity
  8
0
100
AcDbLine
 62
7
  6
CONTINUOUS
 10
630.0444444445
 20
902.5019362158
 11
628.9444444445
 21
902.5019362158
  0
LINE
  5
343
100
AcDbEntity
  8
0
100
AcDbLine
 62
7
  6
CONTINUOUS
 10
624.3444444445
 20
902.5019362158
 11
623.2444444445
 21
902.5019362158
  0
LINE
  5
344
100
AcDbEntity
  8
0
100
AcDbLine
 62
7
  6
CONTINUOUS
 10
612.4444444445
 20
902.5019362158
 11
611.3444444445
 21
902.5019362158
  0
LINE
  5
345
100
AcDbEntity
  8
0
100
AcDbLine
 62
7
  6
CONTINUOUS
 10
606.7444444445
 20
902.5019362158
 11
605.6444444445
 21
902.5019362158
  0
LINE
  5
346
100
AcDbEntity
  8
0
100
AcDbLine
 62
7
  6
CONTINUOUS
 10
594.8444444445
 20
902.5019362158
 11
593.7444444445
 21
902.5019362158
  0
LINE
  5
347
100
AcDbEntity
  8
0
100
AcDbLine
 62
7
  6
CONTINUOUS
 10
589.1444444445
 20
902.5019362158
 11
588.0444444445
 21
902.5019362158
  0
LINE
  5
348
100
AcDbEntity
  8
0
100
AcDbLine
 62
7
  6
CONTINUOUS
 10
577.2444444445
 20
902.5019362158
 11
576.1444444445
 21
902.5019362158
  0
LINE
  5
349
100
AcDbEntity
  8
0
100
AcDbLine
 62
7
  6
CONTINUOUS
 10
571.5444444445
 20
902.5019362158
 11
570.4444444445
 21
902.5019362158
  0
LINE
  5
34A
100
AcDbEntity
  8
0
100
AcDbLine
 62
7
  6
CONTINUOUS
 10
559.6444444445
 20
902.5019362158
 11
558.5444444445
 21
902.5019362158
  0
LINE
  5
34B
100
AcDbEntity
  8
0
100
AcDbLine
 62
7
  6
CONTINUOUS
 10
553.9444444445
 20
902.5019362158
 11
552.8444444445
 21
902.5019362158
  0
LINE
  5
34C
100
AcDbEntity
  8
0
100
AcDbLine
 62
7
  6
CONTINUOUS
 10
542.0444444445
 20
902.5019362158
 11
540.9444444445
 21
902.5019362158
  0
LINE
  5
34D
100
AcDbEntity
  8
0
100
AcDbLine
 62
7
  6
CONTINUOUS
 10
536.3444444445
 20
902.5019362158
 11
535.2444444445
 21
902.5019362158
  0
LINE
  5
34E
100
AcDbEntity
  8
0
100
AcDbLine
 62
7
  6
CONTINUOUS
 10
524.4444444445
 20
902.5019362158
 11
523.3444444445
 21
902.5019362158
  0
LINE
  5
34F
100
AcDbEntity
  8
0
100
AcDbLine
 62
7
  6
CONTINUOUS
 10
518.7444444445
 20
902.5019362158
 11
517.6444444445
 21
902.5019362158
  0
LINE
  5
350
100
AcDbEntity
  8
0
100
AcDbLine
 62
7
  6
CONTINUOUS
 10
506.8444444445
 20
902.5019362158
 11
505.7444444445
 21
902.5019362158
  0
LINE
  5
351
100
AcDbEntity
  8
0
100
AcDbLine
 62
7
  6
CONTINUOUS
 10
501.1444444445
 20
902.5019362158
 11
500.0444444445
 21
902.5019362158
  0
LINE
  5
352
100
AcDbEntity
  8
0
100
AcDbLine
 62
7
  6
CONTINUOUS
 10
489.2444444445
 20
902.5019362158
 11
488.1444444445
 21
902.5019362158
  0
LINE
  5
353
100
AcDbEntity
  8
0
100
AcDbLine
 62
7
  6
CONTINUOUS
 10
483.5444444445
 20
902.5019362158
 11
482.4444444445
 21
902.5019362158
  0
LINE
  5
354
100
AcDbEntity
  8
0
100
AcDbLine
 62
7
  6
CONTINUOUS
 10
471.6444444445
 20
902.5019362158
 11
470.5444444445
 21
902.5019362158
  0
LINE
  5
355
100
AcDbEntity
  8
0
100
AcDbLine
 62
7
  6
CONTINUOUS
 10
465.9444444445
 20
902.5019362158
 11
464.8444444445
 21
902.5019362158
  0
LINE
  5
356
100
AcDbEntity
  8
0
100
AcDbLine
 62
7
  6
CONTINUOUS
 10
454.0444444445
 20
902.5019362158
 11
452.9444444445
 21
902.5019362158
  0
LINE
  5
357
100
AcDbEntity
  8
0
100
AcDbLine
 62
7
  6
CONTINUOUS
 10
448.3444444445
 20
902.5019362158
 11
447.2444444445
 21
902.5019362158
  0
LINE
  5
358
100
AcDbEntity
  8
0
100
AcDbLine
 62
7
  6
CONTINUOUS
 10
436.4444444445
 20
902.5019362158
 11
435.3444444445
 21
902.5019362158
  0
LINE
  5
359
100
AcDbEntity
  8
0
100
AcDbLine
 62
7
  6
CONTINUOUS
 10
430.7444444445
 20
902.5019362158
 11
429.6444444445
 21
902.5019362158
  0
LINE
  5
35A
100
AcDbEntity
  8
0
100
AcDbLine
 62
7
  6
CONTINUOUS
 10
418.8444444445
 20
902.5019362158
 11
417.7444444445
 21
902.5019362158
  0
LINE
  5
35B
100
AcDbEntity
  8
0
100
AcDbLine
 62
7
  6
CONTINUOUS
 10
413.1444444445
 20
902.5019362158
 11
412.0444444445
 21
902.5019362158
  0
LINE
  5
35C
100
AcDbEntity
  8
0
100
AcDbLine
 62
7
  6
CONTINUOUS
 10
401.2444444445
 20
902.5019362158
 11
400.1444444445
 21
902.5019362158
  0
LINE
  5
35D
100
AcDbEntity
  8
0
100
AcDbLine
 62
7
  6
CONTINUOUS
 10
395.5444444445
 20
902.5019362158
 11
394.4444444445
 21
902.5019362158
  0
LINE
  5
35E
100
AcDbEntity
  8
0
100
AcDbLine
 62
7
  6
CONTINUOUS
 10
383.6444444445
 20
902.5019362158
 11
382.5444444445
 21
902.5019362158
  0
LINE
  5
35F
100
AcDbEntity
  8
0
100
AcDbLine
 62
7
  6
CONTINUOUS
 10
377.9444444445
 20
902.5019362158
 11
376.8444444445
 21
902.5019362158
  0
LINE
  5
360
100
AcDbEntity
  8
0
100
AcDbLine
 62
7
  6
CONTINUOUS
 10
366.0444444445
 20
902.5019362158
 11
364.9444444445
 21
902.5019362158
  0
LINE
  5
361
100
AcDbEntity
  8
0
100
AcDbLine
 62
7
  6
CONTINUOUS
 10
360.3444444445
 20
902.5019362158
 11
359.2444444445
 21
902.5019362158
  0
LINE
  5
362
100
AcDbEntity
  8
0
100
AcDbLine
 62
7
  6
CONTINUOUS
 10
348.4444444445
 20
902.5019362158
 11
347.3444444445
 21
902.5019362158
  0
LINE
  5
363
100
AcDbEntity
  8
0
100
AcDbLine
 62
7
  6
CONTINUOUS
 10
342.7444444445
 20
902.5019362158
 11
341.6444444445
 21
902.5019362158
  0
LINE
  5
364
100
AcDbEntity
  8
0
100
AcDbLine
 62
7
  6
CONTINUOUS
 10
330.8444444445
 20
902.5019362158
 11
329.7444444445
 21
902.5019362158
  0
LINE
  5
365
100
AcDbEntity
  8
0
100
AcDbLine
 62
7
  6
CONTINUOUS
 10
325.1444444445
 20
902.5019362158
 11
324.0444444445
 21
902.5019362158
  0
LINE
  5
366
100
AcDbEntity
  8
0
100
AcDbLine
 62
7
  6
CONTINUOUS
 10
313.2444444445
 20
902.5019362158
 11
312.1444444445
 21
902.5019362158
  0
LINE
  5
367
100
AcDbEntity
  8
0
100
AcDbLine
 62
7
  6
CONTINUOUS
 10
307.5444444445
 20
902.5019362158
 11
306.4444444445
 21
902.5019362158
  0
LINE
  5
368
100
AcDbEntity
  8
0
100
AcDbLine
 62
7
  6
CONTINUOUS
 10
295.6444444445
 20
902.5019362158
 11
294.5444444445
 21
902.5019362158
  0
LINE
  5
369
100
AcDbEntity
  8
0
100
AcDbLine
 62
7
  6
CONTINUOUS
 10
289.9444444445
 20
902.5019362158
 11
288.8444444445
 21
902.5019362158
  0
LINE
  5
36A
100
AcDbEntity
  8
0
100
AcDbLine
 62
7
  6
CONTINUOUS
 10
278.0444444445
 20
902.5019362158
 11
276.9444444445
 21
902.5019362158
  0
LINE
  5
36B
100
AcDbEntity
  8
0
100
AcDbLine
 62
7
  6
CONTINUOUS
 10
272.3444444445
 20
902.5019362158
 11
271.2444444445
 21
902.5019362158
  0
LINE
  5
36C
100
AcDbEntity
  8
0
100
AcDbLine
 62
7
  6
CONTINUOUS
 10
260.4444444444
 20
902.5019362158
 11
259.3444444444
 21
902.5019362158
  0
LINE
  5
36D
100
AcDbEntity
  8
0
100
AcDbLine
 62
7
  6
CONTINUOUS
 10
254.7444444444
 20
902.5019362158
 11
253.6444444444
 21
902.5019362158
  0
LINE
  5
36E
100
AcDbEntity
  8
0
100
AcDbLine
 62
7
  6
CONTINUOUS
 10
242.8444444444
 20
902.5019362158
 11
241.7444444444
 21
902.5019362158
  0
LINE
  5
36F
100
AcDbEntity
  8
0
100
AcDbLine
 62
7
  6
CONTINUOUS
 10
237.1444444444
 20
902.5019362158
 11
236.0444444444
 21
902.5019362158
  0
LINE
  5
370
100
AcDbEntity
  8
0
100
AcDbLine
 62
7
  6
CONTINUOUS
 10
225.2444444444
 20
902.5019362158
 11
224.1444444444
 21
902.5019362158
  0
LINE
  5
371
100
AcDbEntity
  8
0
100
AcDbLine
 62
7
  6
CONTINUOUS
 10
219.5444444444
 20
902.5019362158
 11
218.4444444444
 21
902.5019362158
  0
LINE
  5
372
100
AcDbEntity
  8
0
100
AcDbLine
 62
7
  6
CONTINUOUS
 10
207.6444444444
 20
902.5019362158
 11
206.5444444444
 21
902.5019362158
  0
LINE
  5
373
100
AcDbEntity
  8
0
100
AcDbLine
 62
7
  6
CONTINUOUS
 10
201.9444444444
 20
902.5019362158
 11
200.8444444444
 21
902.5019362158
  0
LINE
  5
374
100
AcDbEntity
  8
0
100
AcDbLine
 62
7
  6
CONTINUOUS
 10
190.0444444444
 20
902.5019362158
 11
188.9444444444
 21
902.5019362158
  0
LINE
  5
375
100
AcDbEntity
  8
0
100
AcDbLine
 62
7
  6
CONTINUOUS
 10
184.3444444444
 20
902.5019362158
 11
183.2444444444
 21
902.5019362158
  0
LINE
  5
376
100
AcDbEntity
  8
0
100
AcDbLine
 62
7
  6
CONTINUOUS
 10
172.4444444445
 20
902.5019362158
 11
171.3444444445
 21
902.5019362158
  0
LINE
  5
377
100
AcDbEntity
  8
0
100
AcDbLine
 62
7
  6
CONTINUOUS
 10
166.7444444445
 20
902.5019362158
 11
165.6444444445
 21
902.5019362158
  0
LINE
  5
378
100
AcDbEntity
  8
0
100
AcDbLine
 62
7
  6
CONTINUOUS
 10
154.8444444445
 20
902.5019362158
 11
153.7444444444
 21
902.5019362158
  0
LINE
  5
379
100
AcDbEntity
  8
0
100
AcDbLine
 62
7
  6
CONTINUOUS
 10
658.4444444445
 20
902.5019362158
 11
658.4444444445
 21
906.7019362158
  0
LINE
  5
37A
100
AcDbEntity
  8
0
100
AcDbLine
 62
7
  6
CONTINUOUS
 10
659.5444444445
 20
901.0015158376
 11
659.5444444445
 21
902.5019362158
  0
LINE
  5
37B
100
AcDbEntity
  8
0
100
AcDbLine
 62
7
  6
CONTINUOUS
 10
664.1444444445
 20
901.0015158376
 11
664.1444444445
 21
902.5019362158
  0
LINE
  5
37C
100
AcDbEntity
  8
0
100
AcDbLine
 62
7
  6
CONTINUOUS
 10
665.2444444445
 20
906.7019362158
 11
665.2444444445
 21
902.5019362158
  0
LINE
  5
37D
100
AcDbEntity
  8
0
100
AcDbLine
 62
7
  6
CONTINUOUS
 10
666.1444444445
 20
915.5019362158
 11
666.1444444445
 21
906.7019362158
  0
LINE
  5
37E
100
AcDbEntity
  8
0
100
AcDbLine
 62
7
  6
CONTINUOUS
 10
668.1444444445
 20
929.2980637843
 11
668.1444444445
 21
915.5019362158
  0
LINE
  5
37F
100
AcDbEntity
  8
0
100
AcDbLine
 62
7
  6
CONTINUOUS
 10
673.1444444445
 20
915.5019362158
 11
673.1444444445
 21
929.2980637843
  0
LINE
  5
380
100
AcDbEntity
  8
0
100
AcDbLine
 62
7
  6
CONTINUOUS
 10
675.1444444445
 20
915.5019362158
 11
675.1444444445
 21
906.7019362158
  0
LINE
  5
381
100
AcDbEntity
  8
0
100
AcDbLine
 62
7
  6
CONTINUOUS
 10
676.0444444445
 20
902.5019362158
 11
676.0444444445
 21
906.7019362158
  0
LINE
  5
382
100
AcDbEntity
  8
0
100
AcDbLine
 62
7
  6
CONTINUOUS
 10
677.1444444445
 20
901.0015158376
 11
677.1444444445
 21
902.5019362158
  0
LINE
  5
383
100
AcDbEntity
  8
0
100
AcDbLine
 62
7
  6
CONTINUOUS
 10
681.7444444445
 20
901.0015158376
 11
681.7444444445
 21
902.5019362158
  0
LINE
  5
384
100
AcDbEntity
  8
0
100
AcDbLine
 62
7
  6
CONTINUOUS
 10
682.8444444445
 20
906.7019362158
 11
682.8444444445
 21
902.5019362158
  0
LINE
  5
385
100
AcDbEntity
  8
0
100
AcDbLine
 62
7
  6
CONTINUOUS
 10
683.7444444445
 20
915.5019362158
 11
683.7444444445
 21
906.7019362158
  0
LINE
  5
386
100
AcDbEntity
  8
0
100
AcDbLine
 62
7
  6
CONTINUOUS
 10
685.7444444445
 20
929.2980637843
 11
685.7444444445
 21
915.5019362158
  0
LINE
  5
387
100
AcDbEntity
  8
0
100
AcDbLine
 62
7
  6
CONTINUOUS
 10
690.7444444445
 20
915.5019362158
 11
690.7444444445
 21
929.2980637843
  0
LINE
  5
388
100
AcDbEntity
  8
0
100
AcDbLine
 62
7
  6
CONTINUOUS
 10
1151.2444444445
 20
906.7019362158
 11
1150.3444444445
 21
906.7019362158
  0
LINE
  5
389
100
AcDbEntity
  8
0
100
AcDbLine
 62
7
  6
CONTINUOUS
 10
1141.3444444445
 20
906.7019362158
 11
1140.4444444445
 21
906.7019362158
  0
LINE
  5
38A
100
AcDbEntity
  8
0
100
AcDbLine
 62
7
  6
CONTINUOUS
 10
1133.6444444445
 20
906.7019362158
 11
1132.7444444445
 21
906.7019362158
  0
LINE
  5
38B
100
AcDbEntity
  8
0
100
AcDbLine
 62
7
  6
CONTINUOUS
 10
1123.7444444445
 20
906.7019362158
 11
1122.8444444445
 21
906.7019362158
  0
LINE
  5
38C
100
AcDbEntity
  8
0
100
AcDbLine
 62
7
  6
CONTINUOUS
 10
1116.0444444445
 20
906.7019362158
 11
1115.1444444445
 21
906.7019362158
  0
LINE
  5
38D
100
AcDbEntity
  8
0
100
AcDbLine
 62
7
  6
CONTINUOUS
 10
1106.1444444445
 20
906.7019362158
 11
1105.2444444445
 21
906.7019362158
  0
LINE
  5
38E
100
AcDbEntity
  8
0
100
AcDbLine
 62
7
  6
CONTINUOUS
 10
1098.4444444445
 20
906.7019362158
 11
1097.5444444445
 21
906.7019362158
  0
LINE
  5
38F
100
AcDbEntity
  8
0
100
AcDbLine
 62
7
  6
CONTINUOUS
 10
1088.5444444445
 20
906.7019362158
 11
1087.6444444445
 21
906.7019362158
  0
LINE
  5
390
100
AcDbEntity
  8
0
100
AcDbLine
 62
7
  6
CONTINUOUS
 10
1080.8444444445
 20
906.7019362158
 11
1079.9444444445
 21
906.7019362158
  0
LINE
  5
391
100
AcDbEntity
  8
0
100
AcDbLine
 62
7
  6
CONTINUOUS
 10
1070.9444444445
 20
906.7019362158
 11
1070.0444444445
 21
906.7019362158
  0
LINE
  5
392
100
AcDbEntity
  8
0
100
AcDbLine
 62
7
  6
CONTINUOUS
 10
1063.2444444445
 20
906.7019362158
 11
1062.3444444445
 21
906.7019362158
  0
LINE
  5
393
100
AcDbEntity
  8
0
100
AcDbLine
 62
7
  6
CONTINUOUS
 10
1053.3444444445
 20
906.7019362158
 11
1052.4444444445
 21
906.7019362158
  0
LINE
  5
394
100
AcDbEntity
  8
0
100
AcDbLine
 62
7
  6
CONTINUOUS
 10
1045.6444444445
 20
906.7019362158
 11
1044.7444444445
 21
906.7019362158
  0
LINE
  5
395
100
AcDbEntity
  8
0
100
AcDbLine
 62
7
  6
CONTINUOUS
 10
1035.7444444445
 20
906.7019362158
 11
1034.8444444445
 21
906.7019362158
  0
LINE
  5
396
100
AcDbEntity
  8
0
100
AcDbLine
 62
7
  6
CONTINUOUS
 10
1028.0444444445
 20
906.7019362158
 11
1027.1444444445
 21
906.7019362158
  0
LINE
  5
397
100
AcDbEntity
  8
0
100
AcDbLine
 62
7
  6
CONTINUOUS
 10
1018.1444444445
 20
906.7019362158
 11
1017.2444444445
 21
906.7019362158
  0
LINE
  5
398
100
AcDbEntity
  8
0
100
AcDbLine
 62
7
  6
CONTINUOUS
 10
1010.4444444445
 20
906.7019362158
 11
1009.5444444445
 21
906.7019362158
  0
LINE
  5
399
100
AcDbEntity
  8
0
100
AcDbLine
 62
7
  6
CONTINUOUS
 10
1000.5444444445
 20
906.7019362158
 11
999.6444444445
 21
906.7019362158
  0
LINE
  5
39A
100
AcDbEntity
  8
0
100
AcDbLine
 62
7
  6
CONTINUOUS
 10
992.8444444445
 20
906.7019362158
 11
991.9444444445
 21
906.7019362158
  0
LINE
  5
39B
100
AcDbEntity
  8
0
100
AcDbLine
 62
7
  6
CONTINUOUS
 10
982.9444444445
 20
906.7019362158
 11
982.0444444445
 21
906.7019362158
  0
LINE
  5
39C
100
AcDbEntity
  8
0
100
AcDbLine
 62
7
  6
CONTINUOUS
 10
975.2444444445
 20
906.7019362158
 11
974.3444444445
 21
906.7019362158
  0
LINE
  5
39D
100
AcDbEntity
  8
0
100
AcDbLine
 62
7
  6
CONTINUOUS
 10
965.3444444445
 20
906.7019362158
 11
964.4444444445
 21
906.7019362158
  0
LINE
  5
39E
100
AcDbEntity
  8
0
100
AcDbLine
 62
7
  6
CONTINUOUS
 10
957.6444444445
 20
906.7019362158
 11
956.7444444445
 21
906.7019362158
  0
LINE
  5
39F
100
AcDbEntity
  8
0
100
AcDbLine
 62
7
  6
CONTINUOUS
 10
947.7444444445
 20
906.7019362158
 11
946.8444444445
 21
906.7019362158
  0
LINE
  5
3A0
100
AcDbEntity
  8
0
100
AcDbLine
 62
7
  6
CONTINUOUS
 10
940.0444444445
 20
906.7019362158
 11
939.1444444445
 21
906.7019362158
  0
LINE
  5
3A1
100
AcDbEntity
  8
0
100
AcDbLine
 62
7
  6
CONTINUOUS
 10
930.1444444445
 20
906.7019362158
 11
929.2444444445
 21
906.7019362158
  0
LINE
  5
3A2
100
AcDbEntity
  8
0
100
AcDbLine
 62
7
  6
CONTINUOUS
 10
922.4444444445
 20
906.7019362158
 11
921.5444444445
 21
906.7019362158
  0
LINE
  5
3A3
100
AcDbEntity
  8
0
100
AcDbLine
 62
7
  6
CONTINUOUS
 10
912.5444444445
 20
906.7019362158
 11
911.6444444445
 21
906.7019362158
  0
LINE
  5
3A4
100
AcDbEntity
  8
0
100
AcDbLine
 62
7
  6
CONTINUOUS
 10
904.8444444445
 20
906.7019362158
 11
903.9444444445
 21
906.7019362158
  0
LINE
  5
3A5
100
AcDbEntity
  8
0
100
AcDbLine
 62
7
  6
CONTINUOUS
 10
894.9444444445
 20
906.7019362158
 11
894.0444444445
 21
906.7019362158
  0
LINE
  5
3A6
100
AcDbEntity
  8
0
100
AcDbLine
 62
7
  6
CONTINUOUS
 10
887.2444444445
 20
906.7019362158
 11
886.3444444445
 21
906.7019362158
  0
LINE
  5
3A7
100
AcDbEntity
  8
0
100
AcDbLine
 62
7
  6
CONTINUOUS
 10
877.3444444445
 20
906.7019362158
 11
876.4444444445
 21
906.7019362158
  0
LINE
  5
3A8
100
AcDbEntity
  8
0
100
AcDbLine
 62
7
  6
CONTINUOUS
 10
869.6444444445
 20
906.7019362158
 11
868.7444444445
 21
906.7019362158
  0
LINE
  5
3A9
100
AcDbEntity
  8
0
100
AcDbLine
 62
7
  6
CONTINUOUS
 10
859.7444444445
 20
906.7019362158
 11
858.8444444445
 21
906.7019362158
  0
LINE
  5
3AA
100
AcDbEntity
  8
0
100
AcDbLine
 62
7
  6
CONTINUOUS
 10
852.0444444445
 20
906.7019362158
 11
851.1444444445
 21
906.7019362158
  0
LINE
  5
3AB
100
AcDbEntity
  8
0
100
AcDbLine
 62
7
  6
CONTINUOUS
 10
842.1444444445
 20
906.7019362158
 11
841.2444444445
 21
906.7019362158
  0
LINE
  5
3AC
100
AcDbEntity
  8
0
100
AcDbLine
 62
7
  6
CONTINUOUS
 10
834.4444444445
 20
906.7019362158
 11
833.5444444445
 21
906.7019362158
  0
LINE
  5
3AD
100
AcDbEntity
  8
0
100
AcDbLine
 62
7
  6
CONTINUOUS
 10
824.5444444445
 20
906.7019362158
 11
823.6444444445
 21
906.7019362158
  0
LINE
  5
3AE
100
AcDbEntity
  8
0
100
AcDbLine
 62
7
  6
CONTINUOUS
 10
816.8444444445
 20
906.7019362158
 11
815.9444444445
 21
906.7019362158
  0
LINE
  5
3AF
100
AcDbEntity
  8
0
100
AcDbLine
 62
7
  6
CONTINUOUS
 10
806.9444444445
 20
906.7019362158
 11
806.0444444445
 21
906.7019362158
  0
LINE
  5
3B0
100
AcDbEntity
  8
0
100
AcDbLine
 62
7
  6
CONTINUOUS
 10
799.2444444445
 20
906.7019362158
 11
798.3444444445
 21
906.7019362158
  0
LINE
  5
3B1
100
AcDbEntity
  8
0
100
AcDbLine
 62
7
  6
CONTINUOUS
 10
789.3444444445
 20
906.7019362158
 11
788.4444444445
 21
906.7019362158
  0
LINE
  5
3B2
100
AcDbEntity
  8
0
100
AcDbLine
 62
7
  6
CONTINUOUS
 10
781.6444444445
 20
906.7019362158
 11
780.7444444445
 21
906.7019362158
  0
LINE
  5
3B3
100
AcDbEntity
  8
0
100
AcDbLine
 62
7
  6
CONTINUOUS
 10
771.7444444445
 20
906.7019362158
 11
770.8444444445
 21
906.7019362158
  0
LINE
  5
3B4
100
AcDbEntity
  8
0
100
AcDbLine
 62
7
  6
CONTINUOUS
 10
764.0444444445
 20
906.7019362158
 11
763.1444444445
 21
906.7019362158
  0
LINE
  5
3B5
100
AcDbEntity
  8
0
100
AcDbLine
 62
7
  6
CONTINUOUS
 10
754.1444444445
 20
906.7019362158
 11
753.2444444445
 21
906.7019362158
  0
LINE
  5
3B6
100
AcDbEntity
  8
0
100
AcDbLine
 62
7
  6
CONTINUOUS
 10
746.4444444445
 20
906.7019362158
 11
745.5444444445
 21
906.7019362158
  0
LINE
  5
3B7
100
AcDbEntity
  8
0
100
AcDbLine
 62
7
  6
CONTINUOUS
 10
736.5444444445
 20
906.7019362158
 11
735.6444444445
 21
906.7019362158
  0
LINE
  5
3B8
100
AcDbEntity
  8
0
100
AcDbLine
 62
7
  6
CONTINUOUS
 10
728.8444444445
 20
906.7019362158
 11
727.9444444445
 21
906.7019362158
  0
LINE
  5
3B9
100
AcDbEntity
  8
0
100
AcDbLine
 62
7
  6
CONTINUOUS
 10
718.9444444445
 20
906.7019362158
 11
718.0444444445
 21
906.7019362158
  0
LINE
  5
3BA
100
AcDbEntity
  8
0
100
AcDbLine
 62
7
  6
CONTINUOUS
 10
711.2444444445
 20
906.7019362158
 11
710.3444444445
 21
906.7019362158
  0
LINE
  5
3BB
100
AcDbEntity
  8
0
100
AcDbLine
 62
7
  6
CONTINUOUS
 10
701.3444444445
 20
906.7019362158
 11
700.4444444445
 21
906.7019362158
  0
LINE
  5
3BC
100
AcDbEntity
  8
0
100
AcDbLine
 62
7
  6
CONTINUOUS
 10
693.6444444445
 20
906.7019362158
 11
692.7444444445
 21
906.7019362158
  0
LINE
  5
3BD
100
AcDbEntity
  8
0
100
AcDbLine
 62
7
  6
CONTINUOUS
 10
683.7444444445
 20
906.7019362158
 11
682.8444444445
 21
906.7019362158
  0
LINE
  5
3BE
100
AcDbEntity
  8
0
100
AcDbLine
 62
7
  6
CONTINUOUS
 10
676.0444444445
 20
906.7019362158
 11
675.1444444445
 21
906.7019362158
  0
LINE
  5
3BF
100
AcDbEntity
  8
0
100
AcDbLine
 62
7
  6
CONTINUOUS
 10
666.1444444445
 20
906.7019362158
 11
665.2444444445
 21
906.7019362158
  0
LINE
  5
3C0
100
AcDbEntity
  8
0
100
AcDbLine
 62
7
  6
CONTINUOUS
 10
658.4444444445
 20
906.7019362158
 11
657.5444444445
 21
906.7019362158
  0
LINE
  5
3C1
100
AcDbEntity
  8
0
100
AcDbLine
 62
7
  6
CONTINUOUS
 10
648.5444444445
 20
906.7019362158
 11
647.6444444445
 21
906.7019362158
  0
LINE
  5
3C2
100
AcDbEntity
  8
0
100
AcDbLine
 62
7
  6
CONTINUOUS
 10
640.8444444445
 20
906.7019362158
 11
639.9444444445
 21
906.7019362158
  0
LINE
  5
3C3
100
AcDbEntity
  8
0
100
AcDbLine
 62
7
  6
CONTINUOUS
 10
630.9444444445
 20
906.7019362158
 11
630.0444444445
 21
906.7019362158
  0
LINE
  5
3C4
100
AcDbEntity
  8
0
100
AcDbLine
 62
7
  6
CONTINUOUS
 10
623.2444444445
 20
906.7019362158
 11
622.3444444445
 21
906.7019362158
  0
LINE
  5
3C5
100
AcDbEntity
  8
0
100
AcDbLine
 62
7
  6
CONTINUOUS
 10
613.3444444445
 20
906.7019362158
 11
612.4444444445
 21
906.7019362158
  0
LINE
  5
3C6
100
AcDbEntity
  8
0
100
AcDbLine
 62
7
  6
CONTINUOUS
 10
605.6444444445
 20
906.7019362158
 11
604.7444444445
 21
906.7019362158
  0
LINE
  5
3C7
100
AcDbEntity
  8
0
100
AcDbLine
 62
7
  6
CONTINUOUS
 10
595.7444444445
 20
906.7019362158
 11
594.8444444445
 21
906.7019362158
  0
LINE
  5
3C8
100
AcDbEntity
  8
0
100
AcDbLine
 62
7
  6
CONTINUOUS
 10
588.0444444445
 20
906.7019362158
 11
587.1444444445
 21
906.7019362158
  0
LINE
  5
3C9
100
AcDbEntity
  8
0
100
AcDbLine
 62
7
  6
CONTINUOUS
 10
578.1444444445
 20
906.7019362158
 11
577.2444444445
 21
906.7019362158
  0
LINE
  5
3CA
100
AcDbEntity
  8
0
100
AcDbLine
 62
7
  6
CONTINUOUS
 10
570.4444444445
 20
906.7019362158
 11
569.5444444445
 21
906.7019362158
  0
LINE
  5
3CB
100
AcDbEntity
  8
0
100
AcDbLine
 62
7
  6
CONTINUOUS
 10
560.5444444445
 20
906.7019362158
 11
559.6444444445
 21
906.7019362158
  0
LINE
  5
3CC
100
AcDbEntity
  8
0
100
AcDbLine
 62
7
  6
CONTINUOUS
 10
552.8444444445
 20
906.7019362158
 11
551.9444444445
 21
906.7019362158
  0
LINE
  5
3CD
100
AcDbEntity
  8
0
100
AcDbLine
 62
7
  6
CONTINUOUS
 10
542.9444444445
 20
906.7019362158
 11
542.0444444445
 21
906.7019362158
  0
LINE
  5
3CE
100
AcDbEntity
  8
0
100
AcDbLine
 62
7
  6
CONTINUOUS
 10
535.2444444445
 20
906.7019362158
 11
534.3444444445
 21
906.7019362158
  0
LINE
  5
3CF
100
AcDbEntity
  8
0
100
AcDbLine
 62
7
  6
CONTINUOUS
 10
525.3444444445
 20
906.7019362158
 11
524.4444444445
 21
906.7019362158
  0
LINE
  5
3D0
100
AcDbEntity
  8
0
100
AcDbLine
 62
7
  6
CONTINUOUS
 10
517.6444444445
 20
906.7019362158
 11
516.7444444445
 21
906.7019362158
  0
LINE
  5
3D1
100
AcDbEntity
  8
0
100
AcDbLine
 62
7
  6
CONTINUOUS
 10
507.7444444445
 20
906.7019362158
 11
506.8444444445
 21
906.7019362158
  0
LINE
  5
3D2
100
AcDbEntity
  8
0
100
AcDbLine
 62
7
  6
CONTINUOUS
 10
500.0444444445
 20
906.7019362158
 11
499.1444444445
 21
906.7019362158
  0
LINE
  5
3D3
100
AcDbEntity
  8
0
100
AcDbLine
 62
7
  6
CONTINUOUS
 10
490.1444444445
 20
906.7019362158
 11
489.2444444445
 21
906.7019362158
  0
LINE
  5
3D4
100
AcDbEntity
  8
0
100
AcDbLine
 62
7
  6
CONTINUOUS
 10
482.4444444445
 20
906.7019362158
 11
481.5444444445
 21
906.7019362158
  0
LINE
  5
3D5
100
AcDbEntity
  8
0
100
AcDbLine
 62
7
  6
CONTINUOUS
 10
472.5444444445
 20
906.7019362158
 11
471.6444444445
 21
906.7019362158
  0
LINE
  5
3D6
100
AcDbEntity
  8
0
100
AcDbLine
 62
7
  6
CONTINUOUS
 10
464.8444444445
 20
906.7019362158
 11
463.9444444445
 21
906.7019362158
  0
LINE
  5
3D7
100
AcDbEntity
  8
0
100
AcDbLine
 62
7
  6
CONTINUOUS
 10
454.9444444445
 20
906.7019362158
 11
454.0444444445
 21
906.7019362158
  0
LINE
  5
3D8
100
AcDbEntity
  8
0
100
AcDbLine
 62
7
  6
CONTINUOUS
 10
447.2444444445
 20
906.7019362158
 11
446.3444444445
 21
906.7019362158
  0
LINE
  5
3D9
100
AcDbEntity
  8
0
100
AcDbLine
 62
7
  6
CONTINUOUS
 10
437.3444444445
 20
906.7019362158
 11
436.4444444445
 21
906.7019362158
  0
LINE
  5
3DA
100
AcDbEntity
  8
0
100
AcDbLine
 62
7
  6
CONTINUOUS
 10
429.6444444445
 20
906.7019362158
 11
428.7444444445
 21
906.7019362158
  0
LINE
  5
3DB
100
AcDbEntity
  8
0
100
AcDbLine
 62
7
  6
CONTINUOUS
 10
419.7444444445
 20
906.7019362158
 11
418.8444444445
 21
906.7019362158
  0
LINE
  5
3DC
100
AcDbEntity
  8
0
100
AcDbLine
 62
7
  6
CONTINUOUS
 10
412.0444444445
 20
906.7019362158
 11
411.1444444445
 21
906.7019362158
  0
LINE
  5
3DD
100
AcDbEntity
  8
0
100
AcDbLine
 62
7
  6
CONTINUOUS
 10
402.1444444445
 20
906.7019362158
 11
401.2444444445
 21
906.7019362158
  0
LINE
  5
3DE
100
AcDbEntity
  8
0
100
AcDbLine
 62
7
  6
CONTINUOUS
 10
394.4444444445
 20
906.7019362158
 11
393.5444444445
 21
906.7019362158
  0
LINE
  5
3DF
100
AcDbEntity
  8
0
100
AcDbLine
 62
7
  6
CONTINUOUS
 10
384.5444444445
 20
906.7019362158
 11
383.6444444445
 21
906.7019362158
  0
LINE
  5
3E0
100
AcDbEntity
  8
0
100
AcDbLine
 62
7
  6
CONTINUOUS
 10
376.8444444445
 20
906.7019362158
 11
375.9444444445
 21
906.7019362158
  0
LINE
  5
3E1
100
AcDbEntity
  8
0
100
AcDbLine
 62
7
  6
CONTINUOUS
 10
366.9444444445
 20
906.7019362158
 11
366.0444444445
 21
906.7019362158
  0
LINE
  5
3E2
100
AcDbEntity
  8
0
100
AcDbLine
 62
7
  6
CONTINUOUS
 10
359.2444444445
 20
906.7019362158
 11
358.3444444445
 21
906.7019362158
  0
LINE
  5
3E3
100
AcDbEntity
  8
0
100
AcDbLine
 62
7
  6
CONTINUOUS
 10
349.3444444445
 20
906.7019362158
 11
348.4444444445
 21
906.7019362158
  0
LINE
  5
3E4
100
AcDbEntity
  8
0
100
AcDbLine
 62
7
  6
CONTINUOUS
 10
341.6444444445
 20
906.7019362158
 11
340.7444444445
 21
906.7019362158
  0
LINE
  5
3E5
100
AcDbEntity
  8
0
100
AcDbLine
 62
7
  6
CONTINUOUS
 10
331.7444444445
 20
906.7019362158
 11
330.8444444445
 21
906.7019362158
  0
LINE
  5
3E6
100
AcDbEntity
  8
0
100
AcDbLine
 62
7
  6
CONTINUOUS
 10
324.0444444445
 20
906.7019362158
 11
323.1444444445
 21
906.7019362158
  0
LINE
  5
3E7
100
AcDbEntity
  8
0
100
AcDbLine
 62
7
  6
CONTINUOUS
 10
314.1444444445
 20
906.7019362158
 11
313.2444444445
 21
906.7019362158
  0
LINE
  5
3E8
100
AcDbEntity
  8
0
100
AcDbLine
 62
7
  6
CONTINUOUS
 10
306.4444444445
 20
906.7019362158
 11
305.5444444445
 21
906.7019362158
  0
LINE
  5
3E9
100
AcDbEntity
  8
0
100
AcDbLine
 62
7
  6
CONTINUOUS
 10
296.5444444445
 20
906.7019362158
 11
295.6444444445
 21
906.7019362158
  0
LINE
  5
3EA
100
AcDbEntity
  8
0
100
AcDbLine
 62
7
  6
CONTINUOUS
 10
288.8444444445
 20
906.7019362158
 11
287.9444444445
 21
906.7019362158
  0
LINE
  5
3EB
100
AcDbEntity
  8
0
100
AcDbLine
 62
7
  6
CONTINUOUS
 10
278.9444444445
 20
906.7019362158
 11
278.0444444445
 21
906.7019362158
  0
LINE
  5
3EC
100
AcDbEntity
  8
0
100
AcDbLine
 62
7
  6
CONTINUOUS
 10
271.2444444445
 20
906.7019362158
 11
270.3444444445
 21
906.7019362158
  0
LINE
  5
3ED
100
AcDbEntity
  8
0
100
AcDbLine
 62
7
  6
CONTINUOUS
 10
261.3444444444
 20
906.7019362158
 11
260.4444444444
 21
906.7019362158
  0
LINE
  5
3EE
100
AcDbEntity
  8
0
100
AcDbLine
 62
7
  6
CONTINUOUS
 10
253.6444444444
 20
906.7019362158
 11
252.7444444444
 21
906.7019362158
  0
LINE
  5
3EF
100
AcDbEntity
  8
0
100
AcDbLine
 62
7
  6
CONTINUOUS
 10
243.7444444444
 20
906.7019362158
 11
242.8444444444
 21
906.7019362158
  0
LINE
  5
3F0
100
AcDbEntity
  8
0
100
AcDbLine
 62
7
  6
CONTINUOUS
 10
236.0444444444
 20
906.7019362158
 11
235.1444444444
 21
906.7019362158
  0
LINE
  5
3F1
100
AcDbEntity
  8
0
100
AcDbLine
 62
7
  6
CONTINUOUS
 10
226.1444444444
 20
906.7019362158
 11
225.2444444444
 21
906.7019362158
  0
LINE
  5
3F2
100
AcDbEntity
  8
0
100
AcDbLine
 62
7
  6
CONTINUOUS
 10
218.4444444444
 20
906.7019362158
 11
217.5444444444
 21
906.7019362158
  0
LINE
  5
3F3
100
AcDbEntity
  8
0
100
AcDbLine
 62
7
  6
CONTINUOUS
 10
208.5444444444
 20
906.7019362158
 11
207.6444444444
 21
906.7019362158
  0
LINE
  5
3F4
100
AcDbEntity
  8
0
100
AcDbLine
 62
7
  6
CONTINUOUS
 10
200.8444444444
 20
906.7019362158
 11
199.9444444444
 21
906.7019362158
  0
LINE
  5
3F5
100
AcDbEntity
  8
0
100
AcDbLine
 62
7
  6
CONTINUOUS
 10
190.9444444444
 20
906.7019362158
 11
190.0444444444
 21
906.7019362158
  0
LINE
  5
3F6
100
AcDbEntity
  8
0
100
AcDbLine
 62
7
  6
CONTINUOUS
 10
183.2444444444
 20
906.7019362158
 11
182.3444444444
 21
906.7019362158
  0
LINE
  5
3F7
100
AcDbEntity
  8
0
100
AcDbLine
 62
7
  6
CONTINUOUS
 10
173.3444444445
 20
906.7019362158
 11
172.4444444445
 21
906.7019362158
  0
LINE
  5
3F8
100
AcDbEntity
  8
0
100
AcDbLine
 62
7
  6
CONTINUOUS
 10
165.6444444445
 20
906.7019362158
 11
164.7444444445
 21
906.7019362158
  0
LINE
  5
3F9
100
AcDbEntity
  8
0
100
AcDbLine
 62
7
  6
CONTINUOUS
 10
155.7444444445
 20
906.7019362158
 11
154.8444444445
 21
906.7019362158
  0
LINE
  5
3FA
100
AcDbEntity
  8
0
100
AcDbLine
 62
7
  6
CONTINUOUS
 10
1150.3444444445
 20
915.5019362158
 11
1141.3444444445
 21
915.5019362158
  0
LINE
  5
3FB
100
AcDbEntity
  8
0
100
AcDbLine
 62
7
  6
CONTINUOUS
 10
1132.7444444445
 20
915.5019362158
 11
1123.7444444445
 21
915.5019362158
  0
LINE
  5
3FC
100
AcDbEntity
  8
0
100
AcDbLine
 62
7
  6
CONTINUOUS
 10
1115.1444444445
 20
915.5019362158
 11
1106.1444444445
 21
915.5019362158
  0
LINE
  5
3FD
100
AcDbEntity
  8
0
100
AcDbLine
 62
7
  6
CONTINUOUS
 10
1097.5444444445
 20
915.5019362158
 11
1088.5444444445
 21
915.5019362158
  0
LINE
  5
3FE
100
AcDbEntity
  8
0
100
AcDbLine
 62
7
  6
CONTINUOUS
 10
1079.9444444445
 20
915.5019362158
 11
1070.9444444445
 21
915.5019362158
  0
LINE
  5
3FF
100
AcDbEntity
  8
0
100
AcDbLine
 62
7
  6
CONTINUOUS
 10
1062.3444444445
 20
915.5019362158
 11
1053.3444444445
 21
915.5019362158
  0
LINE
  5
400
100
AcDbEntity
  8
0
100
AcDbLine
 62
7
  6
CONTINUOUS
 10
1044.7444444445
 20
915.5019362158
 11
1035.7444444445
 21
915.5019362158
  0
LINE
  5
401
100
AcDbEntity
  8
0
100
AcDbLine
 62
7
  6
CONTINUOUS
 10
1027.1444444445
 20
915.5019362158
 11
1018.1444444445
 21
915.5019362158
  0
LINE
  5
402
100
AcDbEntity
  8
0
100
AcDbLine
 62
7
  6
CONTINUOUS
 10
1009.5444444445
 20
915.5019362158
 11
1000.5444444445
 21
915.5019362158
  0
LINE
  5
403
100
AcDbEntity
  8
0
100
AcDbLine
 62
7
  6
CONTINUOUS
 10
991.9444444445
 20
915.5019362158
 11
982.9444444445
 21
915.5019362158
  0
LINE
  5
404
100
AcDbEntity
  8
0
100
AcDbLine
 62
7
  6
CONTINUOUS
 10
974.3444444445
 20
915.5019362158
 11
965.3444444445
 21
915.5019362158
  0
LINE
  5
405
100
AcDbEntity
  8
0
100
AcDbLine
 62
7
  6
CONTINUOUS
 10
956.7444444445
 20
915.5019362158
 11
947.7444444445
 21
915.5019362158
  0
LINE
  5
406
100
AcDbEntity
  8
0
100
AcDbLine
 62
7
  6
CONTINUOUS
 10
939.1444444445
 20
915.5019362158
 11
930.1444444445
 21
915.5019362158
  0
LINE
  5
407
100
AcDbEntity
  8
0
100
AcDbLine
 62
7
  6
CONTINUOUS
 10
921.5444444445
 20
915.5019362158
 11
912.5444444445
 21
915.5019362158
  0
LINE
  5
408
100
AcDbEntity
  8
0
100
AcDbLine
 62
7
  6
CONTINUOUS
 10
903.9444444445
 20
915.5019362158
 11
894.9444444445
 21
915.5019362158
  0
LINE
  5
409
100
AcDbEntity
  8
0
100
AcDbLine
 62
7
  6
CONTINUOUS
 10
886.3444444445
 20
915.5019362158
 11
877.3444444445
 21
915.5019362158
  0
LINE
  5
40A
100
AcDbEntity
  8
0
100
AcDbLine
 62
7
  6
CONTINUOUS
 10
868.7444444445
 20
915.5019362158
 11
859.7444444445
 21
915.5019362158
  0
LINE
  5
40B
100
AcDbEntity
  8
0
100
AcDbLine
 62
7
  6
CONTINUOUS
 10
851.1444444445
 20
915.5019362158
 11
842.1444444445
 21
915.5019362158
  0
LINE
  5
40C
100
AcDbEntity
  8
0
100
AcDbLine
 62
7
  6
CONTINUOUS
 10
833.5444444445
 20
915.5019362158
 11
824.5444444445
 21
915.5019362158
  0
LINE
  5
40D
100
AcDbEntity
  8
0
100
AcDbLine
 62
7
  6
CONTINUOUS
 10
815.9444444445
 20
915.5019362158
 11
806.9444444445
 21
915.5019362158
  0
LINE
  5
40E
100
AcDbEntity
  8
0
100
AcDbLine
 62
7
  6
CONTINUOUS
 10
798.3444444445
 20
915.5019362158
 11
789.3444444445
 21
915.5019362158
  0
LINE
  5
40F
100
AcDbEntity
  8
0
100
AcDbLine
 62
7
  6
CONTINUOUS
 10
780.7444444445
 20
915.5019362158
 11
771.7444444445
 21
915.5019362158
  0
LINE
  5
410
100
AcDbEntity
  8
0
100
AcDbLine
 62
7
  6
CONTINUOUS
 10
763.1444444445
 20
915.5019362158
 11
754.1444444445
 21
915.5019362158
  0
LINE
  5
411
100
AcDbEntity
  8
0
100
AcDbLine
 62
7
  6
CONTINUOUS
 10
745.5444444445
 20
915.5019362158
 11
736.5444444445
 21
915.5019362158
  0
LINE
  5
412
100
AcDbEntity
  8
0
100
AcDbLine
 62
7
  6
CONTINUOUS
 10
727.9444444445
 20
915.5019362158
 11
718.9444444445
 21
915.5019362158
  0
LINE
  5
413
100
AcDbEntity
  8
0
100
AcDbLine
 62
7
  6
CONTINUOUS
 10
710.3444444445
 20
915.5019362158
 11
701.3444444445
 21
915.5019362158
  0
LINE
  5
414
100
AcDbEntity
  8
0
100
AcDbLine
 62
7
  6
CONTINUOUS
 10
692.7444444445
 20
915.5019362158
 11
683.7444444445
 21
915.5019362158
  0
LINE
  5
415
100
AcDbEntity
  8
0
100
AcDbLine
 62
7
  6
CONTINUOUS
 10
675.1444444445
 20
915.5019362158
 11
666.1444444445
 21
915.5019362158
  0
LINE
  5
416
100
AcDbEntity
  8
0
100
AcDbLine
 62
7
  6
CONTINUOUS
 10
657.5444444445
 20
915.5019362158
 11
648.5444444445
 21
915.5019362158
  0
LINE
  5
417
100
AcDbEntity
  8
0
100
AcDbLine
 62
7
  6
CONTINUOUS
 10
639.9444444445
 20
915.5019362158
 11
630.9444444445
 21
915.5019362158
  0
LINE
  5
418
100
AcDbEntity
  8
0
100
AcDbLine
 62
7
  6
CONTINUOUS
 10
622.3444444445
 20
915.5019362158
 11
613.3444444445
 21
915.5019362158
  0
LINE
  5
419
100
AcDbEntity
  8
0
100
AcDbLine
 62
7
  6
CONTINUOUS
 10
604.7444444445
 20
915.5019362158
 11
595.7444444445
 21
915.5019362158
  0
LINE
  5
41A
100
AcDbEntity
  8
0
100
AcDbLine
 62
7
  6
CONTINUOUS
 10
587.1444444445
 20
915.5019362158
 11
578.1444444445
 21
915.5019362158
  0
LINE
  5
41B
100
AcDbEntity
  8
0
100
AcDbLine
 62
7
  6
CONTINUOUS
 10
569.5444444445
 20
915.5019362158
 11
560.5444444445
 21
915.5019362158
  0
LINE
  5
41C
100
AcDbEntity
  8
0
100
AcDbLine
 62
7
  6
CONTINUOUS
 10
551.9444444445
 20
915.5019362158
 11
542.9444444445
 21
915.5019362158
  0
LINE
  5
41D
100
AcDbEntity
  8
0
100
AcDbLine
 62
7
  6
CONTINUOUS
 10
534.3444444445
 20
915.5019362158
 11
525.3444444445
 21
915.5019362158
  0
LINE
  5
41E
100
AcDbEntity
  8
0
100
AcDbLine
 62
7
  6
CONTINUOUS
 10
516.7444444445
 20
915.5019362158
 11
507.7444444445
 21
915.5019362158
  0
LINE
  5
41F
100
AcDbEntity
  8
0
100
AcDbLine
 62
7
  6
CONTINUOUS
 10
499.1444444445
 20
915.5019362158
 11
490.1444444445
 21
915.5019362158
  0
LINE
  5
420
100
AcDbEntity
  8
0
100
AcDbLine
 62
7
  6
CONTINUOUS
 10
481.5444444445
 20
915.5019362158
 11
472.5444444445
 21
915.5019362158
  0
LINE
  5
421
100
AcDbEntity
  8
0
100
AcDbLine
 62
7
  6
CONTINUOUS
 10
463.9444444445
 20
915.5019362158
 11
454.9444444445
 21
915.5019362158
  0
LINE
  5
422
100
AcDbEntity
  8
0
100
AcDbLine
 62
7
  6
CONTINUOUS
 10
446.3444444445
 20
915.5019362158
 11
437.3444444445
 21
915.5019362158
  0
LINE
  5
423
100
AcDbEntity
  8
0
100
AcDbLine
 62
7
  6
CONTINUOUS
 10
428.7444444445
 20
915.5019362158
 11
419.7444444445
 21
915.5019362158
  0
LINE
  5
424
100
AcDbEntity
  8
0
100
AcDbLine
 62
7
  6
CONTINUOUS
 10
411.1444444445
 20
915.5019362158
 11
402.1444444445
 21
915.5019362158
  0
LINE
  5
425
100
AcDbEntity
  8
0
100
AcDbLine
 62
7
  6
CONTINUOUS
 10
393.5444444445
 20
915.5019362158
 11
384.5444444445
 21
915.5019362158
  0
LINE
  5
426
100
AcDbEntity
  8
0
100
AcDbLine
 62
7
  6
CONTINUOUS
 10
375.9444444445
 20
915.5019362158
 11
366.9444444445
 21
915.5019362158
  0
LINE
  5
427
100
AcDbEntity
  8
0
100
AcDbLine
 62
7
  6
CONTINUOUS
 10
358.3444444445
 20
915.5019362158
 11
349.3444444445
 21
915.5019362158
  0
LINE
  5
428
100
AcDbEntity
  8
0
100
AcDbLine
 62
7
  6
CONTINUOUS
 10
340.7444444445
 20
915.5019362158
 11
331.7444444445
 21
915.5019362158
  0
LINE
  5
429
100
AcDbEntity
  8
0
100
AcDbLine
 62
7
  6
CONTINUOUS
 10
323.1444444445
 20
915.5019362158
 11
314.1444444445
 21
915.5019362158
  0
LINE
  5
42A
100
AcDbEntity
  8
0
100
AcDbLine
 62
7
  6
CONTINUOUS
 10
305.5444444445
 20
915.5019362158
 11
296.5444444445
 21
915.5019362158
  0
LINE
  5
42B
100
AcDbEntity
  8
0
100
AcDbLine
 62
7
  6
CONTINUOUS
 10
287.9444444445
 20
915.5019362158
 11
278.9444444445
 21
915.5019362158
  0
LINE
  5
42C
100
AcDbEntity
  8
0
100
AcDbLine
 62
7
  6
CONTINUOUS
 10
270.3444444445
 20
915.5019362158
 11
261.3444444444
 21
915.5019362158
  0
LINE
  5
42D
100
AcDbEntity
  8
0
100
AcDbLine
 62
7
  6
CONTINUOUS
 10
252.7444444444
 20
915.5019362158
 11
243.7444444444
 21
915.5019362158
  0
LINE
  5
42E
100
AcDbEntity
  8
0
100
AcDbLine
 62
7
  6
CONTINUOUS
 10
235.1444444444
 20
915.5019362158
 11
226.1444444444
 21
915.5019362158
  0
LINE
  5
42F
100
AcDbEntity
  8
0
100
AcDbLine
 62
7
  6
CONTINUOUS
 10
217.5444444444
 20
915.5019362158
 11
208.5444444444
 21
915.5019362158
  0
LINE
  5
430
100
AcDbEntity
  8
0
100
AcDbLine
 62
7
  6
CONTINUOUS
 10
199.9444444444
 20
915.5019362158
 11
190.9444444444
 21
915.5019362158
  0
LINE
  5
431
100
AcDbEntity
  8
0
100
AcDbLine
 62
7
  6
CONTINUOUS
 10
182.3444444444
 20
915.5019362158
 11
173.3444444445
 21
915.5019362158
  0
LINE
  5
432
100
AcDbEntity
  8
0
100
AcDbLine
 62
7
  6
CONTINUOUS
 10
164.7444444445
 20
915.5019362158
 11
155.7444444445
 21
915.5019362158
  0
LINE
  5
433
100
AcDbEntity
  8
0
100
AcDbLine
 62
7
  6
CONTINUOUS
 10
1148.3444444445
 20
915.9625085277
 11
1143.3444444445
 21
915.9625085277
  0
LINE
  5
434
100
AcDbEntity
  8
0
100
AcDbLine
 62
7
  6
CONTINUOUS
 10
1130.7444444445
 20
915.9625085277
 11
1125.7444444445
 21
915.9625085277
  0
LINE
  5
435
100
AcDbEntity
  8
0
100
AcDbLine
 62
7
  6
CONTINUOUS
 10
1113.1444444445
 20
915.9625085277
 11
1108.1444444445
 21
915.9625085277
  0
LINE
  5
436
100
AcDbEntity
  8
0
100
AcDbLine
 62
7
  6
CONTINUOUS
 10
1095.5444444445
 20
915.9625085277
 11
1090.5444444445
 21
915.9625085277
  0
LINE
  5
437
100
AcDbEntity
  8
0
100
AcDbLine
 62
7
  6
CONTINUOUS
 10
1077.9444444445
 20
915.9625085277
 11
1072.9444444445
 21
915.9625085277
  0
LINE
  5
438
100
AcDbEntity
  8
0
100
AcDbLine
 62
7
  6
CONTINUOUS
 10
1060.3444444445
 20
915.9625085277
 11
1055.3444444445
 21
915.9625085277
  0
LINE
  5
439
100
AcDbEntity
  8
0
100
AcDbLine
 62
7
  6
CONTINUOUS
 10
1042.7444444445
 20
915.9625085277
 11
1037.7444444445
 21
915.9625085277
  0
LINE
  5
43A
100
AcDbEntity
  8
0
100
AcDbLine
 62
7
  6
CONTINUOUS
 10
1025.1444444445
 20
915.9625085277
 11
1020.1444444445
 21
915.9625085277
  0
LINE
  5
43B
100
AcDbEntity
  8
0
100
AcDbLine
 62
7
  6
CONTINUOUS
 10
1007.5444444445
 20
915.9625085277
 11
1002.5444444445
 21
915.9625085277
  0
LINE
  5
43C
100
AcDbEntity
  8
0
100
AcDbLine
 62
7
  6
CONTINUOUS
 10
989.9444444445
 20
915.9625085277
 11
984.9444444445
 21
915.9625085277
  0
LINE
  5
43D
100
AcDbEntity
  8
0
100
AcDbLine
 62
7
  6
CONTINUOUS
 10
972.3444444445
 20
915.9625085277
 11
967.3444444445
 21
915.9625085277
  0
LINE
  5
43E
100
AcDbEntity
  8
0
100
AcDbLine
 62
7
  6
CONTINUOUS
 10
954.7444444445
 20
915.9625085277
 11
949.7444444445
 21
915.9625085277
  0
LINE
  5
43F
100
AcDbEntity
  8
0
100
AcDbLine
 62
7
  6
CONTINUOUS
 10
937.1444444445
 20
915.9625085277
 11
932.1444444445
 21
915.9625085277
  0
LINE
  5
440
100
AcDbEntity
  8
0
100
AcDbLine
 62
7
  6
CONTINUOUS
 10
919.5444444445
 20
915.9625085277
 11
914.5444444445
 21
915.9625085277
  0
LINE
  5
441
100
AcDbEntity
  8
0
100
AcDbLine
 62
7
  6
CONTINUOUS
 10
901.9444444445
 20
915.9625085277
 11
896.9444444445
 21
915.9625085277
  0
LINE
  5
442
100
AcDbEntity
  8
0
100
AcDbLine
 62
7
  6
CONTINUOUS
 10
884.3444444445
 20
915.9625085277
 11
879.3444444445
 21
915.9625085277
  0
LINE
  5
443
100
AcDbEntity
  8
0
100
AcDbLine
 62
7
  6
CONTINUOUS
 10
866.7444444445
 20
915.9625085277
 11
861.7444444445
 21
915.9625085277
  0
LINE
  5
444
100
AcDbEntity
  8
0
100
AcDbLine
 62
7
  6
CONTINUOUS
 10
849.1444444445
 20
915.9625085277
 11
844.1444444445
 21
915.9625085277
  0
LINE
  5
445
100
AcDbEntity
  8
0
100
AcDbLine
 62
7
  6
CONTINUOUS
 10
831.5444444445
 20
915.9625085277
 11
826.5444444445
 21
915.9625085277
  0
LINE
  5
446
100
AcDbEntity
  8
0
100
AcDbLine
 62
7
  6
CONTINUOUS
 10
813.9444444445
 20
915.9625085277
 11
808.9444444445
 21
915.9625085277
  0
LINE
  5
447
100
AcDbEntity
  8
0
100
AcDbLine
 62
7
  6
CONTINUOUS
 10
796.3444444445
 20
915.9625085277
 11
791.3444444445
 21
915.9625085277
  0
LINE
  5
448
100
AcDbEntity
  8
0
100
AcDbLine
 62
7
  6
CONTINUOUS
 10
778.7444444445
 20
915.9625085277
 11
773.7444444445
 21
915.9625085277
  0
LINE
  5
449
100
AcDbEntity
  8
0
100
AcDbLine
 62
7
  6
CONTINUOUS
 10
761.1444444445
 20
915.9625085277
 11
756.1444444445
 21
915.9625085277
  0
LINE
  5
44A
100
AcDbEntity
  8
0
100
AcDbLine
 62
7
  6
CONTINUOUS
 10
743.5444444445
 20
915.9625085277
 11
738.5444444445
 21
915.9625085277
  0
LINE
  5
44B
100
AcDbEntity
  8
0
100
AcDbLine
 62
7
  6
CONTINUOUS
 10
725.9444444445
 20
915.9625085277
 11
720.9444444445
 21
915.9625085277
  0
LINE
  5
44C
100
AcDbEntity
  8
0
100
AcDbLine
 62
7
  6
CONTINUOUS
 10
708.3444444445
 20
915.9625085277
 11
703.3444444445
 21
915.9625085277
  0
LINE
  5
44D
100
AcDbEntity
  8
0
100
AcDbLine
 62
7
  6
CONTINUOUS
 10
690.7444444445
 20
915.9625085277
 11
685.7444444445
 21
915.9625085277
  0
LINE
  5
44E
100
AcDbEntity
  8
0
100
AcDbLine
 62
7
  6
CONTINUOUS
 10
673.1444444445
 20
915.9625085277
 11
668.1444444445
 21
915.9625085277
  0
LINE
  5
44F
100
AcDbEntity
  8
0
100
AcDbLine
 62
7
  6
CONTINUOUS
 10
655.5444444445
 20
915.9625085277
 11
650.5444444445
 21
915.9625085277
  0
LINE
  5
450
100
AcDbEntity
  8
0
100
AcDbLine
 62
7
  6
CONTINUOUS
 10
637.9444444445
 20
915.9625085277
 11
632.9444444445
 21
915.9625085277
  0
LINE
  5
451
100
AcDbEntity
  8
0
100
AcDbLine
 62
7
  6
CONTINUOUS
 10
620.3444444445
 20
915.9625085277
 11
615.3444444445
 21
915.9625085277
  0
LINE
  5
452
100
AcDbEntity
  8
0
100
AcDbLine
 62
7
  6
CONTINUOUS
 10
602.7444444445
 20
915.9625085277
 11
597.7444444445
 21
915.9625085277
  0
LINE
  5
453
100
AcDbEntity
  8
0
100
AcDbLine
 62
7
  6
CONTINUOUS
 10
585.1444444445
 20
915.9625085277
 11
580.1444444445
 21
915.9625085277
  0
LINE
  5
454
100
AcDbEntity
  8
0
100
AcDbLine
 62
7
  6
CONTINUOUS
 10
567.5444444445
 20
915.9625085277
 11
562.5444444445
 21
915.9625085277
  0
LINE
  5
455
100
AcDbEntity
  8
0
100
AcDbLine
 62
7
  6
CONTINUOUS
 10
549.9444444445
 20
915.9625085277
 11
544.9444444445
 21
915.9625085277
  0
LINE
  5
456
100
AcDbEntity
  8
0
100
AcDbLine
 62
7
  6
CONTINUOUS
 10
532.3444444445
 20
915.9625085277
 11
527.3444444445
 21
915.9625085277
  0
LINE
  5
457
100
AcDbEntity
  8
0
100
AcDbLine
 62
7
  6
CONTINUOUS
 10
514.7444444445
 20
915.9625085277
 11
509.7444444445
 21
915.9625085277
  0
LINE
  5
458
100
AcDbEntity
  8
0
100
AcDbLine
 62
7
  6
CONTINUOUS
 10
497.1444444445
 20
915.9625085277
 11
492.1444444445
 21
915.9625085277
  0
LINE
  5
459
100
AcDbEntity
  8
0
100
AcDbLine
 62
7
  6
CONTINUOUS
 10
479.5444444445
 20
915.9625085277
 11
474.5444444445
 21
915.9625085277
  0
LINE
  5
45A
100
AcDbEntity
  8
0
100
AcDbLine
 62
7
  6
CONTINUOUS
 10
461.9444444445
 20
915.9625085277
 11
456.9444444445
 21
915.9625085277
  0
LINE
  5
45B
100
AcDbEntity
  8
0
100
AcDbLine
 62
7
  6
CONTINUOUS
 10
444.3444444445
 20
915.9625085277
 11
439.3444444445
 21
915.9625085277
  0
LINE
  5
45C
100
AcDbEntity
  8
0
100
AcDbLine
 62
7
  6
CONTINUOUS
 10
426.7444444445
 20
915.9625085277
 11
421.7444444445
 21
915.9625085277
  0
LINE
  5
45D
100
AcDbEntity
  8
0
100
AcDbLine
 62
7
  6
CONTINUOUS
 10
409.1444444445
 20
915.9625085277
 11
404.1444444445
 21
915.9625085277
  0
LINE
  5
45E
100
AcDbEntity
  8
0
100
AcDbLine
 62
7
  6
CONTINUOUS
 10
391.5444444445
 20
915.9625085277
 11
386.5444444445
 21
915.9625085277
  0
LINE
  5
45F
100
AcDbEntity
  8
0
100
AcDbLine
 62
7
  6
CONTINUOUS
 10
373.9444444445
 20
915.9625085277
 11
368.9444444445
 21
915.9625085277
  0
LINE
  5
460
100
AcDbEntity
  8
0
100
AcDbLine
 62
7
  6
CONTINUOUS
 10
356.3444444445
 20
915.9625085277
 11
351.3444444445
 21
915.9625085277
  0
LINE
  5
461
100
AcDbEntity
  8
0
100
AcDbLine
 62
7
  6
CONTINUOUS
 10
338.7444444445
 20
915.9625085277
 11
333.7444444445
 21
915.9625085277
  0
LINE
  5
462
100
AcDbEntity
  8
0
100
AcDbLine
 62
7
  6
CONTINUOUS
 10
321.1444444445
 20
915.9625085277
 11
316.1444444445
 21
915.9625085277
  0
LINE
  5
463
100
AcDbEntity
  8
0
100
AcDbLine
 62
7
  6
CONTINUOUS
 10
303.5444444445
 20
915.9625085277
 11
298.5444444445
 21
915.9625085277
  0
LINE
  5
464
100
AcDbEntity
  8
0
100
AcDbLine
 62
7
  6
CONTINUOUS
 10
285.9444444445
 20
915.9625085277
 11
280.9444444445
 21
915.9625085277
  0
LINE
  5
465
100
AcDbEntity
  8
0
100
AcDbLine
 62
7
  6
CONTINUOUS
 10
268.3444444445
 20
915.9625085277
 11
263.3444444445
 21
915.9625085277
  0
LINE
  5
466
100
AcDbEntity
  8
0
100
AcDbLine
 62
7
  6
CONTINUOUS
 10
250.7444444445
 20
915.9625085277
 11
245.7444444444
 21
915.9625085277
  0
LINE
  5
467
100
AcDbEntity
  8
0
100
AcDbLine
 62
7
  6
CONTINUOUS
 10
233.1444444445
 20
915.9625085277
 11
228.1444444445
 21
915.9625085277
  0
LINE
  5
468
100
AcDbEntity
  8
0
100
AcDbLine
 62
7
  6
CONTINUOUS
 10
215.5444444445
 20
915.9625085277
 11
210.5444444445
 21
915.9625085277
  0
LINE
  5
469
100
AcDbEntity
  8
0
100
AcDbLine
 62
7
  6
CONTINUOUS
 10
197.9444444445
 20
915.9625085277
 11
192.9444444444
 21
915.9625085277
  0
LINE
  5
46A
100
AcDbEntity
  8
0
100
AcDbLine
 62
7
  6
CONTINUOUS
 10
180.3444444444
 20
915.9625085277
 11
175.3444444444
 21
915.9625085277
  0
LINE
  5
46B
100
AcDbEntity
  8
0
100
AcDbLine
 62
7
  6
CONTINUOUS
 10
162.7444444445
 20
915.9625085277
 11
157.7444444445
 21
915.9625085277
  0
LINE
  5
46C
100
AcDbEntity
  8
0
100
AcDbLine
 62
7
  6
CONTINUOUS
 10
157.7444444445
 20
918.6657102738
 11
162.7444444445
 21
918.6657102738
  0
LINE
  5
46D
100
AcDbEntity
  8
0
100
AcDbLine
 62
7
  6
CONTINUOUS
 10
175.3444444444
 20
918.6657102738
 11
180.3444444444
 21
918.6657102738
  0
LINE
  5
46E
100
AcDbEntity
  8
0
100
AcDbLine
 62
7
  6
CONTINUOUS
 10
192.9444444444
 20
918.6657102738
 11
197.9444444445
 21
918.6657102738
  0
LINE
  5
46F
100
AcDbEntity
  8
0
100
AcDbLine
 62
7
  6
CONTINUOUS
 10
210.5444444445
 20
918.6657102738
 11
215.5444444445
 21
918.6657102738
  0
LINE
  5
470
100
AcDbEntity
  8
0
100
AcDbLine
 62
7
  6
CONTINUOUS
 10
228.1444444445
 20
918.6657102738
 11
233.1444444445
 21
918.6657102738
  0
LINE
  5
471
100
AcDbEntity
  8
0
100
AcDbLine
 62
7
  6
CONTINUOUS
 10
245.7444444444
 20
918.6657102738
 11
250.7444444445
 21
918.6657102738
  0
LINE
  5
472
100
AcDbEntity
  8
0
100
AcDbLine
 62
7
  6
CONTINUOUS
 10
263.3444444445
 20
918.6657102738
 11
268.3444444445
 21
918.6657102738
  0
LINE
  5
473
100
AcDbEntity
  8
0
100
AcDbLine
 62
7
  6
CONTINUOUS
 10
280.9444444445
 20
918.6657102738
 11
285.9444444445
 21
918.6657102738
  0
LINE
  5
474
100
AcDbEntity
  8
0
100
AcDbLine
 62
7
  6
CONTINUOUS
 10
298.5444444445
 20
918.6657102738
 11
303.5444444445
 21
918.6657102738
  0
LINE
  5
475
100
AcDbEntity
  8
0
100
AcDbLine
 62
7
  6
CONTINUOUS
 10
316.1444444445
 20
918.6657102738
 11
321.1444444445
 21
918.6657102738
  0
LINE
  5
476
100
AcDbEntity
  8
0
100
AcDbLine
 62
7
  6
CONTINUOUS
 10
333.7444444445
 20
918.6657102738
 11
338.7444444445
 21
918.6657102738
  0
LINE
  5
477
100
AcDbEntity
  8
0
100
AcDbLine
 62
7
  6
CONTINUOUS
 10
351.3444444445
 20
918.6657102738
 11
356.3444444445
 21
918.6657102738
  0
LINE
  5
478
100
AcDbEntity
  8
0
100
AcDbLine
 62
7
  6
CONTINUOUS
 10
368.9444444445
 20
918.6657102738
 11
373.9444444445
 21
918.6657102738
  0
LINE
  5
479
100
AcDbEntity
  8
0
100
AcDbLine
 62
7
  6
CONTINUOUS
 10
386.5444444445
 20
918.6657102738
 11
391.5444444445
 21
918.6657102738
  0
LINE
  5
47A
100
AcDbEntity
  8
0
100
AcDbLine
 62
7
  6
CONTINUOUS
 10
404.1444444445
 20
918.6657102738
 11
409.1444444445
 21
918.6657102738
  0
LINE
  5
47B
100
AcDbEntity
  8
0
100
AcDbLine
 62
7
  6
CONTINUOUS
 10
421.7444444445
 20
918.6657102738
 11
426.7444444445
 21
918.6657102738
  0
LINE
  5
47C
100
AcDbEntity
  8
0
100
AcDbLine
 62
7
  6
CONTINUOUS
 10
439.3444444445
 20
918.6657102738
 11
444.3444444445
 21
918.6657102738
  0
LINE
  5
47D
100
AcDbEntity
  8
0
100
AcDbLine
 62
7
  6
CONTINUOUS
 10
456.9444444445
 20
918.6657102738
 11
461.9444444445
 21
918.6657102738
  0
LINE
  5
47E
100
AcDbEntity
  8
0
100
AcDbLine
 62
7
  6
CONTINUOUS
 10
474.5444444445
 20
918.6657102738
 11
479.5444444445
 21
918.6657102738
  0
LINE
  5
47F
100
AcDbEntity
  8
0
100
AcDbLine
 62
7
  6
CONTINUOUS
 10
492.1444444445
 20
918.6657102738
 11
497.1444444445
 21
918.6657102738
  0
LINE
  5
480
100
AcDbEntity
  8
0
100
AcDbLine
 62
7
  6
CONTINUOUS
 10
509.7444444445
 20
918.6657102738
 11
514.7444444445
 21
918.6657102738
  0
LINE
  5
481
100
AcDbEntity
  8
0
100
AcDbLine
 62
7
  6
CONTINUOUS
 10
527.3444444445
 20
918.6657102738
 11
532.3444444445
 21
918.6657102738
  0
LINE
  5
482
100
AcDbEntity
  8
0
100
AcDbLine
 62
7
  6
CONTINUOUS
 10
544.9444444445
 20
918.6657102738
 11
549.9444444445
 21
918.6657102738
  0
LINE
  5
483
100
AcDbEntity
  8
0
100
AcDbLine
 62
7
  6
CONTINUOUS
 10
562.5444444445
 20
918.6657102738
 11
567.5444444445
 21
918.6657102738
  0
LINE
  5
484
100
AcDbEntity
  8
0
100
AcDbLine
 62
7
  6
CONTINUOUS
 10
580.1444444445
 20
918.6657102738
 11
585.1444444445
 21
918.6657102738
  0
LINE
  5
485
100
AcDbEntity
  8
0
100
AcDbLine
 62
7
  6
CONTINUOUS
 10
597.7444444445
 20
918.6657102738
 11
602.7444444445
 21
918.6657102738
  0
LINE
  5
486
100
AcDbEntity
  8
0
100
AcDbLine
 62
7
  6
CONTINUOUS
 10
615.3444444445
 20
918.6657102738
 11
620.3444444445
 21
918.6657102738
  0
LINE
  5
487
100
AcDbEntity
  8
0
100
AcDbLine
 62
7
  6
CONTINUOUS
 10
632.9444444445
 20
918.6657102738
 11
637.9444444445
 21
918.6657102738
  0
LINE
  5
488
100
AcDbEntity
  8
0
100
AcDbLine
 62
7
  6
CONTINUOUS
 10
650.5444444445
 20
918.6657102738
 11
655.5444444445
 21
918.6657102738
  0
LINE
  5
489
100
AcDbEntity
  8
0
100
AcDbLine
 62
7
  6
CONTINUOUS
 10
668.1444444445
 20
918.6657102738
 11
673.1444444445
 21
918.6657102738
  0
LINE
  5
48A
100
AcDbEntity
  8
0
100
AcDbLine
 62
7
  6
CONTINUOUS
 10
685.7444444445
 20
918.6657102738
 11
690.7444444445
 21
918.6657102738
  0
LINE
  5
48B
100
AcDbEntity
  8
0
100
AcDbLine
 62
7
  6
CONTINUOUS
 10
703.3444444445
 20
918.6657102738
 11
708.3444444445
 21
918.6657102738
  0
LINE
  5
48C
100
AcDbEntity
  8
0
100
AcDbLine
 62
7
  6
CONTINUOUS
 10
720.9444444445
 20
918.6657102738
 11
725.9444444445
 21
918.6657102738
  0
LINE
  5
48D
100
AcDbEntity
  8
0
100
AcDbLine
 62
7
  6
CONTINUOUS
 10
738.5444444445
 20
918.6657102738
 11
743.5444444445
 21
918.6657102738
  0
LINE
  5
48E
100
AcDbEntity
  8
0
100
AcDbLine
 62
7
  6
CONTINUOUS
 10
756.1444444445
 20
918.6657102738
 11
761.1444444445
 21
918.6657102738
  0
LINE
  5
48F
100
AcDbEntity
  8
0
100
AcDbLine
 62
7
  6
CONTINUOUS
 10
773.7444444445
 20
918.6657102738
 11
778.7444444445
 21
918.6657102738
  0
LINE
  5
490
100
AcDbEntity
  8
0
100
AcDbLine
 62
7
  6
CONTINUOUS
 10
791.3444444445
 20
918.6657102738
 11
796.3444444445
 21
918.6657102738
  0
LINE
  5
491
100
AcDbEntity
  8
0
100
AcDbLine
 62
7
  6
CONTINUOUS
 10
808.9444444445
 20
918.6657102738
 11
813.9444444445
 21
918.6657102738
  0
LINE
  5
492
100
AcDbEntity
  8
0
100
AcDbLine
 62
7
  6
CONTINUOUS
 10
826.5444444445
 20
918.6657102738
 11
831.5444444445
 21
918.6657102738
  0
LINE
  5
493
100
AcDbEntity
  8
0
100
AcDbLine
 62
7
  6
CONTINUOUS
 10
844.1444444445
 20
918.6657102738
 11
849.1444444445
 21
918.6657102738
  0
LINE
  5
494
100
AcDbEntity
  8
0
100
AcDbLine
 62
7
  6
CONTINUOUS
 10
861.7444444445
 20
918.6657102738
 11
866.7444444445
 21
918.6657102738
  0
LINE
  5
495
100
AcDbEntity
  8
0
100
AcDbLine
 62
7
  6
CONTINUOUS
 10
879.3444444445
 20
918.6657102738
 11
884.3444444445
 21
918.6657102738
  0
LINE
  5
496
100
AcDbEntity
  8
0
100
AcDbLine
 62
7
  6
CONTINUOUS
 10
896.9444444445
 20
918.6657102738
 11
901.9444444445
 21
918.6657102738
  0
LINE
  5
497
100
AcDbEntity
  8
0
100
AcDbLine
 62
7
  6
CONTINUOUS
 10
914.5444444445
 20
918.6657102738
 11
919.5444444445
 21
918.6657102738
  0
LINE
  5
498
100
AcDbEntity
  8
0
100
AcDbLine
 62
7
  6
CONTINUOUS
 10
932.1444444445
 20
918.6657102738
 11
937.1444444445
 21
918.6657102738
  0
LINE
  5
499
100
AcDbEntity
  8
0
100
AcDbLine
 62
7
  6
CONTINUOUS
 10
949.7444444445
 20
918.6657102738
 11
954.7444444445
 21
918.6657102738
  0
LINE
  5
49A
100
AcDbEntity
  8
0
100
AcDbLine
 62
7
  6
CONTINUOUS
 10
967.3444444445
 20
918.6657102738
 11
972.3444444445
 21
918.6657102738
  0
LINE
  5
49B
100
AcDbEntity
  8
0
100
AcDbLine
 62
7
  6
CONTINUOUS
 10
984.9444444445
 20
918.6657102738
 11
989.9444444445
 21
918.6657102738
  0
LINE
  5
49C
100
AcDbEntity
  8
0
100
AcDbLine
 62
7
  6
CONTINUOUS
 10
1002.5444444445
 20
918.6657102738
 11
1007.5444444445
 21
918.6657102738
  0
LINE
  5
49D
100
AcDbEntity
  8
0
100
AcDbLine
 62
7
  6
CONTINUOUS
 10
1020.1444444445
 20
918.6657102738
 11
1025.1444444445
 21
918.6657102738
  0
LINE
  5
49E
100
AcDbEntity
  8
0
100
AcDbLine
 62
7
  6
CONTINUOUS
 10
1037.7444444445
 20
918.6657102738
 11
1042.7444444445
 21
918.6657102738
  0
LINE
  5
49F
100
AcDbEntity
  8
0
100
AcDbLine
 62
7
  6
CONTINUOUS
 10
1055.3444444445
 20
918.6657102738
 11
1060.3444444445
 21
918.6657102738
  0
LINE
  5
4A0
100
AcDbEntity
  8
0
100
AcDbLine
 62
7
  6
CONTINUOUS
 10
1072.9444444445
 20
918.6657102738
 11
1077.9444444445
 21
918.6657102738
  0
LINE
  5
4A1
100
AcDbEntity
  8
0
100
AcDbLine
 62
7
  6
CONTINUOUS
 10
1090.5444444445
 20
918.6657102738
 11
1095.5444444445
 21
918.6657102738
  0
LINE
  5
4A2
100
AcDbEntity
  8
0
100
AcDbLine
 62
7
  6
CONTINUOUS
 10
1108.1444444445
 20
918.6657102738
 11
1113.1444444445
 21
918.6657102738
  0
LINE
  5
4A3
100
AcDbEntity
  8
0
100
AcDbLine
 62
7
  6
CONTINUOUS
 10
1125.7444444445
 20
918.6657102738
 11
1130.7444444445
 21
918.6657102738
  0
LINE
  5
4A4
100
AcDbEntity
  8
0
100
AcDbLine
 62
7
  6
CONTINUOUS
 10
1143.3444444445
 20
918.6657102738
 11
1148.3444444445
 21
918.6657102738
  0
LINE
  5
4A5
100
AcDbEntity
  8
0
100
AcDbLine
 62
7
  6
CONTINUOUS
 10
1148.3444444445
 20
929.2980637843
 11
1143.3444444445
 21
929.2980637843
  0
LINE
  5
4A6
100
AcDbEntity
  8
0
100
AcDbLine
 62
7
  6
CONTINUOUS
 10
1130.7444444445
 20
929.2980637843
 11
1125.7444444445
 21
929.2980637843
  0
LINE
  5
4A7
100
AcDbEntity
  8
0
100
AcDbLine
 62
7
  6
CONTINUOUS
 10
1113.1444444445
 20
929.2980637843
 11
1108.1444444445
 21
929.2980637843
  0
LINE
  5
4A8
100
AcDbEntity
  8
0
100
AcDbLine
 62
7
  6
CONTINUOUS
 10
1095.5444444445
 20
929.2980637843
 11
1090.5444444445
 21
929.2980637843
  0
LINE
  5
4A9
100
AcDbEntity
  8
0
100
AcDbLine
 62
7
  6
CONTINUOUS
 10
1077.9444444445
 20
929.2980637843
 11
1072.9444444445
 21
929.2980637843
  0
LINE
  5
4AA
100
AcDbEntity
  8
0
100
AcDbLine
 62
7
  6
CONTINUOUS
 10
1060.3444444445
 20
929.2980637843
 11
1055.3444444445
 21
929.2980637843
  0
LINE
  5
4AB
100
AcDbEntity
  8
0
100
AcDbLine
 62
7
  6
CONTINUOUS
 10
1042.7444444445
 20
929.2980637843
 11
1037.7444444445
 21
929.2980637843
  0
LINE
  5
4AC
100
AcDbEntity
  8
0
100
AcDbLine
 62
7
  6
CONTINUOUS
 10
1025.1444444445
 20
929.2980637843
 11
1020.1444444445
 21
929.2980637843
  0
LINE
  5
4AD
100
AcDbEntity
  8
0
100
AcDbLine
 62
7
  6
CONTINUOUS
 10
1007.5444444445
 20
929.2980637843
 11
1002.5444444445
 21
929.2980637843
  0
LINE
  5
4AE
100
AcDbEntity
  8
0
100
AcDbLine
 62
7
  6
CONTINUOUS
 10
989.9444444445
 20
929.2980637843
 11
984.9444444445
 21
929.2980637843
  0
LINE
  5
4AF
100
AcDbEntity
  8
0
100
AcDbLine
 62
7
  6
CONTINUOUS
 10
972.3444444445
 20
929.2980637843
 11
967.3444444445
 21
929.2980637843
  0
LINE
  5
4B0
100
AcDbEntity
  8
0
100
AcDbLine
 62
7
  6
CONTINUOUS
 10
954.7444444445
 20
929.2980637843
 11
949.7444444445
 21
929.2980637843
  0
LINE
  5
4B1
100
AcDbEntity
  8
0
100
AcDbLine
 62
7
  6
CONTINUOUS
 10
937.1444444445
 20
929.2980637843
 11
932.1444444445
 21
929.2980637843
  0
LINE
  5
4B2
100
AcDbEntity
  8
0
100
AcDbLine
 62
7
  6
CONTINUOUS
 10
919.5444444445
 20
929.2980637843
 11
914.5444444445
 21
929.2980637843
  0
LINE
  5
4B3
100
AcDbEntity
  8
0
100
AcDbLine
 62
7
  6
CONTINUOUS
 10
901.9444444445
 20
929.2980637843
 11
896.9444444445
 21
929.2980637843
  0
LINE
  5
4B4
100
AcDbEntity
  8
0
100
AcDbLine
 62
7
  6
CONTINUOUS
 10
884.3444444445
 20
929.2980637843
 11
879.3444444445
 21
929.2980637843
  0
LINE
  5
4B5
100
AcDbEntity
  8
0
100
AcDbLine
 62
7
  6
CONTINUOUS
 10
866.7444444445
 20
929.2980637843
 11
861.7444444445
 21
929.2980637843
  0
LINE
  5
4B6
100
AcDbEntity
  8
0
100
AcDbLine
 62
7
  6
CONTINUOUS
 10
849.1444444445
 20
929.2980637843
 11
844.1444444445
 21
929.2980637843
  0
LINE
  5
4B7
100
AcDbEntity
  8
0
100
AcDbLine
 62
7
  6
CONTINUOUS
 10
831.5444444445
 20
929.2980637843
 11
826.5444444445
 21
929.2980637843
  0
LINE
  5
4B8
100
AcDbEntity
  8
0
100
AcDbLine
 62
7
  6
CONTINUOUS
 10
813.9444444445
 20
929.2980637843
 11
808.9444444445
 21
929.2980637843
  0
LINE
  5
4B9
100
AcDbEntity
  8
0
100
AcDbLine
 62
7
  6
CONTINUOUS
 10
796.3444444445
 20
929.2980637843
 11
791.3444444445
 21
929.2980637843
  0
LINE
  5
4BA
100
AcDbEntity
  8
0
100
AcDbLine
 62
7
  6
CONTINUOUS
 10
778.7444444445
 20
929.2980637843
 11
773.7444444445
 21
929.2980637843
  0
LINE
  5
4BB
100
AcDbEntity
  8
0
100
AcDbLine
 62
7
  6
CONTINUOUS
 10
761.1444444445
 20
929.2980637843
 11
756.1444444445
 21
929.2980637843
  0
LINE
  5
4BC
100
AcDbEntity
  8
0
100
AcDbLine
 62
7
  6
CONTINUOUS
 10
743.5444444445
 20
929.2980637843
 11
738.5444444445
 21
929.2980637843
  0
LINE
  5
4BD
100
AcDbEntity
  8
0
100
AcDbLine
 62
7
  6
CONTINUOUS
 10
725.9444444445
 20
929.2980637843
 11
720.9444444445
 21
929.2980637843
  0
LINE
  5
4BE
100
AcDbEntity
  8
0
100
AcDbLine
 62
7
  6
CONTINUOUS
 10
708.3444444445
 20
929.2980637843
 11
703.3444444445
 21
929.2980637843
  0
LINE
  5
4BF
100
AcDbEntity
  8
0
100
AcDbLine
 62
7
  6
CONTINUOUS
 10
690.7444444445
 20
929.2980637843
 11
685.7444444445
 21
929.2980637843
  0
LINE
  5
4C0
100
AcDbEntity
  8
0
100
AcDbLine
 62
7
  6
CONTINUOUS
 10
673.1444444445
 20
929.2980637843
 11
668.1444444445
 21
929.2980637843
  0
LINE
  5
4C1
100
AcDbEntity
  8
0
100
AcDbLine
 62
7
  6
CONTINUOUS
 10
655.5444444445
 20
929.2980637843
 11
650.5444444445
 21
929.2980637843
  0
LINE
  5
4C2
100
AcDbEntity
  8
0
100
AcDbLine
 62
7
  6
CONTINUOUS
 10
637.9444444445
 20
929.2980637843
 11
632.9444444445
 21
929.2980637843
  0
LINE
  5
4C3
100
AcDbEntity
  8
0
100
AcDbLine
 62
7
  6
CONTINUOUS
 10
620.3444444445
 20
929.2980637843
 11
615.3444444445
 21
929.2980637843
  0
LINE
  5
4C4
100
AcDbEntity
  8
0
100
AcDbLine
 62
7
  6
CONTINUOUS
 10
602.7444444445
 20
929.2980637843
 11
597.7444444445
 21
929.2980637843
  0
LINE
  5
4C5
100
AcDbEntity
  8
0
100
AcDbLine
 62
7
  6
CONTINUOUS
 10
585.1444444445
 20
929.2980637843
 11
580.1444444445
 21
929.2980637843
  0
LINE
  5
4C6
100
AcDbEntity
  8
0
100
AcDbLine
 62
7
  6
CONTINUOUS
 10
567.5444444445
 20
929.2980637843
 11
562.5444444445
 21
929.2980637843
  0
LINE
  5
4C7
100
AcDbEntity
  8
0
100
AcDbLine
 62
7
  6
CONTINUOUS
 10
549.9444444445
 20
929.2980637843
 11
544.9444444445
 21
929.2980637843
  0
LINE
  5
4C8
100
AcDbEntity
  8
0
100
AcDbLine
 62
7
  6
CONTINUOUS
 10
532.3444444445
 20
929.2980637843
 11
527.3444444445
 21
929.2980637843
  0
LINE
  5
4C9
100
AcDbEntity
  8
0
100
AcDbLine
 62
7
  6
CONTINUOUS
 10
514.7444444445
 20
929.2980637843
 11
509.7444444445
 21
929.2980637843
  0
LINE
  5
4CA
100
AcDbEntity
  8
0
100
AcDbLine
 62
7
  6
CONTINUOUS
 10
497.1444444445
 20
929.2980637843
 11
492.1444444445
 21
929.2980637843
  0
LINE
  5
4CB
100
AcDbEntity
  8
0
100
AcDbLine
 62
7
  6
CONTINUOUS
 10
479.5444444445
 20
929.2980637843
 11
474.5444444445
 21
929.2980637843
  0
LINE
  5
4CC
100
AcDbEntity
  8
0
100
AcDbLine
 62
7
  6
CONTINUOUS
 10
461.9444444445
 20
929.2980637843
 11
456.9444444445
 21
929.2980637843
  0
LINE
  5
4CD
100
AcDbEntity
  8
0
100
AcDbLine
 62
7
  6
CONTINUOUS
 10
444.3444444445
 20
929.2980637843
 11
439.3444444445
 21
929.2980637843
  0
LINE
  5
4CE
100
AcDbEntity
  8
0
100
AcDbLine
 62
7
  6
CONTINUOUS
 10
426.7444444445
 20
929.2980637843
 11
421.7444444445
 21
929.2980637843
  0
LINE
  5
4CF
100
AcDbEntity
  8
0
100
AcDbLine
 62
7
  6
CONTINUOUS
 10
409.1444444445
 20
929.2980637843
 11
404.1444444445
 21
929.2980637843
  0
LINE
  5
4D0
100
AcDbEntity
  8
0
100
AcDbLine
 62
7
  6
CONTINUOUS
 10
391.5444444445
 20
929.2980637843
 11
386.5444444445
 21
929.2980637843
  0
LINE
  5
4D1
100
AcDbEntity
  8
0
100
AcDbLine
 62
7
  6
CONTINUOUS
 10
373.9444444445
 20
929.2980637843
 11
368.9444444445
 21
929.2980637843
  0
LINE
  5
4D2
100
AcDbEntity
  8
0
100
AcDbLine
 62
7
  6
CONTINUOUS
 10
356.3444444445
 20
929.2980637843
 11
351.3444444445
 21
929.2980637843
  0
LINE
  5
4D3
100
AcDbEntity
  8
0
100
AcDbLine
 62
7
  6
CONTINUOUS
 10
338.7444444445
 20
929.2980637843
 11
333.7444444445
 21
929.2980637843
  0
LINE
  5
4D4
100
AcDbEntity
  8
0
100
AcDbLine
 62
7
  6
CONTINUOUS
 10
321.1444444445
 20
929.2980637843
 11
316.1444444445
 21
929.2980637843
  0
LINE
  5
4D5
100
AcDbEntity
  8
0
100
AcDbLine
 62
7
  6
CONTINUOUS
 10
303.5444444445
 20
929.2980637843
 11
298.5444444445
 21
929.2980637843
  0
LINE
  5
4D6
100
AcDbEntity
  8
0
100
AcDbLine
 62
7
  6
CONTINUOUS
 10
285.9444444445
 20
929.2980637843
 11
280.9444444445
 21
929.2980637843
  0
LINE
  5
4D7
100
AcDbEntity
  8
0
100
AcDbLine
 62
7
  6
CONTINUOUS
 10
268.3444444445
 20
929.2980637843
 11
263.3444444445
 21
929.2980637843
  0
LINE
  5
4D8
100
AcDbEntity
  8
0
100
AcDbLine
 62
7
  6
CONTINUOUS
 10
250.7444444445
 20
929.2980637843
 11
245.7444444444
 21
929.2980637843
  0
LINE
  5
4D9
100
AcDbEntity
  8
0
100
AcDbLine
 62
7
  6
CONTINUOUS
 10
233.1444444445
 20
929.2980637843
 11
228.1444444445
 21
929.2980637843
  0
LINE
  5
4DA
100
AcDbEntity
  8
0
100
AcDbLine
 62
7
  6
CONTINUOUS
 10
215.5444444445
 20
929.2980637843
 11
210.5444444445
 21
929.2980637843
  0
LINE
  5
4DB
100
AcDbEntity
  8
0
100
AcDbLine
 62
7
  6
CONTINUOUS
 10
197.9444444445
 20
929.2980637843
 11
192.9444444444
 21
929.2980637843
  0
LINE
  5
4DC
100
AcDbEntity
  8
0
100
AcDbLine
 62
7
  6
CONTINUOUS
 10
180.3444444444
 20
929.2980637843
 11
175.3444444444
 21
929.2980637843
  0
LINE
  5
4DD
100
AcDbEntity
  8
0
100
AcDbLine
 62
7
  6
CONTINUOUS
 10
162.7444444445
 20
929.2980637843
 11
157.7444444445
 21
929.2980637843
  0
LINE
  5
4DE
100
AcDbEntity
  8
0
100
AcDbLine
 62
7
  6
CONTINUOUS
 10
692.7444444445
 20
915.5019362158
 11
692.7444444445
 21
906.7019362158
  0
LINE
  5
4DF
100
AcDbEntity
  8
0
100
AcDbLine
 62
7
  6
CONTINUOUS
 10
693.6444444445
 20
902.5019362158
 11
693.6444444445
 21
906.7019362158
  0
LINE
  5
4E0
100
AcDbEntity
  8
0
100
AcDbLine
 62
7
  6
CONTINUOUS
 10
694.7444444445
 20
901.0015158376
 11
694.7444444445
 21
902.5019362158
  0
LINE
  5
4E1
100
AcDbEntity
  8
0
100
AcDbLine
 62
7
  6
CONTINUOUS
 10
699.3444444445
 20
901.0015158376
 11
699.3444444445
 21
902.5019362158
  0
LINE
  5
4E2
100
AcDbEntity
  8
0
100
AcDbLine
 62
7
  6
CONTINUOUS
 10
700.4444444445
 20
906.7019362158
 11
700.4444444445
 21
902.5019362158
  0
LINE
  5
4E3
100
AcDbEntity
  8
0
100
AcDbLine
 62
7
  6
CONTINUOUS
 10
701.3444444445
 20
915.5019362158
 11
701.3444444445
 21
906.7019362158
  0
LINE
  5
4E4
100
AcDbEntity
  8
0
100
AcDbLine
 62
7
  6
CONTINUOUS
 10
703.3444444445
 20
929.2980637843
 11
703.3444444445
 21
915.5019362158
  0
LINE
  5
4E5
100
AcDbEntity
  8
0
100
AcDbLine
 62
7
  6
CONTINUOUS
 10
708.3444444445
 20
915.5019362158
 11
708.3444444445
 21
929.2980637843
  0
LINE
  5
4E6
100
AcDbEntity
  8
0
100
AcDbLine
 62
7
  6
CONTINUOUS
 10
710.3444444445
 20
915.5019362158
 11
710.3444444445
 21
906.7019362158
  0
LINE
  5
4E7
100
AcDbEntity
  8
0
100
AcDbLine
 62
7
  6
CONTINUOUS
 10
711.2444444445
 20
902.5019362158
 11
711.2444444445
 21
906.7019362158
  0
LINE
  5
4E8
100
AcDbEntity
  8
0
100
AcDbLine
 62
7
  6
CONTINUOUS
 10
712.3444444445
 20
901.0015158376
 11
712.3444444445
 21
902.5019362158
  0
LINE
  5
4E9
100
AcDbEntity
  8
0
100
AcDbLine
 62
7
  6
CONTINUOUS
 10
716.9444444445
 20
901.0015158376
 11
716.9444444445
 21
902.5019362158
  0
LINE
  5
4EA
100
AcDbEntity
  8
0
100
AcDbLine
 62
7
  6
CONTINUOUS
 10
718.0444444445
 20
906.7019362158
 11
718.0444444445
 21
902.5019362158
  0
LINE
  5
4EB
100
AcDbEntity
  8
0
100
AcDbLine
 62
7
  6
CONTINUOUS
 10
718.9444444445
 20
915.5019362158
 11
718.9444444445
 21
906.7019362158
  0
LINE
  5
4EC
100
AcDbEntity
  8
0
100
AcDbLine
 62
7
  6
CONTINUOUS
 10
720.9444444445
 20
929.2980637843
 11
720.9444444445
 21
915.5019362158
  0
LINE
  5
4ED
100
AcDbEntity
  8
0
100
AcDbLine
 62
7
  6
CONTINUOUS
 10
725.9444444445
 20
915.5019362158
 11
725.9444444445
 21
929.2980637843
  0
LINE
  5
4EE
100
AcDbEntity
  8
0
100
AcDbLine
 62
7
  6
CONTINUOUS
 10
727.9444444445
 20
915.5019362158
 11
727.9444444445
 21
906.7019362158
  0
LINE
  5
4EF
100
AcDbEntity
  8
0
100
AcDbLine
 62
7
  6
CONTINUOUS
 10
728.8444444445
 20
902.5019362158
 11
728.8444444445
 21
906.7019362158
  0
LINE
  5
4F0
100
AcDbEntity
  8
0
100
AcDbLine
 62
7
  6
CONTINUOUS
 10
729.9444444445
 20
901.0015158376
 11
729.9444444445
 21
902.5019362158
  0
LINE
  5
4F1
100
AcDbEntity
  8
0
100
AcDbLine
 62
7
  6
CONTINUOUS
 10
734.5444444445
 20
901.0015158376
 11
734.5444444445
 21
902.5019362158
  0
LINE
  5
4F2
100
AcDbEntity
  8
0
100
AcDbLine
 62
7
  6
CONTINUOUS
 10
735.6444444445
 20
906.7019362158
 11
735.6444444445
 21
902.5019362158
  0
LINE
  5
4F3
100
AcDbEntity
  8
0
100
AcDbLine
 62
7
  6
CONTINUOUS
 10
736.5444444445
 20
915.5019362158
 11
736.5444444445
 21
906.7019362158
  0
LINE
  5
4F4
100
AcDbEntity
  8
0
100
AcDbLine
 62
7
  6
CONTINUOUS
 10
738.5444444445
 20
929.2980637843
 11
738.5444444445
 21
915.5019362158
  0
LINE
  5
4F5
100
AcDbEntity
  8
0
100
AcDbLine
 62
7
  6
CONTINUOUS
 10
743.5444444445
 20
915.5019362158
 11
743.5444444445
 21
929.2980637843
  0
LINE
  5
4F6
100
AcDbEntity
  8
0
100
AcDbLine
 62
7
  6
CONTINUOUS
 10
745.5444444445
 20
915.5019362158
 11
745.5444444445
 21
906.7019362158
  0
LINE
  5
4F7
100
AcDbEntity
  8
0
100
AcDbLine
 62
7
  6
CONTINUOUS
 10
746.4444444445
 20
902.5019362158
 11
746.4444444445
 21
906.7019362158
  0
LINE
  5
4F8
100
AcDbEntity
  8
0
100
AcDbLine
 62
7
  6
CONTINUOUS
 10
747.5444444445
 20
901.0015158376
 11
747.5444444445
 21
902.5019362158
  0
LINE
  5
4F9
100
AcDbEntity
  8
0
100
AcDbLine
 62
7
  6
CONTINUOUS
 10
752.1444444445
 20
901.0015158376
 11
752.1444444445
 21
902.5019362158
  0
LINE
  5
4FA
100
AcDbEntity
  8
0
100
AcDbLine
 62
7
  6
CONTINUOUS
 10
753.2444444445
 20
906.7019362158
 11
753.2444444445
 21
902.5019362158
  0
LINE
  5
4FB
100
AcDbEntity
  8
0
100
AcDbLine
 62
7
  6
CONTINUOUS
 10
754.1444444445
 20
915.5019362158
 11
754.1444444445
 21
906.7019362158
  0
LINE
  5
4FC
100
AcDbEntity
  8
0
100
AcDbLine
 62
7
  6
CONTINUOUS
 10
756.1444444445
 20
929.2980637843
 11
756.1444444445
 21
915.5019362158
  0
LINE
  5
4FD
100
AcDbEntity
  8
0
100
AcDbLine
 62
7
  6
CONTINUOUS
 10
761.1444444445
 20
915.5019362158
 11
761.1444444445
 21
929.2980637843
  0
LINE
  5
4FE
100
AcDbEntity
  8
0
100
AcDbLine
 62
7
  6
CONTINUOUS
 10
763.1444444445
 20
915.5019362158
 11
763.1444444445
 21
906.7019362158
  0
LINE
  5
4FF
100
AcDbEntity
  8
0
100
AcDbLine
 62
7
  6
CONTINUOUS
 10
764.0444444445
 20
902.5019362158
 11
764.0444444445
 21
906.7019362158
  0
LINE
  5
500
100
AcDbEntity
  8
0
100
AcDbLine
 62
7
  6
CONTINUOUS
 10
765.1444444445
 20
901.0015158376
 11
765.1444444445
 21
902.5019362158
  0
LINE
  5
501
100
AcDbEntity
  8
0
100
AcDbLine
 62
7
  6
CONTINUOUS
 10
769.7444444445
 20
901.0015158376
 11
769.7444444445
 21
902.5019362158
  0
LINE
  5
502
100
AcDbEntity
  8
0
100
AcDbLine
 62
7
  6
CONTINUOUS
 10
770.8444444445
 20
906.7019362158
 11
770.8444444445
 21
902.5019362158
  0
LINE
  5
503
100
AcDbEntity
  8
0
100
AcDbLine
 62
7
  6
CONTINUOUS
 10
771.7444444445
 20
915.5019362158
 11
771.7444444445
 21
906.7019362158
  0
LINE
  5
504
100
AcDbEntity
  8
0
100
AcDbLine
 62
7
  6
CONTINUOUS
 10
773.7444444445
 20
929.2980637843
 11
773.7444444445
 21
915.5019362158
  0
LINE
  5
505
100
AcDbEntity
  8
0
100
AcDbLine
 62
7
  6
CONTINUOUS
 10
778.7444444445
 20
915.5019362158
 11
778.7444444445
 21
929.2980637843
  0
LINE
  5
506
100
AcDbEntity
  8
0
100
AcDbLine
 62
7
  6
CONTINUOUS
 10
780.7444444445
 20
915.5019362158
 11
780.7444444445
 21
906.7019362158
  0
LINE
  5
507
100
AcDbEntity
  8
0
100
AcDbLine
 62
7
  6
CONTINUOUS
 10
781.6444444445
 20
902.5019362158
 11
781.6444444445
 21
906.7019362158
  0
LINE
  5
508
100
AcDbEntity
  8
0
100
AcDbLine
 62
7
  6
CONTINUOUS
 10
782.7444444445
 20
901.0015158376
 11
782.7444444445
 21
902.5019362158
  0
LINE
  5
509
100
AcDbEntity
  8
0
100
AcDbLine
 62
7
  6
CONTINUOUS
 10
787.3444444445
 20
901.0015158376
 11
787.3444444445
 21
902.5019362158
  0
LINE
  5
50A
100
AcDbEntity
  8
0
100
AcDbLine
 62
7
  6
CONTINUOUS
 10
788.4444444445
 20
906.7019362158
 11
788.4444444445
 21
902.5019362158
  0
LINE
  5
50B
100
AcDbEntity
  8
0
100
AcDbLine
 62
7
  6
CONTINUOUS
 10
789.3444444445
 20
915.5019362158
 11
789.3444444445
 21
906.7019362158
  0
LINE
  5
50C
100
AcDbEntity
  8
0
100
AcDbLine
 62
7
  6
CONTINUOUS
 10
791.3444444445
 20
929.2980637843
 11
791.3444444445
 21
915.5019362158
  0
LINE
  5
50D
100
AcDbEntity
  8
0
100
AcDbLine
 62
7
  6
CONTINUOUS
 10
796.3444444445
 20
915.5019362158
 11
796.3444444445
 21
929.2980637843
  0
LINE
  5
50E
100
AcDbEntity
  8
0
100
AcDbLine
 62
7
  6
CONTINUOUS
 10
798.3444444445
 20
915.5019362158
 11
798.3444444445
 21
906.7019362158
  0
LINE
  5
50F
100
AcDbEntity
  8
0
100
AcDbLine
 62
7
  6
CONTINUOUS
 10
799.2444444445
 20
902.5019362158
 11
799.2444444445
 21
906.7019362158
  0
LINE
  5
510
100
AcDbEntity
  8
0
100
AcDbLine
 62
7
  6
CONTINUOUS
 10
800.3444444445
 20
901.0015158376
 11
800.3444444445
 21
902.5019362158
  0
LINE
  5
511
100
AcDbEntity
  8
0
100
AcDbLine
 62
7
  6
CONTINUOUS
 10
804.9444444445
 20
901.0015158376
 11
804.9444444445
 21
902.5019362158
  0
LINE
  5
512
100
AcDbEntity
  8
0
100
AcDbLine
 62
7
  6
CONTINUOUS
 10
806.0444444445
 20
906.7019362158
 11
806.0444444445
 21
902.5019362158
  0
LINE
  5
513
100
AcDbEntity
  8
0
100
AcDbLine
 62
7
  6
CONTINUOUS
 10
806.9444444445
 20
915.5019362158
 11
806.9444444445
 21
906.7019362158
  0
LINE
  5
514
100
AcDbEntity
  8
0
100
AcDbLine
 62
7
  6
CONTINUOUS
 10
808.9444444445
 20
929.2980637843
 11
808.9444444445
 21
915.5019362158
  0
LINE
  5
515
100
AcDbEntity
  8
0
100
AcDbLine
 62
7
  6
CONTINUOUS
 10
813.9444444445
 20
915.5019362158
 11
813.9444444445
 21
929.2980637843
  0
LINE
  5
516
100
AcDbEntity
  8
0
100
AcDbLine
 62
7
  6
CONTINUOUS
 10
815.9444444445
 20
915.5019362158
 11
815.9444444445
 21
906.7019362158
  0
LINE
  5
517
100
AcDbEntity
  8
0
100
AcDbLine
 62
7
  6
CONTINUOUS
 10
816.8444444445
 20
902.5019362158
 11
816.8444444445
 21
906.7019362158
  0
LINE
  5
518
100
AcDbEntity
  8
0
100
AcDbLine
 62
7
  6
CONTINUOUS
 10
817.9444444445
 20
901.0015158376
 11
817.9444444445
 21
902.5019362158
  0
LINE
  5
519
100
AcDbEntity
  8
0
100
AcDbLine
 62
7
  6
CONTINUOUS
 10
822.5444444445
 20
901.0015158376
 11
822.5444444445
 21
902.5019362158
  0
LINE
  5
51A
100
AcDbEntity
  8
0
100
AcDbLine
 62
7
  6
CONTINUOUS
 10
823.6444444445
 20
906.7019362158
 11
823.6444444445
 21
902.5019362158
  0
LINE
  5
51B
100
AcDbEntity
  8
0
100
AcDbLine
 62
7
  6
CONTINUOUS
 10
824.5444444445
 20
915.5019362158
 11
824.5444444445
 21
906.7019362158
  0
LINE
  5
51C
100
AcDbEntity
  8
0
100
AcDbLine
 62
7
  6
CONTINUOUS
 10
826.5444444445
 20
929.2980637843
 11
826.5444444445
 21
915.5019362158
  0
LINE
  5
51D
100
AcDbEntity
  8
0
100
AcDbLine
 62
7
  6
CONTINUOUS
 10
831.5444444445
 20
915.5019362158
 11
831.5444444445
 21
929.2980637843
  0
LINE
  5
51E
100
AcDbEntity
  8
0
100
AcDbLine
 62
7
  6
CONTINUOUS
 10
833.5444444445
 20
915.5019362158
 11
833.5444444445
 21
906.7019362158
  0
LINE
  5
51F
100
AcDbEntity
  8
0
100
AcDbLine
 62
7
  6
CONTINUOUS
 10
834.4444444445
 20
902.5019362158
 11
834.4444444445
 21
906.7019362158
  0
LINE
  5
520
100
AcDbEntity
  8
0
100
AcDbLine
 62
7
  6
CONTINUOUS
 10
835.5444444445
 20
901.0015158376
 11
835.5444444445
 21
902.5019362158
  0
LINE
  5
521
100
AcDbEntity
  8
0
100
AcDbLine
 62
7
  6
CONTINUOUS
 10
840.1444444445
 20
901.0015158376
 11
840.1444444445
 21
902.5019362158
  0
LINE
  5
522
100
AcDbEntity
  8
0
100
AcDbLine
 62
7
  6
CONTINUOUS
 10
841.2444444445
 20
906.7019362158
 11
841.2444444445
 21
902.5019362158
  0
LINE
  5
523
100
AcDbEntity
  8
0
100
AcDbLine
 62
7
  6
CONTINUOUS
 10
842.1444444445
 20
915.5019362158
 11
842.1444444445
 21
906.7019362158
  0
LINE
  5
524
100
AcDbEntity
  8
0
100
AcDbLine
 62
7
  6
CONTINUOUS
 10
844.1444444445
 20
929.2980637843
 11
844.1444444445
 21
915.5019362158
  0
LINE
  5
525
100
AcDbEntity
  8
0
100
AcDbLine
 62
7
  6
CONTINUOUS
 10
849.1444444445
 20
915.5019362158
 11
849.1444444445
 21
929.2980637843
  0
LINE
  5
526
100
AcDbEntity
  8
0
100
AcDbLine
 62
7
  6
CONTINUOUS
 10
851.1444444445
 20
915.5019362158
 11
851.1444444445
 21
906.7019362158
  0
LINE
  5
527
100
AcDbEntity
  8
0
100
AcDbLine
 62
7
  6
CONTINUOUS
 10
852.0444444445
 20
902.5019362158
 11
852.0444444445
 21
906.7019362158
  0
LINE
  5
528
100
AcDbEntity
  8
0
100
AcDbLine
 62
7
  6
CONTINUOUS
 10
853.1444444445
 20
901.0015158376
 11
853.1444444445
 21
902.5019362158
  0
LINE
  5
529
100
AcDbEntity
  8
0
100
AcDbLine
 62
7
  6
CONTINUOUS
 10
857.7444444445
 20
901.0015158376
 11
857.7444444445
 21
902.5019362158
  0
LINE
  5
52A
100
AcDbEntity
  8
0
100
AcDbLine
 62
7
  6
CONTINUOUS
 10
858.8444444445
 20
906.7019362158
 11
858.8444444445
 21
902.5019362158
  0
LINE
  5
52B
100
AcDbEntity
  8
0
100
AcDbLine
 62
7
  6
CONTINUOUS
 10
859.7444444445
 20
915.5019362158
 11
859.7444444445
 21
906.7019362158
  0
LINE
  5
52C
100
AcDbEntity
  8
0
100
AcDbLine
 62
7
  6
CONTINUOUS
 10
861.7444444445
 20
929.2980637843
 11
861.7444444445
 21
915.5019362158
  0
LINE
  5
52D
100
AcDbEntity
  8
0
100
AcDbLine
 62
7
  6
CONTINUOUS
 10
866.7444444445
 20
915.5019362158
 11
866.7444444445
 21
929.2980637843
  0
LINE
  5
52E
100
AcDbEntity
  8
0
100
AcDbLine
 62
7
  6
CONTINUOUS
 10
868.7444444445
 20
915.5019362158
 11
868.7444444445
 21
906.7019362158
  0
LINE
  5
52F
100
AcDbEntity
  8
0
100
AcDbLine
 62
7
  6
CONTINUOUS
 10
869.6444444445
 20
902.5019362158
 11
869.6444444445
 21
906.7019362158
  0
LINE
  5
530
100
AcDbEntity
  8
0
100
AcDbLine
 62
7
  6
CONTINUOUS
 10
870.7444444445
 20
901.0015158376
 11
870.7444444445
 21
902.5019362158
  0
LINE
  5
531
100
AcDbEntity
  8
0
100
AcDbLine
 62
7
  6
CONTINUOUS
 10
875.3444444445
 20
901.0015158376
 11
875.3444444445
 21
902.5019362158
  0
LINE
  5
532
100
AcDbEntity
  8
0
100
AcDbLine
 62
7
  6
CONTINUOUS
 10
876.4444444445
 20
906.7019362158
 11
876.4444444445
 21
902.5019362158
  0
LINE
  5
533
100
AcDbEntity
  8
0
100
AcDbLine
 62
7
  6
CONTINUOUS
 10
877.3444444445
 20
915.5019362158
 11
877.3444444445
 21
906.7019362158
  0
LINE
  5
534
100
AcDbEntity
  8
0
100
AcDbLine
 62
7
  6
CONTINUOUS
 10
879.3444444445
 20
929.2980637843
 11
879.3444444445
 21
915.5019362158
  0
LINE
  5
535
100
AcDbEntity
  8
0
100
AcDbLine
 62
7
  6
CONTINUOUS
 10
884.3444444445
 20
915.5019362158
 11
884.3444444445
 21
929.2980637843
  0
LINE
  5
536
100
AcDbEntity
  8
0
100
AcDbLine
 62
7
  6
CONTINUOUS
 10
886.3444444445
 20
915.5019362158
 11
886.3444444445
 21
906.7019362158
  0
LINE
  5
537
100
AcDbEntity
  8
0
100
AcDbLine
 62
7
  6
CONTINUOUS
 10
887.2444444445
 20
902.5019362158
 11
887.2444444445
 21
906.7019362158
  0
LINE
  5
538
100
AcDbEntity
  8
0
100
AcDbLine
 62
7
  6
CONTINUOUS
 10
888.3444444445
 20
901.0015158376
 11
888.3444444445
 21
902.5019362158
  0
LINE
  5
539
100
AcDbEntity
  8
0
100
AcDbLine
 62
7
  6
CONTINUOUS
 10
892.9444444445
 20
901.0015158376
 11
892.9444444445
 21
902.5019362158
  0
LINE
  5
53A
100
AcDbEntity
  8
0
100
AcDbLine
 62
7
  6
CONTINUOUS
 10
894.0444444445
 20
906.7019362158
 11
894.0444444445
 21
902.5019362158
  0
LINE
  5
53B
100
AcDbEntity
  8
0
100
AcDbLine
 62
7
  6
CONTINUOUS
 10
894.9444444445
 20
915.5019362158
 11
894.9444444445
 21
906.7019362158
  0
LINE
  5
53C
100
AcDbEntity
  8
0
100
AcDbLine
 62
7
  6
CONTINUOUS
 10
896.9444444445
 20
929.2980637843
 11
896.9444444445
 21
915.5019362158
  0
LINE
  5
53D
100
AcDbEntity
  8
0
100
AcDbLine
 62
7
  6
CONTINUOUS
 10
901.9444444445
 20
915.5019362158
 11
901.9444444445
 21
929.2980637843
  0
LINE
  5
53E
100
AcDbEntity
  8
0
100
AcDbLine
 62
7
  6
CONTINUOUS
 10
903.9444444445
 20
915.5019362158
 11
903.9444444445
 21
906.7019362158
  0
LINE
  5
53F
100
AcDbEntity
  8
0
100
AcDbLine
 62
7
  6
CONTINUOUS
 10
904.8444444445
 20
902.5019362158
 11
904.8444444445
 21
906.7019362158
  0
LINE
  5
540
100
AcDbEntity
  8
0
100
AcDbLine
 62
7
  6
CONTINUOUS
 10
905.9444444445
 20
901.0015158376
 11
905.9444444445
 21
902.5019362158
  0
LINE
  5
541
100
AcDbEntity
  8
0
100
AcDbLine
 62
7
  6
CONTINUOUS
 10
910.5444444445
 20
901.0015158376
 11
910.5444444445
 21
902.5019362158
  0
LINE
  5
542
100
AcDbEntity
  8
0
100
AcDbLine
 62
7
  6
CONTINUOUS
 10
911.6444444445
 20
906.7019362158
 11
911.6444444445
 21
902.5019362158
  0
LINE
  5
543
100
AcDbEntity
  8
0
100
AcDbLine
 62
7
  6
CONTINUOUS
 10
912.5444444445
 20
915.5019362158
 11
912.5444444445
 21
906.7019362158
  0
LINE
  5
544
100
AcDbEntity
  8
0
100
AcDbLine
 62
7
  6
CONTINUOUS
 10
914.5444444445
 20
929.2980637843
 11
914.5444444445
 21
915.5019362158
  0
LINE
  5
545
100
AcDbEntity
  8
0
100
AcDbLine
 62
7
  6
CONTINUOUS
 10
919.5444444445
 20
915.5019362158
 11
919.5444444445
 21
929.2980637843
  0
LINE
  5
546
100
AcDbEntity
  8
0
100
AcDbLine
 62
7
  6
CONTINUOUS
 10
921.5444444445
 20
915.5019362158
 11
921.5444444445
 21
906.7019362158
  0
LINE
  5
547
100
AcDbEntity
  8
0
100
AcDbLine
 62
7
  6
CONTINUOUS
 10
922.4444444445
 20
902.5019362158
 11
922.4444444445
 21
906.7019362158
  0
LINE
  5
548
100
AcDbEntity
  8
0
100
AcDbLine
 62
7
  6
CONTINUOUS
 10
923.5444444445
 20
901.0015158376
 11
923.5444444445
 21
902.5019362158
  0
LINE
  5
549
100
AcDbEntity
  8
0
100
AcDbLine
 62
7
  6
CONTINUOUS
 10
928.1444444445
 20
901.0015158376
 11
928.1444444445
 21
902.5019362158
  0
LINE
  5
54A
100
AcDbEntity
  8
0
100
AcDbLine
 62
7
  6
CONTINUOUS
 10
929.2444444445
 20
906.7019362158
 11
929.2444444445
 21
902.5019362158
  0
LINE
  5
54B
100
AcDbEntity
  8
0
100
AcDbLine
 62
7
  6
CONTINUOUS
 10
930.1444444445
 20
915.5019362158
 11
930.1444444445
 21
906.7019362158
  0
LINE
  5
54C
100
AcDbEntity
  8
0
100
AcDbLine
 62
7
  6
CONTINUOUS
 10
932.1444444445
 20
929.2980637843
 11
932.1444444445
 21
915.5019362158
  0
LINE
  5
54D
100
AcDbEntity
  8
0
100
AcDbLine
 62
7
  6
CONTINUOUS
 10
937.1444444445
 20
915.5019362158
 11
937.1444444445
 21
929.2980637843
  0
LINE
  5
54E
100
AcDbEntity
  8
0
100
AcDbLine
 62
7
  6
CONTINUOUS
 10
939.1444444445
 20
915.5019362158
 11
939.1444444445
 21
906.7019362158
  0
LINE
  5
54F
100
AcDbEntity
  8
0
100
AcDbLine
 62
7
  6
CONTINUOUS
 10
940.0444444445
 20
902.5019362158
 11
940.0444444445
 21
906.7019362158
  0
LINE
  5
550
100
AcDbEntity
  8
0
100
AcDbLine
 62
7
  6
CONTINUOUS
 10
941.1444444445
 20
901.0015158376
 11
941.1444444445
 21
902.5019362158
  0
LINE
  5
551
100
AcDbEntity
  8
0
100
AcDbLine
 62
7
  6
CONTINUOUS
 10
945.7444444445
 20
901.0015158376
 11
945.7444444445
 21
902.5019362158
  0
LINE
  5
552
100
AcDbEntity
  8
0
100
AcDbLine
 62
7
  6
CONTINUOUS
 10
946.8444444445
 20
906.7019362158
 11
946.8444444445
 21
902.5019362158
  0
LINE
  5
553
100
AcDbEntity
  8
0
100
AcDbLine
 62
7
  6
CONTINUOUS
 10
947.7444444445
 20
915.5019362158
 11
947.7444444445
 21
906.7019362158
  0
LINE
  5
554
100
AcDbEntity
  8
0
100
AcDbLine
 62
7
  6
CONTINUOUS
 10
949.7444444445
 20
929.2980637843
 11
949.7444444445
 21
915.5019362158
  0
LINE
  5
555
100
AcDbEntity
  8
0
100
AcDbLine
 62
7
  6
CONTINUOUS
 10
954.7444444445
 20
915.5019362158
 11
954.7444444445
 21
929.2980637843
  0
LINE
  5
556
100
AcDbEntity
  8
0
100
AcDbLine
 62
7
  6
CONTINUOUS
 10
956.7444444445
 20
915.5019362158
 11
956.7444444445
 21
906.7019362158
  0
LINE
  5
557
100
AcDbEntity
  8
0
100
AcDbLine
 62
7
  6
CONTINUOUS
 10
957.6444444445
 20
902.5019362158
 11
957.6444444445
 21
906.7019362158
  0
LINE
  5
558
100
AcDbEntity
  8
0
100
AcDbLine
 62
7
  6
CONTINUOUS
 10
958.7444444445
 20
901.0015158376
 11
958.7444444445
 21
902.5019362158
  0
LINE
  5
559
100
AcDbEntity
  8
0
100
AcDbLine
 62
7
  6
CONTINUOUS
 10
963.3444444445
 20
901.0015158376
 11
963.3444444445
 21
902.5019362158
  0
LINE
  5
55A
100
AcDbEntity
  8
0
100
AcDbLine
 62
7
  6
CONTINUOUS
 10
964.4444444445
 20
906.7019362158
 11
964.4444444445
 21
902.5019362158
  0
LINE
  5
55B
100
AcDbEntity
  8
0
100
AcDbLine
 62
7
  6
CONTINUOUS
 10
965.3444444445
 20
915.5019362158
 11
965.3444444445
 21
906.7019362158
  0
LINE
  5
55C
100
AcDbEntity
  8
0
100
AcDbLine
 62
7
  6
CONTINUOUS
 10
967.3444444445
 20
929.2980637843
 11
967.3444444445
 21
915.5019362158
  0
LINE
  5
55D
100
AcDbEntity
  8
0
100
AcDbLine
 62
7
  6
CONTINUOUS
 10
972.3444444445
 20
915.5019362158
 11
972.3444444445
 21
929.2980637843
  0
LINE
  5
55E
100
AcDbEntity
  8
0
100
AcDbLine
 62
7
  6
CONTINUOUS
 10
974.3444444445
 20
915.5019362158
 11
974.3444444445
 21
906.7019362158
  0
LINE
  5
55F
100
AcDbEntity
  8
0
100
AcDbLine
 62
7
  6
CONTINUOUS
 10
975.2444444445
 20
902.5019362158
 11
975.2444444445
 21
906.7019362158
  0
LINE
  5
560
100
AcDbEntity
  8
0
100
AcDbLine
 62
7
  6
CONTINUOUS
 10
976.3444444445
 20
901.0015158376
 11
976.3444444445
 21
902.5019362158
  0
LINE
  5
561
100
AcDbEntity
  8
0
100
AcDbLine
 62
7
  6
CONTINUOUS
 10
980.9444444445
 20
901.0015158376
 11
980.9444444445
 21
902.5019362158
  0
LINE
  5
562
100
AcDbEntity
  8
0
100
AcDbLine
 62
7
  6
CONTINUOUS
 10
982.0444444445
 20
906.7019362158
 11
982.0444444445
 21
902.5019362158
  0
LINE
  5
563
100
AcDbEntity
  8
0
100
AcDbLine
 62
7
  6
CONTINUOUS
 10
982.9444444445
 20
915.5019362158
 11
982.9444444445
 21
906.7019362158
  0
LINE
  5
564
100
AcDbEntity
  8
0
100
AcDbLine
 62
7
  6
CONTINUOUS
 10
984.9444444445
 20
929.2980637843
 11
984.9444444445
 21
915.5019362158
  0
LINE
  5
565
100
AcDbEntity
  8
0
100
AcDbLine
 62
7
  6
CONTINUOUS
 10
989.9444444445
 20
915.5019362158
 11
989.9444444445
 21
929.2980637843
  0
LINE
  5
566
100
AcDbEntity
  8
0
100
AcDbLine
 62
7
  6
CONTINUOUS
 10
991.9444444445
 20
915.5019362158
 11
991.9444444445
 21
906.7019362158
  0
LINE
  5
567
100
AcDbEntity
  8
0
100
AcDbLine
 62
7
  6
CONTINUOUS
 10
992.8444444445
 20
902.5019362158
 11
992.8444444445
 21
906.7019362158
  0
LINE
  5
568
100
AcDbEntity
  8
0
100
AcDbLine
 62
7
  6
CONTINUOUS
 10
993.9444444445
 20
901.0015158376
 11
993.9444444445
 21
902.5019362158
  0
LINE
  5
569
100
AcDbEntity
  8
0
100
AcDbLine
 62
7
  6
CONTINUOUS
 10
998.5444444445
 20
901.0015158376
 11
998.5444444445
 21
902.5019362158
  0
LINE
  5
56A
100
AcDbEntity
  8
0
100
AcDbLine
 62
7
  6
CONTINUOUS
 10
999.6444444445
 20
906.7019362158
 11
999.6444444445
 21
902.5019362158
  0
LINE
  5
56B
100
AcDbEntity
  8
0
100
AcDbLine
 62
7
  6
CONTINUOUS
 10
1000.5444444445
 20
915.5019362158
 11
1000.5444444445
 21
906.7019362158
  0
LINE
  5
56C
100
AcDbEntity
  8
0
100
AcDbLine
 62
7
  6
CONTINUOUS
 10
1002.5444444445
 20
929.2980637843
 11
1002.5444444445
 21
915.5019362158
  0
LINE
  5
56D
100
AcDbEntity
  8
0
100
AcDbLine
 62
7
  6
CONTINUOUS
 10
1007.5444444445
 20
915.5019362158
 11
1007.5444444445
 21
929.2980637843
  0
LINE
  5
56E
100
AcDbEntity
  8
0
100
AcDbLine
 62
7
  6
CONTINUOUS
 10
1009.5444444445
 20
915.5019362158
 11
1009.5444444445
 21
906.7019362158
  0
LINE
  5
56F
100
AcDbEntity
  8
0
100
AcDbLine
 62
7
  6
CONTINUOUS
 10
1010.4444444445
 20
902.5019362158
 11
1010.4444444445
 21
906.7019362158
  0
LINE
  5
570
100
AcDbEntity
  8
0
100
AcDbLine
 62
7
  6
CONTINUOUS
 10
1011.5444444445
 20
901.0015158376
 11
1011.5444444445
 21
902.5019362158
  0
LINE
  5
571
100
AcDbEntity
  8
0
100
AcDbLine
 62
7
  6
CONTINUOUS
 10
1016.1444444445
 20
901.0015158376
 11
1016.1444444445
 21
902.5019362158
  0
LINE
  5
572
100
AcDbEntity
  8
0
100
AcDbLine
 62
7
  6
CONTINUOUS
 10
1017.2444444445
 20
906.7019362158
 11
1017.2444444445
 21
902.5019362158
  0
LINE
  5
573
100
AcDbEntity
  8
0
100
AcDbLine
 62
7
  6
CONTINUOUS
 10
1018.1444444445
 20
915.5019362158
 11
1018.1444444445
 21
906.7019362158
  0
LINE
  5
574
100
AcDbEntity
  8
0
100
AcDbLine
 62
7
  6
CONTINUOUS
 10
1020.1444444445
 20
929.2980637843
 11
1020.1444444445
 21
915.5019362158
  0
LINE
  5
575
100
AcDbEntity
  8
0
100
AcDbLine
 62
7
  6
CONTINUOUS
 10
1025.1444444445
 20
915.5019362158
 11
1025.1444444445
 21
929.2980637843
  0
LINE
  5
576
100
AcDbEntity
  8
0
100
AcDbLine
 62
7
  6
CONTINUOUS
 10
1027.1444444445
 20
915.5019362158
 11
1027.1444444445
 21
906.7019362158
  0
LINE
  5
577
100
AcDbEntity
  8
0
100
AcDbLine
 62
7
  6
CONTINUOUS
 10
1028.0444444445
 20
902.5019362158
 11
1028.0444444445
 21
906.7019362158
  0
LINE
  5
578
100
AcDbEntity
  8
0
100
AcDbLine
 62
7
  6
CONTINUOUS
 10
1029.1444444445
 20
901.0015158376
 11
1029.1444444445
 21
902.5019362158
  0
LINE
  5
579
100
AcDbEntity
  8
0
100
AcDbLine
 62
7
  6
CONTINUOUS
 10
1033.7444444445
 20
901.0015158376
 11
1033.7444444445
 21
902.5019362158
  0
LINE
  5
57A
100
AcDbEntity
  8
0
100
AcDbLine
 62
7
  6
CONTINUOUS
 10
1034.8444444445
 20
906.7019362158
 11
1034.8444444445
 21
902.5019362158
  0
LINE
  5
57B
100
AcDbEntity
  8
0
100
AcDbLine
 62
7
  6
CONTINUOUS
 10
1035.7444444445
 20
915.5019362158
 11
1035.7444444445
 21
906.7019362158
  0
LINE
  5
57C
100
AcDbEntity
  8
0
100
AcDbLine
 62
7
  6
CONTINUOUS
 10
1037.7444444445
 20
929.2980637843
 11
1037.7444444445
 21
915.5019362158
  0
LINE
  5
57D
100
AcDbEntity
  8
0
100
AcDbLine
 62
7
  6
CONTINUOUS
 10
1042.7444444445
 20
915.5019362158
 11
1042.7444444445
 21
929.2980637843
  0
LINE
  5
57E
100
AcDbEntity
  8
0
100
AcDbLine
 62
7
  6
CONTINUOUS
 10
1044.7444444445
 20
915.5019362158
 11
1044.7444444445
 21
906.7019362158
  0
LINE
  5
57F
100
AcDbEntity
  8
0
100
AcDbLine
 62
7
  6
CONTINUOUS
 10
1045.6444444445
 20
902.5019362158
 11
1045.6444444445
 21
906.7019362158
  0
LINE
  5
580
100
AcDbEntity
  8
0
100
AcDbLine
 62
7
  6
CONTINUOUS
 10
1046.7444444445
 20
901.0015158376
 11
1046.7444444445
 21
902.5019362158
  0
LINE
  5
581
100
AcDbEntity
  8
0
100
AcDbLine
 62
7
  6
CONTINUOUS
 10
1051.3444444445
 20
901.0015158376
 11
1051.3444444445
 21
902.5019362158
  0
LINE
  5
582
100
AcDbEntity
  8
0
100
AcDbLine
 62
7
  6
CONTINUOUS
 10
1052.4444444445
 20
906.7019362158
 11
1052.4444444445
 21
902.5019362158
  0
LINE
  5
583
100
AcDbEntity
  8
0
100
AcDbLine
 62
7
  6
CONTINUOUS
 10
1053.3444444445
 20
915.5019362158
 11
1053.3444444445
 21
906.7019362158
  0
LINE
  5
584
100
AcDbEntity
  8
0
100
AcDbLine
 62
7
  6
CONTINUOUS
 10
1055.3444444445
 20
929.2980637843
 11
1055.3444444445
 21
915.5019362158
  0
LINE
  5
585
100
AcDbEntity
  8
0
100
AcDbLine
 62
7
  6
CONTINUOUS
 10
1060.3444444445
 20
915.5019362158
 11
1060.3444444445
 21
929.2980637843
  0
LINE
  5
586
100
AcDbEntity
  8
0
100
AcDbLine
 62
7
  6
CONTINUOUS
 10
1062.3444444445
 20
915.5019362158
 11
1062.3444444445
 21
906.7019362158
  0
LINE
  5
587
100
AcDbEntity
  8
0
100
AcDbLine
 62
7
  6
CONTINUOUS
 10
1063.2444444445
 20
902.5019362158
 11
1063.2444444445
 21
906.7019362158
  0
LINE
  5
588
100
AcDbEntity
  8
0
100
AcDbLine
 62
7
  6
CONTINUOUS
 10
1064.3444444445
 20
901.0015158376
 11
1064.3444444445
 21
902.5019362158
  0
LINE
  5
589
100
AcDbEntity
  8
0
100
AcDbLine
 62
7
  6
CONTINUOUS
 10
1068.9444444445
 20
901.0015158376
 11
1068.9444444445
 21
902.5019362158
  0
LINE
  5
58A
100
AcDbEntity
  8
0
100
AcDbLine
 62
7
  6
CONTINUOUS
 10
1070.0444444445
 20
906.7019362158
 11
1070.0444444445
 21
902.5019362158
  0
LINE
  5
58B
100
AcDbEntity
  8
0
100
AcDbLine
 62
7
  6
CONTINUOUS
 10
1070.9444444445
 20
915.5019362158
 11
1070.9444444445
 21
906.7019362158
  0
LINE
  5
58C
100
AcDbEntity
  8
0
100
AcDbLine
 62
7
  6
CONTINUOUS
 10
1072.9444444445
 20
929.2980637843
 11
1072.9444444445
 21
915.5019362158
  0
LINE
  5
58D
100
AcDbEntity
  8
0
100
AcDbLine
 62
7
  6
CONTINUOUS
 10
1077.9444444445
 20
915.5019362158
 11
1077.9444444445
 21
929.2980637843
  0
LINE
  5
58E
100
AcDbEntity
  8
0
100
AcDbLine
 62
7
  6
CONTINUOUS
 10
1079.9444444445
 20
915.5019362158
 11
1079.9444444445
 21
906.7019362158
  0
LINE
  5
58F
100
AcDbEntity
  8
0
100
AcDbLine
 62
7
  6
CONTINUOUS
 10
1080.8444444445
 20
902.5019362158
 11
1080.8444444445
 21
906.7019362158
  0
LINE
  5
590
100
AcDbEntity
  8
0
100
AcDbLine
 62
7
  6
CONTINUOUS
 10
1081.9444444445
 20
901.0015158376
 11
1081.9444444445
 21
902.5019362158
  0
LINE
  5
591
100
AcDbEntity
  8
0
100
AcDbLine
 62
7
  6
CONTINUOUS
 10
1086.5444444445
 20
901.0015158376
 11
1086.5444444445
 21
902.5019362158
  0
LINE
  5
592
100
AcDbEntity
  8
0
100
AcDbLine
 62
7
  6
CONTINUOUS
 10
1087.6444444445
 20
906.7019362158
 11
1087.6444444445
 21
902.5019362158
  0
LINE
  5
593
100
AcDbEntity
  8
0
100
AcDbLine
 62
7
  6
CONTINUOUS
 10
1088.5444444445
 20
915.5019362158
 11
1088.5444444445
 21
906.7019362158
  0
LINE
  5
594
100
AcDbEntity
  8
0
100
AcDbLine
 62
7
  6
CONTINUOUS
 10
1090.5444444445
 20
929.2980637843
 11
1090.5444444445
 21
915.5019362158
  0
LINE
  5
595
100
AcDbEntity
  8
0
100
AcDbLine
 62
7
  6
CONTINUOUS
 10
1095.5444444445
 20
915.5019362158
 11
1095.5444444445
 21
929.2980637843
  0
LINE
  5
596
100
AcDbEntity
  8
0
100
AcDbLine
 62
7
  6
CONTINUOUS
 10
1097.5444444445
 20
915.5019362158
 11
1097.5444444445
 21
906.7019362158
  0
LINE
  5
597
100
AcDbEntity
  8
0
100
AcDbLine
 62
7
  6
CONTINUOUS
 10
1098.4444444445
 20
902.5019362158
 11
1098.4444444445
 21
906.7019362158
  0
LINE
  5
598
100
AcDbEntity
  8
0
100
AcDbLine
 62
7
  6
CONTINUOUS
 10
1099.5444444445
 20
901.0015158376
 11
1099.5444444445
 21
902.5019362158
  0
LINE
  5
599
100
AcDbEntity
  8
0
100
AcDbLine
 62
7
  6
CONTINUOUS
 10
1104.1444444445
 20
901.0015158376
 11
1104.1444444445
 21
902.5019362158
  0
LINE
  5
59A
100
AcDbEntity
  8
0
100
AcDbLine
 62
7
  6
CONTINUOUS
 10
1105.2444444445
 20
906.7019362158
 11
1105.2444444445
 21
902.5019362158
  0
LINE
  5
59B
100
AcDbEntity
  8
0
100
AcDbLine
 62
7
  6
CONTINUOUS
 10
1106.1444444445
 20
915.5019362158
 11
1106.1444444445
 21
906.7019362158
  0
LINE
  5
59C
100
AcDbEntity
  8
0
100
AcDbLine
 62
7
  6
CONTINUOUS
 10
1108.1444444445
 20
929.2980637843
 11
1108.1444444445
 21
915.5019362158
  0
LINE
  5
59D
100
AcDbEntity
  8
0
100
AcDbLine
 62
7
  6
CONTINUOUS
 10
1113.1444444445
 20
915.5019362158
 11
1113.1444444445
 21
929.2980637843
  0
LINE
  5
59E
100
AcDbEntity
  8
0
100
AcDbLine
 62
7
  6
CONTINUOUS
 10
1115.1444444445
 20
915.5019362158
 11
1115.1444444445
 21
906.7019362158
  0
LINE
  5
59F
100
AcDbEntity
  8
0
100
AcDbLine
 62
7
  6
CONTINUOUS
 10
1116.0444444445
 20
902.5019362158
 11
1116.0444444445
 21
906.7019362158
  0
LINE
  5
5A0
100
AcDbEntity
  8
0
100
AcDbLine
 62
7
  6
CONTINUOUS
 10
1117.1444444445
 20
901.0015158376
 11
1117.1444444445
 21
902.5019362158
  0
LINE
  5
5A1
100
AcDbEntity
  8
0
100
AcDbLine
 62
7
  6
CONTINUOUS
 10
1121.7444444445
 20
901.0015158376
 11
1121.7444444445
 21
902.5019362158
  0
LINE
  5
5A2
100
AcDbEntity
  8
0
100
AcDbLine
 62
7
  6
CONTINUOUS
 10
1122.8444444445
 20
906.7019362158
 11
1122.8444444445
 21
902.5019362158
  0
LINE
  5
5A3
100
AcDbEntity
  8
0
100
AcDbLine
 62
7
  6
CONTINUOUS
 10
1123.7444444445
 20
915.5019362158
 11
1123.7444444445
 21
906.7019362158
  0
LINE
  5
5A4
100
AcDbEntity
  8
0
100
AcDbLine
 62
7
  6
CONTINUOUS
 10
1125.7444444445
 20
929.2980637843
 11
1125.7444444445
 21
915.5019362158
  0
LINE
  5
5A5
100
AcDbEntity
  8
0
100
AcDbLine
 62
7
  6
CONTINUOUS
 10
1130.7444444445
 20
915.5019362158
 11
1130.7444444445
 21
929.2980637843
  0
LINE
  5
5A6
100
AcDbEntity
  8
0
100
AcDbLine
 62
7
  6
CONTINUOUS
 10
1132.7444444445
 20
915.5019362158
 11
1132.7444444445
 21
906.7019362158
  0
LINE
  5
5A7
100
AcDbEntity
  8
0
100
AcDbLine
 62
7
  6
CONTINUOUS
 10
1133.6444444445
 20
902.5019362158
 11
1133.6444444445
 21
906.7019362158
  0
LINE
  5
5A8
100
AcDbEntity
  8
0
100
AcDbLine
 62
7
  6
CONTINUOUS
 10
1134.7444444445
 20
901.0015158376
 11
1134.7444444445
 21
902.5019362158
  0
LINE
  5
5A9
100
AcDbEntity
  8
0
100
AcDbLine
 62
7
  6
CONTINUOUS
 10
1139.3444444445
 20
901.0015158376
 11
1139.3444444445
 21
902.5019362158
  0
LINE
  5
5AA
100
AcDbEntity
  8
0
100
AcDbLine
 62
7
  6
CONTINUOUS
 10
1140.4444444445
 20
906.7019362158
 11
1140.4444444445
 21
902.5019362158
  0
LINE
  5
5AB
100
AcDbEntity
  8
0
100
AcDbLine
 62
7
  6
CONTINUOUS
 10
1141.3444444445
 20
915.5019362158
 11
1141.3444444445
 21
906.7019362158
  0
LINE
  5
5AC
100
AcDbEntity
  8
0
100
AcDbLine
 62
7
  6
CONTINUOUS
 10
1143.3444444445
 20
929.2980637843
 11
1143.3444444445
 21
915.5019362158
  0
LINE
  5
5AD
100
AcDbEntity
  8
0
100
AcDbLine
 62
7
  6
CONTINUOUS
 10
1148.3444444445
 20
915.5019362158
 11
1148.3444444445
 21
929.2980637843
  0
LINE
  5
5AE
100
AcDbEntity
  8
0
100
AcDbLine
 62
7
  6
CONTINUOUS
 10
1150.3444444445
 20
915.5019362158
 11
1150.3444444445
 21
906.7019362158
  0
LINE
  5
5AF
100
AcDbEntity
  8
0
100
AcDbLine
 62
7
  6
CONTINUOUS
 10
1151.2444444445
 20
902.5019362158
 11
1151.2444444445
 21
906.7019362158
  0
LINE
  5
5B0
100
AcDbEntity
  8
0
100
AcDbLine
 62
7
  6
CONTINUOUS
 10
1152.3444444445
 20
901.0015158376
 11
1152.3444444445
 21
902.5019362158
  0
LINE
  5
5B1
100
AcDbEntity
  8
0
100
AcDbLine
 62
7
  6
CONTINUOUS
 10
1157.9444444445
 20
872.5019362158
 11
1157.9444444445
 21
901.0010074906
  0
ENDSEC
  0
SECTION
  2
OBJECTS
  0
DICTIONARY
  5
C
100
AcDbDictionary
280
0
281
1
  3
ACAD_GROUP
350
D
  3
ACAD_MLINESTYLE
350
17
  3
ACAD_LAYOUT
350
1A
  3
ACAD_PLOTSETTINGS
350
19
  3
ACAD_PLOTSTYLENAME
350
E
  0
DICTIONARY
  5
D
102
{ACAD_REACTORS
330
C
102
}
100
AcDbDictionary
280
0
281
1
  0
ACDBDICTIONARYWDFLT
  5
E
102
{ACAD_REACTORS
330
C
102
}
100
AcDbDictionary
281
1
  3
Normal
350
F
100
AcDbDictionaryWithDefault
340
F
  0
DICTIONARY
  5
17
102
{ACAD_REACTORS
330
C
102
}
100
AcDbDictionary
280
0
281
1
  3
Standard
350
18
  0
DICTIONARY
  5
19
102
{ACAD_REACTORS
330
C
102
}
100
AcDbDictionary
281
1
  0
DICTIONARY
  5
1A
102
{ACAD_REACTORS
330
C
102
}
100
AcDbDictionary
281
1
  3
Model
350
5B2
  3
Layout1
350
5B3
  0
ACDBPLACEHOLDER
  5
F
102
{ACAD_REACTORS
330
E
102
}
  0
MLINESTYLE
  5
18
102
{ACAD_REACTORS
330
17
102
}
100
AcDbMlineStyle
  2
STANDARD
 70
0
  3

 62
256
 51
90.0
 52
90.0
 71
2
 49
0.5
 62
256
  6
BYLAYER
 49
-0.5
 62
256
  6
BYLAYER
  0
LAYOUT
  5
5B2
102
{ACAD_REACTORS
330
1A
102
}
100
AcDbPlotSettings
  1

  2
none_device
  4

  6

 40
0.0
 41
0.0
 42
0.0
 43
0.0
 44
210.0
 45
297.0
 46
0.0
 47
0.0
 48
0.0
 49
0.0
140
0.0
141
0.0
142
1.0
143
1.0
 70
1024
 72
1
 73
0
 74
0
  7

 75
0
147
1.0
148
0.0
149
0.0
100
AcDbLayout
  1
Model
 70
0
 71
0
 10
0.0
 20
0.0
 11
210.0
 21
297.0
 12
0.0
 22
0.0
 32
0.0
 14
0.0
 24
0.0
 34
0.0
 15
0.0
 25
0.0
 35
0.0
146
0.0
 13
0.0
 23
0.0
 33
0.0
 16
1.0
 26
0.0
 36
0.0
 17
0.0
 27
1.0
 37
0.0
 76
0
330
210
345
0
346
0
  0
LAYOUT
  5
5B3
102
{ACAD_REACTORS
330
1A
102
}
100
AcDbPlotSettings
  1

  2
none_device
  4

  6

 40
0.0
 41
0.0
 42
0.0
 43
0.0
 44
210.0
 45
297.0
 46
0.0
 47
0.0
 48
0.0
 49
0.0
140
0.0
141
0.0
142
1.0
143
1.0
 70
0
 72
1
 73
0
 74
0
  7

 75
0
147
1.0
148
0.0
149
0.0
100
AcDbLayout
  1
Layout1
 70
0
 71
1
 10
0.0
 20
0.0
 11
210.0
 21
297.0
 12
0.0
 22
0.0
 32
0.0
 14
0.0
 24
0.0
 34
0.0
 15
0.0
 25
0.0
 35
0.0
146
0.0
 13
0.0
 23
0.0
 33
0.0
 16
1.0
 26
0.0
 36
0.0
 17
0.0
 27
1.0
 37
0.0
 76
0
330
211
345
0
346
0
  0
ENDSEC
  0
EOF
