999
DXF file: C:\Users\sesa63760\Dev\_Creo\CAD\MCADID0000863_3D-CAD\drw0001_1.dxf
999
Pro/ENGINEER 2019471 by Parametric Technology Corporation
  0
SECTION
  2
HEADER
  9
$ACADVER
  1
AC1024
  9
$DWGCODEPAGE
  3
ANSI_1252
  9
$EXTMAX
 10
249.1048227727
 20
352.3053922072
 30
0.0
  9
$EXTMIN
 10
0.0
 20
0.0
 30
0.0
  9
$LIMMIN
 10
0.0
 20
0.0
  9
$LIMMAX
 10
249.1048227727
 20
352.3053922072
  9
$VIEWCTR
 10
124.5524113864
 20
176.1526961036
  9
$VIEWSIZE
 40
352.3053922072
  9
$CLAYER
  8
0
  9
$LTSCALE
 40
22.9650922328
  9
$CELTYPE
  6
BYLAYER
  9
$DIMSCALE
 40
1.0
  9
$DIMASZ
 40
2.9655336044
  9
$DIMEXO
 40
1.0
  9
$DIMDLI
 40
15.8667909972
  9
$DIMEXE
 40
1.0
  9
$DIMCEN
 40
3.7579241835
  9
$DIMLFAC
 40
1.0
  9
$DIMBLK
  1
_FILLED
  9
$DIMALT
 70
0
  9
$DIMALTF
 40
0.0393700787
  9
$DIMTXT
 40
4.1517470462
  9
$DIMTOL
 70
1
  9
$DIMLIM
 70
0
  9
$DIMTFAC
 40
1.0
  9
$DIMTP
 40
0.01
  9
$DIMTM
 40
0.01
  9
$DIMGAP
 40
0.625
  9
$DIMDSEP
 70
46
  9
$AUNITS
 70
0
  9
$PDMODE
 70
3
  9
$PDSIZE
 40
0.3125
  9
$HANDSEED
  5
273
  9
$TILEMODE
 70
1
  9
$MEASUREMENT
 70
1
  9
$INSUNITS
 70
4
  0
ENDSEC
  0
SECTION
  2
CLASSES
  0
CLASS
  1
ACDBDICTIONARYWDFLT
  2
AcDbDictionaryWithDefault
  3
AutoCAD 2000
 90
0
 91
1
280
0
281
0
  0
CLASS
  1
ACDBPLACEHOLDER
  2
AcDbPlaceHolder
  3
AutoCAD 2000
 90
0
 91
1
280
0
281
0
  0
CLASS
  1
LAYOUT
  2
AcDbLayout
  3
AutoCAD 2000
 90
0
 91
0
280
0
281
0
  0
ENDSEC
  0
SECTION
  2
TABLES
  0
TABLE
  2
VPORT
  5
8
100
AcDbSymbolTable
 70
2
  0
VPORT
  5
1F4
100
AcDbSymbolTableRecord
100
AcDbViewportTableRecord
  2
*ACTIVE
 70
0
 10
0.0
 20
0.0
 11
1.0
 21
1.0
 12
124.5524113864
 22
176.1526961036
 13
0.0
 23
0.0
 14
1.0
 24
1.0
 15
0.0
 25
0.0
 16
0.0
 26
0.0
 36
1.0
 17
0.0
 27
0.0
 37
0.0
 40
352.3053922072
 41
0.7070707071
 42
50.0
 43
0.0
 44
0.0
 50
0.0
 51
0.0
 71
0
 72
100
 73
1
 74
1
 75
0
 76
0
 77
0
 78
0
  0
ENDTAB
  0
TABLE
  2
LTYPE
  5
5
100
AcDbSymbolTable
 70
6
  0
LTYPE
  5
14
100
AcDbSymbolTableRecord
100
AcDbLinetypeTableRecord
  2
BYBLOCK
 70
0
  3

 72
65
 73
0
 40
0.0
  0
LTYPE
  5
15
100
AcDbSymbolTableRecord
100
AcDbLinetypeTableRecord
  2
BYLAYER
 70
0
  3

 72
65
 73
0
 40
0.0
  0
LTYPE
  5
16
100
AcDbSymbolTableRecord
100
AcDbLinetypeTableRecord
  2
CONTINUOUS
 70
64
  3
Solid line
 72
65
 73
0
 40
0.0
  0
LTYPE
  5
1F5
100
AcDbSymbolTableRecord
100
AcDbLinetypeTableRecord
  2
CENTER
 70
64
  3
____ _ ____ _ ____ _ ____ _ ____ _ ____ _ ____
 72
65
 73
4
 40
0.6
 49
0.375
 74
0
 49
-0.075
 74
0
 49
0.075
 74
0
 49
-0.075
 74
0
  0
LTYPE
  5
1F6
100
AcDbSymbolTableRecord
100
AcDbLinetypeTableRecord
  2
HIDDEN
 70
64
  3
- - - - - - - - - - - - - - - - - - - -
 72
65
 73
2
 40
0.2
 49
0.1
 74
0
 49
-0.1
 74
0
  0
LTYPE
  5
1F7
100
AcDbSymbolTableRecord
100
AcDbLinetypeTableRecord
  2
PHANTOM
 70
64
  3
_____ _ _ _____ _ _ _____ _ _ _____
 72
65
 73
6
 40
0.8
 49
0.45
 74
0
 49
-0.05
 74
0
 49
0.1
 74
0
 49
-0.05
 74
0
 49
0.1
 74
0
 49
-0.05
 74
0
  0
LTYPE
  5
1F8
100
AcDbSymbolTableRecord
100
AcDbLinetypeTableRecord
  2
DOT
 70
64
  3
. . . . . . . . . . . . . . . . . . . .
 72
65
 73
2
 40
0.2
 49
0.1
 74
0
 49
-0.1
 74
0
  0
LTYPE
  5
1F9
100
AcDbSymbolTableRecord
100
AcDbLinetypeTableRecord
  2
DASHED
 70
64
  3
- - - - - - - - - - - - - - - - - - - -
 72
65
 73
2
 40
0.2
 49
0.1
 74
0
 49
-0.1
 74
0
  0
ENDTAB
  0
TABLE
  2
LAYER
  5
2
100
AcDbSymbolTable
 70
36
  0
LAYER
  5
10
100
AcDbSymbolTableRecord
100
AcDbLayerTableRecord
  2
0
 70
0
 62
7
  6
CONTINUOUS
370
-3
390
F
  0
LAYER
  5
1FA
100
AcDbSymbolTableRecord
100
AcDbLayerTableRecord
  2
DEFAULT_1
 70
0
 62
7
  6
CENTER
370
-3
390
F
  0
LAYER
  5
1FB
100
AcDbSymbolTableRecord
100
AcDbLayerTableRecord
  2
DEFAULT_2
 70
0
 62
8
  6
HIDDEN
370
-3
390
F
  0
LAYER
  5
1FC
100
AcDbSymbolTableRecord
100
AcDbLayerTableRecord
  2
DEFAULT_3
 70
0
 62
7
  6
PHANTOM
370
-3
390
F
  0
LAYER
  5
1FD
100
AcDbSymbolTableRecord
100
AcDbLayerTableRecord
  2
00_COMPONENTS
 70
0
 62
7
  6
CONTINUOUS
370
-3
390
F
  0
LAYER
  5
1FE
100
AcDbSymbolTableRecord
100
AcDbLayerTableRecord
  2
01_1_DEFAULT_DATUMS
 70
0
 62
7
  6
CONTINUOUS
370
-3
390
F
  0
LAYER
  5
1FF
100
AcDbSymbolTableRecord
100
AcDbLayerTableRecord
  2
01_PLANES
 70
0
 62
7
  6
CONTINUOUS
370
-3
390
F
  0
LAYER
  5
200
100
AcDbSymbolTableRecord
100
AcDbLayerTableRecord
  2
02_COORD_SYS
 70
0
 62
7
  6
CONTINUOUS
370
-3
390
F
  0
LAYER
  5
201
100
AcDbSymbolTableRecord
100
AcDbLayerTableRecord
  2
03_AXES
 70
0
 62
7
  6
CONTINUOUS
370
-3
390
F
  0
LAYER
  5
202
100
AcDbSymbolTableRecord
100
AcDbLayerTableRecord
  2
04_POINTS
 70
0
 62
7
  6
CONTINUOUS
370
-3
390
F
  0
LAYER
  5
203
100
AcDbSymbolTableRecord
100
AcDbLayerTableRecord
  2
05_CURVES
 70
0
 62
7
  6
CONTINUOUS
370
-3
390
F
  0
LAYER
  5
204
100
AcDbSymbolTableRecord
100
AcDbLayerTableRecord
  2
06_SURFS
 70
0
 62
7
  6
CONTINUOUS
370
-3
390
F
  0
LAYER
  5
205
100
AcDbSymbolTableRecord
100
AcDbLayerTableRecord
  2
07_COSMETICS
 70
0
 62
7
  6
CONTINUOUS
370
-3
390
F
  0
LAYER
  5
206
100
AcDbSymbolTableRecord
100
AcDbLayerTableRecord
  2
10_NOTES
 70
0
 62
7
  6
CONTINUOUS
370
-3
390
F
  0
LAYER
  5
207
100
AcDbSymbolTableRecord
100
AcDbLayerTableRecord
  2
11_NOTES_PUB
 70
0
 62
7
  6
CONTINUOUS
370
-3
390
F
  0
LAYER
  5
208
100
AcDbSymbolTableRecord
100
AcDbLayerTableRecord
  2
13_REF_GTOL
 70
0
 62
7
  6
CONTINUOUS
370
-3
390
F
  0
LAYER
  5
209
100
AcDbSymbolTableRecord
100
AcDbLayerTableRecord
  2
16_MISC
 70
0
 62
7
  6
CONTINUOUS
370
-3
390
F
  0
LAYER
  5
20A
100
AcDbSymbolTableRecord
100
AcDbLayerTableRecord
  2
17_NO_PRINT
 70
0
 62
7
  6
CONTINUOUS
370
-3
390
F
  0
LAYER
  5
20B
100
AcDbSymbolTableRecord
100
AcDbLayerTableRecord
  2
18_DATUM_CAMS_JOINTS
 70
0
 62
7
  6
CONTINUOUS
370
-3
390
F
  0
LAYER
  5
20C
100
AcDbSymbolTableRecord
100
AcDbLayerTableRecord
  2
19_DATUM_FUNCTIONAL
 70
0
 62
7
  6
CONTINUOUS
370
-3
390
F
  0
LAYER
  5
20D
100
AcDbSymbolTableRecord
100
AcDbLayerTableRecord
  2
20_DATUM_KINEMATIC_SCHEME
 70
0
 62
7
  6
CONTINUOUS
370
-3
390
F
  0
ENDTAB
  0
TABLE
  2
STYLE
  5
3
100
AcDbSymbolTable
 70
1
  0
STYLE
  5
11
100
AcDbSymbolTableRecord
100
AcDbTextStyleTableRecord
  2
STANDARD
 70
0
 40
0.0
 41
0.8
 50
0.0
 71
0
 42
0.2
  3
txt
  4

  0
STYLE
  5
20E
100
AcDbSymbolTableRecord
100
AcDbTextStyleTableRecord
  2
TEXTSTYLE_1
 70
0
 40
0.0
 41
0.8
 50
0.0
 71
0
 42
0.2
  3
gdt
  4

  0
ENDTAB
  0
TABLE
  2
VIEW
  5
6
100
AcDbSymbolTable
 70
0
  0
ENDTAB
  0
TABLE
  2
UCS
  5
7
100
AcDbSymbolTable
 70
0
  0
ENDTAB
  0
TABLE
  2
APPID
  5
9
100
AcDbSymbolTable
 70
1
  0
APPID
  5
20F
100
AcDbSymbolTableRecord
100
AcDbRegAppTableRecord
  2
ACAD
 70
0
  0
ENDTAB
  0
TABLE
  2
BLOCK_RECORD
  5
1
100
AcDbSymbolTable
 70
0
  0
BLOCK_RECORD
  5
210
100
AcDbSymbolTableRecord
100
AcDbBlockTableRecord
  2
*Model_Space
  0
BLOCK_RECORD
  5
211
100
AcDbSymbolTableRecord
100
AcDbBlockTableRecord
  2
*Paper_Space
  0
BLOCK_RECORD
  5
212
100
AcDbSymbolTableRecord
100
AcDbBlockTableRecord
  2
_FILLED
  0
ENDTAB
  0
TABLE
  2
DIMSTYLE
  5
A
100
AcDbSymbolTable
 70
1
100
AcDbDimStyleTable
 71
0
  0
DIMSTYLE
105
213
100
AcDbSymbolTableRecord
100
AcDbDimStyleTableRecord
  2
STANDARD
 70
0
  3

  4

 40
1.0
 41
2.9655336044
 42
1.0
 43
0.38
 44
1.0
 45
0.0
 46
0.0
 47
0.01
 48
0.01
140
4.1517470462
141
0.09
142
0.0
143
25.4
144
1.0
145
0.0
146
1.0
147
0.625
 71
1
 72
0
 73
0
 74
0
 75
0
 76
0
 77
1
 78
8
 79
2
170
0
171
1
172
0
173
0
174
0
175
0
176
0
177
0
178
0
270
2
179
2
271
2
272
2
273
2
274
2
275
0
280
0
281
0
282
0
283
1
284
8
285
0
286
0
287
3
288
0
340
11
278
46
341
212
342
212
343
212
344
212
  0
ENDTAB
  0
ENDSEC
  0
SECTION
  2
BLOCKS
  0
BLOCK
  5
20
100
AcDbEntity
  8
0
100
AcDbBlockBegin
  2
*Model_Space
 70
0
 10
0.0
 20
0.0
 30
0.0
  3
*Model_Space
  1

  0
ENDBLK
  5
21
100
AcDbEntity
  8
0
100
AcDbBlockEnd
  0
BLOCK
  5
1C
100
AcDbEntity
  8
0
100
AcDbBlockBegin
  2
*Paper_Space
 70
0
 10
0.0
 20
0.0
 30
0.0
  3
*Paper_Space
  1

  0
ENDBLK
  5
1D
100
AcDbEntity
  8
0
100
AcDbBlockEnd
  0
BLOCK
  5
214
100
AcDbEntity
  8
0
100
AcDbBlockBegin
  2
_FILLED
 70
64
 10
0.0
 20
0.0
  3
_FILLED
  1

  0
SOLID
  5
215
100
AcDbEntity
  8
0
  6
BYBLOCK
 62
0
100
AcDbTrace
 10
0.0
 20
0.0
 11
-1.0
 21
0.25
 12
-1.0
 22
-0.25
 13
-1.0
 23
-0.25
  0
ENDBLK
  5
216
100
AcDbEntity
  8
0
  6
BYBLOCK
 62
0
100
AcDbBlockEnd
  0
ENDSEC
  0
SECTION
  2
ENTITIES
  0
LINE
  5
217
100
AcDbEntity
  8
0
100
AcDbLine
 62
7
  6
CONTINUOUS
 10
42.093025621
 20
96.9893701615
 11
80.787140837
 21
74.6498177137
  0
LINE
  5
218
100
AcDbEntity
  8
0
100
AcDbLine
 62
7
  6
CONTINUOUS
 10
119.4227308166
 20
290.9968523083
 11
125.0795615143
 21
294.2628055393
  0
LINE
  5
219
100
AcDbEntity
  8
0
100
AcDbLine
 62
7
  6
CONTINUOUS
 10
29.640523616
 20
228.5436847232
 11
119.4227308166
 21
280.3791568029
  0
LINE
  5
21A
100
AcDbEntity
  8
0
100
AcDbLine
 62
7
  6
CONTINUOUS
 10
128.6656743371
 20
285.6605571018
 11
39.3500973012
 21
234.0944924652
  0
LINE
  5
21B
100
AcDbEntity
  8
0
100
AcDbLine
 62
7
  6
CONTINUOUS
 10
95.5284684533
 20
83.1606763782
 11
137.5459993775
 21
58.9023923841
  0
LINE
  5
21C
100
AcDbEntity
  8
0
100
AcDbLine
 62
7
  6
CONTINUOUS
 10
38.7636514263
 20
227.6767548872
 11
35.2597157255
 21
225.6537687428
  0
LINE
  5
21D
100
AcDbEntity
  8
0
100
AcDbLine
 62
7
  6
CONTINUOUS
 10
74.3452473766
 20
116.2462321892
 11
125.8581908535
 21
86.5058932224
  0
LINE
  5
21E
100
AcDbEntity
  8
0
100
AcDbLine
 62
7
  6
CONTINUOUS
 10
170.927252885
 20
67.3434419056
 11
161.5467549784
 21
72.7591523773
  0
LINE
  5
21F
100
AcDbEntity
  8
0
100
AcDbLine
 62
7
  6
CONTINUOUS
 10
82.7106023489
 20
129.7628780305
 11
118.1026488011
 21
109.3300834306
  0
LINE
  5
220
100
AcDbEntity
  8
0
100
AcDbLine
 62
7
  6
CONTINUOUS
 10
74.3452473766
 20
116.2462321892
 11
74.3452473766
 21
195.4470589155
  0
LINE
  5
221
100
AcDbEntity
  8
0
100
AcDbLine
 62
7
  6
CONTINUOUS
 10
82.7106023489
 20
129.7628780305
 11
82.649458232
 21
132.6452095283
  0
LINE
  5
222
100
AcDbEntity
  8
0
100
AcDbLine
 62
7
  6
CONTINUOUS
 10
74.3452473766
 20
195.4470589155
 11
76.9738316885
 21
196.9646637167
  0
LINE
  5
223
100
AcDbEntity
  8
0
100
AcDbLine
 62
7
  6
CONTINUOUS
 10
209.2762371239
 20
100.3156689289
 11
211.8058397847
 21
98.8552351912
  0
LINE
  5
224
100
AcDbEntity
  8
0
100
AcDbLine
 62
7
  6
CONTINUOUS
 10
215.3353551321
 20
96.8175146546
 11
218.4180923372
 21
95.0377357634
  0
LINE
  5
225
100
AcDbEntity
  8
0
100
AcDbLine
 62
7
  6
CONTINUOUS
 10
119.8595717808
 20
187.6133772454
 11
209.1751488167
 21
239.179441882
  0
LINE
  5
226
100
AcDbEntity
  8
0
100
AcDbLine
 62
7
  6
CONTINUOUS
 10
81.4387143081
 20
189.7160595843
 11
116.7241245616
 21
169.3444878188
  0
LINE
  5
227
100
AcDbEntity
  8
0
100
AcDbLine
 62
7
  6
CONTINUOUS
 10
121.7028885031
 20
167.9413548251
 11
79.1016854758
 21
192.5366144416
  0
LINE
  5
228
100
AcDbEntity
  8
0
100
AcDbLine
 62
7
  6
CONTINUOUS
 10
74.3452473766
 20
195.4470589155
 11
125.8581908535
 21
165.7067199487
  0
LINE
  5
229
100
AcDbEntity
  8
0
100
AcDbLine
 62
7
  6
CONTINUOUS
 10
119.4227308166
 20
290.9968523083
 11
119.4227308166
 21
280.3791568029
  0
LINE
  5
22A
100
AcDbEntity
  8
0
100
AcDbLine
 62
7
  6
CONTINUOUS
 10
125.8581908535
 20
165.7067199487
 11
125.8581908535
 21
86.5058932224
  0
LINE
  5
22B
100
AcDbEntity
  8
0
100
AcDbLine
 62
7
  6
CONTINUOUS
 10
118.6696915621
 20
111.1651877879
 11
121.6460499177
 21
166.6931597356
  0
LINE
  5
22C
100
AcDbEntity
  8
0
100
AcDbLine
 62
7
  6
CONTINUOUS
 10
209.4663154784
 20
232.5960468415
 11
119.8552204771
 21
180.8593658464
  0
LINE
  5
22D
100
AcDbEntity
  8
0
100
AcDbLine
 62
7
  6
CONTINUOUS
 10
218.4180923372
 20
233.8431466755
 11
224.0749230349
 21
237.1090999064
  0
LINE
  5
22E
100
AcDbEntity
  8
0
100
AcDbLine
 62
7
  6
CONTINUOUS
 10
123.042986947
 20
174.9732200199
 11
212.8120471877
 21
226.801101744
  0
LINE
  5
22F
100
AcDbEntity
  8
0
100
AcDbLine
 62
7
  6
CONTINUOUS
 10
76.9738316885
 20
196.9646637167
 11
128.4867751654
 21
167.2243247499
  0
LINE
  5
230
100
AcDbEntity
  8
0
100
AcDbLine
 62
7
  6
CONTINUOUS
 10
128.6358851365
 20
171.3899790904
 11
218.4180923372
 21
223.2254511701
  0
LINE
  5
231
100
AcDbEntity
  8
0
100
AcDbLine
 62
7
  6
CONTINUOUS
 10
128.4867751654
 20
167.2243247499
 11
125.8581908535
 21
165.7067199487
  0
LINE
  5
232
100
AcDbEntity
  8
0
100
AcDbLine
 62
7
  6
CONTINUOUS
 10
119.8595717808
 20
187.6133772454
 11
39.3500973012
 21
234.0944924652
  0
LINE
  5
233
100
AcDbEntity
  8
0
100
AcDbLine
 62
7
  6
CONTINUOUS
 10
170.927252885
 20
67.3434419056
 11
171.4464149691
 21
78.4746896207
  0
LINE
  5
234
100
AcDbEntity
  8
0
100
AcDbLine
 62
7
  6
CONTINUOUS
 10
180.2847062177
 20
83.5774489928
 11
179.7655441335
 21
72.4462012778
  0
LINE
  5
235
100
AcDbEntity
  8
0
100
AcDbLine
 62
7
  6
CONTINUOUS
 10
80.787140837
 20
74.6498177137
 11
95.5284684237
 21
83.1606766088
  0
LINE
  5
236
100
AcDbEntity
  8
0
100
AcDbLine
 62
7
  6
CONTINUOUS
 10
125.8581908535
 20
86.5058932224
 11
142.2524212369
 21
95.971050048
  0
LINE
  5
237
100
AcDbEntity
  8
0
100
AcDbLine
 62
7
  6
CONTINUOUS
 10
209.1751488167
 20
239.179441882
 11
209.4663154784
 21
232.5960468415
  0
LINE
  5
238
100
AcDbEntity
  8
0
100
AcDbLine
 62
7
  6
CONTINUOUS
 10
211.8058397847
 20
98.8552351912
 11
211.8058397847
 21
101.8316497663
  0
LINE
  5
239
100
AcDbEntity
  8
0
100
AcDbLine
 62
7
  6
CONTINUOUS
 10
215.3353551321
 20
102.1286908048
 11
215.3353551321
 21
96.8175146546
  0
LINE
  5
23A
100
AcDbEntity
  8
0
100
AcDbLine
 62
7
  6
CONTINUOUS
 10
218.4180923372
 20
95.0377357634
 11
218.4180923372
 21
105.6492127697
  0
LINE
  5
23B
100
AcDbEntity
  8
0
100
AcDbLine
 62
7
  6
CONTINUOUS
 10
218.4180923372
 20
223.2254511701
 11
218.4180923372
 21
233.8431466755
  0
LINE
  5
23C
100
AcDbEntity
  8
0
100
AcDbLine
 62
7
  6
CONTINUOUS
 10
209.2788983704
 20
100.3727281691
 11
209.2762371239
 21
100.3156689289
  0
LINE
  5
23D
100
AcDbEntity
  8
0
100
AcDbLine
 62
7
  6
CONTINUOUS
 10
119.4227308166
 20
280.3791568029
 11
119.4729809904
 21
280.3531848042
  0
LINE
  5
23E
100
AcDbEntity
  8
0
100
AcDbLine
 62
7
  6
CONTINUOUS
 10
212.8120471877
 20
226.801101744
 11
218.4180923372
 21
223.2254511701
  0
LINE
  5
23F
100
AcDbEntity
  8
0
100
AcDbLine
 62
7
  6
CONTINUOUS
 10
224.0749230349
 20
237.1090999064
 11
224.0749230349
 21
98.3036889944
  0
LINE
  5
240
100
AcDbEntity
  8
0
100
AcDbLine
 62
7
  6
CONTINUOUS
 10
137.0902794904
 20
64.7181440804
 11
140.0044715396
 21
66.4006436014
  0
LINE
  5
241
100
AcDbEntity
  8
0
100
AcDbLine
 62
7
  6
CONTINUOUS
 10
218.4180923372
 20
233.8431466755
 11
209.1751488167
 21
239.179441882
  0
LINE
  5
242
100
AcDbEntity
  8
0
100
AcDbLine
 62
7
  6
CONTINUOUS
 10
128.6656743371
 20
285.6605571018
 11
119.4227308166
 21
290.9968523083
  0
LINE
  5
243
100
AcDbEntity
  8
0
100
AcDbLine
 62
7
  6
CONTINUOUS
 10
125.0795615143
 20
294.2628055393
 11
224.0749230349
 21
237.1090999064
  0
LINE
  5
244
100
AcDbEntity
  8
0
100
AcDbLine
 62
7
  6
CONTINUOUS
 10
145.4726537435
 20
63.534395553
 11
218.4180923372
 21
105.6492127697
  0
LINE
  5
245
100
AcDbEntity
  8
0
100
AcDbLine
 62
7
  6
CONTINUOUS
 10
137.5459993775
 20
58.9023923841
 11
171.4464149691
 21
78.4746896207
  0
LINE
  5
246
100
AcDbEntity
  8
0
100
AcDbLine
 62
7
  6
CONTINUOUS
 10
180.2847062177
 20
83.5774489928
 11
209.276234647
 21
100.3156158224
  0
LINE
  5
247
100
AcDbEntity
  8
0
100
AcDbLine
 62
7
  6
CONTINUOUS
 10
211.8058397847
 20
98.8552351912
 11
215.3353551321
 21
100.8929896634
  0
LINE
  5
248
100
AcDbEntity
  8
0
100
AcDbLine
 62
7
  6
CONTINUOUS
 10
218.4180923372
 20
95.0377357634
 11
224.0749230349
 21
98.3036889944
  0
LINE
  5
249
100
AcDbEntity
  8
0
100
AcDbLine
 62
7
  6
CONTINUOUS
 10
170.927252885
 20
67.3434419056
 11
179.7655441335
 21
72.4462012778
  0
ARC
  5
24A
100
AcDbEntity
  8
0
100
AcDbCircle
 62
7
  6
CONTINUOUS
 10
1188.1900523134
 20
131.3776466813
 40
1060.3093982072
100
AcDbArc
 50
177.8373461183
 51
178.0625892627
  0
ARC
  5
24B
100
AcDbEntity
  8
0
100
AcDbCircle
 62
7
  6
CONTINUOUS
 10
1053.3673022221
 20
189.5726145759
 40
1024.4682823513
100
AcDbArc
 50
177.8199259544
 51
179.9940146638
  0
ARC
  5
24C
100
AcDbEntity
  8
0
100
AcDbCircle
 62
7
  6
CONTINUOUS
 10
1081.7525523626
 20
172.8641721928
 40
942.6415271027
100
AcDbArc
 50
184.678928087
 51
186.6602885484
  0
ARC
  5
24D
100
AcDbEntity
  8
0
100
AcDbCircle
 62
7
  6
CONTINUOUS
 10
997.7683648461
 20
198.844004239
 40
909.6260017106
100
AcDbArc
 50
185.8915115659
 51
187.3064808942
  0
ARC
  5
24E
100
AcDbEntity
  8
0
100
AcDbCircle
 62
7
  6
CONTINUOUS
 10
962.0400311846
 20
158.4543580811
 40
885.228703631
100
AcDbArc
 50
182.8683539517
 51
185.4323226364
  0
SPLINE
  5
24F
100
AcDbEntity
  8
0
100
AcDbSpline
 62
7
  6
CONTINUOUS
 70
0
 71
3
 72
11
 73
7
 74
0
 42
0.0000001
 43
0.0000001
 44
0.0000000001
 40
0.0
 40
0.0
 40
0.0
 40
0.0
 40
0.3000984081
 40
0.5635125074
 40
0.7932507427
 40
1.0
 40
1.0
 40
1.0
 40
1.0
 10
140.0044424846
 20
66.4006939264
 30
0.0
 10
139.8023555063
 20
66.5066138333
 30
0.0
 10
139.4082409503
 20
66.6800388985
 30
0.0
 10
138.8168660446
 20
66.8189380796
 30
0.0
 10
138.2782065474
 20
66.812646778
 30
0.0
 10
137.9570724553
 20
66.7015532077
 30
0.0
 10
137.8209400737
 20
66.6229615426
 30
0.0
  0
SPLINE
  5
250
100
AcDbEntity
  8
0
100
AcDbSpline
 62
7
  6
CONTINUOUS
 70
0
 71
3
 72
11
 73
7
 74
0
 42
0.0000001
 43
0.0000001
 44
0.0000000001
 40
0.0
 40
0.0
 40
0.0
 40
0.0
 40
0.2494283016
 40
0.4371979267
 40
0.6255327468
 40
1.0
 40
1.0
 40
1.0
 40
1.0
 10
140.0044374879
 20
66.4006910416
 30
0.0
 10
140.459081609
 20
66.1623738467
 30
0.0
 10
141.2524146389
 20
65.7378790981
 30
0.0
 10
142.3941001146
 20
65.1430468102
 30
0.0
 10
143.7697528688
 20
64.4404416289
 30
0.0
 10
144.7900897611
 20
63.8921706659
 30
0.0
 10
145.4726537435
 20
63.534395553
 30
0.0
  0
SPLINE
  5
251
100
AcDbEntity
  8
0
100
AcDbSpline
 62
7
  6
CONTINUOUS
 70
0
 71
3
 72
11
 73
7
 74
0
 42
0.0000001
 43
0.0000001
 44
0.0000000001
 40
0.0
 40
0.0
 40
0.0
 40
0.0
 40
0.2419976435
 40
0.5059067623
 40
0.7666104236
 40
1.0
 40
1.0
 40
1.0
 40
1.0
 10
37.579083847
 20
108.8615582126
 30
0.0
 10
38.0474800686
 20
108.5650981563
 30
0.0
 10
38.939554045
 20
107.8061174368
 30
0.0
 10
40.0345293746
 20
106.4215133375
 30
0.0
 10
40.8504200609
 20
104.8786030206
 30
0.0
 10
41.1712987805
 20
103.7791917117
 30
0.0
 10
41.2418239216
 20
103.249250298
 30
0.0
  0
SPLINE
  5
252
100
AcDbEntity
  8
0
100
AcDbSpline
 62
7
  6
CONTINUOUS
 70
0
 71
3
 72
11
 73
7
 74
0
 42
0.0000001
 43
0.0000001
 44
0.0000000001
 40
0.0
 40
0.0
 40
0.0
 40
0.0
 40
0.2503340325
 40
0.4376746044
 40
0.6246880603
 40
1.0
 40
1.0
 40
1.0
 40
1.0
 10
32.0477186767
 20
112.3572327432
 30
0.0
 10
32.5092808264
 20
112.065533944
 30
0.0
 10
33.3193631372
 20
111.5604666233
 30
0.0
 10
34.4698828653
 20
110.8305336222
 30
0.0
 10
35.8453872194
 20
109.9464226324
 30
0.0
 10
36.8870808149
 20
109.2988958336
 30
0.0
 10
37.5790830583
 20
108.8615801685
 30
0.0
  0
SPLINE
  5
253
100
AcDbEntity
  8
0
100
AcDbSpline
 62
7
  6
CONTINUOUS
 70
0
 71
3
 72
11
 73
7
 74
0
 42
0.0000001
 43
0.0000001
 44
0.0000000001
 40
0.0
 40
0.0
 40
0.0
 40
0.0
 40
0.2820077052
 40
0.5396813588
 40
0.7762686277
 40
1.0
 40
1.0
 40
1.0
 40
1.0
 10
38.7634498096
 20
227.6771040996
 30
0.0
 10
38.7364395674
 20
227.4455471703
 30
0.0
 10
38.6500441997
 20
227.0051450211
 30
0.0
 10
38.4061716978
 20
226.4064068694
 30
0.0
 10
38.0568860019
 20
225.9188359967
 30
0.0
 10
37.7542889036
 20
225.6780355991
 30
0.0
 10
37.5941122968
 20
225.5855661989
 30
0.0
  0
SPLINE
  5
254
100
AcDbEntity
  8
0
100
AcDbSpline
 62
7
  6
CONTINUOUS
 70
0
 71
3
 72
9
 73
5
 74
0
 42
0.0000001
 43
0.0000001
 44
0.0000000001
 40
0.0
 40
0.0
 40
0.0
 40
0.0
 40
0.2455247445
 40
1.0
 40
1.0
 40
1.0
 40
1.0
 10
32.0477186767
 20
112.3572327432
 30
0.0
 10
31.5200661586
 20
118.6696942578
 30
0.0
 10
29.6540094199
 20
144.4029454266
 30
0.0
 10
28.8990254607
 20
170.2143643058
 30
0.0
 10
28.8990254607
 20
189.6796344492
 30
0.0
  0
SPLINE
  5
255
100
AcDbEntity
  8
0
100
AcDbSpline
 62
7
  6
CONTINUOUS
 70
0
 71
3
 72
9
 73
5
 74
0
 42
0.0000001
 43
0.0000001
 44
0.0000000001
 40
0.0
 40
0.0
 40
0.0
 40
0.0
 40
0.5250311063
 40
1.0
 40
1.0
 40
1.0
 40
1.0
 10
214.9419633462
 20
103.6383150507
 30
0.0
 10
215.0647435636
 20
103.3925007625
 30
0.0
 10
215.254734558
 20
102.9009850391
 30
0.0
 10
215.3353551321
 20
102.3772630249
 30
0.0
 10
215.3353551321
 20
102.1286908048
 30
0.0
  0
SPLINE
  5
256
100
AcDbEntity
  8
0
100
AcDbSpline
 62
7
  6
CONTINUOUS
 70
0
 71
3
 72
15
 73
11
 74
0
 42
0.0000001
 43
0.0000001
 44
0.0000000001
 40
0.0
 40
0.0
 40
0.0
 40
0.0
 40
0.0869274401
 40
0.1863924176
 40
0.3037799021
 40
0.4375872817
 40
0.58208286
 40
0.7293903551
 40
0.8711738772
 40
1.0
 40
1.0
 40
1.0
 40
1.0
 10
212.2183812056
 20
233.5585439249
 30
0.0
 10
212.3432474563
 20
233.6306381112
 30
0.0
 10
212.6569515853
 20
233.7113023037
 30
0.0
 10
213.1619216826
 20
233.6101473716
 30
0.0
 10
213.6778149447
 20
233.3283845924
 30
0.0
 10
214.1725239628
 20
232.8903689901
 30
0.0
 10
214.6092238948
 20
232.3313010304
 30
0.0
 10
214.9531946651
 20
231.6957705936
 30
0.0
 10
215.17626652
 20
231.036004005
 30
0.0
 10
215.236098574
 20
230.5866451276
 30
0.0
 10
215.236098574
 20
230.3729643595
 30
0.0
  0
SPLINE
  5
257
100
AcDbEntity
  8
0
100
AcDbSpline
 62
7
  6
CONTINUOUS
 70
0
 71
3
 72
13
 73
9
 74
0
 42
0.0000001
 43
0.0000001
 44
0.0000000001
 40
0.0
 40
0.0
 40
0.0
 40
0.0
 40
0.0934678777
 40
0.1922710019
 40
0.3003688912
 40
0.4198772451
 40
0.6925072062
 40
1.0
 40
1.0
 40
1.0
 40
1.0
 10
123.2286222958
 20
284.9356428813
 30
0.0
 10
123.3018857671
 20
284.977943105
 30
0.0
 10
123.4670797902
 20
285.0419007274
 30
0.0
 10
123.7412608883
 20
285.0630468991
 30
0.0
 10
124.0349897636
 20
285.0134683466
 30
0.0
 10
124.4596295576
 20
284.8496539478
 30
0.0
 10
124.9830642273
 20
284.4772966004
 30
0.0
 10
125.3323112055
 20
284.0798379899
 30
0.0
 10
125.4949422499
 20
283.8539857685
 30
0.0
  0
SPLINE
  5
258
100
AcDbEntity
  8
0
100
AcDbSpline
 62
7
  6
CONTINUOUS
 70
0
 71
3
 72
11
 73
7
 74
0
 42
0.0000001
 43
0.0000001
 44
0.0000000001
 40
0.0
 40
0.0
 40
0.0
 40
0.0
 40
0.2895453772
 40
0.5491366158
 40
0.7822776227
 40
1.0
 40
1.0
 40
1.0
 40
1.0
 10
215.236098574
 20
230.3729643595
 30
0.0
 10
215.236098574
 20
230.2463647939
 30
0.0
 10
215.2167675792
 20
230.0054647354
 30
0.0
 10
215.1193821299
 20
229.6744214789
 30
0.0
 10
214.9550943061
 20
229.4057394232
 30
0.0
 10
214.8007087112
 20
229.2761878596
 30
0.0
 10
214.7182673167
 20
229.2285885666
 30
0.0
  0
SPLINE
  5
259
100
AcDbEntity
  8
0
100
AcDbSpline
 62
7
  6
CONTINUOUS
 70
0
 71
3
 72
10
 73
6
 74
0
 42
0.0000001
 43
0.0000001
 44
0.0000000001
 40
0.0
 40
0.0
 40
0.0
 40
0.0
 40
0.2490969775
 40
0.4989614437
 40
1.0
 40
1.0
 40
1.0
 40
1.0
 10
82.1158235507
 20
132.6338893102
 30
0.0
 10
81.8150290538
 20
137.4931411923
 30
0.0
 10
81.262587466
 20
147.2297111696
 30
0.0
 10
80.2629038711
 20
166.7489680487
 30
0.0
 10
79.5906315889
 20
181.4099249672
 30
0.0
 10
79.1599302937
 20
191.1931516125
 30
0.0
  0
SPLINE
  5
25A
100
AcDbEntity
  8
0
100
AcDbSpline
 62
7
  6
CONTINUOUS
 70
0
 71
3
 72
11
 73
7
 74
0
 42
0.0000001
 43
0.0000001
 44
0.0000000001
 40
0.0
 40
0.0
 40
0.0
 40
0.0
 40
0.2895453772
 40
0.5491366158
 40
0.7822776227
 40
1.0
 40
1.0
 40
1.0
 40
1.0
 10
122.7107910385
 20
283.7912670885
 30
0.0
 10
122.7107910385
 20
283.917866654
 30
0.0
 10
122.7301220333
 20
284.1587667125
 30
0.0
 10
122.8275074827
 20
284.489809969
 30
0.0
 10
122.9917953065
 20
284.7584920247
 30
0.0
 10
123.1461809014
 20
284.8880435884
 30
0.0
 10
123.2286222958
 20
284.9356428813
 30
0.0
  0
SPLINE
  5
25B
100
AcDbEntity
  8
0
100
AcDbSpline
 62
7
  6
CONTINUOUS
 70
0
 71
3
 72
9
 73
5
 74
0
 42
0.0000001
 43
0.0000001
 44
0.0000000001
 40
0.0
 40
0.0
 40
0.0
 40
0.0
 40
0.2671531077
 40
1.0
 40
1.0
 40
1.0
 40
1.0
 10
123.0399443808
 20
282.4149955006
 30
0.0
 10
122.9874774023
 20
282.5301132011
 30
0.0
 10
122.8109629965
 20
282.9690599443
 30
0.0
 10
122.7107910385
 20
283.4442274522
 30
0.0
 10
122.7107910385
 20
283.7912670885
 30
0.0
  0
SPLINE
  5
25C
100
AcDbEntity
  8
0
100
AcDbSpline
 62
7
  6
CONTINUOUS
 70
0
 71
3
 72
11
 73
7
 74
0
 42
0.0000001
 43
0.0000001
 44
0.0000000001
 40
0.0
 40
0.0
 40
0.0
 40
0.0
 40
0.2267602459
 40
0.4634660855
 40
0.7196652322
 40
1.0
 40
1.0
 40
1.0
 40
1.0
 10
37.5941122968
 20
225.5855661989
 30
0.0
 10
37.4353442172
 20
225.4939099366
 30
0.0
 10
37.0810049031
 20
225.3539519679
 30
0.0
 10
36.4948055991
 20
225.3012960857
 30
0.0
 10
35.8723398785
 20
225.4008111226
 30
0.0
 10
35.4642257145
 20
225.5561347437
 30
0.0
 10
35.2597145286
 20
225.6538071736
 30
0.0
  0
SPLINE
  5
25D
100
AcDbEntity
  8
0
100
AcDbSpline
 62
7
  6
CONTINUOUS
 70
0
 71
3
 72
11
 73
7
 74
0
 42
0.0000001
 43
0.0000001
 44
0.0000000001
 40
0.0
 40
0.0
 40
0.0
 40
0.0
 40
0.2147689065
 40
0.4440077807
 40
0.7033685749
 40
1.0
 40
1.0
 40
1.0
 40
1.0
 10
137.8209400737
 20
66.6229615426
 30
0.0
 10
137.6879160738
 20
66.5461644019
 30
0.0
 10
137.4409140119
 20
66.3331898548
 30
0.0
 10
137.1961602924
 20
65.8840312078
 30
0.0
 10
137.0751746492
 20
65.3299484989
 30
0.0
 10
137.0744205344
 20
64.9296988208
 30
0.0
 10
137.0902800549
 20
64.7181444064
 30
0.0
  0
SPLINE
  5
25E
100
AcDbEntity
  8
0
100
AcDbSpline
 62
7
  6
CONTINUOUS
 70
0
 71
3
 72
10
 73
6
 74
0
 42
0.0000001
 43
0.0000001
 44
0.0000000001
 40
0.0
 40
0.0
 40
0.0
 40
0.0
 40
0.2502017333
 40
0.6248144563
 40
1.0
 40
1.0
 40
1.0
 40
1.0
 10
35.2597157255
 20
225.6537687428
 30
0.0
 10
34.7910693419
 20
225.8947854307
 30
0.0
 10
33.618670721
 20
226.4926252051
 30
0.0
 10
31.749874532
 20
227.4642247776
 30
0.0
 10
30.3432675113
 20
228.1822599572
 30
0.0
 10
29.640523616
 20
228.5436847232
 30
0.0
  0
SPLINE
  5
25F
100
AcDbEntity
  8
0
100
AcDbSpline
 62
7
  6
CONTINUOUS
 70
0
 71
3
 72
10
 73
6
 74
0
 42
0.0000001
 43
0.0000001
 44
0.0000000001
 40
0.0
 40
0.0
 40
0.0
 40
0.0
 40
0.2498378587
 40
0.6251531175
 40
1.0
 40
1.0
 40
1.0
 40
1.0
 10
128.6358851365
 20
171.3899790904
 30
0.0
 10
128.1701095287
 20
171.6883849161
 30
0.0
 10
127.0072205414
 20
172.4391083311
 30
0.0
 10
125.1376083894
 20
173.6252257684
 30
0.0
 10
123.7418103237
 20
174.525491187
 30
0.0
 10
123.042986947
 20
174.9732200199
 30
0.0
  0
SPLINE
  5
260
100
AcDbEntity
  8
0
100
AcDbSpline
 62
7
  6
CONTINUOUS
 70
0
 71
3
 72
11
 73
7
 74
0
 42
0.0000001
 43
0.0000001
 44
0.0000000001
 40
0.0
 40
0.0
 40
0.0
 40
0.0
 40
0.2397845022
 40
0.500001091
 40
0.7602170991
 40
1.0
 40
1.0
 40
1.0
 40
1.0
 10
209.4663154784
 20
232.5960468415
 30
0.0
 10
209.5042685466
 20
232.0473136037
 30
0.0
 10
209.7505941651
 20
230.9131776936
 30
0.0
 10
210.475696294
 20
229.3155014443
 30
0.0
 10
211.4967780705
 20
227.8887142803
 30
0.0
 10
212.3558071833
 20
227.1083306801
 30
0.0
 10
212.8120471877
 20
226.801101744
 30
0.0
  0
SPLINE
  5
261
100
AcDbEntity
  8
0
100
AcDbSpline
 62
7
  6
CONTINUOUS
 70
0
 71
3
 72
11
 73
7
 74
0
 42
0.0000001
 43
0.0000001
 44
0.0000000001
 40
0.0
 40
0.0
 40
0.0
 40
0.0
 40
0.2895453772
 40
0.5491366158
 40
0.7822776227
 40
1.0
 40
1.0
 40
1.0
 40
1.0
 10
211.7005499483
 20
232.4141681321
 30
0.0
 10
211.7005499483
 20
232.5407676976
 30
0.0
 10
211.7198809431
 20
232.7816677561
 30
0.0
 10
211.8172663924
 20
233.1127110126
 30
0.0
 10
211.9815542163
 20
233.3813930683
 30
0.0
 10
212.1359398111
 20
233.510944632
 30
0.0
 10
212.2183812056
 20
233.5585439249
 30
0.0
  0
SPLINE
  5
262
100
AcDbEntity
  8
0
100
AcDbSpline
 62
7
  6
CONTINUOUS
 70
0
 71
3
 72
11
 73
7
 74
0
 42
0.0000001
 43
0.0000001
 44
0.0000000001
 40
0.0
 40
0.0
 40
0.0
 40
0.0
 40
0.242323249
 40
0.5026550954
 40
0.7616084753
 40
1.0
 40
1.0
 40
1.0
 40
1.0
 10
119.8552212513
 20
180.8593662935
 30
0.0
 10
119.8704884672
 20
180.3019926827
 30
0.0
 10
120.0723620849
 20
179.148546613
 30
0.0
 10
120.7494941702
 20
177.5193380869
 30
0.0
 10
121.7389313626
 20
176.06956905
 30
0.0
 10
122.5889878385
 20
175.2810753642
 30
0.0
 10
123.0429895568
 20
174.9732215266
 30
0.0
  0
SPLINE
  5
263
100
AcDbEntity
  8
0
100
AcDbSpline
 62
7
  6
CONTINUOUS
 70
0
 71
3
 72
26
 73
22
 74
0
 42
0.0000001
 43
0.0000001
 44
0.0000000001
 40
0.0
 40
0.0
 40
0.0
 40
0.0
 40
0.1284110036
 40
0.2561467918
 40
0.3829977192
 40
0.5086230758
 40
0.5708026381
 40
0.6324044144
 40
0.6932327426
 40
0.7529548803
 40
0.7822248773
 40
0.8109321986
 40
0.8388531755
 40
0.8655970995
 40
0.8783586882
 40
0.8906443898
 40
0.9029203922
 40
0.9178912482
 40
0.9375164583
 40
0.9585200011
 40
1.0
 40
1.0
 40
1.0
 40
1.0
 10
118.6696915621
 20
111.1651877879
 30
0.0
 10
118.6584208659
 20
111.0670752904
 30
0.0
 10
118.6352226515
 20
110.87144735
 30
0.0
 10
118.5978211689
 20
110.5792716683
 30
0.0
 10
118.5571396254
 20
110.2896955678
 30
0.0
 10
118.5194190351
 20
110.0506379838
 30
0.0
 10
118.4858201764
 20
109.8617847321
 30
0.0
 10
118.458566222
 20
109.7224357566
 30
0.0
 10
118.4284815029
 20
109.5856027595
 30
0.0
 10
118.3999649573
 20
109.4739168819
 30
0.0
 10
118.3738543407
 20
109.3872317419
 30
0.0
 10
118.3523080265
 20
109.3247462397
 30
0.0
 10
118.3278140375
 20
109.2654644053
 30
0.0
 10
118.3034457463
 20
109.2194419242
 30
0.0
 10
118.2793007117
 20
109.1875815058
 30
0.0
 10
118.2581108432
 20
109.1679947311
 30
0.0
 10
118.2283250508
 20
109.1560061657
 30
0.0
 10
118.1917406977
 20
109.1692697521
 30
0.0
 10
118.1632052196
 20
109.2020294405
 30
0.0
 10
118.1306571687
 20
109.2562074812
 30
0.0
 10
118.1124914878
 20
109.3009635487
 30
0.0
 10
118.1013261148
 20
109.3308470535
 30
0.0
  0
LINE
  5
264
100
AcDbEntity
  8
0
100
AcDbLine
 62
7
  6
CONTINUOUS
 10
121.7028885031
 20
167.9413548251
 11
121.6460499177
 21
166.6931597356
  0
LINE
  5
265
100
AcDbEntity
  8
0
100
AcDbLine
 62
7
  6
CONTINUOUS
 10
79.1599302937
 20
191.1931516125
 11
79.1016854758
 21
192.5366144416
  0
SPLINE
  5
266
100
AcDbEntity
  8
0
100
AcDbSpline
 62
7
  6
CONTINUOUS
 70
0
 71
3
 72
9
 73
5
 74
0
 42
0.0000001
 43
0.0000001
 44
0.0000000001
 40
0.0
 40
0.0
 40
0.0
 40
0.0
 40
0.5000049554
 40
1.0
 40
1.0
 40
1.0
 40
1.0
 10
82.6498779077
 20
132.6449667423
 30
0.0
 10
82.4490822126
 20
142.1569324018
 30
0.0
 10
82.0421145974
 20
161.1805611552
 30
0.0
 10
81.6420016991
 20
180.2043354744
 30
0.0
 10
81.4387143081
 20
189.7160595843
 30
0.0
  0
SPLINE
  5
267
100
AcDbEntity
  8
0
100
AcDbSpline
 62
7
  6
CONTINUOUS
 70
0
 71
3
 72
19
 73
15
 74
0
 42
0.0000001
 43
0.0000001
 44
0.0000000001
 40
0.0
 40
0.0
 40
0.0
 40
0.0
 40
0.2464592152
 40
0.4953695349
 40
0.6213993113
 40
0.6850609565
 40
0.7493595328
 40
0.8145994625
 40
0.8477501091
 40
0.8814298981
 40
0.915877995
 40
0.951211534
 40
0.9795903226
 40
1.0
 40
1.0
 40
1.0
 40
1.0
 10
82.1158235507
 20
132.6338893101
 30
0.0
 10
82.1400641387
 20
132.3840545157
 30
0.0
 10
82.1914450497
 20
131.8821550794
 30
0.0
 10
82.2661254944
 20
131.2536469485
 30
0.0
 10
82.3293791592
 20
130.8114122293
 30
0.0
 10
82.3711086922
 20
130.5561155313
 30
0.0
 10
82.4064801588
 20
130.3625283111
 30
0.0
 10
82.4405835822
 20
130.2003904458
 30
0.0
 10
82.4730973306
 20
130.069744941
 30
0.0
 10
82.500883037
 20
129.9707383654
 30
0.0
 10
82.5372745704
 20
129.8702216561
 30
0.0
 10
82.5733894134
 20
129.7826148602
 30
0.0
 10
82.6511307762
 20
129.7081167773
 30
0.0
 10
82.6981187884
 20
129.7465012065
 30
0.0
 10
82.7116752127
 20
129.7622586369
 30
0.0
  0
SPLINE
  5
268
100
AcDbEntity
  8
0
100
AcDbSpline
 62
7
  6
CONTINUOUS
 70
0
 71
3
 72
9
 73
5
 74
0
 42
0.0000001
 43
0.0000001
 44
0.0000000001
 40
0.0
 40
0.0
 40
0.0
 40
0.0
 40
0.4726567735
 40
1.0
 40
1.0
 40
1.0
 40
1.0
 10
116.7241245616
 20
169.3444878188
 30
0.0
 10
117.4244897273
 20
168.9164315399
 30
0.0
 10
119.0600212733
 20
168.2617565427
 30
0.0
 10
120.7885018884
 20
167.9919925952
 30
0.0
 10
121.7028885031
 20
167.9413548251
 30
0.0
  0
SPLINE
  5
269
100
AcDbEntity
  8
0
100
AcDbSpline
 62
7
  6
CONTINUOUS
 70
0
 71
3
 72
11
 73
7
 74
0
 42
0.0000001
 43
0.0000001
 44
0.0000000001
 40
0.0
 40
0.0
 40
0.0
 40
0.0
 40
0.2133240247
 40
0.4468515018
 40
0.7083594277
 40
1.0
 40
1.0
 40
1.0
 40
1.0
 10
79.1016854758
 20
192.5366144416
 30
0.0
 10
79.1342170598
 20
192.2690140665
 30
0.0
 10
79.3000473989
 20
191.7177462443
 30
0.0
 10
79.7980997771
 20
190.9625842164
 30
0.0
 10
80.5260121851
 20
190.2754934599
 30
0.0
 10
81.1158738518
 20
189.8938044282
 30
0.0
 10
81.4387143081
 20
189.7160595843
 30
0.0
  0
SPLINE
  5
26A
100
AcDbEntity
  8
0
100
AcDbSpline
 62
7
  6
CONTINUOUS
 70
0
 71
3
 72
10
 73
6
 74
0
 42
0.0000001
 43
0.0000001
 44
0.0000000001
 40
0.0
 40
0.0
 40
0.0
 40
0.0
 40
0.2488192479
 40
0.4986478049
 40
1.0
 40
1.0
 40
1.0
 40
1.0
 10
118.6696915621
 20
111.1651877879
 30
0.0
 10
118.861618201
 20
115.7733312871
 30
0.0
 10
119.2969969199
 20
125.0061887231
 30
0.0
 10
120.275821034
 20
143.5164558468
 30
0.0
 10
121.0873595551
 20
157.4168541412
 30
0.0
 10
121.6460499177
 20
166.6931597356
 30
0.0
  0
SPLINE
  5
26B
100
AcDbEntity
  8
0
100
AcDbSpline
 62
7
  6
CONTINUOUS
 70
0
 71
3
 72
9
 73
5
 74
0
 42
0.0000001
 43
0.0000001
 44
0.0000000001
 40
0.0
 40
0.0
 40
0.0
 40
0.0
 40
0.5000032399
 40
1.0
 40
1.0
 40
1.0
 40
1.0
 10
116.7241245616
 20
169.3444878188
 30
0.0
 10
116.9519586403
 20
159.3419783217
 30
0.0
 10
117.4161408786
 20
139.33728408
 30
0.0
 10
117.8705934813
 20
119.3323661886
 30
0.0
 10
118.1026488011
 20
109.3300834306
 30
0.0
  0
SPLINE
  5
26C
100
AcDbEntity
  8
0
100
AcDbSpline
 62
7
  6
CONTINUOUS
 70
0
 71
3
 72
15
 73
11
 74
0
 42
0.0000001
 43
0.0000001
 44
0.0000000001
 40
0.0
 40
0.0
 40
0.0
 40
0.0
 40
0.0869274401
 40
0.1863924176
 40
0.3037799021
 40
0.4375872817
 40
0.58208286
 40
0.7293903551
 40
0.8711738772
 40
1.0
 40
1.0
 40
1.0
 40
1.0
 10
214.7182673167
 20
229.2285885666
 30
0.0
 10
214.593401066
 20
229.1564943804
 30
0.0
 10
214.279696937
 20
229.0758301878
 30
0.0
 10
213.7747268397
 20
229.17698512
 30
0.0
 10
213.2588335776
 20
229.4587478991
 30
0.0
 10
212.7641245595
 20
229.8967635014
 30
0.0
 10
212.3274246275
 20
230.4558314612
 30
0.0
 10
211.9834538572
 20
231.0913618979
 30
0.0
 10
211.7603820023
 20
231.7511284866
 30
0.0
 10
211.7005499483
 20
232.200487364
 30
0.0
 10
211.7005499483
 20
232.4141681321
 30
0.0
  0
ELLIPSE
  5
26D
100
AcDbEntity
  8
0
100
AcDbEllipse
 62
7
  6
CONTINUOUS
 10
781.4488523331
 20
618.3127312927
 30
0.0
 11
484.4321298363
 21
940.43764004
 31
0.0
 40
0.6067486214
 41
-3.8593932338
 42
-3.8519229788
  0
ELLIPSE
  5
26E
100
AcDbEntity
  8
0
100
AcDbEllipse
 62
7
  6
CONTINUOUS
 10
783.3998417404
 20
617.1863525153
 30
0.0
 11
567.8982411548
 21
892.4267970463
 31
0.0
 40
0.5463812526
 41
-3.9602894858
 42
-3.9528463706
  0
ELLIPSE
  5
26F
100
AcDbEntity
  8
0
100
AcDbEllipse
 62
7
  6
CONTINUOUS
 10
969.6267442524
 20
663.9426562467
 30
0.0
 11
633.598535629
 21
995.6107658074
 31
0.0
 40
0.5463598165
 41
-3.7731046541
 42
-3.7663825042
  0
ELLIPSE
  5
270
100
AcDbEntity
  8
0
100
AcDbEllipse
 62
7
  6
CONTINUOUS
 10
868.3620463756
 20
568.1345105067
 30
0.0
 11
484.4638579207
 21
940.4200938031
 31
0.0
 40
0.6067293574
 41
-4.0129365546
 42
-4.0054934394
  0
ENDSEC
  0
SECTION
  2
OBJECTS
  0
DICTIONARY
  5
C
100
AcDbDictionary
280
0
281
1
  3
ACAD_GROUP
350
D
  3
ACAD_MLINESTYLE
350
17
  3
ACAD_LAYOUT
350
1A
  3
ACAD_PLOTSETTINGS
350
19
  3
ACAD_PLOTSTYLENAME
350
E
  0
DICTIONARY
  5
D
102
{ACAD_REACTORS
330
C
102
}
100
AcDbDictionary
280
0
281
1
  0
ACDBDICTIONARYWDFLT
  5
E
102
{ACAD_REACTORS
330
C
102
}
100
AcDbDictionary
281
1
  3
Normal
350
F
100
AcDbDictionaryWithDefault
340
F
  0
DICTIONARY
  5
17
102
{ACAD_REACTORS
330
C
102
}
100
AcDbDictionary
280
0
281
1
  3
Standard
350
18
  0
DICTIONARY
  5
19
102
{ACAD_REACTORS
330
C
102
}
100
AcDbDictionary
281
1
  0
DICTIONARY
  5
1A
102
{ACAD_REACTORS
330
C
102
}
100
AcDbDictionary
281
1
  3
Model
350
271
  3
Layout1
350
272
  0
ACDBPLACEHOLDER
  5
F
102
{ACAD_REACTORS
330
E
102
}
  0
MLINESTYLE
  5
18
102
{ACAD_REACTORS
330
17
102
}
100
AcDbMlineStyle
  2
STANDARD
 70
0
  3

 62
256
 51
90.0
 52
90.0
 71
2
 49
0.5
 62
256
  6
BYLAYER
 49
-0.5
 62
256
  6
BYLAYER
  0
LAYOUT
  5
271
102
{ACAD_REACTORS
330
1A
102
}
100
AcDbPlotSettings
  1

  2
none_device
  4

  6

 40
0.0
 41
0.0
 42
0.0
 43
0.0
 44
210.0
 45
297.0
 46
0.0
 47
0.0
 48
0.0
 49
0.0
140
0.0
141
0.0
142
1.0
143
1.0
 70
1024
 72
1
 73
0
 74
0
  7

 75
0
147
1.0
148
0.0
149
0.0
100
AcDbLayout
  1
Model
 70
0
 71
0
 10
0.0
 20
0.0
 11
210.0
 21
297.0
 12
0.0
 22
0.0
 32
0.0
 14
0.0
 24
0.0
 34
0.0
 15
0.0
 25
0.0
 35
0.0
146
0.0
 13
0.0
 23
0.0
 33
0.0
 16
1.0
 26
0.0
 36
0.0
 17
0.0
 27
1.0
 37
0.0
 76
0
330
210
345
0
346
0
  0
LAYOUT
  5
272
102
{ACAD_REACTORS
330
1A
102
}
100
AcDbPlotSettings
  1

  2
none_device
  4

  6

 40
0.0
 41
0.0
 42
0.0
 43
0.0
 44
210.0
 45
297.0
 46
0.0
 47
0.0
 48
0.0
 49
0.0
140
0.0
141
0.0
142
1.0
143
1.0
 70
0
 72
1
 73
0
 74
0
  7

 75
0
147
1.0
148
0.0
149
0.0
100
AcDbLayout
  1
Layout1
 70
0
 71
1
 10
0.0
 20
0.0
 11
210.0
 21
297.0
 12
0.0
 22
0.0
 32
0.0
 14
0.0
 24
0.0
 34
0.0
 15
0.0
 25
0.0
 35
0.0
146
0.0
 13
0.0
 23
0.0
 33
0.0
 16
1.0
 26
0.0
 36
0.0
 17
0.0
 27
1.0
 37
0.0
 76
0
330
211
345
0
346
0
  0
ENDSEC
  0
EOF
