  0
SECTION
  2
HEADER
  9
$ACADVER
  1
AC1009
  9
$DWGCODEPAGE
  3
ansi_1250
  9
$INSBASE
 10
0.0
 20
0.0
 30
0.0
  9
$EXTMIN
 10
-0.275591
 20
-1.614173
 30
0.0
  9
$EXTMAX
 10
2.952756
 20
1.614173
 30
0.0
  9
$LIMMIN
 10
0.0
 20
0.0
  9
$LIMMAX
 10
0.0
 20
0.0
  9
$ORTHOMODE
 70
     0
  9
$REGENMODE
 70
     1
  9
$FILLMODE
 70
     1
  9
$QTEXTMODE
 70
     0
  9
$MIRRTEXT
 70
     1
  9
$DRAGMODE
 70
     2
  9
$LTSCALE
 40
1.0
  9
$OSMODE
 70
     0
  9
$ATTMODE
 70
     1
  9
$TEXTSIZE
 40
0.2
  9
$TRACEWID
 40
0.05
  9
$TEXTSTYLE
  7
STANDARD
  9
$CLAYER
  8
0
  9
$CELTYPE
  6
CONTINUOUS
  9
$CECOLOR
 62
   256
  9
$DIMSCALE
 40
1.0
  9
$DIMASZ
 40
0.18
  9
$DIMEXO
 40
0.0625
  9
$DIMDLI
 40
0.38
  9
$DIMRND
 40
0.0
  9
$DIMDLE
 40
0.0
  9
$DIMEXE
 40
0.18
  9
$DIMTP
 40
0.0
  9
$DIMTM
 40
0.0
  9
$DIMTXT
 40
0.18
  9
$DIMCEN
 40
0.09
  9
$DIMTSZ
 40
0.0
  9
$DIMTOL
 70
     0
  9
$DIMLIM
 70
     0
  9
$DIMTIH
 70
     1
  9
$DIMTOH
 70
     1
  9
$DIMSE1
 70
     0
  9
$DIMSE2
 70
     0
  9
$DIMTAD
 70
     0
  9
$DIMZIN
 70
     0
  9
$DIMBLK
  1

  9
$DIMASO
 70
     1
  9
$DIMSHO
 70
     1
  9
$DIMPOST
  1

  9
$DIMAPOST
  1

  9
$DIMALT
 70
     0
  9
$DIMALTD
 70
     2
  9
$DIMALTF
 40
25.4
  9
$DIMLFAC
 40
1.0
  9
$DIMTOFL
 70
     0
  9
$DIMTVP
 40
0.0
  9
$DIMTIX
 70
     0
  9
$DIMSOXD
 70
     0
  9
$DIMSAH
 70
     0
  9
$DIMBLK1
  1

  9
$DIMBLK2
  1

  9
$DIMSTYLE
  2
STANDARD
  9
$DIMCLRD
 70
     0
  9
$DIMCLRE
 70
     0
  9
$DIMCLRT
 70
     0
  9
$DIMTFAC
 40
1.0
  9
$DIMGAP
 40
0.09
  9
$LUNITS
 70
     2
  9
$LUPREC
 70
     4
  9
$AXISMODE
 70
     0
  9
$AXISUNIT
 10
0.0
 20
0.0
  9
$SKETCHINC
 40
0.1
  9
$FILLETRAD
 40
0.0
  9
$AUNITS
 70
     0
  9
$AUPREC
 70
     0
  9
$MENU
  1
acad
  9
$ELEVATION
 40
0.0
  9
$PELEVATION
 40
0.0
  9
$THICKNESS
 40
0.0
  9
$LIMCHECK
 70
     0
  9
$BLIPMODE
 70
     1
  9
$CHAMFERA
 40
0.0
  9
$CHAMFERB
 40
0.0
  9
$SKPOLY
 70
     0
  9
$TDCREATE
 40
0.000000000
  9
$TDUPDATE
 40
0.000000000
  9
$TDINDWG
 40
0.0000000000
  9
$TDUSRTIMER
 40
0.0000000000
  9
$USRTIMER
 70
     1
  9
$ANGBASE
 50
0.0
  9
$ANGDIR
 70
     0
  9
$PDMODE
 70
     0
  9
$PDSIZE
 40
0.0
  9
$PLINEWID
 40
0.0
  9
$COORDS
 70
     0
  9
$SPLFRAME
 70
     0
  9
$SPLINETYPE
 70
     6
  9
$SPLINESEGS
 70
     8
  9
$ATTDIA
 70
     0
  9
$ATTREQ
 70
     1
  9
$HANDLING
 70
     1
  9
$HANDSEED
  5
172
  9
$SURFTAB1
 70
     6
  9
$SURFTAB2
 70
     6
  9
$SURFTYPE
 70
     6
  9
$SURFU
 70
     6
  9
$SURFV
 70
     6
  9
$UCSNAME
  2

  9
$UCSORG
 10
0.0
 20
0.0
 30
0.0
  9
$UCSXDIR
 10
1.0
 20
0.0
 30
0.0
  9
$UCSYDIR
 10
0.0
 20
1.0
 30
0.0
  9
$PUCSNAME
  2

  9
$PUCSORG
 10
0.0
 20
0.0
 30
0.0
  9
$PUCSXDIR
 10
1.0
 20
0.0
 30
0.0
  9
$PUCSYDIR
 10
0.0
 20
1.0
 30
0.0
  9
$USERI1
 70
     0
  9
$USERI2
 70
     0
  9
$USERI3
 70
     0
  9
$USERI4
 70
     0
  9
$USERI5
 70
     0
  9
$USERR1
 40
0.0
  9
$USERR2
 40
0.0
  9
$USERR3
 40
0.0
  9
$USERR4
 40
0.0
  9
$USERR5
 40
0.0
  9
$WORLDVIEW
 70
     1
  9
$SHADEDGE
 70
     3
  9
$SHADEDIF
 70
    70
  9
$TILEMODE
 70
     1
  9
$MAXACTVP
 70
    16
  9
$PINSBASE
 10
0.0
 20
0.0
 30
0.0
  9
$PLIMCHECK
 70
     0
  9
$PEXTMIN
 10
1.000000E+20
 20
1.000000E+20
 30
1.000000E+20
  9
$PEXTMAX
 10
-1.000000E+20
 20
-1.000000E+20
 30
-1.000000E+20
  9
$PLIMMIN
 10
0.0
 20
0.0
  9
$PLIMMAX
 10
12.0
 20
9.0
  9
$UNITMODE
 70
     0
  9
$VISRETAIN
 70
     0
  9
$PLINEGEN
 70
     1
  9
$PSLTSCALE
 70
     0
  9
$TREEDEPTH
 70
  3020
  0
ENDSEC
  0
SECTION
  2
TABLES
  0
TABLE
  2
VPORT
 70
     1
  0
VPORT
  2
*ACTIVE
 70
     0
 10
0.0
 20
0.0
 11
1.0
 21
1.0
 12
6.591288
 22
4.579184
 13
0.0
 23
0.0
 14
1.0
 24
1.0
 15
0.0
 25
0.0
 16
0.0
 26
0.0
 36
1.0
 17
0.0
 27
0.0
 37
0.0
 40
9.158369
 41
0.688564
 42
50.0
 43
0.0
 44
0.0
 50
0.0
 51
0.0
 71
     0
 72
   100
 73
     1
 74
     1
 75
     0
 76
     0
 77
     0
 78
     0
  0
ENDTAB
  0
TABLE
  2
LTYPE
 70
     5
  0
LTYPE
  2
CONTINUOUS
 70
    64
  3
Solid line
 72
    65
 73
     0
 40
0.0
  0
LTYPE
  2
CENTER
 70
    64
  3
Center ____ _ ____ _ ____ _ ____ _ ____ _ ____
 72
    65
 73
     4
 40
50.8
 49
31.75
 49
-6.35
 49
6.35
 49
-6.35
  0
LTYPE
  2
HIDDEN
 70
    64
  3
Hidden __ __ __ __ __ __ __ __ __ __ __ __ __ __
 72
    65
 73
     2
 40
9.525
 49
6.35
 49
-3.175
  0
LTYPE
  2
CENTER2
 70
    64
  3
Center (.5x) ___ _ ___ _ ___ _ ___ _ ___ _ ___
 72
    65
 73
     4
 40
28.575
 49
19.05
 49
-3.175
 49
3.175
 49
-3.175
  0
LTYPE
  2
HIDDEN2
 70
    64
  3
Hidden (.5x) _ _ _ _ _ _ _ _ _ _ _ _ _ _ _ _ _
 72
    65
 73
     2
 40
4.7625
 49
3.175
 49
-1.5875
  0
ENDTAB
  0
TABLE
  2
LAYER
 70
     1
  0
LAYER
  2
0
 70
     0
 62
     7
  6
CONTINUOUS
  0
ENDTAB
  0
TABLE
  2
STYLE
 70
     1
  0
STYLE
  2
STANDARD
 70
     0
 40
0.0
 41
1.0
 50
0.0
 71
     0
 42
0.0
  3
txt
  4

  0
ENDTAB
  0
TABLE
  2
VIEW
 70
     0
  0
ENDTAB
  0
TABLE
  2
UCS
 70
     0
  0
ENDTAB
  0
TABLE
  2
APPID
 70
     1
  0
APPID
  2
ACAD
 70
     0
  0
ENDTAB
  0
TABLE
  2
DIMSTYLE
 70
     1
  0
DIMSTYLE
  2
STANDARD
 70
     0
  3

  4

  5

  6

  7

 40
1.0
 41
0.18
 42
0.0625
 43
0.38
 44
0.18
 45
0.0
 46
0.0
 47
0.0
 48
0.0
 71
     0
 72
     0
 73
     1
 74
     1
 75
     0
 76
     0
 77
     0
 78
     0
140
0.18
141
0.09
142
0.0
143
25.4
144
1.0
145
0.0
146
1.0
147
0.09
170
     0
171
     2
172
     0
173
     0
174
     0
175
     0
176
     0
177
     0
178
     0
  0
ENDTAB
  0
ENDSEC
  0
SECTION
  2
BLOCKS
  0
ENDSEC
  0
SECTION
  2
ENTITIES
  0
LINE
  8
0
  6
CONTINUOUS
 62
     7
  5
D8
 10
-0.275591
 20
0.0
 30
0.0
 11
-0.275571
 21
-0.007985
 31
0.0
  0
LINE
  8
0
  6
CONTINUOUS
 62
     7
  5
D9
 10
-0.275571
 20
-0.007985
 30
0.0
 11
-0.275511
 21
-0.016007
 31
0.0
  0
LINE
  8
0
  6
CONTINUOUS
 62
     7
  5
DA
 10
-0.275511
 20
-0.016007
 30
0.0
 11
-0.275411
 21
-0.024061
 31
0.0
  0
LINE
  8
0
  6
CONTINUOUS
 62
     7
  5
DB
 10
-0.275411
 20
-0.024061
 30
0.0
 11
-0.27527
 21
-0.032144
 31
0.0
  0
LINE
  8
0
  6
CONTINUOUS
 62
     7
  5
DC
 10
-0.27527
 20
-0.032144
 30
0.0
 11
-0.275089
 21
-0.040251
 31
0.0
  0
LINE
  8
0
  6
CONTINUOUS
 62
     7
  5
DD
 10
-0.275089
 20
-0.040251
 30
0.0
 11
-0.274865
 21
-0.048379
 31
0.0
  0
LINE
  8
0
  6
CONTINUOUS
 62
     7
  5
DE
 10
-0.274865
 20
-0.048379
 30
0.0
 11
-0.274601
 21
-0.056524
 31
0.0
  0
LINE
  8
0
  6
CONTINUOUS
 62
     7
  5
DF
 10
-0.274601
 20
-0.056524
 30
0.0
 11
-0.274294
 21
-0.064682
 31
0.0
  0
LINE
  8
0
  6
CONTINUOUS
 62
     7
  5
E0
 10
-0.274294
 20
-0.064682
 30
0.0
 11
-0.273946
 21
-0.072848
 31
0.0
  0
LINE
  8
0
  6
CONTINUOUS
 62
     7
  5
E1
 10
-0.273946
 20
-0.072848
 30
0.0
 11
-0.273556
 21
-0.081019
 31
0.0
  0
LINE
  8
0
  6
CONTINUOUS
 62
     7
  5
E2
 10
-0.273556
 20
-0.081019
 30
0.0
 11
-0.273125
 21
-0.08919
 31
0.0
  0
LINE
  8
0
  6
CONTINUOUS
 62
     7
  5
E3
 10
-0.273125
 20
-0.08919
 30
0.0
 11
-0.272652
 21
-0.097358
 31
0.0
  0
LINE
  8
0
  6
CONTINUOUS
 62
     7
  5
E4
 10
-0.272652
 20
-0.097358
 30
0.0
 11
-0.272138
 21
-0.105518
 31
0.0
  0
LINE
  8
0
  6
CONTINUOUS
 62
     7
  5
E5
 10
-0.272138
 20
-0.105518
 30
0.0
 11
-0.271584
 21
-0.113665
 31
0.0
  0
LINE
  8
0
  6
CONTINUOUS
 62
     7
  5
E6
 10
-0.271584
 20
-0.113665
 30
0.0
 11
-0.270989
 21
-0.121797
 31
0.0
  0
LINE
  8
0
  6
CONTINUOUS
 62
     7
  5
E7
 10
-0.270989
 20
-0.121797
 30
0.0
 11
-0.270355
 21
-0.129909
 31
0.0
  0
LINE
  8
0
  6
CONTINUOUS
 62
     7
  5
E8
 10
-0.270355
 20
-0.129909
 30
0.0
 11
-0.269681
 21
-0.137997
 31
0.0
  0
LINE
  8
0
  6
CONTINUOUS
 62
     7
  5
E9
 10
-0.269681
 20
-0.137997
 30
0.0
 11
-0.268969
 21
-0.146057
 31
0.0
  0
LINE
  8
0
  6
CONTINUOUS
 62
     7
  5
EA
 10
-0.268969
 20
-0.146057
 30
0.0
 11
-0.268219
 21
-0.154086
 31
0.0
  0
LINE
  8
0
  6
CONTINUOUS
 62
     7
  5
EB
 10
-0.268219
 20
-0.154086
 30
0.0
 11
-0.267433
 21
-0.162079
 31
0.0
  0
LINE
  8
0
  6
CONTINUOUS
 62
     7
  5
EC
 10
-0.267433
 20
-0.162079
 30
0.0
 11
-0.26661
 21
-0.170034
 31
0.0
  0
LINE
  8
0
  6
CONTINUOUS
 62
     7
  5
ED
 10
-0.26661
 20
-0.170034
 30
0.0
 11
-0.265752
 21
-0.177947
 31
0.0
  0
LINE
  8
0
  6
CONTINUOUS
 62
     7
  5
EE
 10
-0.265752
 20
-0.177947
 30
0.0
 11
-0.26486
 21
-0.185814
 31
0.0
  0
LINE
  8
0
  6
CONTINUOUS
 62
     7
  5
EF
 10
-0.26486
 20
-0.185814
 30
0.0
 11
-0.263935
 21
-0.193633
 31
0.0
  0
LINE
  8
0
  6
CONTINUOUS
 62
     7
  5
F0
 10
-0.263935
 20
-0.193633
 30
0.0
 11
-0.262977
 21
-0.201401
 31
0.0
  0
LINE
  8
0
  6
CONTINUOUS
 62
     7
  5
F1
 10
-0.262977
 20
-0.201401
 30
0.0
 11
-0.261988
 21
-0.209114
 31
0.0
  0
LINE
  8
0
  6
CONTINUOUS
 62
     7
  5
F2
 10
-0.261988
 20
-0.209114
 30
0.0
 11
-0.260969
 21
-0.21677
 31
0.0
  0
LINE
  8
0
  6
CONTINUOUS
 62
     7
  5
F3
 10
-0.260969
 20
-0.21677
 30
0.0
 11
-0.259921
 21
-0.224366
 31
0.0
  0
LINE
  8
0
  6
CONTINUOUS
 62
     7
  5
F4
 10
-0.259921
 20
-0.224366
 30
0.0
 11
-0.258846
 21
-0.231899
 31
0.0
  0
LINE
  8
0
  6
CONTINUOUS
 62
     7
  5
F5
 10
-0.258846
 20
-0.231899
 30
0.0
 11
-0.257744
 21
-0.239365
 31
0.0
  0
LINE
  8
0
  6
CONTINUOUS
 62
     7
  5
F6
 10
-0.257744
 20
-0.239365
 30
0.0
 11
-0.256618
 21
-0.246762
 31
0.0
  0
LINE
  8
0
  6
CONTINUOUS
 62
     7
  5
F7
 10
-0.256618
 20
-0.246762
 30
0.0
 11
-0.255467
 21
-0.254085
 31
0.0
  0
LINE
  8
0
  6
CONTINUOUS
 62
     7
  5
F8
 10
-0.255467
 20
-0.254085
 30
0.0
 11
-0.254295
 21
-0.261333
 31
0.0
  0
LINE
  8
0
  6
CONTINUOUS
 62
     7
  5
F9
 10
-0.254295
 20
-0.261333
 30
0.0
 11
-0.253102
 21
-0.268503
 31
0.0
  0
LINE
  8
0
  6
CONTINUOUS
 62
     7
  5
FA
 10
-0.253102
 20
-0.268503
 30
0.0
 11
-0.251891
 21
-0.275591
 31
0.0
  0
LINE
  8
0
  6
CONTINUOUS
 62
     7
  5
FB
 10
-0.251891
 20
0.275591
 30
0.0
 11
-0.253102
 21
0.268503
 31
0.0
  0
LINE
  8
0
  6
CONTINUOUS
 62
     7
  5
FC
 10
-0.253102
 20
0.268503
 30
0.0
 11
-0.254295
 21
0.261333
 31
0.0
  0
LINE
  8
0
  6
CONTINUOUS
 62
     7
  5
FD
 10
-0.254295
 20
0.261333
 30
0.0
 11
-0.255467
 21
0.254085
 31
0.0
  0
LINE
  8
0
  6
CONTINUOUS
 62
     7
  5
FE
 10
-0.255467
 20
0.254085
 30
0.0
 11
-0.256618
 21
0.246762
 31
0.0
  0
LINE
  8
0
  6
CONTINUOUS
 62
     7
  5
FF
 10
-0.256618
 20
0.246762
 30
0.0
 11
-0.257744
 21
0.239365
 31
0.0
  0
LINE
  8
0
  6
CONTINUOUS
 62
     7
  5
100
 10
-0.257744
 20
0.239365
 30
0.0
 11
-0.258846
 21
0.231899
 31
0.0
  0
LINE
  8
0
  6
CONTINUOUS
 62
     7
  5
101
 10
-0.258846
 20
0.231899
 30
0.0
 11
-0.259921
 21
0.224366
 31
0.0
  0
LINE
  8
0
  6
CONTINUOUS
 62
     7
  5
102
 10
-0.259921
 20
0.224366
 30
0.0
 11
-0.260969
 21
0.21677
 31
0.0
  0
LINE
  8
0
  6
CONTINUOUS
 62
     7
  5
103
 10
-0.260969
 20
0.21677
 30
0.0
 11
-0.261988
 21
0.209114
 31
0.0
  0
LINE
  8
0
  6
CONTINUOUS
 62
     7
  5
104
 10
-0.261988
 20
0.209114
 30
0.0
 11
-0.262977
 21
0.201401
 31
0.0
  0
LINE
  8
0
  6
CONTINUOUS
 62
     7
  5
105
 10
-0.262977
 20
0.201401
 30
0.0
 11
-0.263935
 21
0.193633
 31
0.0
  0
LINE
  8
0
  6
CONTINUOUS
 62
     7
  5
106
 10
-0.263935
 20
0.193633
 30
0.0
 11
-0.26486
 21
0.185814
 31
0.0
  0
LINE
  8
0
  6
CONTINUOUS
 62
     7
  5
107
 10
-0.26486
 20
0.185814
 30
0.0
 11
-0.265752
 21
0.177947
 31
0.0
  0
LINE
  8
0
  6
CONTINUOUS
 62
     7
  5
108
 10
-0.265752
 20
0.177947
 30
0.0
 11
-0.26661
 21
0.170034
 31
0.0
  0
LINE
  8
0
  6
CONTINUOUS
 62
     7
  5
109
 10
-0.26661
 20
0.170034
 30
0.0
 11
-0.267433
 21
0.162079
 31
0.0
  0
LINE
  8
0
  6
CONTINUOUS
 62
     7
  5
10A
 10
-0.267433
 20
0.162079
 30
0.0
 11
-0.268219
 21
0.154086
 31
0.0
  0
LINE
  8
0
  6
CONTINUOUS
 62
     7
  5
10B
 10
-0.268219
 20
0.154086
 30
0.0
 11
-0.268969
 21
0.146057
 31
0.0
  0
LINE
  8
0
  6
CONTINUOUS
 62
     7
  5
10C
 10
-0.268969
 20
0.146057
 30
0.0
 11
-0.269681
 21
0.137997
 31
0.0
  0
LINE
  8
0
  6
CONTINUOUS
 62
     7
  5
10D
 10
-0.269681
 20
0.137997
 30
0.0
 11
-0.270355
 21
0.129909
 31
0.0
  0
LINE
  8
0
  6
CONTINUOUS
 62
     7
  5
10E
 10
-0.270355
 20
0.129909
 30
0.0
 11
-0.270989
 21
0.121797
 31
0.0
  0
LINE
  8
0
  6
CONTINUOUS
 62
     7
  5
10F
 10
-0.270989
 20
0.121797
 30
0.0
 11
-0.271584
 21
0.113665
 31
0.0
  0
LINE
  8
0
  6
CONTINUOUS
 62
     7
  5
110
 10
-0.271584
 20
0.113665
 30
0.0
 11
-0.272138
 21
0.105518
 31
0.0
  0
LINE
  8
0
  6
CONTINUOUS
 62
     7
  5
111
 10
-0.272138
 20
0.105518
 30
0.0
 11
-0.272652
 21
0.097358
 31
0.0
  0
LINE
  8
0
  6
CONTINUOUS
 62
     7
  5
112
 10
-0.272652
 20
0.097358
 30
0.0
 11
-0.273125
 21
0.08919
 31
0.0
  0
LINE
  8
0
  6
CONTINUOUS
 62
     7
  5
113
 10
-0.273125
 20
0.08919
 30
0.0
 11
-0.273556
 21
0.081019
 31
0.0
  0
LINE
  8
0
  6
CONTINUOUS
 62
     7
  5
114
 10
-0.273556
 20
0.081019
 30
0.0
 11
-0.273946
 21
0.072848
 31
0.0
  0
LINE
  8
0
  6
CONTINUOUS
 62
     7
  5
115
 10
-0.273946
 20
0.072848
 30
0.0
 11
-0.274294
 21
0.064682
 31
0.0
  0
LINE
  8
0
  6
CONTINUOUS
 62
     7
  5
116
 10
-0.274294
 20
0.064682
 30
0.0
 11
-0.274601
 21
0.056524
 31
0.0
  0
LINE
  8
0
  6
CONTINUOUS
 62
     7
  5
117
 10
-0.274601
 20
0.056524
 30
0.0
 11
-0.274865
 21
0.048379
 31
0.0
  0
LINE
  8
0
  6
CONTINUOUS
 62
     7
  5
118
 10
-0.274865
 20
0.048379
 30
0.0
 11
-0.275089
 21
0.040251
 31
0.0
  0
LINE
  8
0
  6
CONTINUOUS
 62
     7
  5
119
 10
-0.275089
 20
0.040251
 30
0.0
 11
-0.27527
 21
0.032144
 31
0.0
  0
LINE
  8
0
  6
CONTINUOUS
 62
     7
  5
11A
 10
-0.27527
 20
0.032144
 30
0.0
 11
-0.275411
 21
0.024061
 31
0.0
  0
LINE
  8
0
  6
CONTINUOUS
 62
     7
  5
11B
 10
-0.275411
 20
0.024061
 30
0.0
 11
-0.275511
 21
0.016007
 31
0.0
  0
LINE
  8
0
  6
CONTINUOUS
 62
     7
  5
11C
 10
-0.275511
 20
0.016007
 30
0.0
 11
-0.275571
 21
0.007985
 31
0.0
  0
LINE
  8
0
  6
CONTINUOUS
 62
     7
  5
11D
 10
-0.275571
 20
0.007985
 30
0.0
 11
-0.275591
 21
0.0
 31
0.0
  0
LINE
  8
0
  6
CONTINUOUS
 62
     7
  5
11E
 10
-0.275591
 20
0.0
 30
0.0
 11
-0.275571
 21
0.008021
 31
0.0
  0
LINE
  8
0
  6
CONTINUOUS
 62
     7
  5
11F
 10
-0.275571
 20
0.008021
 30
0.0
 11
-0.27551
 21
0.016079
 31
0.0
  0
LINE
  8
0
  6
CONTINUOUS
 62
     7
  5
120
 10
-0.27551
 20
0.016079
 30
0.0
 11
-0.27541
 21
0.02417
 31
0.0
  0
LINE
  8
0
  6
CONTINUOUS
 62
     7
  5
121
 10
-0.27541
 20
0.02417
 30
0.0
 11
-0.275268
 21
0.03229
 31
0.0
  0
LINE
  8
0
  6
CONTINUOUS
 62
     7
  5
122
 10
-0.275268
 20
0.03229
 30
0.0
 11
-0.275084
 21
0.040435
 31
0.0
  0
LINE
  8
0
  6
CONTINUOUS
 62
     7
  5
123
 10
-0.275084
 20
0.040435
 30
0.0
 11
-0.274859
 21
0.048601
 31
0.0
  0
LINE
  8
0
  6
CONTINUOUS
 62
     7
  5
124
 10
-0.274859
 20
0.048601
 30
0.0
 11
-0.274591
 21
0.056783
 31
0.0
  0
LINE
  8
0
  6
CONTINUOUS
 62
     7
  5
125
 10
-0.274591
 20
0.056783
 30
0.0
 11
-0.274282
 21
0.064978
 31
0.0
  0
LINE
  8
0
  6
CONTINUOUS
 62
     7
  5
126
 10
-0.274282
 20
0.064978
 30
0.0
 11
-0.273931
 21
0.073182
 31
0.0
  0
LINE
  8
0
  6
CONTINUOUS
 62
     7
  5
127
 10
-0.273931
 20
0.073182
 30
0.0
 11
-0.273537
 21
0.08139
 31
0.0
  0
LINE
  8
0
  6
CONTINUOUS
 62
     7
  5
128
 10
-0.273537
 20
0.08139
 30
0.0
 11
-0.273102
 21
0.089598
 31
0.0
  0
LINE
  8
0
  6
CONTINUOUS
 62
     7
  5
129
 10
-0.273102
 20
0.089598
 30
0.0
 11
-0.272625
 21
0.097802
 31
0.0
  0
LINE
  8
0
  6
CONTINUOUS
 62
     7
  5
12A
 10
-0.272625
 20
0.097802
 30
0.0
 11
-0.272107
 21
0.105998
 31
0.0
  0
LINE
  8
0
  6
CONTINUOUS
 62
     7
  5
12B
 10
-0.272107
 20
0.105998
 30
0.0
 11
-0.271547
 21
0.114181
 31
0.0
  0
LINE
  8
0
  6
CONTINUOUS
 62
     7
  5
12C
 10
-0.271547
 20
0.114181
 30
0.0
 11
-0.270947
 21
0.122347
 31
0.0
  0
LINE
  8
0
  6
CONTINUOUS
 62
     7
  5
12D
 10
-0.270947
 20
0.122347
 30
0.0
 11
-0.270307
 21
0.130493
 31
0.0
  0
LINE
  8
0
  6
CONTINUOUS
 62
     7
  5
12E
 10
-0.270307
 20
0.130493
 30
0.0
 11
-0.269628
 21
0.138613
 31
0.0
  0
LINE
  8
0
  6
CONTINUOUS
 62
     7
  5
12F
 10
-0.269628
 20
0.138613
 30
0.0
 11
-0.26891
 21
0.146706
 31
0.0
  0
LINE
  8
0
  6
CONTINUOUS
 62
     7
  5
130
 10
-0.26891
 20
0.146706
 30
0.0
 11
-0.268154
 21
0.154766
 31
0.0
  0
LINE
  8
0
  6
CONTINUOUS
 62
     7
  5
131
 10
-0.268154
 20
0.154766
 30
0.0
 11
-0.267361
 21
0.162789
 31
0.0
  0
LINE
  8
0
  6
CONTINUOUS
 62
     7
  5
132
 10
-0.267361
 20
0.162789
 30
0.0
 11
-0.266532
 21
0.170773
 31
0.0
  0
LINE
  8
0
  6
CONTINUOUS
 62
     7
  5
133
 10
-0.266532
 20
0.170773
 30
0.0
 11
-0.265667
 21
0.178714
 31
0.0
  0
LINE
  8
0
  6
CONTINUOUS
 62
     7
  5
134
 10
-0.265667
 20
0.178714
 30
0.0
 11
-0.264768
 21
0.186608
 31
0.0
  0
LINE
  8
0
  6
CONTINUOUS
 62
     7
  5
135
 10
-0.264768
 20
0.186608
 30
0.0
 11
-0.263835
 21
0.194452
 31
0.0
  0
LINE
  8
0
  6
CONTINUOUS
 62
     7
  5
136
 10
-0.263835
 20
0.194452
 30
0.0
 11
-0.262871
 21
0.202244
 31
0.0
  0
LINE
  8
0
  6
CONTINUOUS
 62
     7
  5
137
 10
-0.262871
 20
0.202244
 30
0.0
 11
-0.261875
 21
0.20998
 31
0.0
  0
LINE
  8
0
  6
CONTINUOUS
 62
     7
  5
138
 10
-0.261875
 20
0.20998
 30
0.0
 11
-0.260849
 21
0.217658
 31
0.0
  0
LINE
  8
0
  6
CONTINUOUS
 62
     7
  5
139
 10
-0.260849
 20
0.217658
 30
0.0
 11
-0.259794
 21
0.225274
 31
0.0
  0
LINE
  8
0
  6
CONTINUOUS
 62
     7
  5
13A
 10
-0.259794
 20
0.225274
 30
0.0
 11
-0.258711
 21
0.232825
 31
0.0
  0
LINE
  8
0
  6
CONTINUOUS
 62
     7
  5
13B
 10
-0.258711
 20
0.232825
 30
0.0
 11
-0.257603
 21
0.240308
 31
0.0
  0
LINE
  8
0
  6
CONTINUOUS
 62
     7
  5
13C
 10
-0.257603
 20
0.240308
 30
0.0
 11
-0.256469
 21
0.247719
 31
0.0
  0
LINE
  8
0
  6
CONTINUOUS
 62
     7
  5
13D
 10
-0.256469
 20
0.247719
 30
0.0
 11
-0.255312
 21
0.255056
 31
0.0
  0
LINE
  8
0
  6
CONTINUOUS
 62
     7
  5
13E
 10
-0.255312
 20
0.255056
 30
0.0
 11
-0.254134
 21
0.262316
 31
0.0
  0
LINE
  8
0
  6
CONTINUOUS
 62
     7
  5
13F
 10
-0.254134
 20
0.262316
 30
0.0
 11
-0.252935
 21
0.269495
 31
0.0
  0
LINE
  8
0
  6
CONTINUOUS
 62
     7
  5
140
 10
-0.252935
 20
0.269495
 30
0.0
 11
-0.251717
 21
0.276591
 31
0.0
  0
LINE
  8
0
  6
CONTINUOUS
 62
     7
  5
141
 10
-0.251717
 20
-0.276591
 30
0.0
 11
-0.252935
 21
-0.269495
 31
0.0
  0
LINE
  8
0
  6
CONTINUOUS
 62
     7
  5
142
 10
-0.252935
 20
-0.269495
 30
0.0
 11
-0.254134
 21
-0.262316
 31
0.0
  0
LINE
  8
0
  6
CONTINUOUS
 62
     7
  5
143
 10
-0.254134
 20
-0.262316
 30
0.0
 11
-0.255312
 21
-0.255056
 31
0.0
  0
LINE
  8
0
  6
CONTINUOUS
 62
     7
  5
144
 10
-0.255312
 20
-0.255056
 30
0.0
 11
-0.256469
 21
-0.247719
 31
0.0
  0
LINE
  8
0
  6
CONTINUOUS
 62
     7
  5
145
 10
-0.256469
 20
-0.247719
 30
0.0
 11
-0.257603
 21
-0.240308
 31
0.0
  0
LINE
  8
0
  6
CONTINUOUS
 62
     7
  5
146
 10
-0.257603
 20
-0.240308
 30
0.0
 11
-0.258711
 21
-0.232825
 31
0.0
  0
LINE
  8
0
  6
CONTINUOUS
 62
     7
  5
147
 10
-0.258711
 20
-0.232825
 30
0.0
 11
-0.259794
 21
-0.225274
 31
0.0
  0
LINE
  8
0
  6
CONTINUOUS
 62
     7
  5
148
 10
-0.259794
 20
-0.225274
 30
0.0
 11
-0.260849
 21
-0.217658
 31
0.0
  0
LINE
  8
0
  6
CONTINUOUS
 62
     7
  5
149
 10
-0.260849
 20
-0.217658
 30
0.0
 11
-0.261875
 21
-0.20998
 31
0.0
  0
LINE
  8
0
  6
CONTINUOUS
 62
     7
  5
14A
 10
-0.261875
 20
-0.20998
 30
0.0
 11
-0.262871
 21
-0.202244
 31
0.0
  0
LINE
  8
0
  6
CONTINUOUS
 62
     7
  5
14B
 10
-0.262871
 20
-0.202244
 30
0.0
 11
-0.263835
 21
-0.194452
 31
0.0
  0
LINE
  8
0
  6
CONTINUOUS
 62
     7
  5
14C
 10
-0.263835
 20
-0.194452
 30
0.0
 11
-0.264768
 21
-0.186608
 31
0.0
  0
LINE
  8
0
  6
CONTINUOUS
 62
     7
  5
14D
 10
-0.264768
 20
-0.186608
 30
0.0
 11
-0.265667
 21
-0.178714
 31
0.0
  0
LINE
  8
0
  6
CONTINUOUS
 62
     7
  5
14E
 10
-0.265667
 20
-0.178714
 30
0.0
 11
-0.266532
 21
-0.170773
 31
0.0
  0
LINE
  8
0
  6
CONTINUOUS
 62
     7
  5
14F
 10
-0.266532
 20
-0.170773
 30
0.0
 11
-0.267361
 21
-0.162789
 31
0.0
  0
LINE
  8
0
  6
CONTINUOUS
 62
     7
  5
150
 10
-0.267361
 20
-0.162789
 30
0.0
 11
-0.268154
 21
-0.154766
 31
0.0
  0
LINE
  8
0
  6
CONTINUOUS
 62
     7
  5
151
 10
-0.268154
 20
-0.154766
 30
0.0
 11
-0.26891
 21
-0.146706
 31
0.0
  0
LINE
  8
0
  6
CONTINUOUS
 62
     7
  5
152
 10
-0.26891
 20
-0.146706
 30
0.0
 11
-0.269628
 21
-0.138613
 31
0.0
  0
LINE
  8
0
  6
CONTINUOUS
 62
     7
  5
153
 10
-0.269628
 20
-0.138613
 30
0.0
 11
-0.270307
 21
-0.130493
 31
0.0
  0
LINE
  8
0
  6
CONTINUOUS
 62
     7
  5
154
 10
-0.270307
 20
-0.130493
 30
0.0
 11
-0.270947
 21
-0.122347
 31
0.0
  0
LINE
  8
0
  6
CONTINUOUS
 62
     7
  5
155
 10
-0.270947
 20
-0.122347
 30
0.0
 11
-0.271547
 21
-0.114181
 31
0.0
  0
LINE
  8
0
  6
CONTINUOUS
 62
     7
  5
156
 10
-0.271547
 20
-0.114181
 30
0.0
 11
-0.272107
 21
-0.105998
 31
0.0
  0
LINE
  8
0
  6
CONTINUOUS
 62
     7
  5
157
 10
-0.272107
 20
-0.105998
 30
0.0
 11
-0.272625
 21
-0.097802
 31
0.0
  0
LINE
  8
0
  6
CONTINUOUS
 62
     7
  5
158
 10
-0.272625
 20
-0.097802
 30
0.0
 11
-0.273102
 21
-0.089598
 31
0.0
  0
LINE
  8
0
  6
CONTINUOUS
 62
     7
  5
159
 10
-0.273102
 20
-0.089598
 30
0.0
 11
-0.273537
 21
-0.08139
 31
0.0
  0
LINE
  8
0
  6
CONTINUOUS
 62
     7
  5
15A
 10
-0.273537
 20
-0.08139
 30
0.0
 11
-0.273931
 21
-0.073182
 31
0.0
  0
LINE
  8
0
  6
CONTINUOUS
 62
     7
  5
15B
 10
-0.273931
 20
-0.073182
 30
0.0
 11
-0.274282
 21
-0.064978
 31
0.0
  0
LINE
  8
0
  6
CONTINUOUS
 62
     7
  5
15C
 10
-0.274282
 20
-0.064978
 30
0.0
 11
-0.274591
 21
-0.056783
 31
0.0
  0
LINE
  8
0
  6
CONTINUOUS
 62
     7
  5
15D
 10
-0.274591
 20
-0.056783
 30
0.0
 11
-0.274859
 21
-0.048601
 31
0.0
  0
LINE
  8
0
  6
CONTINUOUS
 62
     7
  5
15E
 10
-0.274859
 20
-0.048601
 30
0.0
 11
-0.275084
 21
-0.040435
 31
0.0
  0
LINE
  8
0
  6
CONTINUOUS
 62
     7
  5
15F
 10
-0.275084
 20
-0.040435
 30
0.0
 11
-0.275268
 21
-0.03229
 31
0.0
  0
LINE
  8
0
  6
CONTINUOUS
 62
     7
  5
160
 10
-0.275268
 20
-0.03229
 30
0.0
 11
-0.27541
 21
-0.02417
 31
0.0
  0
LINE
  8
0
  6
CONTINUOUS
 62
     7
  5
161
 10
-0.27541
 20
-0.02417
 30
0.0
 11
-0.27551
 21
-0.016079
 31
0.0
  0
LINE
  8
0
  6
CONTINUOUS
 62
     7
  5
162
 10
-0.27551
 20
-0.016079
 30
0.0
 11
-0.275571
 21
-0.008021
 31
0.0
  0
LINE
  8
0
  6
CONTINUOUS
 62
     7
  5
163
 10
-0.275571
 20
-0.008021
 30
0.0
 11
-0.275591
 21
0.0
 31
0.0
  0
ARC
  8
0
  6
CONTINUOUS
 62
     7
  5
164
 10
1.338583
 20
0.0
 30
0.0
 40
1.614173
 50
167.319617
 51
192.680383
  0
LINE
  8
0
  6
CONTINUOUS
 62
     7
  5
165
 10
-0.23622
 20
-0.354331
 30
0.0
 11
-0.019685
 21
-0.354331
 31
0.0
  0
LINE
  8
0
  6
CONTINUOUS
 62
     7
  5
166
 10
-0.019685
 20
-0.354331
 30
0.0
 11
-0.019685
 21
0.354331
 31
0.0
  0
LINE
  8
0
  6
CONTINUOUS
 62
     7
  5
167
 10
-0.019685
 20
0.354331
 30
0.0
 11
-0.23622
 21
0.354331
 31
0.0
  0
LINE
  8
0
  6
CONTINUOUS
 62
     7
  5
168
 10
1.003937
 20
-0.314961
 30
0.0
 11
1.003937
 21
0.314961
 31
0.0
  0
LINE
  8
0
  6
CONTINUOUS
 62
     7
  5
169
 10
0.0
 20
0.334646
 30
0.0
 11
0.0
 21
0.0
 31
0.0
  0
LINE
  8
0
  6
CONTINUOUS
 62
     7
  5
16A
 10
0.0
 20
0.0
 30
0.0
 11
0.0
 21
-0.334646
 31
0.0
  0
LINE
  8
0
  6
CONTINUOUS
 62
     7
  5
16B
 10
0.0
 20
-0.314961
 30
0.0
 11
1.003937
 21
-0.314961
 31
0.0
  0
LINE
  8
0
  6
CONTINUOUS
 62
     7
  5
16C
 10
1.003937
 20
0.314961
 30
0.0
 11
0.0
 21
0.314961
 31
0.0
  0
LINE
  8
0
  6
CONTINUOUS
 62
     7
  5
16D
 10
0.0
 20
0.334646
 30
0.0
 11
-0.019685
 21
0.334646
 31
0.0
  0
LINE
  8
0
  6
CONTINUOUS
 62
     7
  5
16E
 10
-0.019685
 20
-0.334646
 30
0.0
 11
0.0
 21
-0.334646
 31
0.0
  0
LINE
  8
0
  6
CONTINUOUS
 62
     3
  5
16F
 10
-0.275591
 20
0.0
 30
0.0
 11
1.003937
 21
0.0
 31
0.0
  0
ENDSEC
  0
EOF
