999
DXF file: C:\Users\sesa63760\Dev\_Creo\CAD\MCADUE0001291_3D-CAD\drw0001_3.dxf
999
Pro/ENGINEER 2019471 by Parametric Technology Corporation
  0
SECTION
  2
HEADER
  9
$ACADVER
  1
AC1024
  9
$DWGCODEPAGE
  3
ANSI_1252
  9
$EXTMAX
 10
379.2188846957
 20
536.3238512124
 30
0.0
  9
$EXTMIN
 10
0.0
 20
0.0
 30
0.0
  9
$LIMMIN
 10
0.0
 20
0.0
  9
$LIMMAX
 10
379.2188846957
 20
536.3238512124
  9
$VIEWCTR
 10
189.6094423478
 20
268.1619256062
  9
$VIEWSIZE
 40
536.3238512124
  9
$CLAYER
  8
0
  9
$LTSCALE
 40
34.9603695605
  9
$CELTYPE
  6
BYLAYER
  9
$DIMSCALE
 40
1.0
  9
$DIMASZ
 40
4.5145105321
  9
$DIMEXO
 40
1.0
  9
$DIMDLI
 40
24.1544371509
  9
$DIMEXE
 40
1.0
  9
$DIMCEN
 40
5.7207877463
  9
$DIMLFAC
 40
1.0
  9
$DIMBLK
  1
_FILLED
  9
$DIMALT
 70
0
  9
$DIMALTF
 40
0.0393700787
  9
$DIMTXT
 40
6.3203147449
  9
$DIMTOL
 70
1
  9
$DIMLIM
 70
0
  9
$DIMTFAC
 40
1.0
  9
$DIMTP
 40
0.01
  9
$DIMTM
 40
0.01
  9
$DIMGAP
 40
0.625
  9
$DIMDSEP
 70
46
  9
$AUNITS
 70
0
  9
$PDMODE
 70
3
  9
$PDSIZE
 40
0.3125
  9
$HANDSEED
  5
300
  9
$TILEMODE
 70
1
  9
$MEASUREMENT
 70
1
  9
$INSUNITS
 70
4
  0
ENDSEC
  0
SECTION
  2
CLASSES
  0
CLASS
  1
ACDBDICTIONARYWDFLT
  2
AcDbDictionaryWithDefault
  3
AutoCAD 2000
 90
0
 91
1
280
0
281
0
  0
CLASS
  1
ACDBPLACEHOLDER
  2
AcDbPlaceHolder
  3
AutoCAD 2000
 90
0
 91
1
280
0
281
0
  0
CLASS
  1
LAYOUT
  2
AcDbLayout
  3
AutoCAD 2000
 90
0
 91
0
280
0
281
0
  0
ENDSEC
  0
SECTION
  2
TABLES
  0
TABLE
  2
VPORT
  5
8
100
AcDbSymbolTable
 70
2
  0
VPORT
  5
1F4
100
AcDbSymbolTableRecord
100
AcDbViewportTableRecord
  2
*ACTIVE
 70
0
 10
0.0
 20
0.0
 11
1.0
 21
1.0
 12
189.6094423478
 22
268.1619256062
 13
0.0
 23
0.0
 14
1.0
 24
1.0
 15
0.0
 25
0.0
 16
0.0
 26
0.0
 36
1.0
 17
0.0
 27
0.0
 37
0.0
 40
536.3238512124
 41
0.7070707071
 42
50.0
 43
0.0
 44
0.0
 50
0.0
 51
0.0
 71
0
 72
100
 73
1
 74
1
 75
0
 76
0
 77
0
 78
0
  0
ENDTAB
  0
TABLE
  2
LTYPE
  5
5
100
AcDbSymbolTable
 70
6
  0
LTYPE
  5
14
100
AcDbSymbolTableRecord
100
AcDbLinetypeTableRecord
  2
BYBLOCK
 70
0
  3

 72
65
 73
0
 40
0.0
  0
LTYPE
  5
15
100
AcDbSymbolTableRecord
100
AcDbLinetypeTableRecord
  2
BYLAYER
 70
0
  3

 72
65
 73
0
 40
0.0
  0
LTYPE
  5
16
100
AcDbSymbolTableRecord
100
AcDbLinetypeTableRecord
  2
CONTINUOUS
 70
64
  3
Solid line
 72
65
 73
0
 40
0.0
  0
LTYPE
  5
1F5
100
AcDbSymbolTableRecord
100
AcDbLinetypeTableRecord
  2
CENTER
 70
64
  3
____ _ ____ _ ____ _ ____ _ ____ _ ____ _ ____
 72
65
 73
4
 40
0.6
 49
0.375
 74
0
 49
-0.075
 74
0
 49
0.075
 74
0
 49
-0.075
 74
0
  0
LTYPE
  5
1F6
100
AcDbSymbolTableRecord
100
AcDbLinetypeTableRecord
  2
HIDDEN
 70
64
  3
- - - - - - - - - - - - - - - - - - - -
 72
65
 73
2
 40
0.2
 49
0.1
 74
0
 49
-0.1
 74
0
  0
LTYPE
  5
1F7
100
AcDbSymbolTableRecord
100
AcDbLinetypeTableRecord
  2
PHANTOM
 70
64
  3
_____ _ _ _____ _ _ _____ _ _ _____
 72
65
 73
6
 40
0.8
 49
0.45
 74
0
 49
-0.05
 74
0
 49
0.1
 74
0
 49
-0.05
 74
0
 49
0.1
 74
0
 49
-0.05
 74
0
  0
LTYPE
  5
1F8
100
AcDbSymbolTableRecord
100
AcDbLinetypeTableRecord
  2
DOT
 70
64
  3
. . . . . . . . . . . . . . . . . . . .
 72
65
 73
2
 40
0.2
 49
0.1
 74
0
 49
-0.1
 74
0
  0
LTYPE
  5
1F9
100
AcDbSymbolTableRecord
100
AcDbLinetypeTableRecord
  2
DASHED
 70
64
  3
- - - - - - - - - - - - - - - - - - - -
 72
65
 73
2
 40
0.2
 49
0.1
 74
0
 49
-0.1
 74
0
  0
ENDTAB
  0
TABLE
  2
LAYER
  5
2
100
AcDbSymbolTable
 70
36
  0
LAYER
  5
10
100
AcDbSymbolTableRecord
100
AcDbLayerTableRecord
  2
0
 70
0
 62
7
  6
CONTINUOUS
370
-3
390
F
  0
LAYER
  5
1FA
100
AcDbSymbolTableRecord
100
AcDbLayerTableRecord
  2
DEFAULT_1
 70
0
 62
7
  6
CENTER
370
-3
390
F
  0
LAYER
  5
1FB
100
AcDbSymbolTableRecord
100
AcDbLayerTableRecord
  2
DEFAULT_2
 70
0
 62
8
  6
HIDDEN
370
-3
390
F
  0
LAYER
  5
1FC
100
AcDbSymbolTableRecord
100
AcDbLayerTableRecord
  2
DEFAULT_3
 70
0
 62
7
  6
PHANTOM
370
-3
390
F
  0
LAYER
  5
1FD
100
AcDbSymbolTableRecord
100
AcDbLayerTableRecord
  2
00_COMPONENTS
 70
0
 62
7
  6
CONTINUOUS
370
-3
390
F
  0
LAYER
  5
1FE
100
AcDbSymbolTableRecord
100
AcDbLayerTableRecord
  2
01_1_DEFAULT_DATUMS
 70
0
 62
7
  6
CONTINUOUS
370
-3
390
F
  0
LAYER
  5
1FF
100
AcDbSymbolTableRecord
100
AcDbLayerTableRecord
  2
01_PLANES
 70
0
 62
7
  6
CONTINUOUS
370
-3
390
F
  0
LAYER
  5
200
100
AcDbSymbolTableRecord
100
AcDbLayerTableRecord
  2
02_COORD_SYS
 70
0
 62
7
  6
CONTINUOUS
370
-3
390
F
  0
LAYER
  5
201
100
AcDbSymbolTableRecord
100
AcDbLayerTableRecord
  2
03_AXES
 70
0
 62
7
  6
CONTINUOUS
370
-3
390
F
  0
LAYER
  5
202
100
AcDbSymbolTableRecord
100
AcDbLayerTableRecord
  2
04_POINTS
 70
0
 62
7
  6
CONTINUOUS
370
-3
390
F
  0
LAYER
  5
203
100
AcDbSymbolTableRecord
100
AcDbLayerTableRecord
  2
05_CURVES
 70
0
 62
7
  6
CONTINUOUS
370
-3
390
F
  0
LAYER
  5
204
100
AcDbSymbolTableRecord
100
AcDbLayerTableRecord
  2
06_SURFS
 70
0
 62
7
  6
CONTINUOUS
370
-3
390
F
  0
LAYER
  5
205
100
AcDbSymbolTableRecord
100
AcDbLayerTableRecord
  2
07_COSMETICS
 70
0
 62
7
  6
CONTINUOUS
370
-3
390
F
  0
LAYER
  5
206
100
AcDbSymbolTableRecord
100
AcDbLayerTableRecord
  2
10_NOTES
 70
0
 62
7
  6
CONTINUOUS
370
-3
390
F
  0
LAYER
  5
207
100
AcDbSymbolTableRecord
100
AcDbLayerTableRecord
  2
11_NOTES_PUB
 70
0
 62
7
  6
CONTINUOUS
370
-3
390
F
  0
LAYER
  5
208
100
AcDbSymbolTableRecord
100
AcDbLayerTableRecord
  2
13_REF_GTOL
 70
0
 62
7
  6
CONTINUOUS
370
-3
390
F
  0
LAYER
  5
209
100
AcDbSymbolTableRecord
100
AcDbLayerTableRecord
  2
16_MISC
 70
0
 62
7
  6
CONTINUOUS
370
-3
390
F
  0
LAYER
  5
20A
100
AcDbSymbolTableRecord
100
AcDbLayerTableRecord
  2
17_NO_PRINT
 70
0
 62
7
  6
CONTINUOUS
370
-3
390
F
  0
LAYER
  5
20B
100
AcDbSymbolTableRecord
100
AcDbLayerTableRecord
  2
18_DATUM_CAMS_JOINTS
 70
0
 62
7
  6
CONTINUOUS
370
-3
390
F
  0
LAYER
  5
20C
100
AcDbSymbolTableRecord
100
AcDbLayerTableRecord
  2
19_DATUM_FUNCTIONAL
 70
0
 62
7
  6
CONTINUOUS
370
-3
390
F
  0
LAYER
  5
20D
100
AcDbSymbolTableRecord
100
AcDbLayerTableRecord
  2
20_DATUM_KINEMATIC_SCHEME
 70
0
 62
7
  6
CONTINUOUS
370
-3
390
F
  0
ENDTAB
  0
TABLE
  2
STYLE
  5
3
100
AcDbSymbolTable
 70
1
  0
STYLE
  5
11
100
AcDbSymbolTableRecord
100
AcDbTextStyleTableRecord
  2
STANDARD
 70
0
 40
0.0
 41
0.8
 50
0.0
 71
0
 42
0.2
  3
txt
  4

  0
STYLE
  5
20E
100
AcDbSymbolTableRecord
100
AcDbTextStyleTableRecord
  2
TEXTSTYLE_1
 70
0
 40
0.0
 41
0.8
 50
0.0
 71
0
 42
0.2
  3
gdt
  4

  0
ENDTAB
  0
TABLE
  2
VIEW
  5
6
100
AcDbSymbolTable
 70
0
  0
ENDTAB
  0
TABLE
  2
UCS
  5
7
100
AcDbSymbolTable
 70
0
  0
ENDTAB
  0
TABLE
  2
APPID
  5
9
100
AcDbSymbolTable
 70
1
  0
APPID
  5
20F
100
AcDbSymbolTableRecord
100
AcDbRegAppTableRecord
  2
ACAD
 70
0
  0
ENDTAB
  0
TABLE
  2
BLOCK_RECORD
  5
1
100
AcDbSymbolTable
 70
0
  0
BLOCK_RECORD
  5
210
100
AcDbSymbolTableRecord
100
AcDbBlockTableRecord
  2
*Model_Space
  0
BLOCK_RECORD
  5
211
100
AcDbSymbolTableRecord
100
AcDbBlockTableRecord
  2
*Paper_Space
  0
BLOCK_RECORD
  5
212
100
AcDbSymbolTableRecord
100
AcDbBlockTableRecord
  2
_FILLED
  0
ENDTAB
  0
TABLE
  2
DIMSTYLE
  5
A
100
AcDbSymbolTable
 70
1
100
AcDbDimStyleTable
 71
0
  0
DIMSTYLE
105
213
100
AcDbSymbolTableRecord
100
AcDbDimStyleTableRecord
  2
STANDARD
 70
0
  3

  4

 40
1.0
 41
4.5145105321
 42
1.0
 43
0.38
 44
1.0
 45
0.0
 46
0.0
 47
0.01
 48
0.01
140
6.3203147449
141
0.09
142
0.0
143
25.4
144
1.0
145
0.0
146
1.0
147
0.625
 71
1
 72
0
 73
0
 74
0
 75
0
 76
0
 77
1
 78
8
 79
2
170
0
171
1
172
0
173
0
174
0
175
0
176
0
177
0
178
0
270
2
179
2
271
2
272
2
273
2
274
2
275
0
280
0
281
0
282
0
283
1
284
8
285
0
286
0
287
3
288
0
340
11
278
46
341
212
342
212
343
212
344
212
  0
ENDTAB
  0
ENDSEC
  0
SECTION
  2
BLOCKS
  0
BLOCK
  5
20
100
AcDbEntity
  8
0
100
AcDbBlockBegin
  2
*Model_Space
 70
0
 10
0.0
 20
0.0
 30
0.0
  3
*Model_Space
  1

  0
ENDBLK
  5
21
100
AcDbEntity
  8
0
100
AcDbBlockEnd
  0
BLOCK
  5
1C
100
AcDbEntity
  8
0
100
AcDbBlockBegin
  2
*Paper_Space
 70
0
 10
0.0
 20
0.0
 30
0.0
  3
*Paper_Space
  1

  0
ENDBLK
  5
1D
100
AcDbEntity
  8
0
100
AcDbBlockEnd
  0
BLOCK
  5
214
100
AcDbEntity
  8
0
100
AcDbBlockBegin
  2
_FILLED
 70
64
 10
0.0
 20
0.0
  3
_FILLED
  1

  0
SOLID
  5
215
100
AcDbEntity
  8
0
  6
BYBLOCK
 62
0
100
AcDbTrace
 10
0.0
 20
0.0
 11
-1.0
 21
0.25
 12
-1.0
 22
-0.25
 13
-1.0
 23
-0.25
  0
ENDBLK
  5
216
100
AcDbEntity
  8
0
  6
BYBLOCK
 62
0
100
AcDbBlockEnd
  0
ENDSEC
  0
SECTION
  2
ENTITIES
  0
LINE
  5
217
100
AcDbEntity
  8
0
100
AcDbLine
 62
7
  6
CONTINUOUS
 10
44.8610834858
 20
314.3748223877
 11
44.8610834858
 21
192.7748223877
  0
LINE
  5
218
100
AcDbEntity
  8
0
100
AcDbLine
 62
7
  6
CONTINUOUS
 10
47.3356272006
 20
324.6851189991
 11
47.3356272006
 21
334.9172290552
  0
LINE
  5
219
100
AcDbEntity
  8
0
100
AcDbLine
 62
7
  6
CONTINUOUS
 10
47.3610834858
 20
318.0748223877
 11
47.3610834858
 21
317.5748223877
  0
LINE
  5
21A
100
AcDbEntity
  8
0
100
AcDbLine
 62
7
  6
CONTINUOUS
 10
48.3356272006
 20
324.6851189991
 11
48.3356272006
 21
334.9172290552
  0
LINE
  5
21B
100
AcDbEntity
  8
0
100
AcDbLine
 62
7
  6
CONTINUOUS
 10
49.3610834858
 20
317.5748223877
 11
49.3610834858
 21
319.0748223877
  0
LINE
  5
21C
100
AcDbEntity
  8
0
100
AcDbLine
 62
7
  6
CONTINUOUS
 10
50.7489510515
 20
319.4313909302
 11
50.7489510515
 21
319.7748223877
  0
LINE
  5
21D
100
AcDbEntity
  8
0
100
AcDbLine
 62
7
  6
CONTINUOUS
 10
56.4908150398
 20
319.7748223877
 11
56.4908150398
 21
319.4313909302
  0
LINE
  5
21E
100
AcDbEntity
  8
0
100
AcDbLine
 62
7
  6
CONTINUOUS
 10
56.6416753224
 20
319.7748223877
 11
56.6416753224
 21
319.7243052728
  0
LINE
  5
21F
100
AcDbEntity
  8
0
100
AcDbLine
 62
7
  6
CONTINUOUS
 10
48.7001826043
 20
337.538515597
 11
56.5091387286
 21
343.0064055408
  0
LINE
  5
220
100
AcDbEntity
  8
0
100
AcDbLine
 62
7
  6
CONTINUOUS
 10
54.5090003746
 20
340.3851189991
 11
49.2737590406
 21
336.7193635527
  0
LINE
  5
221
100
AcDbEntity
  8
0
100
AcDbLine
 62
7
  6
CONTINUOUS
 10
60.3610834858
 20
190.3748223877
 11
60.3610834858
 21
190.5748223877
  0
LINE
  5
222
100
AcDbEntity
  8
0
100
AcDbLine
 62
7
  6
CONTINUOUS
 10
49.1974806942
 20
319.0748222849
 11
49.4319418837
 21
319.2799758258
  0
LINE
  5
223
100
AcDbEntity
  8
0
100
AcDbLine
 62
7
  6
CONTINUOUS
 10
60.6376545993
 20
319.3748223877
 11
60.6905526935
 21
319.0748223877
  0
LINE
  5
224
100
AcDbEntity
  8
0
100
AcDbLine
 62
7
  6
CONTINUOUS
 10
73.3610834858
 20
190.5748223877
 11
73.3610834858
 21
190.3748223877
  0
LINE
  5
225
100
AcDbEntity
  8
0
100
AcDbLine
 62
7
  6
CONTINUOUS
 10
56.5926909665
 20
319.0748223877
 11
56.4908150344
 21
319.4313909287
  0
LINE
  5
226
100
AcDbEntity
  8
0
100
AcDbLine
 62
7
  6
CONTINUOUS
 10
56.8339801119
 20
319.6297666133
 11
56.849678462
 21
319.5748223877
  0
LINE
  5
227
100
AcDbEntity
  8
0
100
AcDbLine
 62
7
  6
CONTINUOUS
 10
56.8754246189
 20
319.4847108388
 11
56.9925356049
 21
319.0748223877
  0
LINE
  5
228
100
AcDbEntity
  8
0
100
AcDbLine
 62
7
  6
CONTINUOUS
 10
61.9843706361
 20
323.5851189991
 11
62.6296136651
 21
320.2656313831
  0
LINE
  5
229
100
AcDbEntity
  8
0
100
AcDbLine
 62
7
  6
CONTINUOUS
 10
64.1020544403
 20
320.5518448761
 11
63.5124456786
 21
323.5851189991
  0
LINE
  5
22A
100
AcDbEntity
  8
0
100
AcDbLine
 62
7
  6
CONTINUOUS
 10
64.3981438445
 20
319.9564403785
 11
63.6928001724
 21
323.5851189991
  0
LINE
  5
22B
100
AcDbEntity
  8
0
100
AcDbLine
 62
7
  6
CONTINUOUS
 10
64.6744273559
 20
323.5851189991
 11
65.379771028
 21
319.9564403785
  0
LINE
  5
22C
100
AcDbEntity
  8
0
100
AcDbLine
 62
7
  6
CONTINUOUS
 10
329.3610834858
 20
190.3748223877
 11
316.3610834858
 21
190.3748223877
  0
LINE
  5
22D
100
AcDbEntity
  8
0
100
AcDbLine
 62
7
  6
CONTINUOUS
 10
73.3610834858
 20
190.3748223877
 11
60.3610834858
 21
190.3748223877
  0
LINE
  5
22E
100
AcDbEntity
  8
0
100
AcDbLine
 62
7
  6
CONTINUOUS
 10
47.0610834858
 20
190.5748223877
 11
342.6610834858
 21
190.5748223877
  0
LINE
  5
22F
100
AcDbEntity
  8
0
100
AcDbLine
 62
7
  6
CONTINUOUS
 10
344.8610834858
 20
192.7748223877
 11
44.8610834858
 21
192.7748223877
  0
LINE
  5
230
100
AcDbEntity
  8
0
100
AcDbLine
 62
7
  6
CONTINUOUS
 10
60.469834673
 20
319.5748223877
 11
60.6376545993
 21
319.3748223877
  0
LINE
  5
231
100
AcDbEntity
  8
0
100
AcDbLine
 62
7
  6
CONTINUOUS
 10
53.3391300153
 20
339.5659669548
 11
52.765553579
 21
340.3851189991
  0
LINE
  5
232
100
AcDbEntity
  8
0
100
AcDbLine
 62
7
  6
CONTINUOUS
 10
56.7135517651
 20
342.7144734702
 11
56.5091387287
 21
343.0064055408
  0
LWPOLYLINE
  5
233
100
AcDbEntity
  8
0
100
AcDbPolyline
 62
7
  6
CONTINUOUS
 90
4
 70
0
 10
305.7900193125
 20
349.5502945041
 10
305.7821138044
 20
349.5474003696
 10
305.7263540544
 20
349.5277719149
 10
305.5967236349
 20
349.4849225458
  0
LINE
  5
234
100
AcDbEntity
  8
0
100
AcDbLine
 62
7
  6
CONTINUOUS
 10
305.7900341523
 20
349.5502930934
 11
305.5967236349
 21
349.4849225458
  0
LINE
  5
235
100
AcDbEntity
  8
0
100
AcDbLine
 62
7
  6
CONTINUOUS
 10
44.8610834858
 20
314.3748223877
 11
344.8610834858
 21
314.3748223877
  0
LINE
  5
236
100
AcDbEntity
  8
0
100
AcDbLine
 62
7
  6
CONTINUOUS
 10
341.6610834858
 20
317.5748223877
 11
48.0610834858
 21
317.5748223877
  0
LINE
  5
237
100
AcDbEntity
  8
0
100
AcDbLine
 62
7
  6
CONTINUOUS
 10
47.7979760621
 20
317.5748223877
 11
47.3610834858
 21
317.5748223877
  0
LINE
  5
238
100
AcDbEntity
  8
0
100
AcDbLine
 62
7
  6
CONTINUOUS
 10
328.8610834858
 20
317.7748223877
 11
338.8610834858
 21
317.7748223877
  0
LINE
  5
239
100
AcDbEntity
  8
0
100
AcDbLine
 62
7
  6
CONTINUOUS
 10
333.1110834857
 20
318.7748223877
 11
334.6110834859
 21
318.7748223877
  0
LINE
  5
23A
100
AcDbEntity
  8
0
100
AcDbLine
 62
7
  6
CONTINUOUS
 10
49.1610834858
 20
319.0748223877
 11
61.6479864817
 21
319.0748223877
  0
LINE
  5
23B
100
AcDbEntity
  8
0
100
AcDbLine
 62
7
  6
CONTINUOUS
 10
56.9068213192
 20
319.3748223877
 11
60.6376545993
 21
319.3748223877
  0
LINE
  5
23C
100
AcDbEntity
  8
0
100
AcDbLine
 62
7
  6
CONTINUOUS
 10
50.7486314398
 20
319.4313978085
 11
56.4908150344
 21
319.4313909287
  0
LINE
  5
23D
100
AcDbEntity
  8
0
100
AcDbLine
 62
7
  6
CONTINUOUS
 10
56.8135874531
 20
319.5748223877
 11
60.469834673
 21
319.5748223877
  0
LINE
  5
23E
100
AcDbEntity
  8
0
100
AcDbLine
 62
7
  6
CONTINUOUS
 10
56.6416753224
 20
319.7748223877
 11
50.7489510455
 21
319.7748223877
  0
LINE
  5
23F
100
AcDbEntity
  8
0
100
AcDbLine
 62
7
  6
CONTINUOUS
 10
324.3423959436
 20
319.9564403785
 11
65.379771028
 21
319.9564403785
  0
LINE
  5
240
100
AcDbEntity
  8
0
100
AcDbLine
 62
7
  6
CONTINUOUS
 10
341.4438739167
 20
323.5851189991
 11
49.2273804845
 21
323.5851189991
  0
LINE
  5
241
100
AcDbEntity
  8
0
100
AcDbLine
 62
7
  6
CONTINUOUS
 10
343.3356272006
 20
324.6851189991
 11
47.3356272006
 21
324.6851189991
  0
LINE
  5
242
100
AcDbEntity
  8
0
100
AcDbLine
 62
7
  6
CONTINUOUS
 10
277.4103436087
 20
345.7247169859
 11
277.3356272006
 21
343.5851189991
  0
LINE
  5
243
100
AcDbEntity
  8
0
100
AcDbLine
 62
7
  6
CONTINUOUS
 10
333.957702636
 20
342.7144734702
 11
334.1621156724
 21
343.0064055407
  0
LINE
  5
244
100
AcDbEntity
  8
0
100
AcDbLine
 62
7
  6
CONTINUOUS
 10
337.9057008222
 20
340.385118999
 11
337.3321243859
 21
339.5659669548
  0
LINE
  5
245
100
AcDbEntity
  8
0
100
AcDbLine
 62
7
  6
CONTINUOUS
 10
65.3797710279
 20
320.1472493738
 11
64.3981438301
 21
319.9564403757
  0
LINE
  5
246
100
AcDbEntity
  8
0
100
AcDbLine
 62
7
  6
CONTINUOUS
 10
54.5090003746
 20
340.3851189991
 11
336.1622540266
 21
340.3851189991
  0
LINE
  5
247
100
AcDbEntity
  8
0
100
AcDbLine
 62
7
  6
CONTINUOUS
 10
332.3266710762
 20
343.5851189991
 11
58.344583325
 21
343.5851189991
  0
LINE
  5
248
100
AcDbEntity
  8
0
100
AcDbLine
 62
7
  6
CONTINUOUS
 10
281.7146965285
 20
344.423734283
 11
304.9565667898
 21
344.423734283
  0
LINE
  5
249
100
AcDbEntity
  8
0
100
AcDbLine
 62
7
  6
CONTINUOUS
 10
281.7943452071
 20
345.166186191
 11
304.8769168144
 21
345.166186191
  0
LINE
  5
24A
100
AcDbEntity
  8
0
100
AcDbLine
 62
7
  6
CONTINUOUS
 10
277.4103436149
 20
345.724717164
 11
278.7677188875
 21
345.724717164
  0
LINE
  5
24B
100
AcDbEntity
  8
0
100
AcDbLine
 62
7
  6
CONTINUOUS
 10
307.9035357805
 20
345.724717164
 11
309.2609107863
 21
345.724717164
  0
LINE
  5
24C
100
AcDbEntity
  8
0
100
AcDbLine
 62
7
  6
CONTINUOUS
 10
325.3240231415
 20
319.9564403756
 11
324.3423959436
 21
320.1472493738
  0
LWPOLYLINE
  5
24D
100
AcDbEntity
  8
0
100
AcDbPolyline
 62
7
  6
CONTINUOUS
 90
3
 70
0
 10
305.7900800277
 20
349.5505833893
 10
305.7699151035
 20
349.5522201141
 10
305.7052837166
 20
349.5435490988
  0
LWPOLYLINE
  5
24E
100
AcDbEntity
  8
0
100
AcDbPolyline
 62
7
  6
CONTINUOUS
 90
3
 70
0
 10
280.9659706846
 20
349.5435490988
 10
280.9012493961
 20
349.5522173609
 10
280.8811743734
 20
349.5505833893
  0
LINE
  5
24F
100
AcDbEntity
  8
0
100
AcDbLine
 62
7
  6
CONTINUOUS
 10
281.5550553414
 20
349.3573079276
 11
281.5497914598
 21
349.3583847291
  0
LINE
  5
250
100
AcDbEntity
  8
0
100
AcDbLine
 62
7
  6
CONTINUOUS
 10
281.5537536093
 20
349.3574929571
 11
281.5497914598
 21
349.3583847291
  0
LINE
  5
251
100
AcDbEntity
  8
0
100
AcDbLine
 62
7
  6
CONTINUOUS
 10
285.8828336965
 20
349.5692347345
 11
285.8843145809
 21
349.5688690484
  0
LINE
  5
252
100
AcDbEntity
  8
0
100
AcDbLine
 62
7
  6
CONTINUOUS
 10
286.0501381544
 20
349.5178899628
 11
285.8838687423
 21
349.5671870061
  0
LINE
  5
253
100
AcDbEntity
  8
0
100
AcDbLine
 62
7
  6
CONTINUOUS
 10
286.050503626
 20
349.5178816013
 11
285.8965503007
 21
349.565380787
  0
LWPOLYLINE
  5
254
100
AcDbEntity
  8
0
100
AcDbPolyline
 62
7
  6
CONTINUOUS
 90
4
 70
0
 10
281.0881627207
 20
349.4806614007
 10
280.9931360208
 20
349.5116629671
 10
280.9218001034
 20
349.5357253954
 10
280.884910969
 20
349.5489344171
  0
LINE
  5
255
100
AcDbEntity
  8
0
100
AcDbLine
 62
7
  6
CONTINUOUS
 10
281.0881627207
 20
349.4806614007
 11
280.884910969
 21
349.5489344171
  0
LINE
  5
256
100
AcDbEntity
  8
0
100
AcDbLine
 62
7
  6
CONTINUOUS
 10
300.8419567267
 20
349.5739933475
 11
300.8942432478
 21
349.5578582626
  0
LINE
  5
257
100
AcDbEntity
  8
0
100
AcDbLine
 62
7
  6
CONTINUOUS
 10
295.8370748532
 20
349.5746017909
 11
295.8395520476
 21
349.5738233265
  0
LINE
  5
258
100
AcDbEntity
  8
0
100
AcDbLine
 62
7
  6
CONTINUOUS
 10
285.8963997485
 20
349.5654289014
 11
285.8965503007
 21
349.565380787
  0
LINE
  5
259
100
AcDbEntity
  8
0
100
AcDbLine
 62
7
  6
CONTINUOUS
 10
295.8370748532
 20
349.5746017909
 11
295.8385845075
 21
349.5741170208
  0
LINE
  5
25A
100
AcDbEntity
  8
0
100
AcDbLine
 62
7
  6
CONTINUOUS
 10
280.884910969
 20
349.5489344171
 11
280.881220229
 21
349.550293092
  0
LINE
  5
25B
100
AcDbEntity
  8
0
100
AcDbLine
 62
7
  6
CONTINUOUS
 10
309.2609107925
 20
345.7247169859
 11
309.3356272006
 21
343.5851189991
  0
LINE
  5
25C
100
AcDbEntity
  8
0
100
AcDbLine
 62
7
  6
CONTINUOUS
 10
316.3610834858
 20
190.3748223877
 11
316.3610834858
 21
190.5748223877
  0
LINE
  5
25D
100
AcDbEntity
  8
0
100
AcDbLine
 62
7
  6
CONTINUOUS
 10
324.3423959436
 20
319.9564403785
 11
325.0477396156
 21
323.5851189991
  0
LINE
  5
25E
100
AcDbEntity
  8
0
100
AcDbLine
 62
7
  6
CONTINUOUS
 10
326.0293667991
 20
323.5851189991
 11
325.3240231271
 21
319.9564403785
  0
LINE
  5
25F
100
AcDbEntity
  8
0
100
AcDbLine
 62
7
  6
CONTINUOUS
 10
328.8610834858
 20
317.5748223877
 11
328.8610834858
 21
317.7748223877
  0
LINE
  5
260
100
AcDbEntity
  8
0
100
AcDbLine
 62
7
  6
CONTINUOUS
 10
329.3610834858
 20
190.5748223877
 11
329.3610834858
 21
190.3748223877
  0
LINE
  5
261
100
AcDbEntity
  8
0
100
AcDbLine
 62
7
  6
CONTINUOUS
 10
338.8610834858
 20
317.7748223877
 11
338.8610834858
 21
317.5748223877
  0
LINE
  5
262
100
AcDbEntity
  8
0
100
AcDbLine
 62
7
  6
CONTINUOUS
 10
342.3356272006
 20
324.6851189991
 11
342.3356272006
 21
334.9172290552
  0
LINE
  5
263
100
AcDbEntity
  8
0
100
AcDbLine
 62
7
  6
CONTINUOUS
 10
343.3356272006
 20
324.6851189991
 11
343.3356272006
 21
334.9172290552
  0
LINE
  5
264
100
AcDbEntity
  8
0
100
AcDbLine
 62
7
  6
CONTINUOUS
 10
341.3974953606
 20
336.7193635526
 11
336.1622540266
 21
340.3851189991
  0
LINE
  5
265
100
AcDbEntity
  8
0
100
AcDbLine
 62
7
  6
CONTINUOUS
 10
334.1621156725
 20
343.0064055408
 11
341.9710717969
 21
337.5385155969
  0
LINE
  5
266
100
AcDbEntity
  8
0
100
AcDbLine
 62
7
  6
CONTINUOUS
 10
344.8610834858
 20
314.3748223877
 11
344.8610834858
 21
192.7748223877
  0
ARC
  5
267
100
AcDbEntity
  8
0
100
AcDbCircle
 62
7
  6
CONTINUOUS
 10
133.4638587271
 20
258.0868003526
 40
104.9704396727
100
AcDbArc
 50
147.246584025
 51
147.5728135238
  0
ARC
  5
268
100
AcDbEntity
  8
0
100
AcDbCircle
 62
7
  6
CONTINUOUS
 10
112.6159625319
 20
279.9536574339
 40
61.8990573425
100
AcDbArc
 50
139.7943759783
 51
140.2012469891
  0
ARC
  5
269
100
AcDbEntity
  8
0
100
AcDbCircle
 62
7
  6
CONTINUOUS
 10
66.8610834858
 20
210.9998223877
 40
21.625
100
AcDbArc
 50
252.5076754749
 51
287.4923245251
  0
ARC
  5
26A
100
AcDbEntity
  8
0
100
AcDbCircle
 62
7
  6
CONTINUOUS
 10
47.0610834858
 20
192.7748223877
 40
2.2
100
AcDbArc
 50
180.0000000001
 51
259.7825756418
  0
ARC
  5
26B
100
AcDbEntity
  8
0
100
AcDbCircle
 62
7
  6
CONTINUOUS
 10
86.7969766187
 20
301.7328370862
 40
28.1211026147
100
AcDbArc
 50
139.6060006625
 51
139.7260646507
  0
ARC
  5
26C
100
AcDbEntity
  8
0
100
AcDbCircle
 62
7
  6
CONTINUOUS
 10
61.0226835819
 20
337.3792342688
 40
6.8442417296
100
AcDbArc
 50
128.5573764598
 51
129.1580347499
  0
CIRCLE
  5
26D
100
AcDbEntity
  8
0
100
AcDbCircle
 62
7
  6
CONTINUOUS
 10
59.8610834858
 20
302.5748223877
 40
5.15
  0
ARC
  5
26E
100
AcDbEntity
  8
0
100
AcDbCircle
 62
7
  6
CONTINUOUS
 10
50.5356272006
 20
334.9172290552
 40
3.2
100
AcDbArc
 50
124.9999999996
 51
180.0
  0
ARC
  5
26F
100
AcDbEntity
  8
0
100
AcDbCircle
 62
7
  6
CONTINUOUS
 10
58.344583325
 20
340.3851189991
 40
3.2
100
AcDbArc
 50
90.0
 51
125.0000000002
  0
ARC
  5
270
100
AcDbEntity
  8
0
100
AcDbCircle
 62
7
  6
CONTINUOUS
 10
48.0610834858
 20
314.3748223877
 40
3.2
100
AcDbArc
 50
90.0
 51
180.0
  0
ARC
  5
271
100
AcDbEntity
  8
0
100
AcDbCircle
 62
7
  6
CONTINUOUS
 10
61.6479864817
 20
320.0748223877
 40
2.5
100
AcDbArc
 50
270.0
 51
11.0
  0
ARC
  5
272
100
AcDbEntity
  8
0
100
AcDbCircle
 62
7
  6
CONTINUOUS
 10
49.1610834858
 20
316.9548223877
 40
2.12
100
AcDbArc
 50
90.0
 51
148.1092081982
  0
ARC
  5
273
100
AcDbEntity
  8
0
100
AcDbCircle
 62
7
  6
CONTINUOUS
 10
50.4377461765
 20
334.9681826913
 40
2.0896507005
100
AcDbArc
 50
143.1305904437
 51
161.8694095602
  0
ARC
  5
274
100
AcDbEntity
  8
0
100
AcDbCircle
 62
7
  6
CONTINUOUS
 10
50.7489510438
 20
317.7748223877
 40
2.0
100
AcDbArc
 50
90.0000000004
 51
131.1859251657
  0
ARC
  5
275
100
AcDbEntity
  8
0
100
AcDbCircle
 62
7
  6
CONTINUOUS
 10
62.4348894776
 20
319.5748223877
 40
2.0
100
AcDbArc
 50
270.0
 51
11.0
  0
ARC
  5
276
100
AcDbEntity
  8
0
100
AcDbCircle
 62
7
  6
CONTINUOUS
 10
50.7489880296
 20
317.8313219798
 40
1.6000758685
100
AcDbArc
 50
90.012768828
 51
128.9995499935
  0
ARC
  5
277
100
AcDbEntity
  8
0
100
AcDbCircle
 62
7
  6
CONTINUOUS
 10
48.4356272006
 20
324.6851189991
 40
1.1
100
AcDbArc
 50
180.0
 51
300.0256518487
  0
ARC
  5
278
100
AcDbEntity
  8
0
100
AcDbCircle
 62
7
  6
CONTINUOUS
 10
61.6479864817
 20
320.0748223877
 40
1.0
100
AcDbArc
 50
270.0
 51
11.0
  0
ARC
  5
279
100
AcDbEntity
  8
0
100
AcDbCircle
 62
7
  6
CONTINUOUS
 10
56.4908150398
 20
319.3748223877
 40
0.4
100
AcDbArc
 50
15.9453959009
 51
90.0
  0
ARC
  5
27A
100
AcDbEntity
  8
0
100
AcDbCircle
 62
7
  6
CONTINUOUS
 10
56.6416753224
 20
319.5748223877
 40
0.2
100
AcDbArc
 50
15.9453959009
 51
90.0
  0
ARC
  5
27B
100
AcDbEntity
  8
0
100
AcDbCircle
 62
7
  6
CONTINUOUS
 10
256.2500403071
 20
258.0815362813
 40
104.9802411593
100
AcDbArc
 50
32.427191808
 51
32.7533693828
  0
ARC
  5
27C
100
AcDbEntity
  8
0
100
AcDbCircle
 62
7
  6
CONTINUOUS
 10
277.0967691526
 20
279.9457568474
 40
61.9113635664
100
AcDbArc
 50
39.7987812746
 51
40.2054951276
  0
ARC
  5
27D
100
AcDbEntity
  8
0
100
AcDbCircle
 62
7
  6
CONTINUOUS
 10
322.8610834858
 20
210.9998223877
 40
21.625
100
AcDbArc
 50
252.5076754749
 51
287.4923245251
  0
ARC
  5
27E
100
AcDbEntity
  8
0
100
AcDbCircle
 62
7
  6
CONTINUOUS
 10
342.6610834858
 20
192.7748223877
 40
2.2
100
AcDbArc
 50
270.0
 51
359.9999999999
  0
ARC
  5
27F
100
AcDbEntity
  8
0
100
AcDbCircle
 62
7
  6
CONTINUOUS
 10
302.9231323162
 20
301.7310883931
 40
28.1238032515
100
AcDbArc
 50
40.2737751318
 51
40.3939955179
  0
ARC
  5
280
100
AcDbEntity
  8
0
100
AcDbCircle
 62
7
  6
CONTINUOUS
 10
283.2575704861
 20
357.5411525226
 40
8.3708500648
100
AcDbArc
 50
280.8383497183
 51
281.0051371635
  0
ARC
  5
281
100
AcDbEntity
  8
0
100
AcDbCircle
 62
7
  6
CONTINUOUS
 10
293.3352576774
 20
357.2058131549
 40
8.0317344853
100
AcDbArc
 50
263.6848950898
 51
270.0025187169
  0
ARC
  5
282
100
AcDbEntity
  8
0
100
AcDbCircle
 62
7
  6
CONTINUOUS
 10
283.3356272006
 20
357.1976189991
 40
8.0125
100
AcDbArc
 50
252.7977724507
 51
287.7229302363
  0
ARC
  5
283
100
AcDbEntity
  8
0
100
AcDbCircle
 62
7
  6
CONTINUOUS
 10
288.3356272006
 20
357.1976189991
 40
8.0125
100
AcDbArc
 50
253.4295051457
 51
287.7228173543
  0
ARC
  5
284
100
AcDbEntity
  8
0
100
AcDbCircle
 62
7
  6
CONTINUOUS
 10
292.7838003349
 20
355.3994550434
 40
6.142464387
100
AcDbArc
 50
251.4943731701
 51
251.7892637277
  0
ARC
  5
285
100
AcDbEntity
  8
0
100
AcDbCircle
 62
7
  6
CONTINUOUS
 10
281.4079069168
 20
345.5851189991
 40
4.0
100
AcDbArc
 50
97.565987854
 51
177.9999974478
  0
ARC
  5
286
100
AcDbEntity
  8
0
100
AcDbCircle
 62
7
  6
CONTINUOUS
 10
287.0244666804
 20
352.5409751324
 40
3.18992293
100
AcDbArc
 50
251.9115783655
 51
253.485052359
  0
ARC
  5
287
100
AcDbEntity
  8
0
100
AcDbCircle
 62
7
  6
CONTINUOUS
 10
286.0565111743
 20
348.7714991238
 40
0.8341253228
100
AcDbArc
 50
105.8077839117
 51
106.2020505494
  0
ARC
  5
288
100
AcDbEntity
  8
0
100
AcDbCircle
 62
7
  6
CONTINUOUS
 10
291.0149832414
 20
348.9004318293
 40
0.6979898365
100
AcDbArc
 50
105.0114257272
 51
105.2106555994
  0
ARC
  5
289
100
AcDbEntity
  8
0
100
AcDbCircle
 62
7
  6
CONTINUOUS
 10
285.8356272006
 20
349.3748857012
 40
0.2
100
AcDbArc
 50
72.3102861092
 51
75.9105217289
  0
ARC
  5
28A
100
AcDbEntity
  8
0
100
AcDbCircle
 62
7
  6
CONTINUOUS
 10
285.8356272006
 20
349.3748857012
 40
0.2
100
AcDbArc
 50
76.3475082916
 51
107.7221981833
  0
ARC
  5
28B
100
AcDbEntity
  8
0
100
AcDbCircle
 62
7
  6
CONTINUOUS
 10
290.8356272006
 20
349.3748857012
 40
0.2
100
AcDbArc
 50
72.2770875914
 51
107.7267205523
  0
ARC
  5
28C
100
AcDbEntity
  8
0
100
AcDbCircle
 62
7
  6
CONTINUOUS
 10
290.837083405
 20
349.3786926786
 40
0.1959305464
100
AcDbArc
 50
72.34416522
 51
90.8442460257
  0
ARC
  5
28D
100
AcDbEntity
  8
0
100
AcDbCircle
 62
7
  6
CONTINUOUS
 10
290.8340034202
 20
349.3793216072
 40
0.1952804438
100
AcDbArc
 50
89.9433505262
 51
107.6582057358
  0
ARC
  5
28E
100
AcDbEntity
  8
0
100
AcDbCircle
 62
7
  6
CONTINUOUS
 10
285.8338970708
 20
349.3806030214
 40
0.1940273499
100
AcDbArc
 50
101.4912698631
 51
107.7380134179
  0
ARC
  5
28F
100
AcDbEntity
  8
0
100
AcDbCircle
 62
7
  6
CONTINUOUS
 10
285.8380810341
 20
349.3842927428
 40
0.1902796389
100
AcDbArc
 50
76.3969287583
 51
82.6220551694
  0
ARC
  5
290
100
AcDbEntity
  8
0
100
AcDbCircle
 62
7
  6
CONTINUOUS
 10
284.6400706893
 20
369.7564588203
 40
20.6523974988
100
AcDbArc
 50
263.5256001936
 51
263.6626078801
  0
ARC
  5
291
100
AcDbEntity
  8
0
100
AcDbCircle
 62
7
  6
CONTINUOUS
 10
293.3361223688
 20
357.2055877797
 40
8.0315091186
100
AcDbArc
 50
269.9963501879
 51
276.3178805097
  0
ARC
  5
292
100
AcDbEntity
  8
0
100
AcDbCircle
 62
7
  6
CONTINUOUS
 10
298.3356272006
 20
357.1976189991
 40
8.0125
100
AcDbArc
 50
252.2771421059
 51
287.7229236181
  0
ARC
  5
293
100
AcDbEntity
  8
0
100
AcDbCircle
 62
7
  6
CONTINUOUS
 10
303.3356272006
 20
357.1976189991
 40
8.0125
100
AcDbArc
 50
252.2771274623
 51
287.2022275492
  0
ARC
  5
294
100
AcDbEntity
  8
0
100
AcDbCircle
 62
7
  6
CONTINUOUS
 10
293.3356272006
 20
357.1976189991
 40
8.0125
100
AcDbArc
 50
252.2770898568
 51
287.7229128634
  0
ARC
  5
295
100
AcDbEntity
  8
0
100
AcDbCircle
 62
7
  6
CONTINUOUS
 10
303.3796993785
 20
357.060799605
 40
7.8861774483
100
AcDbArc
 50
276.7492484647
 51
277.1404837661
  0
ARC
  5
296
100
AcDbEntity
  8
0
100
AcDbCircle
 62
7
  6
CONTINUOUS
 10
298.8754287343
 20
355.3183558189
 40
6.0706113749
100
AcDbArc
 50
287.1560848326
 51
288.4380286539
  0
ARC
  5
297
100
AcDbEntity
  8
0
100
AcDbCircle
 62
7
  6
CONTINUOUS
 10
294.0621697791
 20
354.8680369345
 40
5.5830765391
100
AcDbArc
 50
288.2144127532
 51
288.5364607607
  0
ARC
  5
298
100
AcDbEntity
  8
0
100
AcDbCircle
 62
7
  6
CONTINUOUS
 10
305.2633474844
 20
345.5851189991
 40
4.0
100
AcDbArc
 50
2.0000025522
 51
82.4340121461
  0
ARC
  5
299
100
AcDbEntity
  8
0
100
AcDbCircle
 62
7
  6
CONTINUOUS
 10
300.8356272006
 20
349.3748857012
 40
0.2
100
AcDbArc
 50
72.2754902646
 51
107.7229124086
  0
ARC
  5
29A
100
AcDbEntity
  8
0
100
AcDbCircle
 62
7
  6
CONTINUOUS
 10
295.8356272006
 20
349.3748857012
 40
0.2
100
AcDbArc
 50
72.2749036063
 51
107.7229124086
  0
ARC
  5
29B
100
AcDbEntity
  8
0
100
AcDbCircle
 62
7
  6
CONTINUOUS
 10
300.8345437932
 20
349.3774237985
 40
0.1972527175
100
AcDbArc
 50
88.4206564724
 51
107.6497521199
  0
ARC
  5
29C
100
AcDbEntity
  8
0
100
AcDbCircle
 62
7
  6
CONTINUOUS
 10
295.8341757598
 20
349.3786573178
 40
0.1959656872
100
AcDbArc
 50
89.1525947862
 51
107.6541215204
  0
ARC
  5
29D
100
AcDbEntity
  8
0
100
AcDbCircle
 62
7
  6
CONTINUOUS
 10
300.8371759348
 20
349.3792542202
 40
0.1953674915
100
AcDbArc
 50
72.3518122269
 51
89.1775230065
  0
ARC
  5
29E
100
AcDbEntity
  8
0
100
AcDbCircle
 62
7
  6
CONTINUOUS
 10
295.8372531032
 20
349.3793266051
 40
0.1952750493
100
AcDbArc
 50
72.3451312148
 51
90.0525540645
  0
ARC
  5
29F
100
AcDbEntity
  8
0
100
AcDbCircle
 62
7
  6
CONTINUOUS
 10
299.9824562791
 20
362.4740394459
 40
13.549157606
100
AcDbArc
 50
252.1913040584
 51
252.3781102938
  0
ARC
  5
2A0
100
AcDbEntity
  8
0
100
AcDbCircle
 62
7
  6
CONTINUOUS
 10
298.7120046015
 20
358.4763678005
 40
9.3544674483
100
AcDbArc
 50
252.3818132865
 51
252.9820913828
  0
ARC
  5
2A1
100
AcDbEntity
  8
0
100
AcDbCircle
 62
7
  6
CONTINUOUS
 10
333.8610834858
 20
306.0560723877
 40
12.7408438324
100
AcDbArc
 50
66.8936731417
 51
86.6252870279
  0
ARC
  5
2A2
100
AcDbEntity
  8
0
100
AcDbCircle
 62
7
  6
CONTINUOUS
 10
333.8610834858
 20
306.0560723877
 40
12.7408438324
100
AcDbArc
 50
93.3747129725
 51
113.1063268583
  0
ARC
  5
2A3
100
AcDbEntity
  8
0
100
AcDbCircle
 62
7
  6
CONTINUOUS
 10
340.1356272006
 20
334.9172290552
 40
3.2
100
AcDbArc
 50
0.0
 51
55.0
  0
ARC
  5
2A4
100
AcDbEntity
  8
0
100
AcDbCircle
 62
7
  6
CONTINUOUS
 10
341.6610834858
 20
314.3748223877
 40
3.2
100
AcDbArc
 50
0.0
 51
90.0
  0
ARC
  5
2A5
100
AcDbEntity
  8
0
100
AcDbCircle
 62
7
  6
CONTINUOUS
 10
340.2335082245
 20
334.9681826911
 40
2.0896507007
100
AcDbArc
 50
18.1305904361
 51
36.8694095553
  0
ARC
  5
2A6
100
AcDbEntity
  8
0
100
AcDbCircle
 62
7
  6
CONTINUOUS
 10
327.287277494
 20
319.5748223877
 40
2.0
100
AcDbArc
 50
168.9999999986
 51
270.0
  0
ARC
  5
2A7
100
AcDbEntity
  8
0
100
AcDbCircle
 62
7
  6
CONTINUOUS
 10
342.2356272006
 20
324.6851189991
 40
1.1
100
AcDbArc
 50
239.8358254547
 51
360.0
  0
ARC
  5
2A8
100
AcDbEntity
  8
0
100
AcDbCircle
 62
7
  6
CONTINUOUS
 10
329.6485708211
 20
337.3792342711
 40
6.8442417266
100
AcDbArc
 50
50.8419652495
 51
51.4426235399
  0
ARC
  5
2A9
100
AcDbEntity
  8
0
100
AcDbCircle
 62
7
  6
CONTINUOUS
 10
332.3266710762
 20
340.3851189991
 40
3.2
100
AcDbArc
 50
54.9999999998
 51
90.0
  0
SPLINE
  5
2AA
100
AcDbEntity
  8
0
100
AcDbSpline
 62
7
  6
CONTINUOUS
 70
0
 71
3
 72
9
 73
5
 74
0
 42
0.0000001
 43
0.0000001
 44
0.0000000001
 40
0.0
 40
0.0
 40
0.0
 40
0.0
 40
0.2436102654
 40
1.0
 40
1.0
 40
1.0
 40
1.0
 10
304.8769348425
 20
345.1661793494
 30
0.0
 10
304.8892239056
 20
345.1067523189
 30
0.0
 10
304.9330559515
 20
344.8614749243
 30
0.0
 10
304.9534983147
 20
344.6121295054
 30
0.0
 10
304.95655079
 20
344.423734274
 30
0.0
  0
SPLINE
  5
2AB
100
AcDbEntity
  8
0
100
AcDbSpline
 62
7
  6
CONTINUOUS
 70
0
 71
3
 72
9
 73
5
 74
0
 42
0.0000001
 43
0.0000001
 44
0.0000000001
 40
0.0
 40
0.0
 40
0.0
 40
0.0
 40
0.2221543976
 40
1.0
 40
1.0
 40
1.0
 40
1.0
 10
304.6309992556
 20
349.2707958493
 30
0.0
 10
304.6110003548
 20
349.2676930631
 30
0.0
 10
304.5209892281
 20
349.2537651268
 30
0.0
 10
304.4306463643
 20
349.2409697745
 30
0.0
 10
304.3599740014
 20
349.2357974891
 30
0.0
  0
SPLINE
  5
2AC
100
AcDbEntity
  8
0
100
AcDbSpline
 62
7
  6
CONTINUOUS
 70
0
 71
3
 72
9
 73
5
 74
0
 42
0.0000001
 43
0.0000001
 44
0.0000000001
 40
0.0
 40
0.0
 40
0.0
 40
0.0
 40
0.2199289246
 40
1.0
 40
1.0
 40
1.0
 40
1.0
 10
305.2171062541
 20
349.3788098809
 30
0.0
 10
305.2111167712
 20
349.3781613308
 30
0.0
 10
305.1839899854
 20
349.3741991416
 30
0.0
 10
305.1573880302
 20
349.3674439741
 30
0.0
 10
305.1366547763
 20
349.3622727593
 30
0.0
  0
SPLINE
  5
2AD
100
AcDbEntity
  8
0
100
AcDbSpline
 62
7
  6
CONTINUOUS
 70
0
 71
3
 72
9
 73
5
 74
0
 42
0.0000001
 43
0.0000001
 44
0.0000000001
 40
0.0
 40
0.0
 40
0.0
 40
0.0
 40
0.2101736906
 40
1.0
 40
1.0
 40
1.0
 40
1.0
 10
305.1366547763
 20
349.3622727593
 30
0.0
 10
305.1284578471
 20
349.3602283103
 30
0.0
 10
305.0894805086
 20
349.3504147879
 30
0.0
 10
305.0502949777
 20
349.3413624988
 30
0.0
 10
305.0191472606
 20
349.3352206311
 30
0.0
  0
SPLINE
  5
2AE
100
AcDbEntity
  8
0
100
AcDbSpline
 62
7
  6
CONTINUOUS
 70
0
 71
3
 72
9
 73
5
 74
0
 42
0.0000001
 43
0.0000001
 44
0.0000000001
 40
0.0
 40
0.0
 40
0.0
 40
0.0
 40
0.4370559571
 40
1.0
 40
1.0
 40
1.0
 40
1.0
 10
305.0191472606
 20
349.3352206311
 30
0.0
 10
304.9629089462
 20
349.3241312699
 30
0.0
 10
304.8332433514
 20
349.3041306392
 30
0.0
 10
304.7035977568
 20
349.2842344362
 30
0.0
 10
304.6309992556
 20
349.2707958493
 30
0.0
  0
SPLINE
  5
2AF
100
AcDbEntity
  8
0
100
AcDbSpline
 62
7
  6
CONTINUOUS
 70
0
 71
3
 72
11
 73
7
 74
0
 42
0.0000001
 43
0.0000001
 44
0.0000000001
 40
0.0
 40
0.0
 40
0.0
 40
0.0
 40
0.2422832541
 40
0.4976241
 40
0.7541595829
 40
1.0
 40
1.0
 40
1.0
 40
1.0
 10
307.9035357981
 20
345.7247170802
 30
0.0
 10
307.8902061063
 20
346.1125490513
 30
0.0
 10
307.7471955771
 20
346.9097351487
 30
0.0
 10
307.1864735026
 20
348.0005184536
 30
0.0
 10
306.3168092774
 20
348.8744766655
 30
0.0
 10
305.5899481976
 20
349.2521823926
 30
0.0
 10
305.2171061844
 20
349.3788099046
 30
0.0
  0
SPLINE
  5
2B0
100
AcDbEntity
  8
0
100
AcDbSpline
 62
7
  6
CONTINUOUS
 70
0
 71
3
 72
12
 73
8
 74
0
 42
0.0000001
 43
0.0000001
 44
0.0000000001
 40
0.0
 40
0.0
 40
0.0
 40
0.0
 40
0.2442949271
 40
0.3670590665
 40
0.4906888863
 40
0.7416918135
 40
1.0
 40
1.0
 40
1.0
 40
1.0
 10
304.8769145147
 20
345.1661962817
 30
0.0
 10
305.0768914978
 20
345.150603654
 30
0.0
 10
305.3747856257
 20
345.0638993839
 30
0.0
 10
305.7232983
 20
344.8598034017
 30
0.0
 10
306.0380992286
 20
344.5968731737
 30
0.0
 10
306.3564134507
 20
344.1763020542
 30
0.0
 10
306.5154425365
 20
343.7861967503
 30
0.0
 10
306.582895056
 20
343.5851189829
 30
0.0
  0
SPLINE
  5
2B1
100
AcDbEntity
  8
0
100
AcDbSpline
 62
7
  6
CONTINUOUS
 70
0
 71
3
 72
8
 73
4
 74
0
 42
0.0000001
 43
0.0000001
 44
0.0000000001
 40
0.0
 40
0.0
 40
0.0
 40
0.0
 40
1.0
 40
1.0
 40
1.0
 40
1.0
 10
305.2171069562
 20
349.378811905
 30
0.0
 10
305.1834267156
 20
349.3900827216
 30
0.0
 10
305.1453404616
 20
349.3920306514
 30
0.0
 10
305.1106957301
 20
349.3842119242
 30
0.0
  0
LINE
  5
2B2
100
AcDbEntity
  8
0
100
AcDbLine
 62
7
  6
CONTINUOUS
 10
300.8399819845
 20
349.574601057
 11
300.8419567267
 21
349.5739933475
  0
SPLINE
  5
2B3
100
AcDbEntity
  8
0
100
AcDbSpline
 62
7
  6
CONTINUOUS
 70
0
 71
3
 72
10
 73
6
 74
0
 42
0.0000001
 43
0.0000001
 44
0.0000000001
 40
0.0
 40
0.0
 40
0.0
 40
0.0
 40
0.1751291739
 40
0.4732791165
 40
1.0
 40
1.0
 40
1.0
 40
1.0
 10
300.8928854588
 20
349.5582415903
 30
0.0
 10
301.0853421999
 20
349.4988067569
 30
0.0
 10
301.6101878866
 20
349.3526102703
 30
0.0
 10
302.7457053931
 20
349.1553260622
 30
0.0
 10
303.7049066703
 20
349.1580756658
 30
0.0
 10
304.3065174274
 20
349.2292733776
 30
0.0
  0
SPLINE
  5
2B4
100
AcDbEntity
  8
0
100
AcDbSpline
 62
7
  6
CONTINUOUS
 70
0
 71
3
 72
9
 73
5
 74
0
 42
0.0000001
 43
0.0000001
 44
0.0000000001
 40
0.0
 40
0.0
 40
0.0
 40
0.0
 40
0.2572031415
 40
1.0
 40
1.0
 40
1.0
 40
1.0
 10
304.3599718152
 20
349.2357848496
 30
0.0
 10
304.3553502398
 20
349.2376397215
 30
0.0
 10
304.3369935119
 20
349.2438295135
 30
0.0
 10
304.3170511644
 20
349.2454355332
 30
0.0
 10
304.3027742928
 20
349.2437008573
 30
0.0
  0
LINE
  5
2B5
100
AcDbEntity
  8
0
100
AcDbLine
 62
7
  6
CONTINUOUS
 10
290.6727005495
 20
349.5241067981
 11
290.7891808051
 21
349.5613468059
  0
SPLINE
  5
2B6
100
AcDbEntity
  8
0
100
AcDbSpline
 62
7
  6
CONTINUOUS
 70
0
 71
3
 72
9
 73
5
 74
0
 42
0.0000001
 43
0.0000001
 44
0.0000000001
 40
0.0
 40
0.0
 40
0.0
 40
0.0
 40
0.2730644799
 40
1.0
 40
1.0
 40
1.0
 40
1.0
 10
290.7891808051
 20
349.5613468059
 30
0.0
 10
290.793046536
 20
349.5625563385
 30
0.0
 10
290.8072164188
 20
349.5669429904
 30
0.0
 10
290.8214472106
 20
349.5711405314
 30
0.0
 10
290.8318525949
 20
349.5739694883
 30
0.0
  0
SPLINE
  5
2B7
100
AcDbEntity
  8
0
100
AcDbSpline
 62
7
  6
CONTINUOUS
 70
0
 71
3
 72
10
 73
6
 74
0
 42
0.0000001
 43
0.0000001
 44
0.0000000001
 40
0.0
 40
0.0
 40
0.0
 40
0.0
 40
0.5410804178
 40
0.813974773
 40
1.0
 40
1.0
 40
1.0
 40
1.0
 10
287.1967054103
 20
349.253121827
 30
0.0
 10
287.823303291
 20
349.1641298389
 30
0.0
 10
288.7870248947
 20
349.1437175915
 30
0.0
 10
289.9441895793
 20
349.3259519658
 30
0.0
 10
290.4646078446
 20
349.460529567
 30
0.0
 10
290.6727005495
 20
349.5241067981
 30
0.0
  0
SPLINE
  5
2B8
100
AcDbEntity
  8
0
100
AcDbSpline
 62
7
  6
CONTINUOUS
 70
0
 71
3
 72
9
 73
5
 74
0
 42
0.0000001
 43
0.0000001
 44
0.0000000001
 40
0.0
 40
0.0
 40
0.0
 40
0.0
 40
0.472116362
 40
1.0
 40
1.0
 40
1.0
 40
1.0
 10
286.7582469152
 20
349.3273908613
 30
0.0
 10
286.82690057
 20
349.3137110933
 30
0.0
 10
286.9719988548
 20
349.2827461557
 30
0.0
 10
287.1191904345
 20
349.2639830978
 30
0.0
 10
287.1967054103
 20
349.253121827
 30
0.0
  0
SPLINE
  5
2B9
100
AcDbEntity
  8
0
100
AcDbSpline
 62
7
  6
CONTINUOUS
 70
0
 71
3
 72
9
 73
5
 74
0
 42
0.0000001
 43
0.0000001
 44
0.0000000001
 40
0.0
 40
0.0
 40
0.0
 40
0.0
 40
0.2322449121
 40
1.0
 40
1.0
 40
1.0
 40
1.0
 10
286.3317636536
 20
349.4256228851
 30
0.0
 10
286.3646969054
 20
349.4176650788
 30
0.0
 10
286.5065640147
 20
349.3836674135
 30
0.0
 10
286.6487481093
 20
349.3509471667
 30
0.0
 10
286.7582469152
 20
349.3273908613
 30
0.0
  0
SPLINE
  5
2BA
100
AcDbEntity
  8
0
100
AcDbSpline
 62
7
  6
CONTINUOUS
 70
0
 71
3
 72
9
 73
5
 74
0
 42
0.0000001
 43
0.0000001
 44
0.0000000001
 40
0.0
 40
0.0
 40
0.0
 40
0.0
 40
0.2246170167
 40
1.0
 40
1.0
 40
1.0
 40
1.0
 10
286.1176817163
 20
349.4826505374
 30
0.0
 10
286.1335851084
 20
349.477931312
 30
0.0
 10
286.2045430411
 20
349.4574443428
 30
0.0
 10
286.2761115182
 20
349.4391179899
 30
0.0
 10
286.3317636536
 20
349.4256228851
 30
0.0
  0
SPLINE
  5
2BB
100
AcDbEntity
  8
0
100
AcDbSpline
 62
7
  6
CONTINUOUS
 70
0
 71
3
 72
9
 73
5
 74
0
 42
0.0000001
 43
0.0000001
 44
0.0000000001
 40
0.0
 40
0.0
 40
0.0
 40
0.0
 40
0.2246877821
 40
1.0
 40
1.0
 40
1.0
 40
1.0
 10
285.8292862889
 20
349.574078656
 30
0.0
 10
285.833575601
 20
349.5729375608
 30
0.0
 10
285.8526178661
 20
349.5676788408
 30
0.0
 10
285.8715011795
 20
349.5618625436
 30
0.0
 10
285.8861021896
 20
349.557238951
 30
0.0
  0
SPLINE
  5
2BC
100
AcDbEntity
  8
0
100
AcDbSpline
 62
7
  6
CONTINUOUS
 70
0
 71
3
 72
9
 73
5
 74
0
 42
0.0000001
 43
0.0000001
 44
0.0000000001
 40
0.0
 40
0.0
 40
0.0
 40
0.0
 40
0.2295787996
 40
1.0
 40
1.0
 40
1.0
 40
1.0
 10
285.8861021896
 20
349.557238951
 30
0.0
 10
285.8913911206
 20
349.5555641448
 30
0.0
 10
285.9144044662
 20
349.5481925476
 30
0.0
 10
285.9373483162
 20
349.5406065208
 30
0.0
 10
285.9550201259
 20
349.5347491926
 30
0.0
  0
LINE
  5
2BD
100
AcDbEntity
  8
0
100
AcDbLine
 62
7
  6
CONTINUOUS
 10
285.9550201259
 20
349.5347491926
 11
286.0340455569
 21
349.5087029979
  0
SPLINE
  5
2BE
100
AcDbEntity
  8
0
100
AcDbSpline
 62
7
  6
CONTINUOUS
 70
0
 71
3
 72
9
 73
5
 74
0
 42
0.0000001
 43
0.0000001
 44
0.0000000001
 40
0.0
 40
0.0
 40
0.0
 40
0.0
 40
0.21206805
 40
1.0
 40
1.0
 40
1.0
 40
1.0
 10
285.8292933479
 20
349.5738368775
 30
0.0
 10
285.831622702
 20
349.5741689386
 30
0.0
 10
285.8427112086
 20
349.5749287822
 30
0.0
 10
285.8538467141
 20
349.5741264988
 30
0.0
 10
285.8625155765
 20
349.5729969932
 30
0.0
  0
SPLINE
  5
2BF
100
AcDbEntity
  8
0
100
AcDbSpline
 62
7
  6
CONTINUOUS
 70
0
 71
3
 72
10
 73
6
 74
0
 42
0.0000001
 43
0.0000001
 44
0.0000000001
 40
0.0
 40
0.0
 40
0.0
 40
0.0
 40
0.4116035403
 40
0.6833858233
 40
1.0
 40
1.0
 40
1.0
 40
1.0
 10
305.5967236349
 20
349.4849225458
 30
0.0
 10
305.5451985118
 20
349.4684673352
 30
0.0
 10
305.4590601659
 20
349.442996358
 30
0.0
 10
305.332323381
 20
349.4082578522
 30
0.0
 10
305.2570833527
 20
349.3902875828
 30
0.0
 10
305.2170984559
 20
349.378785559
 30
0.0
  0
SPLINE
  5
2C0
100
AcDbEntity
  8
0
100
AcDbSpline
 62
7
  6
CONTINUOUS
 70
0
 71
3
 72
11
 73
7
 74
0
 42
0.0000001
 43
0.0000001
 44
0.0000000001
 40
0.0
 40
0.0
 40
0.0
 40
0.0
 40
0.2785908593
 40
0.5333636516
 40
0.7694316215
 40
1.0
 40
1.0
 40
1.0
 40
1.0
 10
305.8196856027
 20
343.5851185259
 30
0.0
 10
305.7873414657
 20
343.7009264319
 30
0.0
 10
305.7089450631
 20
343.9190311006
 30
0.0
 10
305.5209799526
 20
344.1989863648
 30
0.0
 10
305.2604730614
 20
344.3843314044
 30
0.0
 10
305.0560802611
 20
344.4236873281
 30
0.0
 10
304.9565669488
 20
344.4237157484
 30
0.0
  0
SPLINE
  5
2C1
100
AcDbEntity
  8
0
100
AcDbSpline
 62
7
  6
CONTINUOUS
 70
0
 71
3
 72
11
 73
7
 74
0
 42
0.0000001
 43
0.0000001
 44
0.0000000001
 40
0.0
 40
0.0
 40
0.0
 40
0.0
 40
0.2330708464
 40
0.5573662534
 40
0.8288863991
 40
1.0
 40
1.0
 40
1.0
 40
1.0
 10
295.9742270269
 20
349.5315013849
 30
0.0
 10
296.3276169257
 20
349.4234653069
 30
0.0
 10
297.1907602199
 20
349.2209356728
 30
0.0
 10
298.5106025005
 20
349.1336019697
 30
0.0
 10
299.7243237541
 20
349.2685198943
 30
0.0
 10
300.4069042558
 20
349.4377588096
 30
0.0
 10
300.6661120386
 20
349.5178579292
 30
0.0
  0
LINE
  5
2C2
100
AcDbEntity
  8
0
100
AcDbLine
 62
7
  6
CONTINUOUS
 10
300.7954341743
 20
349.5593713967
 11
300.8386405713
 21
349.5741301298
  0
LINE
  5
2C3
100
AcDbEntity
  8
0
100
AcDbLine
 62
7
  6
CONTINUOUS
 10
300.8386405713
 20
349.5741301298
 11
300.8399819845
 21
349.574601057
  0
SPLINE
  5
2C4
100
AcDbEntity
  8
0
100
AcDbSpline
 62
7
  6
CONTINUOUS
 70
0
 71
3
 72
11
 73
7
 74
0
 42
0.0000001
 43
0.0000001
 44
0.0000000001
 40
0.0
 40
0.0
 40
0.0
 40
0.0
 40
0.2305685385
 40
0.4666363882
 40
0.721409053
 40
1.0
 40
1.0
 40
1.0
 40
1.0
 10
281.7146963712
 20
344.4237157636
 30
0.0
 10
281.6151823165
 20
344.423688416
 30
0.0
 10
281.4107876278
 20
344.3843344886
 30
0.0
 10
281.1502774113
 20
344.198990137
 30
0.0
 10
280.9623101195
 20
343.9190335054
 30
0.0
 10
280.8839131377
 20
343.7009273741
 30
0.0
 10
280.8515687567
 20
343.5851186525
 30
0.0
  0
SPLINE
  5
2C5
100
AcDbEntity
  8
0
100
AcDbSpline
 62
7
  6
CONTINUOUS
 70
0
 71
3
 72
15
 73
11
 74
0
 42
0.0000001
 43
0.0000001
 44
0.0000000001
 40
0.0
 40
0.0
 40
0.0
 40
0.0
 40
0.2070581756
 40
0.3920123269
 40
0.5518542533
 40
0.6859433666
 40
0.7946954602
 40
0.8801491571
 40
0.9461473517
 40
1.0
 40
1.0
 40
1.0
 40
1.0
 10
279.6118302102
 20
343.5851178617
 30
0.0
 10
279.5972196511
 20
343.7510285515
 30
0.0
 10
279.560700209
 20
344.0644597465
 30
0.0
 10
279.4816520537
 20
344.5015904078
 30
0.0
 10
279.385314316
 20
344.8749904733
 30
0.0
 10
279.2765453866
 20
345.1806405
 30
0.0
 10
279.1594421454
 20
345.4182724509
 30
0.0
 10
279.0365076193
 20
345.5892077415
 30
0.0
 10
278.9079328096
 20
345.6972485287
 30
0.0
 10
278.8110391058
 20
345.7247174721
 30
0.0
 10
278.7677212906
 20
345.7247182929
 30
0.0
  0
SPLINE
  5
2C6
100
AcDbEntity
  8
0
100
AcDbSpline
 62
7
  6
CONTINUOUS
 70
0
 71
3
 72
9
 73
5
 74
0
 42
0.0000001
 43
0.0000001
 44
0.0000000001
 40
0.0
 40
0.0
 40
0.0
 40
0.0
 40
0.5834956017
 40
1.0
 40
1.0
 40
1.0
 40
1.0
 10
281.4541562079
 20
349.3787855468
 30
0.0
 10
281.3828971745
 20
349.3983644559
 30
0.0
 10
281.2597733223
 20
349.4282348
 30
0.0
 10
281.1384927826
 20
349.4648663103
 30
0.0
 10
281.0881627207
 20
349.4806614007
 30
0.0
  0
SPLINE
  5
2C7
100
AcDbEntity
  8
0
100
AcDbSpline
 62
7
  6
CONTINUOUS
 70
0
 71
3
 72
8
 73
4
 74
0
 42
0.0000001
 43
0.0000001
 44
0.0000000001
 40
0.0
 40
0.0
 40
0.0
 40
0.0
 40
1.0
 40
1.0
 40
1.0
 40
1.0
 10
281.4541561014
 20
349.3787855069
 30
0.0
 10
281.4877482392
 20
349.3900365213
 30
0.0
 10
281.525722826
 20
349.392015496
 30
0.0
 10
281.5602929274
 20
349.3842743638
 30
0.0
  0
SPLINE
  5
2C8
100
AcDbEntity
  8
0
100
AcDbSpline
 62
7
  6
CONTINUOUS
 70
0
 71
3
 72
9
 73
5
 74
0
 42
0.0000001
 43
0.0000001
 44
0.0000000001
 40
0.0
 40
0.0
 40
0.0
 40
0.0
 40
0.3565371941
 40
1.0
 40
1.0
 40
1.0
 40
1.0
 10
295.8072936423
 20
349.5647090789
 30
0.0
 10
295.6237676341
 20
349.5043115697
 30
0.0
 10
295.101998663
 20
349.3562681674
 30
0.0
 10
294.5665185613
 20
349.2612677517
 30
0.0
 10
294.2199457328
 20
349.2228567318
 30
0.0
  0
SPLINE
  5
2C9
100
AcDbEntity
  8
0
100
AcDbSpline
 62
7
  6
CONTINUOUS
 70
0
 71
3
 72
9
 73
5
 74
0
 42
0.0000001
 43
0.0000001
 44
0.0000000001
 40
0.0
 40
0.0
 40
0.0
 40
0.0
 40
0.6433191258
 40
1.0
 40
1.0
 40
1.0
 40
1.0
 10
292.4517962351
 20
349.2228153018
 30
0.0
 10
292.105241398
 20
349.2611420793
 30
0.0
 10
291.5696912169
 20
349.3562263459
 30
0.0
 10
291.0478336537
 20
349.5042331685
 30
0.0
 10
290.8642008415
 20
349.5646451468
 30
0.0
  0
SPLINE
  5
2CA
100
AcDbEntity
  8
0
100
AcDbSpline
 62
7
  6
CONTINUOUS
 70
0
 71
3
 72
13
 73
9
 74
0
 42
0.0000001
 43
0.0000001
 44
0.0000000001
 40
0.0
 40
0.0
 40
0.0
 40
0.0
 40
0.3399735307
 40
0.6246002839
 40
0.743265637
 40
0.8453563836
 40
0.930820441
 40
1.0
 40
1.0
 40
1.0
 40
1.0
 10
304.8769168144
 20
345.166186191
 30
0.0
 10
304.8562794983
 20
345.6324283575
 30
0.0
 10
304.8117435461
 20
346.4887040538
 30
0.0
 10
304.7267977543
 20
347.5059702615
 30
0.0
 10
304.6344429621
 20
348.1937090348
 30
0.0
 10
304.5592497608
 20
348.6075518591
 30
0.0
 10
304.4730145859
 20
348.9495259261
 30
0.0
 10
304.4003897862
 20
349.1498486868
 30
0.0
 10
304.3599717613
 20
349.2357845378
 30
0.0
  0
SPLINE
  5
2CB
100
AcDbEntity
  8
0
100
AcDbSpline
 62
7
  6
CONTINUOUS
 70
0
 71
3
 72
15
 73
11
 74
0
 42
0.0000001
 43
0.0000001
 44
0.0000000001
 40
0.0
 40
0.0
 40
0.0
 40
0.0
 40
0.0538526437
 40
0.1198508209
 40
0.2053044996
 40
0.3140565805
 40
0.4481456904
 40
0.6079876242
 40
0.7929417944
 40
1.0
 40
1.0
 40
1.0
 40
1.0
 10
307.903533377
 20
345.7247182882
 30
0.0
 10
307.860215561
 20
345.7247175159
 30
0.0
 10
307.7633218302
 20
345.6972486716
 30
0.0
 10
307.6347469698
 20
345.5892079564
 30
0.0
 10
307.5118124058
 20
345.4182727125
 30
0.0
 10
307.3947091277
 20
345.1806407784
 30
0.0
 10
307.285940162
 20
344.8749907356
 30
0.0
 10
307.1896023904
 20
344.5015906177
 30
0.0
 10
307.1105542075
 20
344.0644598679
 30
0.0
 10
307.0740347546
 20
343.7510286013
 30
0.0
 10
307.0594241916
 20
343.5851178701
 30
0.0
  0
SPLINE
  5
2CC
100
AcDbEntity
  8
0
100
AcDbSpline
 62
7
  6
CONTINUOUS
 70
0
 71
3
 72
13
 73
9
 74
0
 42
0.0000001
 43
0.0000001
 44
0.0000000001
 40
0.0
 40
0.0
 40
0.0
 40
0.0
 40
0.0691823748
 40
0.1546491362
 40
0.2567401167
 40
0.3754049118
 40
0.6600298206
 40
1.0
 40
1.0
 40
1.0
 40
1.0
 10
282.3113214863
 20
349.235775362
 30
0.0
 10
282.2709020831
 20
349.1498358132
 30
0.0
 10
282.198255039
 20
348.9495140262
 30
0.0
 10
282.111992808
 20
348.6075371038
 30
0.0
 10
282.0368042934
 20
348.1936895888
 30
0.0
 10
281.9444554506
 20
347.5059527136
 30
0.0
 10
281.8595061897
 20
346.4886939391
 30
0.0
 10
281.8149824247
 20
345.6324240884
 30
0.0
 10
281.7943452071
 20
345.166186191
 30
0.0
  0
SPLINE
  5
2CD
100
AcDbEntity
  8
0
100
AcDbSpline
 62
7
  6
CONTINUOUS
 70
0
 71
3
 72
10
 73
6
 74
0
 42
0.0000001
 43
0.0000001
 44
0.0000000001
 40
0.0
 40
0.0
 40
0.0
 40
0.0
 40
0.208408021
 40
0.4486733944
 40
1.0
 40
1.0
 40
1.0
 40
1.0
 10
282.3603978787
 20
349.2302654488
 30
0.0
 10
282.531686363
 20
349.2112516925
 30
0.0
 10
282.9013963068
 20
349.1767514109
 30
0.0
 10
283.7288397112
 20
349.1649701141
 30
0.0
 10
284.3838343431
 20
349.2338956393
 30
0.0
 10
284.8316146333
 20
349.3196249377
 30
0.0
  0
SPLINE
  5
2CE
100
AcDbEntity
  8
0
100
AcDbSpline
 62
7
  6
CONTINUOUS
 70
0
 71
3
 72
10
 73
6
 74
0
 42
0.0000001
 43
0.0000001
 44
0.0000000001
 40
0.0
 40
0.0
 40
0.0
 40
0.0
 40
0.6526801422
 40
0.8674921753
 40
1.0
 40
1.0
 40
1.0
 40
1.0
 10
284.8555407155
 20
349.3242417921
 30
0.0
 10
285.0637371488
 20
349.3647304435
 30
0.0
 10
285.3383518844
 20
349.4298875916
 30
0.0
 10
285.6509872174
 20
349.5186298163
 30
0.0
 10
285.7586327287
 20
349.552582891
 30
0.0
 10
285.7997798524
 20
349.5652749971
 30
0.0
  0
LINE
  5
2CF
100
AcDbEntity
  8
0
100
AcDbLine
 62
7
  6
CONTINUOUS
 10
285.7997798524
 20
349.5652749971
 11
285.823768961
 21
349.5724960753
  0
SPLINE
  5
2D0
100
AcDbEntity
  8
0
100
AcDbSpline
 62
7
  6
CONTINUOUS
 70
0
 71
3
 72
9
 73
5
 74
0
 42
0.0000001
 43
0.0000001
 44
0.0000000001
 40
0.0
 40
0.0
 40
0.0
 40
0.0
 40
0.7427863008
 40
1.0
 40
1.0
 40
1.0
 40
1.0
 10
282.3684810428
 20
349.2437018087
 30
0.0
 10
282.3542131238
 20
349.2454351322
 30
0.0
 10
282.334282167
 20
349.2438257546
 30
0.0
 10
282.3159394721
 20
349.2376315832
 30
0.0
 10
282.3113214614
 20
349.2357755061
 30
0.0
  0
SPLINE
  5
2D1
100
AcDbEntity
  8
0
100
AcDbSpline
 62
7
  6
CONTINUOUS
 70
0
 71
3
 72
9
 73
5
 74
0
 42
0.0000001
 43
0.0000001
 44
0.0000000001
 40
0.0
 40
0.0
 40
0.0
 40
0.0
 40
0.216669951
 40
1.0
 40
1.0
 40
1.0
 40
1.0
 10
285.8292933479
 20
349.5738368775
 30
0.0
 10
285.8268236572
 20
349.573973338
 30
0.0
 10
285.8153985785
 20
349.5741859373
 30
0.0
 10
285.8040072847
 20
349.5725176828
 30
0.0
 10
285.7952432097
 20
349.5707411069
 30
0.0
  0
LINE
  5
2D2
100
AcDbEntity
  8
0
100
AcDbLine
 62
7
  6
CONTINUOUS
 10
281.5497914598
 20
349.3583847291
 11
281.5156815004
 21
349.366976897
  0
SPLINE
  5
2D3
100
AcDbEntity
  8
0
100
AcDbSpline
 62
7
  6
CONTINUOUS
 70
0
 71
3
 72
9
 73
5
 74
0
 42
0.0000001
 43
0.0000001
 44
0.0000000001
 40
0.0
 40
0.0
 40
0.0
 40
0.0
 40
0.2634241113
 40
1.0
 40
1.0
 40
1.0
 40
1.0
 10
281.5156815004
 20
349.366976897
 30
0.0
 10
281.5129109628
 20
349.3676499838
 30
0.0
 10
281.5023868747
 20
349.3701761106
 30
0.0
 10
281.4918222839
 20
349.372544329
 30
0.0
 10
281.4840007311
 20
349.3740868544
 30
0.0
  0
SPLINE
  5
2D4
100
AcDbEntity
  8
0
100
AcDbSpline
 62
7
  6
CONTINUOUS
 70
0
 71
3
 72
8
 73
4
 74
0
 42
0.0000001
 43
0.0000001
 44
0.0000000001
 40
0.0
 40
0.0
 40
0.0
 40
0.0
 40
1.0
 40
1.0
 40
1.0
 40
1.0
 10
281.4840007311
 20
349.3740868544
 30
0.0
 10
281.4741165827
 20
349.3760361541
 30
0.0
 10
281.4641576888
 20
349.3776647319
 30
0.0
 10
281.4541484522
 20
349.3788098711
 30
0.0
  0
SPLINE
  5
2D5
100
AcDbEntity
  8
0
100
AcDbSpline
 62
7
  6
CONTINUOUS
 70
0
 71
3
 72
12
 73
8
 74
0
 42
0.0000001
 43
0.0000001
 44
0.0000000001
 40
0.0
 40
0.0
 40
0.0
 40
0.0
 40
0.1938307039
 40
0.3579347685
 40
0.6326986516
 40
0.8498011439
 40
1.0
 40
1.0
 40
1.0
 40
1.0
 10
282.3113192453
 20
349.2357883191
 30
0.0
 10
282.2617674311
 20
349.2379516401
 30
0.0
 10
282.1709208317
 20
349.2513272792
 30
0.0
 10
282.0107790262
 20
349.2745760855
 30
0.0
 10
281.8454778424
 20
349.3038693824
 30
0.0
 10
281.6826700554
 20
349.3269338226
 30
0.0
 10
281.5912363417
 20
349.3489942849
 30
0.0
 10
281.5537536093
 20
349.3574929571
 30
0.0
  0
SPLINE
  5
2D6
100
AcDbEntity
  8
0
100
AcDbSpline
 62
7
  6
CONTINUOUS
 70
0
 71
3
 72
13
 73
9
 74
0
 42
0.0000001
 43
0.0000001
 44
0.0000000001
 40
0.0
 40
0.0
 40
0.0
 40
0.0
 40
0.2580810894
 40
0.5088019243
 40
0.632386199
 40
0.7550038637
 40
0.8775045942
 40
1.0
 40
1.0
 40
1.0
 40
1.0
 10
280.0883486785
 20
343.5851189786
 30
0.0
 10
280.1551846331
 20
343.786428769
 30
0.0
 10
280.3153340826
 20
344.1761190993
 30
0.0
 10
280.6334105523
 20
344.5968974399
 30
0.0
 10
280.9478361874
 20
344.8599293758
 30
0.0
 10
281.210631903
 20
345.0139249399
 30
0.0
 10
281.4946414349
 20
345.1206199916
 30
0.0
 10
281.6939589563
 20
345.1585677453
 30
0.0
 10
281.7943475088
 20
345.1661963752
 30
0.0
  0
SPLINE
  5
2D7
100
AcDbEntity
  8
0
100
AcDbSpline
 62
7
  6
CONTINUOUS
 70
0
 71
3
 72
11
 73
7
 74
0
 42
0.0000001
 43
0.0000001
 44
0.0000000001
 40
0.0
 40
0.0
 40
0.0
 40
0.0
 40
0.2458414597
 40
0.5023773188
 40
0.7577177802
 40
1.0
 40
1.0
 40
1.0
 40
1.0
 10
281.4541485327
 20
349.3788098984
 30
0.0
 10
281.081304938
 20
349.2521818462
 30
0.0
 10
280.3544419346
 20
348.8744745161
 30
0.0
 10
279.484777806
 20
348.000513763
 30
0.0
 10
278.924058127
 20
346.9097311909
 30
0.0
 10
278.7810484916
 20
346.1125473967
 30
0.0
 10
278.7677188448
 20
345.7247170802
 30
0.0
  0
SPLINE
  5
2D8
100
AcDbEntity
  8
0
100
AcDbSpline
 62
7
  6
CONTINUOUS
 70
0
 71
3
 72
9
 73
5
 74
0
 42
0.0000001
 43
0.0000001
 44
0.0000000001
 40
0.0
 40
0.0
 40
0.0
 40
0.0
 40
0.2436103482
 40
1.0
 40
1.0
 40
1.0
 40
1.0
 10
281.7943285019
 20
345.1661793155
 30
0.0
 10
281.7820391305
 20
345.1067522965
 30
0.0
 10
281.7382058212
 20
344.8614750005
 30
0.0
 10
281.7177621529
 20
344.6121295635
 30
0.0
 10
281.7147087045
 20
344.4237342736
 30
0.0
  0
SPLINE
  5
2D9
100
AcDbEntity
  8
0
100
AcDbSpline
 62
7
  6
CONTINUOUS
 70
0
 71
3
 72
12
 73
8
 74
0
 42
0.0000001
 43
0.0000001
 44
0.0000000001
 40
0.0
 40
0.0
 40
0.0
 40
0.0
 40
0.3760266616
 40
0.6930353681
 40
0.9073835354
 40
0.9678595767
 40
1.0
 40
1.0
 40
1.0
 40
1.0
 10
56.4908146669
 20
319.4313908258
 30
0.0
 10
56.5384265624
 20
319.4447221599
 30
0.0
 10
56.6270057443
 20
319.4671154102
 30
0.0
 10
56.7434927441
 20
319.4899749435
 30
0.0
 10
56.8224676901
 20
319.4978039617
 30
0.0
 10
56.8615346647
 20
319.4953829954
 30
0.0
 10
56.8742636236
 20
319.4887743221
 30
0.0
 10
56.8754246189
 20
319.4847108388
 30
0.0
  0
SPLINE
  5
2DA
100
AcDbEntity
  8
0
100
AcDbSpline
 62
7
  6
CONTINUOUS
 70
0
 71
3
 72
13
 73
9
 74
0
 42
0.0000001
 43
0.0000001
 44
0.0000000001
 40
0.0
 40
0.0
 40
0.0
 40
0.0
 40
0.026781072
 40
0.0831175146
 40
0.1716432993
 40
0.2905714066
 40
0.6073373165
 40
1.0
 40
1.0
 40
1.0
 40
1.0
 10
49.4319475091
 20
319.279980748
 30
0.0
 10
49.4340280573
 20
319.2818015543
 30
0.0
 10
49.4442343327
 20
319.2791222268
 30
0.0
 10
49.4580770529
 20
319.2701039754
 30
0.0
 10
49.4803518855
 20
319.2533445364
 30
0.0
 10
49.5207897041
 20
319.2178527959
 30
0.0
 10
49.5821795145
 20
319.1579202211
 30
0.0
 10
49.6324102956
 20
319.1047070821
 30
0.0
 10
49.659799845
 20
319.0748228456
 30
0.0
  0
SPLINE
  5
2DB
100
AcDbEntity
  8
0
100
AcDbSpline
 62
7
  6
CONTINUOUS
 70
0
 71
3
 72
10
 73
6
 74
0
 42
0.0000001
 43
0.0000001
 44
0.0000000001
 40
0.0
 40
0.0
 40
0.0
 40
0.0
 40
0.6986097243
 40
0.8956023337
 40
1.0
 40
1.0
 40
1.0
 40
1.0
 10
56.7743816689
 20
319.6324643729
 30
0.0
 10
56.7885053756
 20
319.6344427708
 30
0.0
 10
56.8072145838
 20
319.6363244977
 30
0.0
 10
56.8269299548
 20
319.6351157221
 30
0.0
 10
56.8333946261
 20
319.6318158137
 30
0.0
 10
56.8339801119
 20
319.6297666133
 30
0.0
  0
SPLINE
  5
2DC
100
AcDbEntity
  8
0
100
AcDbSpline
 62
7
  6
CONTINUOUS
 70
0
 71
3
 72
9
 73
5
 74
0
 42
0.0000001
 43
0.0000001
 44
0.0000000001
 40
0.0
 40
0.0
 40
0.0
 40
0.0
 40
0.255224729
 40
1.0
 40
1.0
 40
1.0
 40
1.0
 10
48.3356272006
 20
324.6851189991
 30
0.0
 10
48.3567226016
 20
324.6442450922
 30
0.0
 10
48.4393843964
 20
324.4841123373
 30
0.0
 10
48.5234214722
 20
324.324595806
 30
0.0
 10
48.5901215835
 20
324.208118091
 30
0.0
  0
SPLINE
  5
2DD
100
AcDbEntity
  8
0
100
AcDbSpline
 62
7
  6
CONTINUOUS
 70
0
 71
3
 72
9
 73
5
 74
0
 42
0.0000001
 43
0.0000001
 44
0.0000000001
 40
0.0
 40
0.0
 40
0.0
 40
0.0
 40
0.2610430521
 40
1.0
 40
1.0
 40
1.0
 40
1.0
 10
48.5901215835
 20
324.208118091
 30
0.0
 10
48.6019459573
 20
324.1874693093
 30
0.0
 10
48.6477714656
 20
324.1086780442
 30
0.0
 10
48.6959571799
 20
324.0312152993
 30
0.0
 10
48.7336707017
 20
323.9754053389
 30
0.0
  0
SPLINE
  5
2DE
100
AcDbEntity
  8
0
100
AcDbSpline
 62
7
  6
CONTINUOUS
 70
0
 71
3
 72
9
 73
5
 74
0
 42
0.0000001
 43
0.0000001
 44
0.0000000001
 40
0.0
 40
0.0
 40
0.0
 40
0.0
 40
0.3216680089
 40
1.0
 40
1.0
 40
1.0
 40
1.0
 10
48.7336707017
 20
323.9754053389
 30
0.0
 10
48.7720508084
 20
323.9186089399
 30
0.0
 10
48.8932329735
 20
323.7508741788
 30
0.0
 10
49.0828445774
 20
323.585229722
 30
0.0
 10
49.2273988205
 20
323.5852247436
 30
0.0
  0
SPLINE
  5
2DF
100
AcDbEntity
  8
0
100
AcDbSpline
 62
7
  6
CONTINUOUS
 70
0
 71
3
 72
9
 73
5
 74
0
 42
0.0000001
 43
0.0000001
 44
0.0000000001
 40
0.0
 40
0.0
 40
0.0
 40
0.0
 40
0.2550542251
 40
1.0
 40
1.0
 40
1.0
 40
1.0
 10
342.3356272006
 20
324.6851189991
 30
0.0
 10
342.3148621317
 20
324.6448851352
 30
0.0
 10
342.2334611095
 20
324.4871433463
 30
0.0
 10
342.1507731438
 20
324.3299768977
 30
0.0
 10
342.0851966562
 20
324.2151412191
 30
0.0
  0
SPLINE
  5
2E0
100
AcDbEntity
  8
0
100
AcDbSpline
 62
7
  6
CONTINUOUS
 70
0
 71
3
 72
9
 73
5
 74
0
 42
0.0000001
 43
0.0000001
 44
0.0000000001
 40
0.0
 40
0.0
 40
0.0
 40
0.0
 40
0.261071075
 40
1.0
 40
1.0
 40
1.0
 40
1.0
 10
342.0851966562
 20
324.2151412191
 30
0.0
 10
342.0731795936
 20
324.194097281
 30
0.0
 10
342.0266040394
 20
324.1138098604
 30
0.0
 10
341.9776025381
 20
324.0348845796
 30
0.0
 10
341.9392384316
 20
323.9780275316
 30
0.0
  0
SPLINE
  5
2E1
100
AcDbEntity
  8
0
100
AcDbSpline
 62
7
  6
CONTINUOUS
 70
0
 71
3
 72
9
 73
5
 74
0
 42
0.0000001
 43
0.0000001
 44
0.0000000001
 40
0.0
 40
0.0
 40
0.0
 40
0.0
 40
0.3218746949
 40
1.0
 40
1.0
 40
1.0
 40
1.0
 10
341.9392384316
 20
323.9780275316
 30
0.0
 10
341.9006947882
 20
323.920904403
 30
0.0
 10
341.7791820415
 20
323.7523007828
 30
0.0
 10
341.5890315857
 20
323.5852031587
 30
0.0
 10
341.4438508983
 20
323.5851941649
 30
0.0
  0
SPLINE
  5
2E2
100
AcDbEntity
  8
0
100
AcDbSpline
 62
7
  6
CONTINUOUS
 70
0
 71
3
 72
8
 73
4
 74
0
 42
0.0000001
 43
0.0000001
 44
0.0000000001
 40
0.0
 40
0.0
 40
0.0
 40
0.0
 40
1.0
 40
1.0
 40
1.0
 40
1.0
 10
49.2737590406
 20
336.7193635527
 30
0.0
 10
49.0719978869
 20
336.5704872502
 30
0.0
 10
48.9027498519
 20
336.4046856895
 30
0.0
 10
48.7660149354
 20
336.2219588705
 30
0.0
  0
SPLINE
  5
2E3
100
AcDbEntity
  8
0
100
AcDbSpline
 62
7
  6
CONTINUOUS
 70
0
 71
3
 72
8
 73
4
 74
0
 42
0.0000001
 43
0.0000001
 44
0.0000000001
 40
0.0
 40
0.0
 40
0.0
 40
0.0
 40
1.0
 40
1.0
 40
1.0
 40
1.0
 10
48.4518472083
 20
335.6184482819
 30
0.0
 10
48.3805940872
 20
335.4016337979
 30
0.0
 10
48.3418540846
 20
335.1678940557
 30
0.0
 10
48.3356272006
 20
334.9172290552
 30
0.0
  0
SPLINE
  5
2E4
100
AcDbEntity
  8
0
100
AcDbSpline
 62
7
  6
CONTINUOUS
 70
0
 71
3
 72
8
 73
4
 74
0
 42
0.0000001
 43
0.0000001
 44
0.0000000001
 40
0.0
 40
0.0
 40
0.0
 40
0.0
 40
1.0
 40
1.0
 40
1.0
 40
1.0
 10
342.3356272005
 20
334.9172290552
 30
0.0
 10
342.3294003166
 20
335.1678940556
 30
0.0
 10
342.2906603141
 20
335.4016337978
 30
0.0
 10
342.2194071929
 20
335.6184482817
 30
0.0
  0
SPLINE
  5
2E5
100
AcDbEntity
  8
0
100
AcDbSpline
 62
7
  6
CONTINUOUS
 70
0
 71
3
 72
8
 73
4
 74
0
 42
0.0000001
 43
0.0000001
 44
0.0000000001
 40
0.0
 40
0.0
 40
0.0
 40
0.0
 40
1.0
 40
1.0
 40
1.0
 40
1.0
 10
341.9052394658
 20
336.2219588704
 30
0.0
 10
341.7685045493
 20
336.4046856894
 30
0.0
 10
341.5992565143
 20
336.5704872502
 30
0.0
 10
341.3974953606
 20
336.7193635526
 30
0.0
  0
SPLINE
  5
2E6
100
AcDbEntity
  8
0
100
AcDbSpline
 62
7
  6
CONTINUOUS
 70
0
 71
3
 72
9
 73
5
 74
0
 42
0.0000001
 43
0.0000001
 44
0.0000000001
 40
0.0
 40
0.0
 40
0.0
 40
0.0
 40
0.5436094629
 40
1.0
 40
1.0
 40
1.0
 40
1.0
 10
333.5407804315
 20
343.0064055406
 30
0.0
 10
333.358519068
 20
343.174720804
 30
0.0
 10
332.9928945012
 20
343.4589240458
 30
0.0
 10
332.5349574906
 20
343.5851189991
 30
0.0
 10
332.3266710762
 20
343.5851189991
 30
0.0
  0
SPLINE
  5
2E7
100
AcDbEntity
  8
0
100
AcDbSpline
 62
7
  6
CONTINUOUS
 70
0
 71
3
 72
9
 73
5
 74
0
 42
0.0000001
 43
0.0000001
 44
0.0000000001
 40
0.0
 40
0.0
 40
0.0
 40
0.0
 40
0.2590262309
 40
1.0
 40
1.0
 40
1.0
 40
1.0
 10
336.1622540265
 20
340.3851189991
 30
0.0
 10
336.0170809794
 20
340.5552292716
 30
0.0
 10
335.4565045396
 20
341.2114215658
 30
0.0
 10
334.8807640824
 20
341.85800691
 30
0.0
 10
334.4145460309
 20
342.2960709501
 30
0.0
  0
SPLINE
  5
2E8
100
AcDbEntity
  8
0
100
AcDbSpline
 62
7
  6
CONTINUOUS
 70
0
 71
3
 72
9
 73
5
 74
0
 42
0.0000001
 43
0.0000001
 44
0.0000000001
 40
0.0
 40
0.0
 40
0.0
 40
0.0
 40
0.2557772812
 40
1.0
 40
1.0
 40
1.0
 40
1.0
 10
334.4145460309
 20
342.2960709501
 30
0.0
 10
334.3778085804
 20
342.3305898966
 30
0.0
 10
334.2331599764
 20
342.4644526029
 30
0.0
 10
334.0841838464
 20
342.5936926049
 30
0.0
 10
333.9704462366
 20
342.6863085786
 30
0.0
  0
SPLINE
  5
2E9
100
AcDbEntity
  8
0
100
AcDbSpline
 62
7
  6
CONTINUOUS
 70
0
 71
3
 72
9
 73
5
 74
0
 42
0.0000001
 43
0.0000001
 44
0.0000000001
 40
0.0
 40
0.0
 40
0.0
 40
0.0
 40
0.2558406216
 40
1.0
 40
1.0
 40
1.0
 40
1.0
 10
333.9145732373
 20
342.7313243486
 30
0.0
 10
333.8836177213
 20
342.7559961142
 30
0.0
 10
333.7617712149
 20
342.8513507578
 30
0.0
 10
333.6363414653
 20
342.9421786809
 30
0.0
 10
333.5407804315
 20
343.0064055406
 30
0.0
  0
SPLINE
  5
2EA
100
AcDbEntity
  8
0
100
AcDbSpline
 62
7
  6
CONTINUOUS
 70
0
 71
3
 72
9
 73
5
 74
0
 42
0.0000001
 43
0.0000001
 44
0.0000000001
 40
0.0
 40
0.0
 40
0.0
 40
0.0
 40
0.2441654039
 40
1.0
 40
1.0
 40
1.0
 40
1.0
 10
57.1304739696
 20
343.0064055406
 30
0.0
 10
57.0991191846
 20
342.9853318948
 30
0.0
 10
56.9717013808
 20
342.8975400957
 30
0.0
 10
56.848134622
 20
342.8042134027
 30
0.0
 10
56.7566811639
 20
342.7313243486
 30
0.0
  0
SPLINE
  5
2EB
100
AcDbEntity
  8
0
100
AcDbSpline
 62
7
  6
CONTINUOUS
 70
0
 71
3
 72
9
 73
5
 74
0
 42
0.0000001
 43
0.0000001
 44
0.0000000001
 40
0.0
 40
0.0
 40
0.0
 40
0.0
 40
0.2441293277
 40
1.0
 40
1.0
 40
1.0
 40
1.0
 10
56.7008081646
 20
342.6863085786
 30
0.0
 10
56.6634981368
 20
342.6559272073
 30
0.0
 10
56.5119540343
 20
342.5299031442
 30
0.0
 10
56.3652756574
 20
342.3980820676
 30
0.0
 10
56.2567083703
 20
342.2960709501
 30
0.0
  0
SPLINE
  5
2EC
100
AcDbEntity
  8
0
100
AcDbSpline
 62
7
  6
CONTINUOUS
 70
0
 71
3
 72
9
 73
5
 74
0
 42
0.0000001
 43
0.0000001
 44
0.0000000001
 40
0.0
 40
0.0
 40
0.0
 40
0.0
 40
0.2375367244
 40
1.0
 40
1.0
 40
1.0
 40
1.0
 10
56.2567083703
 20
342.2960709501
 30
0.0
 10
56.1072229182
 20
342.155612637
 30
0.0
 10
55.4960435274
 20
341.5449016576
 30
0.0
 10
54.9364088124
 20
340.8859458899
 30
0.0
 10
54.5090003746
 20
340.3851189991
 30
0.0
  0
SPLINE
  5
2ED
100
AcDbEntity
  8
0
100
AcDbSpline
 62
7
  6
CONTINUOUS
 70
0
 71
3
 72
9
 73
5
 74
0
 42
0.0000001
 43
0.0000001
 44
0.0000000001
 40
0.0
 40
0.0
 40
0.0
 40
0.0
 40
0.4563905371
 40
1.0
 40
1.0
 40
1.0
 40
1.0
 10
58.344583325
 20
343.5851189991
 30
0.0
 10
58.1362969105
 20
343.5851189991
 30
0.0
 10
57.6783598999
 20
343.4589240458
 30
0.0
 10
57.3127353331
 20
343.174720804
 30
0.0
 10
57.1304739696
 20
343.0064055406
 30
0.0
  0
LINE
  5
2EE
100
AcDbEntity
  8
0
100
AcDbLine
 62
7
  6
CONTINUOUS
 10
65.0590743211
 20
319.574809406
 11
64.9549522995
 21
319.45022607
  0
SPLINE
  5
2EF
100
AcDbEntity
  8
0
100
AcDbSpline
 62
7
  6
CONTINUOUS
 70
0
 71
3
 72
9
 73
5
 74
0
 42
0.0000001
 43
0.0000001
 44
0.0000000001
 40
0.0
 40
0.0
 40
0.0
 40
0.0
 40
0.2596861358
 40
1.0
 40
1.0
 40
1.0
 40
1.0
 10
64.9549522995
 20
319.45022607
 30
0.0
 10
64.8758366394
 20
319.3556889494
 30
0.0
 10
64.5703334544
 20
318.9925372666
 30
0.0
 10
64.2548604398
 20
318.6363560391
 30
0.0
 10
64.0020804242
 20
318.3922130561
 30
0.0
  0
SPLINE
  5
2F0
100
AcDbEntity
  8
0
100
AcDbSpline
 62
7
  6
CONTINUOUS
 70
0
 71
3
 72
9
 73
5
 74
0
 42
0.0000001
 43
0.0000001
 44
0.0000000001
 40
0.0
 40
0.0
 40
0.0
 40
0.0
 40
0.5485383945
 40
1.0
 40
1.0
 40
1.0
 40
1.0
 10
64.0020804242
 20
318.3922130561
 30
0.0
 10
63.7652682574
 20
318.1634923296
 30
0.0
 10
63.3050462981
 20
317.7687624827
 30
0.0
 10
62.7058554496
 20
317.5748223877
 30
0.0
 10
62.4348894775
 20
317.5748223877
 30
0.0
  0
SPLINE
  5
2F1
100
AcDbEntity
  8
0
100
AcDbSpline
 62
7
  6
CONTINUOUS
 70
0
 71
3
 72
8
 73
4
 74
0
 42
0.0000001
 43
0.0000001
 44
0.0000000001
 40
0.0
 40
0.0
 40
0.0
 40
0.0
 40
1.0
 40
1.0
 40
1.0
 40
1.0
 10
44.8610834857
 20
192.7748223877
 30
0.0
 10
44.9691804622
 20
192.6050240542
 30
0.0
 10
45.0772653231
 20
192.4352055733
 30
0.0
 10
45.1874680798
 20
192.2667663179
 30
0.0
  0
SPLINE
  5
2F2
100
AcDbEntity
  8
0
100
AcDbSpline
 62
7
  6
CONTINUOUS
 70
0
 71
3
 72
9
 73
5
 74
0
 42
0.0000001
 43
0.0000001
 44
0.0000000001
 40
0.0
 40
0.0
 40
0.0
 40
0.0
 40
0.5660081275
 40
1.0
 40
1.0
 40
1.0
 40
1.0
 10
45.1874680798
 20
192.2667663179
 30
0.0
 10
45.4106743202
 20
191.9256070394
 30
0.0
 10
45.8133567547
 20
191.3345285415
 30
0.0
 10
46.3468396688
 20
190.8129975348
 30
0.0
 10
46.6291522645
 20
190.6787660332
 30
0.0
  0
SPLINE
  5
2F3
100
AcDbEntity
  8
0
100
AcDbSpline
 62
7
  6
CONTINUOUS
 70
0
 71
3
 72
9
 73
5
 74
0
 42
0.0000001
 43
0.0000001
 44
0.0000000001
 40
0.0
 40
0.0
 40
0.0
 40
0.0
 40
0.2627301782
 40
1.0
 40
1.0
 40
1.0
 40
1.0
 10
46.6291522645
 20
190.6787660332
 30
0.0
 10
46.6644489748
 20
190.6619834648
 30
0.0
 10
46.8014891816
 20
190.604205193
 30
0.0
 10
46.9514081775
 20
190.5748223877
 30
0.0
 10
47.0610834858
 20
190.5748223877
 30
0.0
  0
SPLINE
  5
2F4
100
AcDbEntity
  8
0
100
AcDbSpline
 62
7
  6
CONTINUOUS
 70
0
 71
3
 72
9
 73
5
 74
0
 42
0.0000001
 43
0.0000001
 44
0.0000000001
 40
0.0
 40
0.0
 40
0.0
 40
0.0
 40
0.2416782188
 40
1.0
 40
1.0
 40
1.0
 40
1.0
 10
342.6610834858
 20
190.5748223877
 30
0.0
 10
342.6970425424
 20
190.5748223877
 30
0.0
 10
342.8458496188
 20
190.583967876
 30
0.0
 10
342.9910553588
 20
190.6302928427
 30
0.0
 10
343.0929558902
 20
190.6787373902
 30
0.0
  0
SPLINE
  5
2F5
100
AcDbEntity
  8
0
100
AcDbSpline
 62
7
  6
CONTINUOUS
 70
0
 71
3
 72
9
 73
5
 74
0
 42
0.0000001
 43
0.0000001
 44
0.0000000001
 40
0.0
 40
0.0
 40
0.0
 40
0.0
 40
0.4339866691
 40
1.0
 40
1.0
 40
1.0
 40
1.0
 10
343.0929558902
 20
190.6787373902
 30
0.0
 10
343.3752744206
 20
190.8129544867
 30
0.0
 10
343.9087765724
 20
191.3344819647
 30
0.0
 10
344.3114637118
 20
191.9255643598
 30
0.0
 10
344.5346747458
 20
192.2667295355
 30
0.0
  0
SPLINE
  5
2F6
100
AcDbEntity
  8
0
100
AcDbSpline
 62
7
  6
CONTINUOUS
 70
0
 71
3
 72
8
 73
4
 74
0
 42
0.0000001
 43
0.0000001
 44
0.0000000001
 40
0.0
 40
0.0
 40
0.0
 40
0.0
 40
1.0
 40
1.0
 40
1.0
 40
1.0
 10
344.5346747458
 20
192.2667295355
 30
0.0
 10
344.6448858553
 20
192.4351808519
 30
0.0
 10
344.7529786334
 20
192.6050116826
 30
0.0
 10
344.8610834858
 20
192.7748223877
 30
0.0
  0
SPLINE
  5
2F7
100
AcDbEntity
  8
0
100
AcDbSpline
 62
7
  6
CONTINUOUS
 70
0
 71
3
 72
10
 73
6
 74
0
 42
0.0000001
 43
0.0000001
 44
0.0000000001
 40
0.0
 40
0.0
 40
0.0
 40
0.0
 40
0.5750809425
 40
0.8079719879
 40
1.0
 40
1.0
 40
1.0
 40
1.0
 10
344.5391788244
 20
314.8783588486
 30
0.0
 10
344.1604185213
 20
315.4659037803
 30
0.0
 10
343.6180455098
 20
316.2923493387
 30
0.0
 10
342.7620206424
 20
317.1615866434
 30
0.0
 10
342.3083388574
 20
317.43271311
 30
0.0
 10
342.0863808656
 20
317.5049676636
 30
0.0
  0
SPLINE
  5
2F8
100
AcDbEntity
  8
0
100
AcDbSpline
 62
7
  6
CONTINUOUS
 70
0
 71
3
 72
8
 73
4
 74
0
 42
0.0000001
 43
0.0000001
 44
0.0000000001
 40
0.0
 40
0.0
 40
0.0
 40
0.0
 40
1.0
 40
1.0
 40
1.0
 40
1.0
 10
342.0863808656
 20
317.5049676636
 30
0.0
 10
341.9497716438
 20
317.5494384135
 30
0.0
 10
341.8047488159
 20
317.5748223877
 30
0.0
 10
341.6610834858
 20
317.5748223877
 30
0.0
  0
SPLINE
  5
2F9
100
AcDbEntity
  8
0
100
AcDbSpline
 62
7
  6
CONTINUOUS
 70
0
 71
3
 72
8
 73
4
 74
0
 42
0.0000001
 43
0.0000001
 44
0.0000000001
 40
0.0
 40
0.0
 40
0.0
 40
0.0
 40
1.0
 40
1.0
 40
1.0
 40
1.0
 10
48.0610834858
 20
317.5748223877
 30
0.0
 10
47.9174368384
 20
317.5748223877
 30
0.0
 10
47.7724330276
 20
317.5494458523
 30
0.0
 10
47.635839881
 20
317.5049860774
 30
0.0
  0
SPLINE
  5
2FA
100
AcDbEntity
  8
0
100
AcDbSpline
 62
7
  6
CONTINUOUS
 70
0
 71
3
 72
10
 73
6
 74
0
 42
0.0000001
 43
0.0000001
 44
0.0000000001
 40
0.0
 40
0.0
 40
0.0
 40
0.0
 40
0.192025744
 40
0.4249151327
 40
1.0
 40
1.0
 40
1.0
 40
1.0
 10
47.635839881
 20
317.5049860774
 30
0.0
 10
47.4138807369
 20
317.4327404791
 30
0.0
 10
46.9601936371
 20
317.161625167
 30
0.0
 10
46.1041525452
 20
316.292395608
 30
0.0
 10
45.561774687
 20
315.4659431886
 30
0.0
 10
45.1830095127
 20
314.8783918699
 30
0.0
  0
SPLINE
  5
2FB
100
AcDbEntity
  8
0
100
AcDbSpline
 62
7
  6
CONTINUOUS
 70
0
 71
3
 72
9
 73
5
 74
0
 42
0.0000001
 43
0.0000001
 44
0.0000000001
 40
0.0
 40
0.0
 40
0.0
 40
0.0
 40
0.4514447077
 40
1.0
 40
1.0
 40
1.0
 40
1.0
 10
327.2872774939
 20
317.5748223877
 30
0.0
 10
327.0162295831
 20
317.5748223877
 30
0.0
 10
326.4168422963
 20
317.7688918487
 30
0.0
 10
325.9565185728
 20
318.1638144102
 30
0.0
 10
325.7196412666
 20
318.3926433467
 30
0.0
  0
SPLINE
  5
2FC
100
AcDbEntity
  8
0
100
AcDbSpline
 62
7
  6
CONTINUOUS
 70
0
 71
3
 72
9
 73
5
 74
0
 42
0.0000001
 43
0.0000001
 44
0.0000000001
 40
0.0
 40
0.0
 40
0.0
 40
0.0
 40
0.2378160141
 40
1.0
 40
1.0
 40
1.0
 40
1.0
 10
325.7196412666
 20
318.3926433467
 30
0.0
 10
325.6384724485
 20
318.4710542955
 30
0.0
 10
325.3059746221
 20
318.8099317071
 30
0.0
 10
324.9993702726
 20
319.1728182374
 30
0.0
 10
324.767237485
 20
319.4501988193
 30
0.0
  0
LINE
  5
2FD
100
AcDbEntity
  8
0
100
AcDbLine
 62
7
  6
CONTINUOUS
 10
324.767237485
 20
319.4501988193
 11
324.6630926551
 21
319.5748094112
  0
ENDSEC
  0
SECTION
  2
OBJECTS
  0
DICTIONARY
  5
C
100
AcDbDictionary
280
0
281
1
  3
ACAD_GROUP
350
D
  3
ACAD_MLINESTYLE
350
17
  3
ACAD_LAYOUT
350
1A
  3
ACAD_PLOTSETTINGS
350
19
  3
ACAD_PLOTSTYLENAME
350
E
  0
DICTIONARY
  5
D
102
{ACAD_REACTORS
330
C
102
}
100
AcDbDictionary
280
0
281
1
  0
ACDBDICTIONARYWDFLT
  5
E
102
{ACAD_REACTORS
330
C
102
}
100
AcDbDictionary
281
1
  3
Normal
350
F
100
AcDbDictionaryWithDefault
340
F
  0
DICTIONARY
  5
17
102
{ACAD_REACTORS
330
C
102
}
100
AcDbDictionary
280
0
281
1
  3
Standard
350
18
  0
DICTIONARY
  5
19
102
{ACAD_REACTORS
330
C
102
}
100
AcDbDictionary
281
1
  0
DICTIONARY
  5
1A
102
{ACAD_REACTORS
330
C
102
}
100
AcDbDictionary
281
1
  3
Model
350
2FE
  3
Layout1
350
2FF
  0
ACDBPLACEHOLDER
  5
F
102
{ACAD_REACTORS
330
E
102
}
  0
MLINESTYLE
  5
18
102
{ACAD_REACTORS
330
17
102
}
100
AcDbMlineStyle
  2
STANDARD
 70
0
  3

 62
256
 51
90.0
 52
90.0
 71
2
 49
0.5
 62
256
  6
BYLAYER
 49
-0.5
 62
256
  6
BYLAYER
  0
LAYOUT
  5
2FE
102
{ACAD_REACTORS
330
1A
102
}
100
AcDbPlotSettings
  1

  2
none_device
  4

  6

 40
0.0
 41
0.0
 42
0.0
 43
0.0
 44
210.0
 45
297.0
 46
0.0
 47
0.0
 48
0.0
 49
0.0
140
0.0
141
0.0
142
1.0
143
1.0
 70
1024
 72
1
 73
0
 74
0
  7

 75
0
147
1.0
148
0.0
149
0.0
100
AcDbLayout
  1
Model
 70
0
 71
0
 10
0.0
 20
0.0
 11
210.0
 21
297.0
 12
0.0
 22
0.0
 32
0.0
 14
0.0
 24
0.0
 34
0.0
 15
0.0
 25
0.0
 35
0.0
146
0.0
 13
0.0
 23
0.0
 33
0.0
 16
1.0
 26
0.0
 36
0.0
 17
0.0
 27
1.0
 37
0.0
 76
0
330
210
345
0
346
0
  0
LAYOUT
  5
2FF
102
{ACAD_REACTORS
330
1A
102
}
100
AcDbPlotSettings
  1

  2
none_device
  4

  6

 40
0.0
 41
0.0
 42
0.0
 43
0.0
 44
210.0
 45
297.0
 46
0.0
 47
0.0
 48
0.0
 49
0.0
140
0.0
141
0.0
142
1.0
143
1.0
 70
0
 72
1
 73
0
 74
0
  7

 75
0
147
1.0
148
0.0
149
0.0
100
AcDbLayout
  1
Layout1
 70
0
 71
1
 10
0.0
 20
0.0
 11
210.0
 21
297.0
 12
0.0
 22
0.0
 32
0.0
 14
0.0
 24
0.0
 34
0.0
 15
0.0
 25
0.0
 35
0.0
146
0.0
 13
0.0
 23
0.0
 33
0.0
 16
1.0
 26
0.0
 36
0.0
 17
0.0
 27
1.0
 37
0.0
 76
0
330
211
345
0
346
0
  0
ENDSEC
  0
EOF
