999
DXF file: C:\Users\sesa63760\Dev\_Creo\CAD\MCADID0002313_3D-CAD\drw0001_2.dxf
999
Pro/ENGINEER 2019471 by Parametric Technology Corporation
  0
SECTION
  2
HEADER
  9
$ACADVER
  1
AC1024
  9
$DWGCODEPAGE
  3
ANSI_1252
  9
$EXTMAX
 10
151.0266059286
 20
213.5947712419
 30
0.0
  9
$EXTMIN
 10
0.0
 20
0.0
 30
0.0
  9
$LIMMIN
 10
0.0
 20
0.0
  9
$LIMMAX
 10
151.0266059286
 20
213.5947712419
  9
$VIEWCTR
 10
75.5133029643
 20
106.7973856209
  9
$VIEWSIZE
 40
213.5947712419
  9
$CLAYER
  8
0
  9
$LTSCALE
 40
13.923214718
  9
$CELTYPE
  6
BYLAYER
  9
$DIMSCALE
 40
1.0
  9
$DIMASZ
 40
1.7979357849
  9
$DIMEXO
 40
1.0
  9
$DIMDLI
 40
9.6196756233
  9
$DIMEXE
 40
1.0
  9
$DIMCEN
 40
2.2783442266
  9
$DIMLFAC
 40
1.0
  9
$DIMBLK
  1
_FILLED
  9
$DIMALT
 70
0
  9
$DIMALTF
 40
0.0393700787
  9
$DIMTXT
 40
2.5171100988
  9
$DIMTOL
 70
1
  9
$DIMLIM
 70
0
  9
$DIMTFAC
 40
1.0
  9
$DIMTP
 40
0.01
  9
$DIMTM
 40
0.01
  9
$DIMGAP
 40
0.625
  9
$DIMDSEP
 70
46
  9
$AUNITS
 70
0
  9
$PDMODE
 70
3
  9
$PDSIZE
 40
0.3125
  9
$HANDSEED
  5
257
  9
$TILEMODE
 70
1
  9
$MEASUREMENT
 70
1
  9
$INSUNITS
 70
4
  0
ENDSEC
  0
SECTION
  2
CLASSES
  0
CLASS
  1
ACDBDICTIONARYWDFLT
  2
AcDbDictionaryWithDefault
  3
AutoCAD 2000
 90
0
 91
1
280
0
281
0
  0
CLASS
  1
ACDBPLACEHOLDER
  2
AcDbPlaceHolder
  3
AutoCAD 2000
 90
0
 91
1
280
0
281
0
  0
CLASS
  1
LAYOUT
  2
AcDbLayout
  3
AutoCAD 2000
 90
0
 91
0
280
0
281
0
  0
ENDSEC
  0
SECTION
  2
TABLES
  0
TABLE
  2
VPORT
  5
8
100
AcDbSymbolTable
 70
2
  0
VPORT
  5
1F4
100
AcDbSymbolTableRecord
100
AcDbViewportTableRecord
  2
*ACTIVE
 70
0
 10
0.0
 20
0.0
 11
1.0
 21
1.0
 12
75.5133029643
 22
106.7973856209
 13
0.0
 23
0.0
 14
1.0
 24
1.0
 15
0.0
 25
0.0
 16
0.0
 26
0.0
 36
1.0
 17
0.0
 27
0.0
 37
0.0
 40
213.5947712419
 41
0.7070707071
 42
50.0
 43
0.0
 44
0.0
 50
0.0
 51
0.0
 71
0
 72
100
 73
1
 74
1
 75
0
 76
0
 77
0
 78
0
  0
ENDTAB
  0
TABLE
  2
LTYPE
  5
5
100
AcDbSymbolTable
 70
6
  0
LTYPE
  5
14
100
AcDbSymbolTableRecord
100
AcDbLinetypeTableRecord
  2
BYBLOCK
 70
0
  3

 72
65
 73
0
 40
0.0
  0
LTYPE
  5
15
100
AcDbSymbolTableRecord
100
AcDbLinetypeTableRecord
  2
BYLAYER
 70
0
  3

 72
65
 73
0
 40
0.0
  0
LTYPE
  5
16
100
AcDbSymbolTableRecord
100
AcDbLinetypeTableRecord
  2
CONTINUOUS
 70
64
  3
Solid line
 72
65
 73
0
 40
0.0
  0
LTYPE
  5
1F5
100
AcDbSymbolTableRecord
100
AcDbLinetypeTableRecord
  2
CENTER
 70
64
  3
____ _ ____ _ ____ _ ____ _ ____ _ ____ _ ____
 72
65
 73
4
 40
0.6
 49
0.375
 74
0
 49
-0.075
 74
0
 49
0.075
 74
0
 49
-0.075
 74
0
  0
LTYPE
  5
1F6
100
AcDbSymbolTableRecord
100
AcDbLinetypeTableRecord
  2
HIDDEN
 70
64
  3
- - - - - - - - - - - - - - - - - - - -
 72
65
 73
2
 40
0.2
 49
0.1
 74
0
 49
-0.1
 74
0
  0
LTYPE
  5
1F7
100
AcDbSymbolTableRecord
100
AcDbLinetypeTableRecord
  2
PHANTOM
 70
64
  3
_____ _ _ _____ _ _ _____ _ _ _____
 72
65
 73
6
 40
0.8
 49
0.45
 74
0
 49
-0.05
 74
0
 49
0.1
 74
0
 49
-0.05
 74
0
 49
0.1
 74
0
 49
-0.05
 74
0
  0
LTYPE
  5
1F8
100
AcDbSymbolTableRecord
100
AcDbLinetypeTableRecord
  2
DOT
 70
64
  3
. . . . . . . . . . . . . . . . . . . .
 72
65
 73
2
 40
0.2
 49
0.1
 74
0
 49
-0.1
 74
0
  0
LTYPE
  5
1F9
100
AcDbSymbolTableRecord
100
AcDbLinetypeTableRecord
  2
DASHED
 70
64
  3
- - - - - - - - - - - - - - - - - - - -
 72
65
 73
2
 40
0.2
 49
0.1
 74
0
 49
-0.1
 74
0
  0
ENDTAB
  0
TABLE
  2
LAYER
  5
2
100
AcDbSymbolTable
 70
36
  0
LAYER
  5
10
100
AcDbSymbolTableRecord
100
AcDbLayerTableRecord
  2
0
 70
0
 62
7
  6
CONTINUOUS
370
-3
390
F
  0
LAYER
  5
1FA
100
AcDbSymbolTableRecord
100
AcDbLayerTableRecord
  2
DEFAULT_1
 70
0
 62
7
  6
CENTER
370
-3
390
F
  0
LAYER
  5
1FB
100
AcDbSymbolTableRecord
100
AcDbLayerTableRecord
  2
DEFAULT_2
 70
0
 62
8
  6
HIDDEN
370
-3
390
F
  0
LAYER
  5
1FC
100
AcDbSymbolTableRecord
100
AcDbLayerTableRecord
  2
DEFAULT_3
 70
0
 62
7
  6
PHANTOM
370
-3
390
F
  0
LAYER
  5
1FD
100
AcDbSymbolTableRecord
100
AcDbLayerTableRecord
  2
00_COMPONENTS
 70
0
 62
7
  6
CONTINUOUS
370
-3
390
F
  0
LAYER
  5
1FE
100
AcDbSymbolTableRecord
100
AcDbLayerTableRecord
  2
01_1_DEFAULT_DATUMS
 70
0
 62
7
  6
CONTINUOUS
370
-3
390
F
  0
LAYER
  5
1FF
100
AcDbSymbolTableRecord
100
AcDbLayerTableRecord
  2
01_PLANES
 70
0
 62
7
  6
CONTINUOUS
370
-3
390
F
  0
LAYER
  5
200
100
AcDbSymbolTableRecord
100
AcDbLayerTableRecord
  2
02_COORD_SYS
 70
0
 62
7
  6
CONTINUOUS
370
-3
390
F
  0
LAYER
  5
201
100
AcDbSymbolTableRecord
100
AcDbLayerTableRecord
  2
03_AXES
 70
0
 62
7
  6
CONTINUOUS
370
-3
390
F
  0
LAYER
  5
202
100
AcDbSymbolTableRecord
100
AcDbLayerTableRecord
  2
04_POINTS
 70
0
 62
7
  6
CONTINUOUS
370
-3
390
F
  0
LAYER
  5
203
100
AcDbSymbolTableRecord
100
AcDbLayerTableRecord
  2
05_CURVES
 70
0
 62
7
  6
CONTINUOUS
370
-3
390
F
  0
LAYER
  5
204
100
AcDbSymbolTableRecord
100
AcDbLayerTableRecord
  2
06_SURFS
 70
0
 62
7
  6
CONTINUOUS
370
-3
390
F
  0
LAYER
  5
205
100
AcDbSymbolTableRecord
100
AcDbLayerTableRecord
  2
07_COSMETICS
 70
0
 62
7
  6
CONTINUOUS
370
-3
390
F
  0
LAYER
  5
206
100
AcDbSymbolTableRecord
100
AcDbLayerTableRecord
  2
10_NOTES
 70
0
 62
7
  6
CONTINUOUS
370
-3
390
F
  0
LAYER
  5
207
100
AcDbSymbolTableRecord
100
AcDbLayerTableRecord
  2
11_NOTES_PUB
 70
0
 62
7
  6
CONTINUOUS
370
-3
390
F
  0
LAYER
  5
208
100
AcDbSymbolTableRecord
100
AcDbLayerTableRecord
  2
13_REF_GTOL
 70
0
 62
7
  6
CONTINUOUS
370
-3
390
F
  0
LAYER
  5
209
100
AcDbSymbolTableRecord
100
AcDbLayerTableRecord
  2
16_MISC
 70
0
 62
7
  6
CONTINUOUS
370
-3
390
F
  0
LAYER
  5
20A
100
AcDbSymbolTableRecord
100
AcDbLayerTableRecord
  2
17_NO_PRINT
 70
0
 62
7
  6
CONTINUOUS
370
-3
390
F
  0
LAYER
  5
20B
100
AcDbSymbolTableRecord
100
AcDbLayerTableRecord
  2
18_DATUM_CAMS_JOINTS
 70
0
 62
7
  6
CONTINUOUS
370
-3
390
F
  0
LAYER
  5
20C
100
AcDbSymbolTableRecord
100
AcDbLayerTableRecord
  2
19_DATUM_FUNCTIONAL
 70
0
 62
7
  6
CONTINUOUS
370
-3
390
F
  0
LAYER
  5
20D
100
AcDbSymbolTableRecord
100
AcDbLayerTableRecord
  2
20_DATUM_KINEMATIC_SCHEME
 70
0
 62
7
  6
CONTINUOUS
370
-3
390
F
  0
ENDTAB
  0
TABLE
  2
STYLE
  5
3
100
AcDbSymbolTable
 70
1
  0
STYLE
  5
11
100
AcDbSymbolTableRecord
100
AcDbTextStyleTableRecord
  2
STANDARD
 70
0
 40
0.0
 41
0.8
 50
0.0
 71
0
 42
0.2
  3
txt
  4

  0
STYLE
  5
20E
100
AcDbSymbolTableRecord
100
AcDbTextStyleTableRecord
  2
TEXTSTYLE_1
 70
0
 40
0.0
 41
0.8
 50
0.0
 71
0
 42
0.2
  3
gdt
  4

  0
ENDTAB
  0
TABLE
  2
VIEW
  5
6
100
AcDbSymbolTable
 70
0
  0
ENDTAB
  0
TABLE
  2
UCS
  5
7
100
AcDbSymbolTable
 70
0
  0
ENDTAB
  0
TABLE
  2
APPID
  5
9
100
AcDbSymbolTable
 70
1
  0
APPID
  5
20F
100
AcDbSymbolTableRecord
100
AcDbRegAppTableRecord
  2
ACAD
 70
0
  0
ENDTAB
  0
TABLE
  2
BLOCK_RECORD
  5
1
100
AcDbSymbolTable
 70
0
  0
BLOCK_RECORD
  5
210
100
AcDbSymbolTableRecord
100
AcDbBlockTableRecord
  2
*Model_Space
  0
BLOCK_RECORD
  5
211
100
AcDbSymbolTableRecord
100
AcDbBlockTableRecord
  2
*Paper_Space
  0
BLOCK_RECORD
  5
212
100
AcDbSymbolTableRecord
100
AcDbBlockTableRecord
  2
_FILLED
  0
ENDTAB
  0
TABLE
  2
DIMSTYLE
  5
A
100
AcDbSymbolTable
 70
1
100
AcDbDimStyleTable
 71
0
  0
DIMSTYLE
105
213
100
AcDbSymbolTableRecord
100
AcDbDimStyleTableRecord
  2
STANDARD
 70
0
  3

  4

 40
1.0
 41
1.7979357849
 42
1.0
 43
0.38
 44
1.0
 45
0.0
 46
0.0
 47
0.01
 48
0.01
140
2.5171100988
141
0.09
142
0.0
143
25.4
144
1.0
145
0.0
146
1.0
147
0.625
 71
1
 72
0
 73
0
 74
0
 75
0
 76
0
 77
1
 78
8
 79
2
170
0
171
1
172
0
173
0
174
0
175
0
176
0
177
0
178
0
270
2
179
2
271
2
272
2
273
2
274
2
275
0
280
0
281
0
282
0
283
1
284
8
285
0
286
0
287
3
288
0
340
11
278
46
341
212
342
212
343
212
344
212
  0
ENDTAB
  0
ENDSEC
  0
SECTION
  2
BLOCKS
  0
BLOCK
  5
20
100
AcDbEntity
  8
0
100
AcDbBlockBegin
  2
*Model_Space
 70
0
 10
0.0
 20
0.0
 30
0.0
  3
*Model_Space
  1

  0
ENDBLK
  5
21
100
AcDbEntity
  8
0
100
AcDbBlockEnd
  0
BLOCK
  5
1C
100
AcDbEntity
  8
0
100
AcDbBlockBegin
  2
*Paper_Space
 70
0
 10
0.0
 20
0.0
 30
0.0
  3
*Paper_Space
  1

  0
ENDBLK
  5
1D
100
AcDbEntity
  8
0
100
AcDbBlockEnd
  0
BLOCK
  5
214
100
AcDbEntity
  8
0
100
AcDbBlockBegin
  2
_FILLED
 70
64
 10
0.0
 20
0.0
  3
_FILLED
  1

  0
SOLID
  5
215
100
AcDbEntity
  8
0
  6
BYBLOCK
 62
0
100
AcDbTrace
 10
0.0
 20
0.0
 11
-1.0
 21
0.25
 12
-1.0
 22
-0.25
 13
-1.0
 23
-0.25
  0
ENDBLK
  5
216
100
AcDbEntity
  8
0
  6
BYBLOCK
 62
0
100
AcDbBlockEnd
  0
ENDSEC
  0
SECTION
  2
ENTITIES
  0
LINE
  5
217
100
AcDbEntity
  8
0
100
AcDbLine
 62
7
  6
CONTINUOUS
 10
108.8699437298
 20
22.4052287578
 11
104.8699437298
 21
22.4052287579
  0
LINE
  5
218
100
AcDbEntity
  8
0
100
AcDbLine
 62
7
  6
CONTINUOUS
 10
78.5590306962
 20
22.4052287586
 11
74.5590785002
 21
22.4052287586
  0
LINE
  5
219
100
AcDbEntity
  8
0
100
AcDbLine
 62
7
  6
CONTINUOUS
 10
48.2481654649
 20
22.4052287593
 11
44.2481654649
 21
22.4052287594
  0
LINE
  5
21A
100
AcDbEntity
  8
0
100
AcDbLine
 62
7
  6
CONTINUOUS
 10
109.3699437299
 20
22.9052287577
 11
104.3699437299
 21
22.9052287579
  0
LINE
  5
21B
100
AcDbEntity
  8
0
100
AcDbLine
 62
7
  6
CONTINUOUS
 10
79.0590545982
 20
22.9052287586
 11
74.0590545982
 21
22.9052287586
  0
LINE
  5
21C
100
AcDbEntity
  8
0
100
AcDbLine
 62
7
  6
CONTINUOUS
 10
48.7481654649
 20
22.9052287593
 11
43.7481654649
 21
22.9052287595
  0
LINE
  5
21D
100
AcDbEntity
  8
0
100
AcDbLine
 62
7
  6
CONTINUOUS
 10
44.2481654649
 20
22.4052287594
 11
43.7481654649
 21
22.9052287595
  0
LINE
  5
21E
100
AcDbEntity
  8
0
100
AcDbLine
 62
7
  6
CONTINUOUS
 10
113.1772618246
 20
40.4052287576
 11
100.5626256364
 21
40.4052287581
  0
LINE
  5
21F
100
AcDbEntity
  8
0
100
AcDbLine
 62
7
  6
CONTINUOUS
 10
82.8659488429
 20
40.4052287586
 11
70.2521603535
 21
40.4052287586
  0
LINE
  5
220
100
AcDbEntity
  8
0
100
AcDbLine
 62
7
  6
CONTINUOUS
 10
52.5554835597
 20
40.4052287591
 11
39.9408473715
 21
40.4052287596
  0
LINE
  5
221
100
AcDbEntity
  8
0
100
AcDbLine
 62
7
  6
CONTINUOUS
 10
114.1755222936
 20
41.346270839
 11
99.5643651675
 21
41.3462708396
  0
LINE
  5
222
100
AcDbEntity
  8
0
100
AcDbLine
 62
7
  6
CONTINUOUS
 10
83.8646331612
 20
41.3462708401
 11
69.2534760352
 21
41.3462708401
  0
LINE
  5
223
100
AcDbEntity
  8
0
100
AcDbLine
 62
7
  6
CONTINUOUS
 10
53.5537440287
 20
41.3462708405
 11
38.9425869026
 21
41.3462708411
  0
LINE
  5
224
100
AcDbEntity
  8
0
100
AcDbLine
 62
7
  6
CONTINUOUS
 10
134.5590545981
 20
44.4052287557
 11
18.5590545983
 21
44.4052287587
  0
LINE
  5
225
100
AcDbEntity
  8
0
100
AcDbLine
 62
7
  6
CONTINUOUS
 10
16.5590545983
 20
46.4052287586
 11
16.5590545983
 21
47.4052287586
  0
LINE
  5
226
100
AcDbEntity
  8
0
100
AcDbLine
 62
7
  6
CONTINUOUS
 10
17.5590545983
 20
47.4052287586
 11
17.5590545983
 21
47.5052287586
  0
LINE
  5
227
100
AcDbEntity
  8
0
100
AcDbLine
 62
7
  6
CONTINUOUS
 10
16.5610545983
 20
47.5052287586
 11
17.5499838804
 21
96.9516928626
  0
LINE
  5
228
100
AcDbEntity
  8
0
100
AcDbLine
 62
7
  6
CONTINUOUS
 10
136.5590545982
 20
46.4052287556
 11
16.5590545983
 21
46.4052287586
  0
LINE
  5
229
100
AcDbEntity
  8
0
100
AcDbLine
 62
7
  6
CONTINUOUS
 10
16.5590545983
 20
47.4052287586
 11
136.5590545983
 21
47.4052287556
  0
LINE
  5
22A
100
AcDbEntity
  8
0
100
AcDbLine
 62
7
  6
CONTINUOUS
 10
136.5570545983
 20
47.5052287556
 11
16.5610545983
 21
47.5052287586
  0
LINE
  5
22B
100
AcDbEntity
  8
0
100
AcDbLine
 62
7
  6
CONTINUOUS
 10
74.5590545982
 20
22.4052287586
 11
74.0590545982
 21
22.9052287586
  0
LINE
  5
22C
100
AcDbEntity
  8
0
100
AcDbLine
 62
7
  6
CONTINUOUS
 10
24.5808000286
 20
101.8427655744
 11
26.6206918377
 21
142.8871483368
  0
LINE
  5
22D
100
AcDbEntity
  8
0
100
AcDbLine
 62
7
  6
CONTINUOUS
 10
38.9425869026
 20
41.3462708411
 11
38.7619228403
 21
44.4052287581
  0
LINE
  5
22E
100
AcDbEntity
  8
0
100
AcDbLine
 62
7
  6
CONTINUOUS
 10
104.8699437298
 20
22.4052287579
 11
104.3699437299
 21
22.9052287579
  0
LINE
  5
22F
100
AcDbEntity
  8
0
100
AcDbLine
 62
7
  6
CONTINUOUS
 10
43.7481654649
 20
22.9052287595
 11
43.7481654656
 21
40.4052287595
  0
LINE
  5
230
100
AcDbEntity
  8
0
100
AcDbLine
 62
7
  6
CONTINUOUS
 10
48.7481654656
 20
40.4052287593
 11
48.7481654649
 21
22.9052287593
  0
LINE
  5
231
100
AcDbEntity
  8
0
100
AcDbLine
 62
7
  6
CONTINUOUS
 10
17.9529127777
 20
97.6302905754
 11
24.1786973752
 21
101.187881774
  0
LINE
  5
232
100
AcDbEntity
  8
0
100
AcDbLine
 62
7
  6
CONTINUOUS
 10
53.5537440287
 20
41.3462708405
 11
53.7344080912
 21
44.4052287578
  0
LINE
  5
233
100
AcDbEntity
  8
0
100
AcDbLine
 62
7
  6
CONTINUOUS
 10
69.2534760352
 20
41.3462708401
 11
69.0728119728
 21
44.4052287574
  0
LINE
  5
234
100
AcDbEntity
  8
0
100
AcDbLine
 62
7
  6
CONTINUOUS
 10
17.5499838804
 20
96.9516928626
 11
135.5681253187
 21
96.9516928597
  0
LINE
  5
235
100
AcDbEntity
  8
0
100
AcDbLine
 62
7
  6
CONTINUOUS
 10
135.1651964214
 20
97.6302905724
 11
17.9529127777
 21
97.6302905754
  0
LINE
  5
236
100
AcDbEntity
  8
0
100
AcDbLine
 62
7
  6
CONTINUOUS
 10
74.0590545982
 20
40.4052287586
 11
74.0590545982
 21
22.9052287586
  0
LINE
  5
237
100
AcDbEntity
  8
0
100
AcDbLine
 62
7
  6
CONTINUOUS
 10
24.1786973752
 20
101.187881774
 11
128.9394118241
 21
101.1878817713
  0
LINE
  5
238
100
AcDbEntity
  8
0
100
AcDbLine
 62
7
  6
CONTINUOUS
 10
128.5373091707
 20
101.8427655718
 11
24.5808000286
 21
101.8427655744
  0
LINE
  5
239
100
AcDbEntity
  8
0
100
AcDbLine
 62
7
  6
CONTINUOUS
 10
79.0590545982
 20
40.4052287586
 11
79.0590545982
 21
22.9052287586
  0
LINE
  5
23A
100
AcDbEntity
  8
0
100
AcDbLine
 62
7
  6
CONTINUOUS
 10
83.8646331612
 20
41.3462708401
 11
84.0452972236
 21
44.405228757
  0
LINE
  5
23B
100
AcDbEntity
  8
0
100
AcDbLine
 62
7
  6
CONTINUOUS
 10
99.5643651675
 20
41.3462708396
 11
99.3837011052
 21
44.4052287566
  0
LINE
  5
23C
100
AcDbEntity
  8
0
100
AcDbLine
 62
7
  6
CONTINUOUS
 10
128.9394118241
 20
101.1878817713
 11
135.1651964214
 21
97.6302905724
  0
LINE
  5
23D
100
AcDbEntity
  8
0
100
AcDbLine
 62
7
  6
CONTINUOUS
 10
104.3699437299
 20
22.9052287579
 11
104.3699437305
 21
40.4052287579
  0
LINE
  5
23E
100
AcDbEntity
  8
0
100
AcDbLine
 62
7
  6
CONTINUOUS
 10
109.3699437305
 20
40.4052287577
 11
109.3699437299
 21
22.9052287577
  0
LINE
  5
23F
100
AcDbEntity
  8
0
100
AcDbLine
 62
7
  6
CONTINUOUS
 10
114.1755222936
 20
41.346270839
 11
114.3561863561
 21
44.4052287563
  0
LINE
  5
240
100
AcDbEntity
  8
0
100
AcDbLine
 62
7
  6
CONTINUOUS
 10
48.7481654649
 20
22.9052287593
 11
48.2481654649
 21
22.4052287593
  0
LINE
  5
241
100
AcDbEntity
  8
0
100
AcDbLine
 62
7
  6
CONTINUOUS
 10
126.4974173637
 20
142.8871483343
 11
128.5373091707
 21
101.8427655718
  0
LINE
  5
242
100
AcDbEntity
  8
0
100
AcDbLine
 62
7
  6
CONTINUOUS
 10
135.5681253187
 20
96.9516928597
 11
136.5570545983
 21
47.5052287556
  0
LINE
  5
243
100
AcDbEntity
  8
0
100
AcDbLine
 62
7
  6
CONTINUOUS
 10
135.5590545983
 20
47.5052287556
 11
135.5590545983
 21
47.4052287556
  0
LINE
  5
244
100
AcDbEntity
  8
0
100
AcDbLine
 62
7
  6
CONTINUOUS
 10
136.5590545983
 20
47.4052287556
 11
136.5590545982
 21
46.4052287556
  0
LINE
  5
245
100
AcDbEntity
  8
0
100
AcDbLine
 62
7
  6
CONTINUOUS
 10
78.5590545982
 20
22.4052287586
 11
79.0590545982
 21
22.9052287586
  0
LINE
  5
246
100
AcDbEntity
  8
0
100
AcDbLine
 62
7
  6
CONTINUOUS
 10
109.3699437299
 20
22.9052287577
 11
108.8699437298
 21
22.4052287578
  0
ARC
  5
247
100
AcDbEntity
  8
0
100
AcDbCircle
 62
7
  6
CONTINUOUS
 10
76.5590545983
 20
140.4052287586
 40
50.0
100
AcDbArc
 50
2.8452395828
 51
177.154760414
  0
ARC
  5
248
100
AcDbEntity
  8
0
100
AcDbCircle
 62
7
  6
CONTINUOUS
 10
18.5590545983
 20
46.4052287586
 40
2.0
100
AcDbArc
 50
179.9999999986
 51
270.0
  0
ARC
  5
249
100
AcDbEntity
  8
0
100
AcDbCircle
 62
7
  6
CONTINUOUS
 10
134.5590545982
 20
46.4052287557
 40
2.0
100
AcDbArc
 50
269.9999999971
 51
359.9999999986
  0
ARC
  5
24A
100
AcDbEntity
  8
0
100
AcDbCircle
 62
7
  6
CONTINUOUS
 10
70.2517365041
 20
41.4052287586
 40
1.0
100
AcDbArc
 50
183.38
 51
270.0
  0
ARC
  5
24B
100
AcDbEntity
  8
0
100
AcDbCircle
 62
7
  6
CONTINUOUS
 10
82.8663726923
 20
41.4052287586
 40
1.0
100
AcDbArc
 50
270.0
 51
356.62
  0
ARC
  5
24C
100
AcDbEntity
  8
0
100
AcDbCircle
 62
7
  6
CONTINUOUS
 10
113.1772618246
 20
41.4052287576
 40
1.0
100
AcDbArc
 50
269.9999999978
 51
356.6199999978
  0
ARC
  5
24D
100
AcDbEntity
  8
0
100
AcDbCircle
 62
7
  6
CONTINUOUS
 10
100.5626256365
 20
41.4052287581
 40
1.0
100
AcDbArc
 50
183.3799999978
 51
269.9999999978
  0
ARC
  5
24E
100
AcDbEntity
  8
0
100
AcDbCircle
 62
7
  6
CONTINUOUS
 10
52.5554835597
 20
41.4052287591
 40
1.0
100
AcDbArc
 50
269.9999999978
 51
356.6199999978
  0
ARC
  5
24F
100
AcDbEntity
  8
0
100
AcDbCircle
 62
7
  6
CONTINUOUS
 10
39.9408473716
 20
41.4052287596
 40
1.0
100
AcDbArc
 50
183.3799999978
 51
269.9999999978
  0
ARC
  5
250
100
AcDbEntity
  8
0
100
AcDbCircle
 62
7
  6
CONTINUOUS
 10
18.3498239283
 20
96.9356960617
 40
0.8
100
AcDbArc
 50
119.7448812969
 51
178.8542371618
  0
ARC
  5
251
100
AcDbEntity
  8
0
100
AcDbCircle
 62
7
  6
CONTINUOUS
 10
134.7682852707
 20
96.9356960588
 40
0.8
100
AcDbArc
 50
1.1457628353
 51
60.2551187002
  0
ARC
  5
252
100
AcDbEntity
  8
0
100
AcDbCircle
 62
7
  6
CONTINUOUS
 10
23.7817862245
 20
101.8824762877
 40
0.8
100
AcDbArc
 50
299.7448812969
 51
357.154760414
  0
ARC
  5
253
100
AcDbEntity
  8
0
100
AcDbCircle
 62
7
  6
CONTINUOUS
 10
129.3363229748
 20
101.882476285
 40
0.8
100
AcDbArc
 50
182.8452395831
 51
240.2551187002
  0
SPLINE
  5
254
100
AcDbEntity
  8
0
100
AcDbSpline
 62
7
  6
CONTINUOUS
 70
0
 71
3
 72
111
 73
107
 74
0
 42
0.0000001
 43
0.0000001
 44
0.0000000001
 40
0.0
 40
0.0
 40
0.0
 40
0.0
 40
0.0000094369
 40
0.000037742
 40
0.0000849065
 40
0.000150922
 40
0.0003394715
 40
0.0006033219
 40
0.0009424047
 40
0.0013566512
 40
0.0018459929
 40
0.0024103611
 40
0.003763903
 40
0.0054167283
 40
0.0073681732
 40
0.0096168432
 40
0.0121610569
 40
0.0149991328
 40
0.0215501433
 40
0.0292556644
 40
0.0380959686
 40
0.048048882
 40
0.0590916209
 40
0.0711965676
 40
0.0843337668
 40
0.1135771948
 40
0.1465384032
 40
0.1828989161
 40
0.222308358
 40
0.264387199
 40
0.3087300479
 40
0.331617902
 40
0.3549106742
 40
0.3785520287
 40
0.3904852199
 40
0.402484256
 40
0.4145418773
 40
0.4266501217
 40
0.4388031815
 40
0.4448948922
 40
0.450994035
 40
0.4570981059
 40
0.4632069948
 40
0.4693256877
 40
0.4723917591
 40
0.4754630563
 40
0.4815960618
 40
0.484654762
 40
0.4877223664
 40
0.4908047868
 40
0.4938875638
 40
0.4999876176
 40
0.5060734492
 40
0.5122499848
 40
0.515343193
 40
0.5184233094
 40
0.5245495167
 40
0.527604828
 40
0.5306617724
 40
0.5367846085
 40
0.5428961661
 40
0.548994844
 40
0.5551024174
 40
0.5611988775
 40
0.5733455412
 40
0.5794105159
 40
0.5854603843
 40
0.5975172068
 40
0.609514397
 40
0.6214466685
 40
0.6333066812
 40
0.6450878209
 40
0.6567816827
 40
0.6683808612
 40
0.6798787542
 40
0.6912686232
 40
0.7136968895
 40
0.7356115591
 40
0.7776904653
 40
0.8170999691
 40
0.8534605552
 40
0.8864218678
 40
0.9156654583
 40
0.9288027531
 40
0.9409078208
 40
0.9519506409
 40
0.9619036507
 40
0.9707440615
 40
0.9784496465
 40
0.9850007177
 40
0.9878388277
 40
0.9903830729
 40
0.9926317676
 40
0.9945832267
 40
0.9962360621
 40
0.9975896142
 40
0.9981539873
 40
0.9986433336
 40
0.9990575843
 40
0.9993966707
 40
0.9996605242
 40
0.999849076
 40
0.9999150923
 40
0.9999622575
 40
0.9999905629
 40
1.0
 40
1.0
 40
1.0
 40
1.0
 10
26.6206918377
 20
142.8871483368
 30
0.0
 10
26.6207074398
 20
142.8874622637
 30
0.0
 10
26.6226917808
 20
142.8866980962
 30
0.0
 10
26.6248176106
 20
142.8874359458
 30
0.0
 10
26.6299275312
 20
142.887018315
 30
0.0
 10
26.6397354149
 20
142.8872724622
 30
0.0
 10
26.6571820179
 20
142.8870836304
 30
0.0
 10
26.6834570733
 20
142.8871749464
 30
0.0
 10
26.7173699001
 20
142.8871396803
 30
0.0
 10
26.7587471097
 20
142.8871528455
 30
0.0
 10
26.8076442502
 20
142.8871488898
 30
0.0
 10
26.8878203775
 20
142.887151545
 30
0.0
 10
27.0067513329
 20
142.887151733
 30
0.0
 10
27.1718798664
 20
142.887154418
 30
0.0
 10
27.3668228777
 20
142.88715733
 30
0.0
 10
27.591455006
 20
142.8871609181
 30
0.0
 10
27.8456180615
 20
142.8871644448
 30
0.0
 10
28.243078401
 20
142.8871687991
 30
0.0
 10
28.8124455143
 20
142.8871716699
 30
0.0
 10
29.5817277946
 20
142.8871670411
 30
0.0
 10
30.4643166634
 20
142.8871650496
 30
0.0
 10
31.4580576644
 20
142.8871770997
 30
0.0
 10
32.560533543
 20
142.8872197893
 30
0.0
 10
33.7690678756
 20
142.8872514827
 30
0.0
 10
35.5838093813
 20
142.8872099565
 30
0.0
 10
38.093206752
 20
142.8868168015
 30
0.0
 10
41.3760989782
 20
142.8873642643
 30
0.0
 10
44.9975888787
 20
142.887094724
 30
0.0
 10
48.922758112
 20
142.8865131867
 30
0.0
 10
53.1137937049
 20
142.8861974081
 30
0.0
 10
56.7545474184
 20
142.8852964378
 30
0.0
 10
59.769596948
 20
142.8837221272
 30
0.0
 10
62.0951452278
 20
142.8853185254
 30
0.0
 10
64.0558258582
 20
142.8904116506
 30
0.0
 10
65.6403505483
 20
142.8881123299
 30
0.0
 10
66.8390569715
 20
142.8866136789
 30
0.0
 10
68.0435957658
 20
142.8865131661
 30
0.0
 10
69.2532621931
 20
142.8880608207
 30
0.0
 10
70.264227622
 20
142.8881385704
 30
0.0
 10
71.0750399361
 20
142.8849110147
 30
0.0
 10
71.6843862359
 20
142.8837680882
 30
0.0
 10
72.2943053858
 20
142.8872242688
 30
0.0
 10
72.9048057362
 20
142.8961490697
 30
0.0
 10
73.4142347059
 20
142.896902439
 30
0.0
 10
73.8223751483
 20
142.8872697214
 30
0.0
 10
74.2306270654
 20
142.8694593093
 30
0.0
 10
74.6391917102
 20
142.855923886
 30
0.0
 10
75.0473899354
 20
142.8773250309
 30
0.0
 10
75.3513892421
 20
142.9202020933
 30
0.0
 10
75.6532099117
 20
142.9795881224
 30
0.0
 10
76.0528936893
 20
143.0624813375
 30
0.0
 10
76.55787315
 20
143.1433722897
 30
0.0
 10
77.1717674137
 20
143.0976965999
 30
0.0
 10
77.674757283
 20
143.0070657539
 30
0.0
 10
78.0806470993
 20
142.939809076
 30
0.0
 10
78.4868731808
 20
142.8865466291
 30
0.0
 10
78.8945532173
 20
142.8549808508
 30
0.0
 10
79.3022768718
 20
142.8500310527
 30
0.0
 10
79.7096726605
 20
142.8643463851
 30
0.0
 10
80.2173950397
 20
142.9038247804
 30
0.0
 10
80.8273393232
 20
142.9416132851
 30
0.0
 10
81.4378585914
 20
142.9180402536
 30
0.0
 10
82.0447618601
 20
142.8622137079
 30
0.0
 10
82.8536570515
 20
142.7965951488
 30
0.0
 10
83.6645023913
 20
142.820102934
 30
0.0
 10
84.4715517503
 20
142.8561291209
 30
0.0
 10
85.2766354161
 20
142.8717950681
 30
0.0
 10
86.2792939069
 20
142.8628442036
 30
0.0
 10
87.4779053216
 20
142.8688865306
 30
0.0
 10
88.6697761693
 20
142.8894845171
 30
0.0
 10
89.8546438126
 20
142.893651942
 30
0.0
 10
91.0315204437
 20
142.8865592398
 30
0.0
 10
92.1997258552
 20
142.8825207594
 30
0.0
 10
93.3585027511
 20
142.8833136798
 30
0.0
 10
94.5071519878
 20
142.8847887707
 30
0.0
 10
96.016485205
 20
142.885318269
 30
0.0
 10
97.8727679282
 20
142.8853666966
 30
0.0
 10
100.7512050312
 20
142.886436579
 30
0.0
 10
104.1952334023
 20
142.8864353521
 30
0.0
 10
108.1204093077
 20
142.8871038708
 30
0.0
 10
111.7419071778
 20
142.8873463893
 30
0.0
 10
115.0248107282
 20
142.8868248759
 30
0.0
 10
117.5342201632
 20
142.8872203339
 30
0.0
 10
119.3489742996
 20
142.8872546843
 30
0.0
 10
120.557518547
 20
142.887219254
 30
0.0
 10
121.66000437
 20
142.8871750585
 30
0.0
 10
122.653754834
 20
142.8871634393
 30
0.0
 10
123.5363525948
 20
142.887166467
 30
0.0
 10
124.305642575
 20
142.8871719572
 30
0.0
 10
124.8750149761
 20
142.8871692657
 30
0.0
 10
125.2724795204
 20
142.8871648938
 30
0.0
 10
125.5266455843
 20
142.8871613052
 30
0.0
 10
125.7512800554
 20
142.8871576352
 30
0.0
 10
125.9462246993
 20
142.887154652
 30
0.0
 10
126.111354383
 20
142.8871519248
 30
0.0
 10
126.2302861785
 20
142.8871517126
 30
0.0
 10
126.3104629619
 20
142.887149041
 30
0.0
 10
126.3593605572
 20
142.8871529851
 30
0.0
 10
126.400738181
 20
142.8871398079
 30
0.0
 10
126.4346513711
 20
142.8871750581
 30
0.0
 10
126.4609267264
 20
142.887083727
 30
0.0
 10
126.4783735383
 20
142.8872725333
 30
0.0
 10
126.4881815455
 20
142.8870183735
 30
0.0
 10
126.4932915334
 20
142.8874359766
 30
0.0
 10
126.4954173924
 20
142.8866981344
 30
0.0
 10
126.4974017614
 20
142.8874622659
 30
0.0
 10
126.4974173637
 20
142.8871483343
 30
0.0
  0
ENDSEC
  0
SECTION
  2
OBJECTS
  0
DICTIONARY
  5
C
100
AcDbDictionary
280
0
281
1
  3
ACAD_GROUP
350
D
  3
ACAD_MLINESTYLE
350
17
  3
ACAD_LAYOUT
350
1A
  3
ACAD_PLOTSETTINGS
350
19
  3
ACAD_PLOTSTYLENAME
350
E
  0
DICTIONARY
  5
D
102
{ACAD_REACTORS
330
C
102
}
100
AcDbDictionary
280
0
281
1
  0
ACDBDICTIONARYWDFLT
  5
E
102
{ACAD_REACTORS
330
C
102
}
100
AcDbDictionary
281
1
  3
Normal
350
F
100
AcDbDictionaryWithDefault
340
F
  0
DICTIONARY
  5
17
102
{ACAD_REACTORS
330
C
102
}
100
AcDbDictionary
280
0
281
1
  3
Standard
350
18
  0
DICTIONARY
  5
19
102
{ACAD_REACTORS
330
C
102
}
100
AcDbDictionary
281
1
  0
DICTIONARY
  5
1A
102
{ACAD_REACTORS
330
C
102
}
100
AcDbDictionary
281
1
  3
Model
350
255
  3
Layout1
350
256
  0
ACDBPLACEHOLDER
  5
F
102
{ACAD_REACTORS
330
E
102
}
  0
MLINESTYLE
  5
18
102
{ACAD_REACTORS
330
17
102
}
100
AcDbMlineStyle
  2
STANDARD
 70
0
  3

 62
256
 51
90.0
 52
90.0
 71
2
 49
0.5
 62
256
  6
BYLAYER
 49
-0.5
 62
256
  6
BYLAYER
  0
LAYOUT
  5
255
102
{ACAD_REACTORS
330
1A
102
}
100
AcDbPlotSettings
  1

  2
none_device
  4

  6

 40
0.0
 41
0.0
 42
0.0
 43
0.0
 44
210.0
 45
297.0
 46
0.0
 47
0.0
 48
0.0
 49
0.0
140
0.0
141
0.0
142
1.0
143
1.0
 70
1024
 72
1
 73
0
 74
0
  7

 75
0
147
1.0
148
0.0
149
0.0
100
AcDbLayout
  1
Model
 70
0
 71
0
 10
0.0
 20
0.0
 11
210.0
 21
297.0
 12
0.0
 22
0.0
 32
0.0
 14
0.0
 24
0.0
 34
0.0
 15
0.0
 25
0.0
 35
0.0
146
0.0
 13
0.0
 23
0.0
 33
0.0
 16
1.0
 26
0.0
 36
0.0
 17
0.0
 27
1.0
 37
0.0
 76
0
330
210
345
0
346
0
  0
LAYOUT
  5
256
102
{ACAD_REACTORS
330
1A
102
}
100
AcDbPlotSettings
  1

  2
none_device
  4

  6

 40
0.0
 41
0.0
 42
0.0
 43
0.0
 44
210.0
 45
297.0
 46
0.0
 47
0.0
 48
0.0
 49
0.0
140
0.0
141
0.0
142
1.0
143
1.0
 70
0
 72
1
 73
0
 74
0
  7

 75
0
147
1.0
148
0.0
149
0.0
100
AcDbLayout
  1
Layout1
 70
0
 71
1
 10
0.0
 20
0.0
 11
210.0
 21
297.0
 12
0.0
 22
0.0
 32
0.0
 14
0.0
 24
0.0
 34
0.0
 15
0.0
 25
0.0
 35
0.0
146
0.0
 13
0.0
 23
0.0
 33
0.0
 16
1.0
 26
0.0
 36
0.0
 17
0.0
 27
1.0
 37
0.0
 76
0
330
211
345
0
346
0
  0
ENDSEC
  0
EOF
