  0
SECTION
  2
HEADER
  9
$ACADVER
  1
AC1009
  9
$DWGCODEPAGE
  3
ansi_1250
  9
$INSBASE
 10
0.0
 20
0.0
 30
0.0
  9
$EXTMIN
 10
-9.405512
 20
-8.566929
 30
0.0
  9
$EXTMAX
 10
13.626147
 20
11.393701
 30
0.0
  9
$LIMMIN
 10
0.0
 20
0.0
  9
$LIMMAX
 10
0.0
 20
0.0
  9
$ORTHOMODE
 70
     0
  9
$REGENMODE
 70
     1
  9
$FILLMODE
 70
     1
  9
$QTEXTMODE
 70
     0
  9
$MIRRTEXT
 70
     1
  9
$DRAGMODE
 70
     2
  9
$LTSCALE
 40
1.0
  9
$OSMODE
 70
     0
  9
$ATTMODE
 70
     1
  9
$TEXTSIZE
 40
0.2
  9
$TRACEWID
 40
0.05
  9
$TEXTSTYLE
  7
STANDARD
  9
$CLAYER
  8
0
  9
$CELTYPE
  6
CONTINUOUS
  9
$CECOLOR
 62
   256
  9
$DIMSCALE
 40
1.0
  9
$DIMASZ
 40
0.18
  9
$DIMEXO
 40
0.0625
  9
$DIMDLI
 40
0.38
  9
$DIMRND
 40
0.0
  9
$DIMDLE
 40
0.0
  9
$DIMEXE
 40
0.18
  9
$DIMTP
 40
0.0
  9
$DIMTM
 40
0.0
  9
$DIMTXT
 40
0.18
  9
$DIMCEN
 40
0.09
  9
$DIMTSZ
 40
0.0
  9
$DIMTOL
 70
     0
  9
$DIMLIM
 70
     0
  9
$DIMTIH
 70
     1
  9
$DIMTOH
 70
     1
  9
$DIMSE1
 70
     0
  9
$DIMSE2
 70
     0
  9
$DIMTAD
 70
     0
  9
$DIMZIN
 70
     0
  9
$DIMBLK
  1

  9
$DIMASO
 70
     1
  9
$DIMSHO
 70
     1
  9
$DIMPOST
  1

  9
$DIMAPOST
  1

  9
$DIMALT
 70
     0
  9
$DIMALTD
 70
     2
  9
$DIMALTF
 40
25.4
  9
$DIMLFAC
 40
1.0
  9
$DIMTOFL
 70
     0
  9
$DIMTVP
 40
0.0
  9
$DIMTIX
 70
     0
  9
$DIMSOXD
 70
     0
  9
$DIMSAH
 70
     0
  9
$DIMBLK1
  1

  9
$DIMBLK2
  1

  9
$DIMSTYLE
  2
STANDARD
  9
$DIMCLRD
 70
     0
  9
$DIMCLRE
 70
     0
  9
$DIMCLRT
 70
     0
  9
$DIMTFAC
 40
1.0
  9
$DIMGAP
 40
0.09
  9
$LUNITS
 70
     2
  9
$LUPREC
 70
     4
  9
$AXISMODE
 70
     0
  9
$AXISUNIT
 10
0.0
 20
0.0
  9
$SKETCHINC
 40
0.1
  9
$FILLETRAD
 40
0.0
  9
$AUNITS
 70
     0
  9
$AUPREC
 70
     0
  9
$MENU
  1
acad
  9
$ELEVATION
 40
0.0
  9
$PELEVATION
 40
0.0
  9
$THICKNESS
 40
0.0
  9
$LIMCHECK
 70
     0
  9
$BLIPMODE
 70
     1
  9
$CHAMFERA
 40
0.0
  9
$CHAMFERB
 40
0.0
  9
$SKPOLY
 70
     0
  9
$TDCREATE
 40
0.000000000
  9
$TDUPDATE
 40
0.000000000
  9
$TDINDWG
 40
0.0000000000
  9
$TDUSRTIMER
 40
0.0000000000
  9
$USRTIMER
 70
     1
  9
$ANGBASE
 50
0.0
  9
$ANGDIR
 70
     0
  9
$PDMODE
 70
     0
  9
$PDSIZE
 40
0.0
  9
$PLINEWID
 40
0.0
  9
$COORDS
 70
     0
  9
$SPLFRAME
 70
     0
  9
$SPLINETYPE
 70
     6
  9
$SPLINESEGS
 70
     8
  9
$ATTDIA
 70
     0
  9
$ATTREQ
 70
     1
  9
$HANDLING
 70
     1
  9
$HANDSEED
  5
66D
  9
$SURFTAB1
 70
     6
  9
$SURFTAB2
 70
     6
  9
$SURFTYPE
 70
     6
  9
$SURFU
 70
     6
  9
$SURFV
 70
     6
  9
$UCSNAME
  2

  9
$UCSORG
 10
0.0
 20
0.0
 30
0.0
  9
$UCSXDIR
 10
1.0
 20
0.0
 30
0.0
  9
$UCSYDIR
 10
0.0
 20
1.0
 30
0.0
  9
$PUCSNAME
  2

  9
$PUCSORG
 10
0.0
 20
0.0
 30
0.0
  9
$PUCSXDIR
 10
1.0
 20
0.0
 30
0.0
  9
$PUCSYDIR
 10
0.0
 20
1.0
 30
0.0
  9
$USERI1
 70
     0
  9
$USERI2
 70
     0
  9
$USERI3
 70
     0
  9
$USERI4
 70
     0
  9
$USERI5
 70
     0
  9
$USERR1
 40
0.0
  9
$USERR2
 40
0.0
  9
$USERR3
 40
0.0
  9
$USERR4
 40
0.0
  9
$USERR5
 40
0.0
  9
$WORLDVIEW
 70
     1
  9
$SHADEDGE
 70
     3
  9
$SHADEDIF
 70
    70
  9
$TILEMODE
 70
     1
  9
$MAXACTVP
 70
    16
  9
$PINSBASE
 10
0.0
 20
0.0
 30
0.0
  9
$PLIMCHECK
 70
     0
  9
$PEXTMIN
 10
1.000000E+20
 20
1.000000E+20
 30
1.000000E+20
  9
$PEXTMAX
 10
-1.000000E+20
 20
-1.000000E+20
 30
-1.000000E+20
  9
$PLIMMIN
 10
0.0
 20
0.0
  9
$PLIMMAX
 10
12.0
 20
9.0
  9
$UNITMODE
 70
     0
  9
$VISRETAIN
 70
     0
  9
$PLINEGEN
 70
     1
  9
$PSLTSCALE
 70
     0
  9
$TREEDEPTH
 70
  3020
  0
ENDSEC
  0
SECTION
  2
TABLES
  0
TABLE
  2
VPORT
 70
     1
  0
VPORT
  2
*ACTIVE
 70
     0
 10
0.0
 20
0.0
 11
1.0
 21
1.0
 12
6.591288
 22
4.579184
 13
0.0
 23
0.0
 14
1.0
 24
1.0
 15
0.0
 25
0.0
 16
0.0
 26
0.0
 36
1.0
 17
0.0
 27
0.0
 37
0.0
 40
9.158369
 41
0.688564
 42
50.0
 43
0.0
 44
0.0
 50
0.0
 51
0.0
 71
     0
 72
   100
 73
     1
 74
     1
 75
     0
 76
     0
 77
     0
 78
     0
  0
ENDTAB
  0
TABLE
  2
LTYPE
 70
     5
  0
LTYPE
  2
CONTINUOUS
 70
    64
  3
Solid line
 72
    65
 73
     0
 40
0.0
  0
LTYPE
  2
CENTER
 70
    64
  3
Center ____ _ ____ _ ____ _ ____ _ ____ _ ____
 72
    65
 73
     4
 40
50.8
 49
31.75
 49
-6.35
 49
6.35
 49
-6.35
  0
LTYPE
  2
HIDDEN
 70
    64
  3
Hidden __ __ __ __ __ __ __ __ __ __ __ __ __ __
 72
    65
 73
     2
 40
9.525
 49
6.35
 49
-3.175
  0
LTYPE
  2
CENTER2
 70
    64
  3
Center (.5x) ___ _ ___ _ ___ _ ___ _ ___ _ ___
 72
    65
 73
     4
 40
28.575
 49
19.05
 49
-3.175
 49
3.175
 49
-3.175
  0
LTYPE
  2
HIDDEN2
 70
    64
  3
Hidden (.5x) _ _ _ _ _ _ _ _ _ _ _ _ _ _ _ _ _
 72
    65
 73
     2
 40
4.7625
 49
3.175
 49
-1.5875
  0
ENDTAB
  0
TABLE
  2
LAYER
 70
     1
  0
LAYER
  2
0
 70
     0
 62
     7
  6
CONTINUOUS
  0
ENDTAB
  0
TABLE
  2
STYLE
 70
     1
  0
STYLE
  2
STANDARD
 70
     0
 40
0.0
 41
1.0
 50
0.0
 71
     0
 42
0.0
  3
txt
  4

  0
ENDTAB
  0
TABLE
  2
VIEW
 70
     0
  0
ENDTAB
  0
TABLE
  2
UCS
 70
     0
  0
ENDTAB
  0
TABLE
  2
APPID
 70
     1
  0
APPID
  2
ACAD
 70
     0
  0
ENDTAB
  0
TABLE
  2
DIMSTYLE
 70
     1
  0
DIMSTYLE
  2
STANDARD
 70
     0
  3

  4

  5

  6

  7

 40
1.0
 41
0.18
 42
0.0625
 43
0.38
 44
0.18
 45
0.0
 46
0.0
 47
0.0
 48
0.0
 71
     0
 72
     0
 73
     1
 74
     1
 75
     0
 76
     0
 77
     0
 78
     0
140
0.18
141
0.09
142
0.0
143
25.4
144
1.0
145
0.0
146
1.0
147
0.09
170
     0
171
     2
172
     0
173
     0
174
     0
175
     0
176
     0
177
     0
178
     0
  0
ENDTAB
  0
ENDSEC
  0
SECTION
  2
BLOCKS
  0
ENDSEC
  0
SECTION
  2
ENTITIES
  0
LINE
  8
0
  6
CONTINUOUS
 62
     7
  5
3C9
 10
4.992126
 20
-2.877953
 30
0.0
 11
4.992126
 21
-1.956693
 31
0.0
  0
LINE
  8
0
  6
CONTINUOUS
 62
     7
  5
3CA
 10
4.992126
 20
-2.937118
 30
0.0
 11
4.992126
 21
-2.877953
 31
0.0
  0
LINE
  8
0
  6
CONTINUOUS
 62
     7
  5
3CB
 10
4.992126
 20
5.704724
 30
0.0
 11
4.992126
 21
5.763889
 31
0.0
  0
LINE
  8
0
  6
CONTINUOUS
 62
     7
  5
3CC
 10
4.992126
 20
4.783465
 30
0.0
 11
4.992126
 21
5.704724
 31
0.0
  0
LINE
  8
0
  6
CONTINUOUS
 62
     7
  5
3CD
 10
0.838583
 20
-0.854331
 30
0.0
 11
0.838583
 21
-0.26378
 31
0.0
  0
LINE
  8
0
  6
CONTINUOUS
 62
     7
  5
3CE
 10
0.838583
 20
-2.366142
 30
0.0
 11
0.838583
 21
-0.854331
 31
0.0
  0
LINE
  8
0
  6
CONTINUOUS
 62
     7
  5
3CF
 10
0.838583
 20
-2.956693
 30
0.0
 11
0.838583
 21
-2.366142
 31
0.0
  0
LINE
  8
0
  6
CONTINUOUS
 62
     7
  5
3D0
 10
0.0
 20
-2.956693
 30
0.0
 11
0.838583
 21
-2.956693
 31
0.0
  0
LINE
  8
0
  6
CONTINUOUS
 62
     7
  5
3D1
 10
0.0
 20
-2.366142
 30
0.0
 11
0.838583
 21
-2.366142
 31
0.0
  0
LINE
  8
0
  6
CONTINUOUS
 62
     7
  5
3D2
 10
0.0
 20
-2.366142
 30
0.0
 11
0.0
 21
-2.956693
 31
0.0
  0
LINE
  8
0
  6
CONTINUOUS
 62
     7
  5
3D3
 10
0.0
 20
-0.854331
 30
0.0
 11
0.838583
 21
-0.854331
 31
0.0
  0
LINE
  8
0
  6
CONTINUOUS
 62
     7
  5
3D4
 10
0.0
 20
-0.854331
 30
0.0
 11
0.0
 21
-2.366142
 31
0.0
  0
LINE
  8
0
  6
CONTINUOUS
 62
     7
  5
3D5
 10
0.0
 20
-0.26378
 30
0.0
 11
0.838583
 21
-0.26378
 31
0.0
  0
LINE
  8
0
  6
CONTINUOUS
 62
     7
  5
3D6
 10
0.0
 20
-0.26378
 30
0.0
 11
0.0
 21
-0.854331
 31
0.0
  0
LINE
  8
0
  6
CONTINUOUS
 62
     7
  5
3D7
 10
0.759843
 20
3.090551
 30
0.0
 11
0.759843
 21
-0.26378
 31
0.0
  0
LINE
  8
0
  6
CONTINUOUS
 62
     7
  5
3D8
 10
0.0
 20
3.090551
 30
0.0
 11
0.838583
 21
3.090551
 31
0.0
  0
LINE
  8
0
  6
CONTINUOUS
 62
     7
  5
3D9
 10
0.838583
 20
3.681102
 30
0.0
 11
0.838583
 21
5.192913
 31
0.0
  0
LINE
  8
0
  6
CONTINUOUS
 62
     7
  5
3DA
 10
0.0
 20
5.192913
 30
0.0
 11
0.838583
 21
5.192913
 31
0.0
  0
LINE
  8
0
  6
CONTINUOUS
 62
     7
  5
3DB
 10
0.0
 20
5.192913
 30
0.0
 11
0.0
 21
3.681102
 31
0.0
  0
LINE
  8
0
  6
CONTINUOUS
 62
     7
  5
3DC
 10
0.0
 20
3.681102
 30
0.0
 11
0.838583
 21
3.681102
 31
0.0
  0
LINE
  8
0
  6
CONTINUOUS
 62
     7
  5
3DD
 10
0.838583
 20
5.192913
 30
0.0
 11
0.838583
 21
5.783465
 31
0.0
  0
LINE
  8
0
  6
CONTINUOUS
 62
     7
  5
3DE
 10
0.0
 20
5.783465
 30
0.0
 11
0.838583
 21
5.783465
 31
0.0
  0
LINE
  8
0
  6
CONTINUOUS
 62
     7
  5
3DF
 10
0.0
 20
5.783465
 30
0.0
 11
0.0
 21
5.192913
 31
0.0
  0
LINE
  8
0
  6
CONTINUOUS
 62
     7
  5
3E0
 10
0.838583
 20
3.090551
 30
0.0
 11
0.838583
 21
3.681102
 31
0.0
  0
LINE
  8
0
  6
CONTINUOUS
 62
     7
  5
3E1
 10
0.0
 20
3.681102
 30
0.0
 11
0.0
 21
3.090551
 31
0.0
  0
LINE
  8
0
  6
CONTINUOUS
 62
     7
  5
3E2
 10
2.749016
 20
5.783465
 30
0.0
 11
0.838583
 21
5.766792
 31
0.0
  0
LINE
  8
0
  6
CONTINUOUS
 62
     7
  5
3E3
 10
2.749016
 20
5.783465
 30
0.0
 11
2.749016
 21
5.704724
 31
0.0
  0
LINE
  8
0
  6
CONTINUOUS
 62
     7
  5
3E4
 10
2.749016
 20
5.704724
 30
0.0
 11
2.749016
 21
-2.877953
 31
0.0
  0
LINE
  8
0
  6
CONTINUOUS
 62
     7
  5
3E5
 10
2.749016
 20
-2.956693
 30
0.0
 11
0.838583
 21
-2.940021
 31
0.0
  0
LINE
  8
0
  6
CONTINUOUS
 62
     7
  5
3E6
 10
2.749016
 20
-2.877953
 30
0.0
 11
2.749016
 21
-2.956693
 31
0.0
  0
LINE
  8
0
  6
CONTINUOUS
 62
     7
  5
3E7
 10
2.749016
 20
5.783465
 30
0.0
 11
4.992126
 21
5.763889
 31
0.0
  0
LINE
  8
0
  6
CONTINUOUS
 62
     7
  5
3E8
 10
2.749016
 20
-2.956693
 30
0.0
 11
4.992126
 21
-2.937118
 31
0.0
  0
LINE
  8
0
  6
CONTINUOUS
 62
     7
  5
3E9
 10
4.992126
 20
-2.956693
 30
0.0
 11
4.992126
 21
-2.937118
 31
0.0
  0
LINE
  8
0
  6
CONTINUOUS
 62
     7
  5
3EA
 10
4.992126
 20
5.763889
 30
0.0
 11
4.992126
 21
5.783465
 31
0.0
  0
LINE
  8
0
  6
CONTINUOUS
 62
     7
  5
3EB
 10
4.992126
 20
-1.956693
 30
0.0
 11
4.992126
 21
4.783465
 31
0.0
  0
LINE
  8
0
  6
CONTINUOUS
 62
     7
  5
3EC
 10
8.213092
 20
1.22697
 30
0.0
 11
8.216105
 21
1.228375
 31
0.0
  0
LINE
  8
0
  6
CONTINUOUS
 62
     7
  5
3ED
 10
8.065951
 20
1.158357
 30
0.0
 11
8.213092
 21
1.22697
 31
0.0
  0
LINE
  8
0
  6
CONTINUOUS
 62
     7
  5
3EE
 10
7.965221
 20
1.111385
 30
0.0
 11
8.065951
 21
1.158357
 31
0.0
  0
LINE
  8
0
  6
CONTINUOUS
 62
     7
  5
3EF
 10
6.830709
 20
0.582354
 30
0.0
 11
7.965221
 21
1.111385
 31
0.0
  0
LINE
  8
0
  6
CONTINUOUS
 62
     7
  5
3F0
 10
7.792879
 20
-2.069787
 30
0.0
 11
7.795814
 21
-2.071347
 31
0.0
  0
LINE
  8
0
  6
CONTINUOUS
 62
     7
  5
3F1
 10
7.64953
 20
-1.993567
 30
0.0
 11
7.792879
 21
-2.069787
 31
0.0
  0
LINE
  8
0
  6
CONTINUOUS
 62
     7
  5
3F2
 10
7.551397
 20
-1.941388
 30
0.0
 11
7.64953
 21
-1.993567
 31
0.0
  0
LINE
  8
0
  6
CONTINUOUS
 62
     7
  5
3F3
 10
6.830709
 20
-1.558192
 30
0.0
 11
7.551397
 21
-1.941388
 31
0.0
  0
LINE
  8
0
  6
CONTINUOUS
 62
     7
  5
3F4
 10
7.902576
 20
-1.280916
 30
0.0
 11
6.830709
 21
-0.710994
 31
0.0
  0
LINE
  8
0
  6
CONTINUOUS
 62
     7
  5
3F5
 10
8.00071
 20
-1.333094
 30
0.0
 11
7.902576
 21
-1.280916
 31
0.0
  0
LINE
  8
0
  6
CONTINUOUS
 62
     7
  5
3F6
 10
8.144058
 20
-1.409314
 30
0.0
 11
8.00071
 21
-1.333094
 31
0.0
  0
LINE
  8
0
  6
CONTINUOUS
 62
     7
  5
3F7
 10
8.146994
 20
-1.410875
 30
0.0
 11
8.144058
 21
-1.409314
 31
0.0
  0
LINE
  8
0
  6
CONTINUOUS
 62
     7
  5
3F8
 10
7.814376
 20
1.996727
 30
0.0
 11
7.864292
 21
1.889683
 31
0.0
  0
LINE
  8
0
  6
CONTINUOUS
 62
     7
  5
3F9
 10
7.814376
 20
1.996727
 30
0.0
 11
7.100748
 21
1.663957
 31
0.0
  0
LINE
  8
0
  6
CONTINUOUS
 62
     7
  5
3FA
 10
7.814376
 20
1.996727
 30
0.0
 11
9.990521
 21
3.01148
 31
0.0
  0
LINE
  8
0
  6
CONTINUOUS
 62
     7
  5
3FB
 10
8.180424
 20
1.211736
 30
0.0
 11
8.230339
 21
1.104692
 31
0.0
  0
LINE
  8
0
  6
CONTINUOUS
 62
     7
  5
3FC
 10
7.516711
 20
0.771922
 30
0.0
 11
8.230339
 21
1.104692
 31
0.0
  0
LINE
  8
0
  6
CONTINUOUS
 62
     7
  5
3FD
 10
10.406484
 20
2.119445
 30
0.0
 11
8.230339
 21
1.104692
 31
0.0
  0
ARC
  8
0
  6
CONTINUOUS
 62
     7
  5
3FE
 10
10.33993
 20
2.262171
 30
0.0
 40
0.15748
 50
295.0
 51
325.0
  0
LINE
  8
0
  6
CONTINUOUS
 62
     7
  5
3FF
 10
10.732239
 20
2.547888
 30
0.0
 11
10.46893
 21
2.171844
 31
0.0
  0
ARC
  8
0
  6
CONTINUOUS
 62
     7
  5
400
 10
10.764489
 20
2.525306
 30
0.0
 40
0.03937
 50
115.0
 51
145.0
  0
LINE
  8
0
  6
CONTINUOUS
 62
     7
  5
401
 10
12.656866
 20
3.451176
 30
0.0
 11
10.747851
 21
2.560987
 31
0.0
  0
ARC
  8
0
  6
CONTINUOUS
 62
     7
  5
402
 10
13.035596
 20
3.888421
 30
0.0
 40
0.578463
 50
216.781465
 51
229.101777
  0
LINE
  8
0
  6
CONTINUOUS
 62
     7
  5
403
 10
10.697935
 20
2.668032
 30
0.0
 11
12.57229
 21
3.542058
 31
0.0
  0
ARC
  8
0
  6
CONTINUOUS
 62
     7
  5
404
 10
10.764489
 20
2.525306
 30
0.0
 40
0.15748
 50
115.0
 51
145.0
  0
LINE
  8
0
  6
CONTINUOUS
 62
     7
  5
405
 10
10.37218
 20
2.239589
 30
0.0
 11
10.635489
 21
2.615633
 31
0.0
  0
ARC
  8
0
  6
CONTINUOUS
 62
     7
  5
406
 10
10.33993
 20
2.262171
 30
0.0
 40
0.03937
 50
295.0
 51
325.0
  0
LINE
  8
0
  6
CONTINUOUS
 62
     7
  5
407
 10
8.216105
 20
1.228375
 30
0.0
 11
10.356569
 21
2.226489
 31
0.0
  0
LINE
  8
0
  6
CONTINUOUS
 62
     7
  5
408
 10
10.040437
 20
2.904436
 30
0.0
 11
7.899973
 21
1.906321
 31
0.0
  0
ARC
  8
0
  6
CONTINUOUS
 62
     7
  5
409
 10
10.057075
 20
2.868755
 30
0.0
 40
0.03937
 50
85.0
 51
115.0
  0
LINE
  8
0
  6
CONTINUOUS
 62
     7
  5
40A
 10
10.517825
 20
2.867965
 30
0.0
 11
10.060507
 21
2.907975
 31
0.0
  0
ARC
  8
0
  6
CONTINUOUS
 62
     7
  5
40B
 10
10.53155
 20
3.024846
 30
0.0
 40
0.15748
 50
265.0
 51
295.0
  0
LINE
  8
0
  6
CONTINUOUS
 62
     7
  5
40C
 10
12.472459
 20
3.756146
 30
0.0
 11
10.598104
 21
2.88212
 31
0.0
  0
ARC
  8
0
  6
CONTINUOUS
 62
     7
  5
40D
 10
13.035596
 20
3.888421
 30
0.0
 40
0.578463
 50
180.898223
 51
193.218535
  0
LINE
  8
0
  6
CONTINUOUS
 62
     7
  5
40E
 10
10.548189
 20
2.989164
 30
0.0
 11
12.457204
 21
3.879353
 31
0.0
  0
ARC
  8
0
  6
CONTINUOUS
 62
     7
  5
40F
 10
10.53155
 20
3.024846
 30
0.0
 40
0.03937
 50
265.0
 51
295.0
  0
LINE
  8
0
  6
CONTINUOUS
 62
     7
  5
410
 10
10.070801
 20
3.025636
 30
0.0
 11
10.528119
 21
2.985625
 31
0.0
  0
ARC
  8
0
  6
CONTINUOUS
 62
     7
  5
411
 10
10.057075
 20
2.868755
 30
0.0
 40
0.15748
 50
85.0
 51
115.0
  0
LINE
  8
0
  6
CONTINUOUS
 62
     7
  5
412
 10
7.649089
 20
1.789332
 30
0.0
 11
6.830709
 21
1.407715
 31
0.0
  0
LINE
  8
0
  6
CONTINUOUS
 62
     7
  5
413
 10
7.749819
 20
1.836303
 30
0.0
 11
7.649089
 21
1.789332
 31
0.0
  0
LINE
  8
0
  6
CONTINUOUS
 62
     7
  5
414
 10
7.89696
 20
1.904916
 30
0.0
 11
7.749819
 21
1.836303
 31
0.0
  0
LINE
  8
0
  6
CONTINUOUS
 62
     7
  5
415
 10
7.899973
 20
1.906321
 30
0.0
 11
8.216105
 21
1.228375
 31
0.0
  0
LINE
  8
0
  6
CONTINUOUS
 62
     7
  5
416
 10
7.899973
 20
1.906321
 30
0.0
 11
7.89696
 21
1.904916
 31
0.0
  0
LINE
  8
0
  6
CONTINUOUS
 62
     7
  5
417
 10
8.167682
 20
-1.288106
 30
0.0
 11
8.112232
 21
-1.392392
 31
0.0
  0
LINE
  8
0
  6
CONTINUOUS
 62
     7
  5
418
 10
8.167682
 20
-1.288106
 30
0.0
 11
7.472447
 21
-0.918444
 31
0.0
  0
LINE
  8
0
  6
CONTINUOUS
 62
     7
  5
419
 10
8.167682
 20
-1.288106
 30
0.0
 11
10.287736
 21
-2.41536
 31
0.0
  0
LINE
  8
0
  6
CONTINUOUS
 62
     7
  5
41A
 10
7.761053
 20
-2.052864
 30
0.0
 11
7.705603
 21
-2.157149
 31
0.0
  0
LINE
  8
0
  6
CONTINUOUS
 62
     7
  5
41B
 10
7.010369
 20
-1.787487
 30
0.0
 11
7.705603
 21
-2.157149
 31
0.0
  0
LINE
  8
0
  6
CONTINUOUS
 62
     7
  5
41C
 10
9.825658
 20
-3.284402
 30
0.0
 11
7.705603
 21
-2.157149
 31
0.0
  0
ARC
  8
0
  6
CONTINUOUS
 62
     7
  5
41D
 10
9.89959
 20
-3.145356
 30
0.0
 40
0.15748
 50
242.0
 51
272.0
  0
LINE
  8
0
  6
CONTINUOUS
 62
     7
  5
41E
 10
10.363872
 20
-3.286719
 30
0.0
 11
9.905086
 21
-3.30274
 31
0.0
  0
ARC
  8
0
  6
CONTINUOUS
 62
     7
  5
41F
 10
10.365246
 20
-3.326065
 30
0.0
 40
0.03937
 50
62.0
 51
92.0
  0
LINE
  8
0
  6
CONTINUOUS
 62
     7
  5
420
 10
12.243539
 20
-4.280182
 30
0.0
 11
10.383729
 21
-3.291303
 31
0.0
  0
ARC
  8
0
  6
CONTINUOUS
 62
     7
  5
421
 10
12.820663
 20
-4.319508
 30
0.0
 40
0.578463
 50
163.781465
 51
176.101777
  0
LINE
  8
0
  6
CONTINUOUS
 62
     7
  5
422
 10
10.439178
 20
-3.187018
 30
0.0
 11
12.265221
 21
-4.157942
 31
0.0
  0
ARC
  8
0
  6
CONTINUOUS
 62
     7
  5
423
 10
10.365246
 20
-3.326065
 30
0.0
 40
0.15748
 50
62.0
 51
92.0
  0
LINE
  8
0
  6
CONTINUOUS
 62
     7
  5
424
 10
9.900964
 20
-3.184702
 30
0.0
 11
10.35975
 21
-3.168681
 31
0.0
  0
ARC
  8
0
  6
CONTINUOUS
 62
     7
  5
425
 10
9.89959
 20
-3.145356
 30
0.0
 40
0.03937
 50
242.0
 51
272.0
  0
LINE
  8
0
  6
CONTINUOUS
 62
     7
  5
426
 10
7.795814
 20
-2.071347
 30
0.0
 11
9.881107
 21
-3.180117
 31
0.0
  0
LINE
  8
0
  6
CONTINUOUS
 62
     7
  5
427
 10
10.232287
 20
-2.519645
 30
0.0
 11
8.146994
 21
-1.410875
 31
0.0
  0
ARC
  8
0
  6
CONTINUOUS
 62
     7
  5
428
 10
10.213804
 20
-2.554406
 30
0.0
 40
0.03937
 50
32.0
 51
62.0
  0
LINE
  8
0
  6
CONTINUOUS
 62
     7
  5
429
 10
10.490459
 20
-2.922853
 30
0.0
 11
10.247191
 21
-2.533543
 31
0.0
  0
ARC
  8
0
  6
CONTINUOUS
 62
     7
  5
42A
 10
10.62401
 20
-2.839401
 30
0.0
 40
0.15748
 50
212.0
 51
242.0
  0
LINE
  8
0
  6
CONTINUOUS
 62
     7
  5
42B
 10
12.37612
 20
-3.949372
 30
0.0
 11
10.550077
 21
-2.978448
 31
0.0
  0
ARC
  8
0
  6
CONTINUOUS
 62
     7
  5
42C
 10
12.820663
 20
-4.319508
 30
0.0
 40
0.578463
 50
127.898223
 51
140.218535
  0
LINE
  8
0
  6
CONTINUOUS
 62
     7
  5
42D
 10
10.605527
 20
-2.874163
 30
0.0
 11
12.465336
 21
-3.863041
 31
0.0
  0
ARC
  8
0
  6
CONTINUOUS
 62
     7
  5
42E
 10
10.62401
 20
-2.839401
 30
0.0
 40
0.03937
 50
212.0
 51
242.0
  0
LINE
  8
0
  6
CONTINUOUS
 62
     7
  5
42F
 10
10.347354
 20
-2.470955
 30
0.0
 11
10.590622
 21
-2.860264
 31
0.0
  0
ARC
  8
0
  6
CONTINUOUS
 62
     7
  5
430
 10
10.213804
 20
-2.554406
 30
0.0
 40
0.15748
 50
32.0
 51
62.0
  0
LINE
  8
0
  6
CONTINUOUS
 62
     7
  5
431
 10
8.146994
 20
-1.410875
 30
0.0
 11
7.795814
 21
-2.071347
 31
0.0
  0
LINE
  8
0
  6
CONTINUOUS
 62
     7
  5
432
 10
5.188976
 20
5.333465
 30
0.0
 11
5.188976
 21
4.783465
 31
0.0
  0
LINE
  8
0
  6
CONTINUOUS
 62
     7
  5
433
 10
4.992126
 20
5.333465
 30
0.0
 11
5.188976
 21
5.333465
 31
0.0
  0
LINE
  8
0
  6
CONTINUOUS
 62
     7
  5
434
 10
5.188976
 20
4.783465
 30
0.0
 11
4.992126
 21
4.783465
 31
0.0
  0
LINE
  8
0
  6
CONTINUOUS
 62
     7
  5
435
 10
4.992126
 20
-1.956693
 30
0.0
 11
5.188976
 21
-1.956693
 31
0.0
  0
LINE
  8
0
  6
CONTINUOUS
 62
     7
  5
436
 10
5.188976
 20
4.783465
 30
0.0
 11
5.188976
 21
-1.956693
 31
0.0
  0
LINE
  8
0
  6
CONTINUOUS
 62
     7
  5
437
 10
4.992126
 20
5.783465
 30
0.0
 11
5.070866
 21
5.783465
 31
0.0
  0
LINE
  8
0
  6
CONTINUOUS
 62
     7
  5
438
 10
5.070866
 20
-2.956693
 30
0.0
 11
4.992126
 21
-2.956693
 31
0.0
  0
LINE
  8
0
  6
CONTINUOUS
 62
     7
  5
439
 10
5.188976
 20
-1.956693
 30
0.0
 11
5.188976
 21
-2.506693
 31
0.0
  0
LINE
  8
0
  6
CONTINUOUS
 62
     7
  5
43A
 10
4.992126
 20
-2.506693
 30
0.0
 11
5.188976
 21
-2.506693
 31
0.0
  0
LINE
  8
0
  6
CONTINUOUS
 62
     7
  5
43B
 10
5.070866
 20
-2.720472
 30
0.0
 11
5.070866
 21
-2.956693
 31
0.0
  0
LINE
  8
0
  6
CONTINUOUS
 62
     7
  5
43C
 10
5.070866
 20
5.783465
 30
0.0
 11
5.070866
 21
5.547244
 31
0.0
  0
LINE
  8
0
  6
CONTINUOUS
 62
     7
  5
43D
 10
6.362205
 20
5.547244
 30
0.0
 11
5.070866
 21
5.547244
 31
0.0
  0
LINE
  8
0
  6
CONTINUOUS
 62
     7
  5
43E
 10
6.362205
 20
-2.720472
 30
0.0
 11
5.070866
 21
-2.720472
 31
0.0
  0
LINE
  8
0
  6
CONTINUOUS
 62
     7
  5
43F
 10
6.362205
 20
5.547244
 30
0.0
 11
6.362205
 21
-2.720472
 31
0.0
  0
LINE
  8
0
  6
CONTINUOUS
 62
     7
  5
440
 10
6.633858
 20
5.251969
 30
0.0
 11
6.633858
 21
-2.425197
 31
0.0
  0
LINE
  8
0
  6
CONTINUOUS
 62
     7
  5
441
 10
6.633858
 20
-2.425197
 30
0.0
 11
6.362205
 21
-2.425197
 31
0.0
  0
LINE
  8
0
  6
CONTINUOUS
 62
     7
  5
442
 10
6.633858
 20
5.251969
 30
0.0
 11
6.362205
 21
5.251969
 31
0.0
  0
LINE
  8
0
  6
CONTINUOUS
 62
     7
  5
443
 10
6.830709
 20
2.224409
 30
0.0
 11
6.830709
 21
-2.224409
 31
0.0
  0
LINE
  8
0
  6
CONTINUOUS
 62
     7
  5
444
 10
6.830709
 20
-2.224409
 30
0.0
 11
6.633858
 21
-2.224409
 31
0.0
  0
LINE
  8
0
  6
CONTINUOUS
 62
     7
  5
445
 10
6.830709
 20
2.224409
 30
0.0
 11
6.633858
 21
2.224409
 31
0.0
  0
LINE
  8
0
  6
CONTINUOUS
 62
     7
  5
446
 10
1.904173
 20
5.980315
 30
0.0
 11
1.904091
 21
5.975906
 31
0.0
  0
LINE
  8
0
  6
CONTINUOUS
 62
     7
  5
447
 10
1.904091
 20
5.975906
 30
0.0
 11
1.903844
 21
5.971504
 31
0.0
  0
LINE
  8
0
  6
CONTINUOUS
 62
     7
  5
448
 10
1.903844
 20
5.971504
 30
0.0
 11
1.903433
 21
5.967113
 31
0.0
  0
LINE
  8
0
  6
CONTINUOUS
 62
     7
  5
449
 10
1.903433
 20
5.967113
 30
0.0
 11
1.902858
 21
5.962741
 31
0.0
  0
LINE
  8
0
  6
CONTINUOUS
 62
     7
  5
44A
 10
1.902858
 20
5.962741
 30
0.0
 11
1.902121
 21
5.958394
 31
0.0
  0
LINE
  8
0
  6
CONTINUOUS
 62
     7
  5
44B
 10
1.902121
 20
5.958394
 30
0.0
 11
1.901222
 21
5.954077
 31
0.0
  0
LINE
  8
0
  6
CONTINUOUS
 62
     7
  5
44C
 10
1.901222
 20
5.954077
 30
0.0
 11
1.900162
 21
5.949796
 31
0.0
  0
LINE
  8
0
  6
CONTINUOUS
 62
     7
  5
44D
 10
1.900162
 20
5.949796
 30
0.0
 11
1.898944
 21
5.945559
 31
0.0
  0
LINE
  8
0
  6
CONTINUOUS
 62
     7
  5
44E
 10
1.898944
 20
5.945559
 30
0.0
 11
1.897568
 21
5.941369
 31
0.0
  0
LINE
  8
0
  6
CONTINUOUS
 62
     7
  5
44F
 10
1.897568
 20
5.941369
 30
0.0
 11
1.896036
 21
5.937234
 31
0.0
  0
LINE
  8
0
  6
CONTINUOUS
 62
     7
  5
450
 10
1.896036
 20
5.937234
 30
0.0
 11
1.894351
 21
5.933159
 31
0.0
  0
LINE
  8
0
  6
CONTINUOUS
 62
     7
  5
451
 10
1.894351
 20
5.933159
 30
0.0
 11
1.892516
 21
5.92915
 31
0.0
  0
LINE
  8
0
  6
CONTINUOUS
 62
     7
  5
452
 10
1.892516
 20
5.92915
 30
0.0
 11
1.890532
 21
5.925212
 31
0.0
  0
LINE
  8
0
  6
CONTINUOUS
 62
     7
  5
453
 10
1.890532
 20
5.925212
 30
0.0
 11
1.888402
 21
5.921351
 31
0.0
  0
LINE
  8
0
  6
CONTINUOUS
 62
     7
  5
454
 10
1.888402
 20
5.921351
 30
0.0
 11
1.88613
 21
5.917572
 31
0.0
  0
LINE
  8
0
  6
CONTINUOUS
 62
     7
  5
455
 10
1.88613
 20
5.917572
 30
0.0
 11
1.883718
 21
5.91388
 31
0.0
  0
LINE
  8
0
  6
CONTINUOUS
 62
     7
  5
456
 10
1.883718
 20
5.91388
 30
0.0
 11
1.88117
 21
5.910281
 31
0.0
  0
LINE
  8
0
  6
CONTINUOUS
 62
     7
  5
457
 10
1.88117
 20
5.910281
 30
0.0
 11
1.878489
 21
5.90678
 31
0.0
  0
LINE
  8
0
  6
CONTINUOUS
 62
     7
  5
458
 10
1.878489
 20
5.90678
 30
0.0
 11
1.87568
 21
5.903381
 31
0.0
  0
LINE
  8
0
  6
CONTINUOUS
 62
     7
  5
459
 10
1.87568
 20
5.903381
 30
0.0
 11
1.872746
 21
5.90009
 31
0.0
  0
LINE
  8
0
  6
CONTINUOUS
 62
     7
  5
45A
 10
1.872746
 20
5.90009
 30
0.0
 11
1.869691
 21
5.89691
 31
0.0
  0
LINE
  8
0
  6
CONTINUOUS
 62
     7
  5
45B
 10
1.869691
 20
5.89691
 30
0.0
 11
1.866519
 21
5.893846
 31
0.0
  0
LINE
  8
0
  6
CONTINUOUS
 62
     7
  5
45C
 10
1.866519
 20
5.893846
 30
0.0
 11
1.863235
 21
5.890903
 31
0.0
  0
LINE
  8
0
  6
CONTINUOUS
 62
     7
  5
45D
 10
1.863235
 20
5.890903
 30
0.0
 11
1.859844
 21
5.888085
 31
0.0
  0
LINE
  8
0
  6
CONTINUOUS
 62
     7
  5
45E
 10
1.859844
 20
5.888085
 30
0.0
 11
1.85635
 21
5.885395
 31
0.0
  0
LINE
  8
0
  6
CONTINUOUS
 62
     7
  5
45F
 10
1.85635
 20
5.885395
 30
0.0
 11
1.852758
 21
5.882838
 31
0.0
  0
LINE
  8
0
  6
CONTINUOUS
 62
     7
  5
460
 10
1.852758
 20
5.882838
 30
0.0
 11
1.849073
 21
5.880416
 31
0.0
  0
LINE
  8
0
  6
CONTINUOUS
 62
     7
  5
461
 10
1.849073
 20
5.880416
 30
0.0
 11
1.8453
 21
5.878134
 31
0.0
  0
LINE
  8
0
  6
CONTINUOUS
 62
     7
  5
462
 10
1.8453
 20
5.878134
 30
0.0
 11
1.841444
 21
5.875994
 31
0.0
  0
LINE
  8
0
  6
CONTINUOUS
 62
     7
  5
463
 10
1.841444
 20
5.875994
 30
0.0
 11
1.837512
 21
5.873999
 31
0.0
  0
LINE
  8
0
  6
CONTINUOUS
 62
     7
  5
464
 10
1.837512
 20
5.873999
 30
0.0
 11
1.833507
 21
5.872153
 31
0.0
  0
LINE
  8
0
  6
CONTINUOUS
 62
     7
  5
465
 10
1.833507
 20
5.872153
 30
0.0
 11
1.829437
 21
5.870457
 31
0.0
  0
LINE
  8
0
  6
CONTINUOUS
 62
     7
  5
466
 10
1.829437
 20
5.870457
 30
0.0
 11
1.825306
 21
5.868915
 31
0.0
  0
LINE
  8
0
  6
CONTINUOUS
 62
     7
  5
467
 10
1.825306
 20
5.868915
 30
0.0
 11
1.82112
 21
5.867527
 31
0.0
  0
LINE
  8
0
  6
CONTINUOUS
 62
     7
  5
468
 10
1.82112
 20
5.867527
 30
0.0
 11
1.816885
 21
5.866297
 31
0.0
  0
LINE
  8
0
  6
CONTINUOUS
 62
     7
  5
469
 10
1.816885
 20
6.094333
 30
0.0
 11
1.82112
 21
6.093103
 31
0.0
  0
LINE
  8
0
  6
CONTINUOUS
 62
     7
  5
46A
 10
1.82112
 20
6.093103
 30
0.0
 11
1.825306
 21
6.091715
 31
0.0
  0
LINE
  8
0
  6
CONTINUOUS
 62
     7
  5
46B
 10
1.825306
 20
6.091715
 30
0.0
 11
1.829437
 21
6.090173
 31
0.0
  0
LINE
  8
0
  6
CONTINUOUS
 62
     7
  5
46C
 10
1.829437
 20
6.090173
 30
0.0
 11
1.833507
 21
6.088477
 31
0.0
  0
LINE
  8
0
  6
CONTINUOUS
 62
     7
  5
46D
 10
1.833507
 20
6.088477
 30
0.0
 11
1.837512
 21
6.086631
 31
0.0
  0
LINE
  8
0
  6
CONTINUOUS
 62
     7
  5
46E
 10
1.837512
 20
6.086631
 30
0.0
 11
1.841444
 21
6.084636
 31
0.0
  0
LINE
  8
0
  6
CONTINUOUS
 62
     7
  5
46F
 10
1.841444
 20
6.084636
 30
0.0
 11
1.8453
 21
6.082496
 31
0.0
  0
LINE
  8
0
  6
CONTINUOUS
 62
     7
  5
470
 10
1.8453
 20
6.082496
 30
0.0
 11
1.849073
 21
6.080214
 31
0.0
  0
LINE
  8
0
  6
CONTINUOUS
 62
     7
  5
471
 10
1.849073
 20
6.080214
 30
0.0
 11
1.852758
 21
6.077792
 31
0.0
  0
LINE
  8
0
  6
CONTINUOUS
 62
     7
  5
472
 10
1.852758
 20
6.077792
 30
0.0
 11
1.85635
 21
6.075235
 31
0.0
  0
LINE
  8
0
  6
CONTINUOUS
 62
     7
  5
473
 10
1.85635
 20
6.075235
 30
0.0
 11
1.859844
 21
6.072545
 31
0.0
  0
LINE
  8
0
  6
CONTINUOUS
 62
     7
  5
474
 10
1.859844
 20
6.072545
 30
0.0
 11
1.863235
 21
6.069727
 31
0.0
  0
LINE
  8
0
  6
CONTINUOUS
 62
     7
  5
475
 10
1.863235
 20
6.069727
 30
0.0
 11
1.866519
 21
6.066784
 31
0.0
  0
LINE
  8
0
  6
CONTINUOUS
 62
     7
  5
476
 10
1.866519
 20
6.066784
 30
0.0
 11
1.869691
 21
6.06372
 31
0.0
  0
LINE
  8
0
  6
CONTINUOUS
 62
     7
  5
477
 10
1.869691
 20
6.06372
 30
0.0
 11
1.872746
 21
6.06054
 31
0.0
  0
LINE
  8
0
  6
CONTINUOUS
 62
     7
  5
478
 10
1.872746
 20
6.06054
 30
0.0
 11
1.87568
 21
6.057249
 31
0.0
  0
LINE
  8
0
  6
CONTINUOUS
 62
     7
  5
479
 10
1.87568
 20
6.057249
 30
0.0
 11
1.878489
 21
6.05385
 31
0.0
  0
LINE
  8
0
  6
CONTINUOUS
 62
     7
  5
47A
 10
1.878489
 20
6.05385
 30
0.0
 11
1.88117
 21
6.050349
 31
0.0
  0
LINE
  8
0
  6
CONTINUOUS
 62
     7
  5
47B
 10
1.88117
 20
6.050349
 30
0.0
 11
1.883718
 21
6.04675
 31
0.0
  0
LINE
  8
0
  6
CONTINUOUS
 62
     7
  5
47C
 10
1.883718
 20
6.04675
 30
0.0
 11
1.88613
 21
6.043058
 31
0.0
  0
LINE
  8
0
  6
CONTINUOUS
 62
     7
  5
47D
 10
1.88613
 20
6.043058
 30
0.0
 11
1.888402
 21
6.039279
 31
0.0
  0
LINE
  8
0
  6
CONTINUOUS
 62
     7
  5
47E
 10
1.888402
 20
6.039279
 30
0.0
 11
1.890532
 21
6.035418
 31
0.0
  0
LINE
  8
0
  6
CONTINUOUS
 62
     7
  5
47F
 10
1.890532
 20
6.035418
 30
0.0
 11
1.892516
 21
6.03148
 31
0.0
  0
LINE
  8
0
  6
CONTINUOUS
 62
     7
  5
480
 10
1.892516
 20
6.03148
 30
0.0
 11
1.894351
 21
6.027471
 31
0.0
  0
LINE
  8
0
  6
CONTINUOUS
 62
     7
  5
481
 10
1.894351
 20
6.027471
 30
0.0
 11
1.896036
 21
6.023396
 31
0.0
  0
LINE
  8
0
  6
CONTINUOUS
 62
     7
  5
482
 10
1.896036
 20
6.023396
 30
0.0
 11
1.897568
 21
6.019261
 31
0.0
  0
LINE
  8
0
  6
CONTINUOUS
 62
     7
  5
483
 10
1.897568
 20
6.019261
 30
0.0
 11
1.898944
 21
6.015071
 31
0.0
  0
LINE
  8
0
  6
CONTINUOUS
 62
     7
  5
484
 10
1.898944
 20
6.015071
 30
0.0
 11
1.900162
 21
6.010833
 31
0.0
  0
LINE
  8
0
  6
CONTINUOUS
 62
     7
  5
485
 10
1.900162
 20
6.010833
 30
0.0
 11
1.901222
 21
6.006553
 31
0.0
  0
LINE
  8
0
  6
CONTINUOUS
 62
     7
  5
486
 10
1.901222
 20
6.006553
 30
0.0
 11
1.902121
 21
6.002236
 31
0.0
  0
LINE
  8
0
  6
CONTINUOUS
 62
     7
  5
487
 10
1.902121
 20
6.002236
 30
0.0
 11
1.902858
 21
5.997889
 31
0.0
  0
LINE
  8
0
  6
CONTINUOUS
 62
     7
  5
488
 10
1.902858
 20
5.997889
 30
0.0
 11
1.903433
 21
5.993517
 31
0.0
  0
LINE
  8
0
  6
CONTINUOUS
 62
     7
  5
489
 10
1.903433
 20
5.993517
 30
0.0
 11
1.903844
 21
5.989126
 31
0.0
  0
LINE
  8
0
  6
CONTINUOUS
 62
     7
  5
48A
 10
1.903844
 20
5.989126
 30
0.0
 11
1.904091
 21
5.984724
 31
0.0
  0
LINE
  8
0
  6
CONTINUOUS
 62
     7
  5
48B
 10
1.904091
 20
5.984724
 30
0.0
 11
1.904173
 21
5.980315
 31
0.0
  0
LINE
  8
0
  6
CONTINUOUS
 62
     7
  5
48C
 10
0.720472
 20
11.393701
 30
0.0
 11
0.562992
 21
11.393701
 31
0.0
  0
LINE
  8
0
  6
CONTINUOUS
 62
     7
  5
48D
 10
0.562992
 20
6.393701
 30
0.0
 11
0.562992
 21
6.394701
 31
0.0
  0
LINE
  8
0
  6
CONTINUOUS
 62
     7
  5
48E
 10
0.720472
 20
6.393701
 30
0.0
 11
0.562992
 21
6.393701
 31
0.0
  0
LINE
  8
0
  6
CONTINUOUS
 62
     7
  5
48F
 10
0.720472
 20
5.783465
 30
0.0
 11
0.720472
 21
6.394701
 31
0.0
  0
LINE
  8
0
  6
CONTINUOUS
 62
     7
  5
490
 10
1.816885
 20
5.866297
 30
0.0
 11
1.510472
 21
5.783465
 31
0.0
  0
LINE
  8
0
  6
CONTINUOUS
 62
     7
  5
491
 10
1.510472
 20
6.177165
 30
0.0
 11
1.816885
 21
6.094333
 31
0.0
  0
LINE
  8
0
  6
CONTINUOUS
 62
     7
  5
492
 10
1.904173
 20
5.980315
 30
0.0
 11
1.904091
 21
5.975906
 31
0.0
  0
LINE
  8
0
  6
CONTINUOUS
 62
     7
  5
493
 10
1.904091
 20
5.975906
 30
0.0
 11
1.903844
 21
5.971504
 31
0.0
  0
LINE
  8
0
  6
CONTINUOUS
 62
     7
  5
494
 10
1.903844
 20
5.971504
 30
0.0
 11
1.903433
 21
5.967113
 31
0.0
  0
LINE
  8
0
  6
CONTINUOUS
 62
     7
  5
495
 10
1.903433
 20
5.967113
 30
0.0
 11
1.902858
 21
5.962741
 31
0.0
  0
LINE
  8
0
  6
CONTINUOUS
 62
     7
  5
496
 10
1.902858
 20
5.962741
 30
0.0
 11
1.902121
 21
5.958394
 31
0.0
  0
LINE
  8
0
  6
CONTINUOUS
 62
     7
  5
497
 10
1.902121
 20
5.958394
 30
0.0
 11
1.901222
 21
5.954077
 31
0.0
  0
LINE
  8
0
  6
CONTINUOUS
 62
     7
  5
498
 10
1.901222
 20
5.954077
 30
0.0
 11
1.900162
 21
5.949796
 31
0.0
  0
LINE
  8
0
  6
CONTINUOUS
 62
     7
  5
499
 10
1.900162
 20
5.949796
 30
0.0
 11
1.898944
 21
5.945559
 31
0.0
  0
LINE
  8
0
  6
CONTINUOUS
 62
     7
  5
49A
 10
1.898944
 20
5.945559
 30
0.0
 11
1.897568
 21
5.941369
 31
0.0
  0
LINE
  8
0
  6
CONTINUOUS
 62
     7
  5
49B
 10
1.897568
 20
5.941369
 30
0.0
 11
1.896036
 21
5.937234
 31
0.0
  0
LINE
  8
0
  6
CONTINUOUS
 62
     7
  5
49C
 10
1.896036
 20
5.937234
 30
0.0
 11
1.894351
 21
5.933159
 31
0.0
  0
LINE
  8
0
  6
CONTINUOUS
 62
     7
  5
49D
 10
1.894351
 20
5.933159
 30
0.0
 11
1.892516
 21
5.92915
 31
0.0
  0
LINE
  8
0
  6
CONTINUOUS
 62
     7
  5
49E
 10
1.892516
 20
5.92915
 30
0.0
 11
1.890532
 21
5.925212
 31
0.0
  0
LINE
  8
0
  6
CONTINUOUS
 62
     7
  5
49F
 10
1.890532
 20
5.925212
 30
0.0
 11
1.888402
 21
5.921351
 31
0.0
  0
LINE
  8
0
  6
CONTINUOUS
 62
     7
  5
4A0
 10
1.888402
 20
5.921351
 30
0.0
 11
1.88613
 21
5.917572
 31
0.0
  0
LINE
  8
0
  6
CONTINUOUS
 62
     7
  5
4A1
 10
1.88613
 20
5.917572
 30
0.0
 11
1.883718
 21
5.91388
 31
0.0
  0
LINE
  8
0
  6
CONTINUOUS
 62
     7
  5
4A2
 10
1.883718
 20
5.91388
 30
0.0
 11
1.88117
 21
5.910281
 31
0.0
  0
LINE
  8
0
  6
CONTINUOUS
 62
     7
  5
4A3
 10
1.88117
 20
5.910281
 30
0.0
 11
1.878489
 21
5.90678
 31
0.0
  0
LINE
  8
0
  6
CONTINUOUS
 62
     7
  5
4A4
 10
1.878489
 20
5.90678
 30
0.0
 11
1.87568
 21
5.903381
 31
0.0
  0
LINE
  8
0
  6
CONTINUOUS
 62
     7
  5
4A5
 10
1.87568
 20
5.903381
 30
0.0
 11
1.872746
 21
5.90009
 31
0.0
  0
LINE
  8
0
  6
CONTINUOUS
 62
     7
  5
4A6
 10
1.872746
 20
5.90009
 30
0.0
 11
1.869691
 21
5.89691
 31
0.0
  0
LINE
  8
0
  6
CONTINUOUS
 62
     7
  5
4A7
 10
1.869691
 20
5.89691
 30
0.0
 11
1.866519
 21
5.893846
 31
0.0
  0
LINE
  8
0
  6
CONTINUOUS
 62
     7
  5
4A8
 10
1.866519
 20
5.893846
 30
0.0
 11
1.863235
 21
5.890903
 31
0.0
  0
LINE
  8
0
  6
CONTINUOUS
 62
     7
  5
4A9
 10
1.863235
 20
5.890903
 30
0.0
 11
1.859844
 21
5.888085
 31
0.0
  0
LINE
  8
0
  6
CONTINUOUS
 62
     7
  5
4AA
 10
1.859844
 20
5.888085
 30
0.0
 11
1.85635
 21
5.885395
 31
0.0
  0
LINE
  8
0
  6
CONTINUOUS
 62
     7
  5
4AB
 10
1.85635
 20
5.885395
 30
0.0
 11
1.852758
 21
5.882838
 31
0.0
  0
LINE
  8
0
  6
CONTINUOUS
 62
     7
  5
4AC
 10
1.852758
 20
5.882838
 30
0.0
 11
1.849073
 21
5.880416
 31
0.0
  0
LINE
  8
0
  6
CONTINUOUS
 62
     7
  5
4AD
 10
1.849073
 20
5.880416
 30
0.0
 11
1.8453
 21
5.878134
 31
0.0
  0
LINE
  8
0
  6
CONTINUOUS
 62
     7
  5
4AE
 10
1.8453
 20
5.878134
 30
0.0
 11
1.841444
 21
5.875994
 31
0.0
  0
LINE
  8
0
  6
CONTINUOUS
 62
     7
  5
4AF
 10
1.841444
 20
5.875994
 30
0.0
 11
1.837512
 21
5.873999
 31
0.0
  0
LINE
  8
0
  6
CONTINUOUS
 62
     7
  5
4B0
 10
1.837512
 20
5.873999
 30
0.0
 11
1.833507
 21
5.872153
 31
0.0
  0
LINE
  8
0
  6
CONTINUOUS
 62
     7
  5
4B1
 10
1.833507
 20
5.872153
 30
0.0
 11
1.829437
 21
5.870457
 31
0.0
  0
LINE
  8
0
  6
CONTINUOUS
 62
     7
  5
4B2
 10
1.829437
 20
5.870457
 30
0.0
 11
1.825306
 21
5.868915
 31
0.0
  0
LINE
  8
0
  6
CONTINUOUS
 62
     7
  5
4B3
 10
1.825306
 20
5.868915
 30
0.0
 11
1.82112
 21
5.867527
 31
0.0
  0
LINE
  8
0
  6
CONTINUOUS
 62
     7
  5
4B4
 10
1.82112
 20
5.867527
 30
0.0
 11
1.816885
 21
5.866297
 31
0.0
  0
LINE
  8
0
  6
CONTINUOUS
 62
     7
  5
4B5
 10
1.816885
 20
6.094333
 30
0.0
 11
1.82112
 21
6.093103
 31
0.0
  0
LINE
  8
0
  6
CONTINUOUS
 62
     7
  5
4B6
 10
1.82112
 20
6.093103
 30
0.0
 11
1.825306
 21
6.091715
 31
0.0
  0
LINE
  8
0
  6
CONTINUOUS
 62
     7
  5
4B7
 10
1.825306
 20
6.091715
 30
0.0
 11
1.829437
 21
6.090173
 31
0.0
  0
LINE
  8
0
  6
CONTINUOUS
 62
     7
  5
4B8
 10
1.829437
 20
6.090173
 30
0.0
 11
1.833507
 21
6.088477
 31
0.0
  0
LINE
  8
0
  6
CONTINUOUS
 62
     7
  5
4B9
 10
1.833507
 20
6.088477
 30
0.0
 11
1.837512
 21
6.086631
 31
0.0
  0
LINE
  8
0
  6
CONTINUOUS
 62
     7
  5
4BA
 10
1.837512
 20
6.086631
 30
0.0
 11
1.841444
 21
6.084636
 31
0.0
  0
LINE
  8
0
  6
CONTINUOUS
 62
     7
  5
4BB
 10
1.841444
 20
6.084636
 30
0.0
 11
1.8453
 21
6.082496
 31
0.0
  0
LINE
  8
0
  6
CONTINUOUS
 62
     7
  5
4BC
 10
1.8453
 20
6.082496
 30
0.0
 11
1.849073
 21
6.080214
 31
0.0
  0
LINE
  8
0
  6
CONTINUOUS
 62
     7
  5
4BD
 10
1.849073
 20
6.080214
 30
0.0
 11
1.852758
 21
6.077792
 31
0.0
  0
LINE
  8
0
  6
CONTINUOUS
 62
     7
  5
4BE
 10
1.852758
 20
6.077792
 30
0.0
 11
1.85635
 21
6.075235
 31
0.0
  0
LINE
  8
0
  6
CONTINUOUS
 62
     7
  5
4BF
 10
1.85635
 20
6.075235
 30
0.0
 11
1.859844
 21
6.072545
 31
0.0
  0
LINE
  8
0
  6
CONTINUOUS
 62
     7
  5
4C0
 10
1.859844
 20
6.072545
 30
0.0
 11
1.863235
 21
6.069727
 31
0.0
  0
LINE
  8
0
  6
CONTINUOUS
 62
     7
  5
4C1
 10
1.863235
 20
6.069727
 30
0.0
 11
1.866519
 21
6.066784
 31
0.0
  0
LINE
  8
0
  6
CONTINUOUS
 62
     7
  5
4C2
 10
1.866519
 20
6.066784
 30
0.0
 11
1.869691
 21
6.06372
 31
0.0
  0
LINE
  8
0
  6
CONTINUOUS
 62
     7
  5
4C3
 10
1.869691
 20
6.06372
 30
0.0
 11
1.872746
 21
6.06054
 31
0.0
  0
LINE
  8
0
  6
CONTINUOUS
 62
     7
  5
4C4
 10
1.872746
 20
6.06054
 30
0.0
 11
1.87568
 21
6.057249
 31
0.0
  0
LINE
  8
0
  6
CONTINUOUS
 62
     7
  5
4C5
 10
1.87568
 20
6.057249
 30
0.0
 11
1.878489
 21
6.05385
 31
0.0
  0
LINE
  8
0
  6
CONTINUOUS
 62
     7
  5
4C6
 10
1.878489
 20
6.05385
 30
0.0
 11
1.88117
 21
6.050349
 31
0.0
  0
LINE
  8
0
  6
CONTINUOUS
 62
     7
  5
4C7
 10
1.88117
 20
6.050349
 30
0.0
 11
1.883718
 21
6.04675
 31
0.0
  0
LINE
  8
0
  6
CONTINUOUS
 62
     7
  5
4C8
 10
1.883718
 20
6.04675
 30
0.0
 11
1.88613
 21
6.043058
 31
0.0
  0
LINE
  8
0
  6
CONTINUOUS
 62
     7
  5
4C9
 10
1.88613
 20
6.043058
 30
0.0
 11
1.888402
 21
6.039279
 31
0.0
  0
LINE
  8
0
  6
CONTINUOUS
 62
     7
  5
4CA
 10
1.888402
 20
6.039279
 30
0.0
 11
1.890532
 21
6.035418
 31
0.0
  0
LINE
  8
0
  6
CONTINUOUS
 62
     7
  5
4CB
 10
1.890532
 20
6.035418
 30
0.0
 11
1.892516
 21
6.03148
 31
0.0
  0
LINE
  8
0
  6
CONTINUOUS
 62
     7
  5
4CC
 10
1.892516
 20
6.03148
 30
0.0
 11
1.894351
 21
6.027471
 31
0.0
  0
LINE
  8
0
  6
CONTINUOUS
 62
     7
  5
4CD
 10
1.894351
 20
6.027471
 30
0.0
 11
1.896036
 21
6.023396
 31
0.0
  0
LINE
  8
0
  6
CONTINUOUS
 62
     7
  5
4CE
 10
1.896036
 20
6.023396
 30
0.0
 11
1.897568
 21
6.019261
 31
0.0
  0
LINE
  8
0
  6
CONTINUOUS
 62
     7
  5
4CF
 10
1.897568
 20
6.019261
 30
0.0
 11
1.898944
 21
6.015071
 31
0.0
  0
LINE
  8
0
  6
CONTINUOUS
 62
     7
  5
4D0
 10
1.898944
 20
6.015071
 30
0.0
 11
1.900162
 21
6.010833
 31
0.0
  0
LINE
  8
0
  6
CONTINUOUS
 62
     7
  5
4D1
 10
1.900162
 20
6.010833
 30
0.0
 11
1.901222
 21
6.006553
 31
0.0
  0
LINE
  8
0
  6
CONTINUOUS
 62
     7
  5
4D2
 10
1.901222
 20
6.006553
 30
0.0
 11
1.902121
 21
6.002236
 31
0.0
  0
LINE
  8
0
  6
CONTINUOUS
 62
     7
  5
4D3
 10
1.902121
 20
6.002236
 30
0.0
 11
1.902858
 21
5.997889
 31
0.0
  0
LINE
  8
0
  6
CONTINUOUS
 62
     7
  5
4D4
 10
1.902858
 20
5.997889
 30
0.0
 11
1.903433
 21
5.993517
 31
0.0
  0
LINE
  8
0
  6
CONTINUOUS
 62
     7
  5
4D5
 10
1.903433
 20
5.993517
 30
0.0
 11
1.903844
 21
5.989126
 31
0.0
  0
LINE
  8
0
  6
CONTINUOUS
 62
     7
  5
4D6
 10
1.903844
 20
5.989126
 30
0.0
 11
1.904091
 21
5.984724
 31
0.0
  0
LINE
  8
0
  6
CONTINUOUS
 62
     7
  5
4D7
 10
1.904091
 20
5.984724
 30
0.0
 11
1.904173
 21
5.980315
 31
0.0
  0
LINE
  8
0
  6
CONTINUOUS
 62
     7
  5
4D8
 10
1.510472
 20
9.537402
 30
0.0
 11
1.510472
 21
5.783465
 31
0.0
  0
LINE
  8
0
  6
CONTINUOUS
 62
     7
  5
4D9
 10
1.510472
 20
9.537402
 30
0.0
 11
0.720472
 21
9.537402
 31
0.0
  0
LINE
  8
0
  6
CONTINUOUS
 62
     7
  5
4DA
 10
1.510472
 20
5.783465
 30
0.0
 11
0.838583
 21
5.783465
 31
0.0
  0
LINE
  8
0
  6
CONTINUOUS
 62
     7
  5
4DB
 10
0.720472
 20
11.392701
 30
0.0
 11
0.720472
 21
6.394701
 31
0.0
  0
LINE
  8
0
  6
CONTINUOUS
 62
     7
  5
4DC
 10
-7.082677
 20
9.681102
 30
0.0
 11
-5.822835
 21
9.681102
 31
0.0
  0
LINE
  8
0
  6
CONTINUOUS
 62
     7
  5
4DD
 10
-7.082677
 20
8.106299
 30
0.0
 11
-7.082677
 21
9.681102
 31
0.0
  0
LINE
  8
0
  6
CONTINUOUS
 62
     7
  5
4DE
 10
-5.822835
 20
8.106299
 30
0.0
 11
-7.082677
 21
8.106299
 31
0.0
  0
LINE
  8
0
  6
CONTINUOUS
 62
     7
  5
4DF
 10
-5.822835
 20
9.681102
 30
0.0
 11
-5.822835
 21
8.106299
 31
0.0
  0
LINE
  8
0
  6
CONTINUOUS
 62
     7
  5
4E0
 10
-7.082677
 20
9.681102
 30
0.0
 11
-7.082677
 21
11.255906
 31
0.0
  0
LINE
  8
0
  6
CONTINUOUS
 62
     7
  5
4E1
 10
-5.822835
 20
11.255906
 30
0.0
 11
-5.822835
 21
9.681102
 31
0.0
  0
LINE
  8
0
  6
CONTINUOUS
 62
     7
  5
4E2
 10
-7.082677
 20
11.255906
 30
0.0
 11
-5.822835
 21
11.255906
 31
0.0
  0
LINE
  8
0
  6
CONTINUOUS
 62
     7
  5
4E3
 10
-5.821835
 20
9.681102
 30
0.0
 11
-4.561992
 21
9.681102
 31
0.0
  0
LINE
  8
0
  6
CONTINUOUS
 62
     7
  5
4E4
 10
-5.821835
 20
8.106299
 30
0.0
 11
-5.821835
 21
9.681102
 31
0.0
  0
LINE
  8
0
  6
CONTINUOUS
 62
     7
  5
4E5
 10
-4.561992
 20
8.106299
 30
0.0
 11
-5.821835
 21
8.106299
 31
0.0
  0
LINE
  8
0
  6
CONTINUOUS
 62
     7
  5
4E6
 10
-4.561992
 20
9.681102
 30
0.0
 11
-4.561992
 21
8.106299
 31
0.0
  0
LINE
  8
0
  6
CONTINUOUS
 62
     7
  5
4E7
 10
-5.821835
 20
9.681102
 30
0.0
 11
-5.821835
 21
11.255906
 31
0.0
  0
LINE
  8
0
  6
CONTINUOUS
 62
     7
  5
4E8
 10
-4.561992
 20
11.255906
 30
0.0
 11
-4.561992
 21
9.681102
 31
0.0
  0
LINE
  8
0
  6
CONTINUOUS
 62
     7
  5
4E9
 10
-5.821835
 20
11.255906
 30
0.0
 11
-4.561992
 21
11.255906
 31
0.0
  0
LINE
  8
0
  6
CONTINUOUS
 62
     7
  5
4EA
 10
-4.560992
 20
9.681102
 30
0.0
 11
-3.30115
 21
9.681102
 31
0.0
  0
LINE
  8
0
  6
CONTINUOUS
 62
     7
  5
4EB
 10
-4.560992
 20
8.106299
 30
0.0
 11
-4.560992
 21
9.681102
 31
0.0
  0
LINE
  8
0
  6
CONTINUOUS
 62
     7
  5
4EC
 10
-3.30115
 20
8.106299
 30
0.0
 11
-4.560992
 21
8.106299
 31
0.0
  0
LINE
  8
0
  6
CONTINUOUS
 62
     7
  5
4ED
 10
-3.30115
 20
9.681102
 30
0.0
 11
-3.30115
 21
8.106299
 31
0.0
  0
LINE
  8
0
  6
CONTINUOUS
 62
     7
  5
4EE
 10
-4.560992
 20
9.681102
 30
0.0
 11
-4.560992
 21
11.255906
 31
0.0
  0
LINE
  8
0
  6
CONTINUOUS
 62
     7
  5
4EF
 10
-3.30115
 20
11.255906
 30
0.0
 11
-3.30115
 21
9.681102
 31
0.0
  0
LINE
  8
0
  6
CONTINUOUS
 62
     7
  5
4F0
 10
-4.560992
 20
11.255906
 30
0.0
 11
-3.30115
 21
11.255906
 31
0.0
  0
LINE
  8
0
  6
CONTINUOUS
 62
     7
  5
4F1
 10
-3.30015
 20
9.681102
 30
0.0
 11
-2.040307
 21
9.681102
 31
0.0
  0
LINE
  8
0
  6
CONTINUOUS
 62
     7
  5
4F2
 10
-3.30015
 20
8.106299
 30
0.0
 11
-3.30015
 21
9.681102
 31
0.0
  0
LINE
  8
0
  6
CONTINUOUS
 62
     7
  5
4F3
 10
-2.040307
 20
8.106299
 30
0.0
 11
-3.30015
 21
8.106299
 31
0.0
  0
LINE
  8
0
  6
CONTINUOUS
 62
     7
  5
4F4
 10
-2.040307
 20
9.681102
 30
0.0
 11
-2.040307
 21
8.106299
 31
0.0
  0
LINE
  8
0
  6
CONTINUOUS
 62
     7
  5
4F5
 10
-3.30015
 20
9.681102
 30
0.0
 11
-3.30015
 21
11.255906
 31
0.0
  0
LINE
  8
0
  6
CONTINUOUS
 62
     7
  5
4F6
 10
-2.040307
 20
11.255906
 30
0.0
 11
-2.040307
 21
9.681102
 31
0.0
  0
LINE
  8
0
  6
CONTINUOUS
 62
     7
  5
4F7
 10
-3.30015
 20
11.255906
 30
0.0
 11
-2.040307
 21
11.255906
 31
0.0
  0
LINE
  8
0
  6
CONTINUOUS
 62
     7
  5
4F8
 10
-9.248031
 20
7.122047
 30
0.0
 11
-9.090551
 21
7.122047
 31
0.0
  0
LINE
  8
0
  6
CONTINUOUS
 62
     7
  5
4F9
 10
-9.248031
 20
10.665354
 30
0.0
 11
-9.090551
 21
10.665354
 31
0.0
  0
LINE
  8
0
  6
CONTINUOUS
 62
     7
  5
4FA
 10
-9.090551
 20
7.122047
 30
0.0
 11
-7.240157
 21
7.122047
 31
0.0
  0
LINE
  8
0
  6
CONTINUOUS
 62
     7
  5
4FB
 10
-7.240157
 20
10.665354
 30
0.0
 11
-7.240157
 21
7.122047
 31
0.0
  0
LINE
  8
0
  6
CONTINUOUS
 62
     7
  5
4FC
 10
-9.090551
 20
10.665354
 30
0.0
 11
-7.240157
 21
10.665354
 31
0.0
  0
LINE
  8
0
  6
CONTINUOUS
 62
     7
  5
4FD
 10
-9.405512
 20
10.665354
 30
0.0
 11
-9.405512
 21
7.122047
 31
0.0
  0
LINE
  8
0
  6
CONTINUOUS
 62
     7
  5
4FE
 10
-9.405512
 20
7.122047
 30
0.0
 11
-9.248031
 21
7.122047
 31
0.0
  0
LINE
  8
0
  6
CONTINUOUS
 62
     7
  5
4FF
 10
-9.248031
 20
10.665354
 30
0.0
 11
-9.248031
 21
7.122047
 31
0.0
  0
LINE
  8
0
  6
CONTINUOUS
 62
     7
  5
500
 10
-9.405512
 20
10.665354
 30
0.0
 11
-9.248031
 21
10.665354
 31
0.0
  0
LINE
  8
0
  6
CONTINUOUS
 62
     7
  5
501
 10
-8.53937
 20
7.122047
 30
0.0
 11
-8.53937
 21
6.394701
 31
0.0
  0
LINE
  8
0
  6
CONTINUOUS
 62
     7
  5
502
 10
-8.53937
 20
6.394701
 30
0.0
 11
0.523622
 21
6.394701
 31
0.0
  0
LINE
  8
0
  6
CONTINUOUS
 62
     7
  5
503
 10
-8.53937
 20
11.392701
 30
0.0
 11
0.523622
 21
11.392701
 31
0.0
  0
LINE
  8
0
  6
CONTINUOUS
 62
     7
  5
504
 10
-8.53937
 20
11.392701
 30
0.0
 11
-8.53937
 21
10.665354
 31
0.0
  0
LINE
  8
0
  6
CONTINUOUS
 62
     7
  5
505
 10
0.523622
 20
6.394701
 30
0.0
 11
0.720472
 21
6.394701
 31
0.0
  0
LINE
  8
0
  6
CONTINUOUS
 62
     7
  5
506
 10
0.523622
 20
11.392701
 30
0.0
 11
0.720472
 21
11.392701
 31
0.0
  0
LINE
  8
0
  6
CONTINUOUS
 62
     7
  5
507
 10
-8.53937
 20
11.393701
 30
0.0
 11
0.366142
 21
11.393701
 31
0.0
  0
LINE
  8
0
  6
CONTINUOUS
 62
     7
  5
508
 10
-8.53937
 20
6.394701
 30
0.0
 11
-8.53937
 21
6.393701
 31
0.0
  0
LINE
  8
0
  6
CONTINUOUS
 62
     7
  5
509
 10
-8.53937
 20
6.393701
 30
0.0
 11
0.366142
 21
6.393701
 31
0.0
  0
LINE
  8
0
  6
CONTINUOUS
 62
     7
  5
50A
 10
0.366142
 20
6.393701
 30
0.0
 11
0.562992
 21
6.393701
 31
0.0
  0
LINE
  8
0
  6
CONTINUOUS
 62
     7
  5
50B
 10
0.562992
 20
6.394701
 30
0.0
 11
0.562992
 21
6.393701
 31
0.0
  0
LINE
  8
0
  6
CONTINUOUS
 62
     7
  5
50C
 10
0.366142
 20
11.393701
 30
0.0
 11
0.562992
 21
11.393701
 31
0.0
  0
LINE
  8
0
  6
CONTINUOUS
 62
     7
  5
50D
 10
1.904173
 20
5.980315
 30
0.0
 11
1.904091
 21
5.975906
 31
0.0
  0
LINE
  8
0
  6
CONTINUOUS
 62
     7
  5
50E
 10
1.904091
 20
5.975906
 30
0.0
 11
1.903844
 21
5.971504
 31
0.0
  0
LINE
  8
0
  6
CONTINUOUS
 62
     7
  5
50F
 10
1.903844
 20
5.971504
 30
0.0
 11
1.903433
 21
5.967113
 31
0.0
  0
LINE
  8
0
  6
CONTINUOUS
 62
     7
  5
510
 10
1.903433
 20
5.967113
 30
0.0
 11
1.902858
 21
5.962741
 31
0.0
  0
LINE
  8
0
  6
CONTINUOUS
 62
     7
  5
511
 10
1.902858
 20
5.962741
 30
0.0
 11
1.902121
 21
5.958394
 31
0.0
  0
LINE
  8
0
  6
CONTINUOUS
 62
     7
  5
512
 10
1.902121
 20
5.958394
 30
0.0
 11
1.901222
 21
5.954077
 31
0.0
  0
LINE
  8
0
  6
CONTINUOUS
 62
     7
  5
513
 10
1.901222
 20
5.954077
 30
0.0
 11
1.900162
 21
5.949796
 31
0.0
  0
LINE
  8
0
  6
CONTINUOUS
 62
     7
  5
514
 10
1.900162
 20
5.949796
 30
0.0
 11
1.898944
 21
5.945559
 31
0.0
  0
LINE
  8
0
  6
CONTINUOUS
 62
     7
  5
515
 10
1.898944
 20
5.945559
 30
0.0
 11
1.897568
 21
5.941369
 31
0.0
  0
LINE
  8
0
  6
CONTINUOUS
 62
     7
  5
516
 10
1.897568
 20
5.941369
 30
0.0
 11
1.896036
 21
5.937234
 31
0.0
  0
LINE
  8
0
  6
CONTINUOUS
 62
     7
  5
517
 10
1.896036
 20
5.937234
 30
0.0
 11
1.894351
 21
5.933159
 31
0.0
  0
LINE
  8
0
  6
CONTINUOUS
 62
     7
  5
518
 10
1.894351
 20
5.933159
 30
0.0
 11
1.892516
 21
5.92915
 31
0.0
  0
LINE
  8
0
  6
CONTINUOUS
 62
     7
  5
519
 10
1.892516
 20
5.92915
 30
0.0
 11
1.890532
 21
5.925212
 31
0.0
  0
LINE
  8
0
  6
CONTINUOUS
 62
     7
  5
51A
 10
1.890532
 20
5.925212
 30
0.0
 11
1.888402
 21
5.921351
 31
0.0
  0
LINE
  8
0
  6
CONTINUOUS
 62
     7
  5
51B
 10
1.888402
 20
5.921351
 30
0.0
 11
1.88613
 21
5.917572
 31
0.0
  0
LINE
  8
0
  6
CONTINUOUS
 62
     7
  5
51C
 10
1.88613
 20
5.917572
 30
0.0
 11
1.883718
 21
5.91388
 31
0.0
  0
LINE
  8
0
  6
CONTINUOUS
 62
     7
  5
51D
 10
1.883718
 20
5.91388
 30
0.0
 11
1.88117
 21
5.910281
 31
0.0
  0
LINE
  8
0
  6
CONTINUOUS
 62
     7
  5
51E
 10
1.88117
 20
5.910281
 30
0.0
 11
1.878489
 21
5.90678
 31
0.0
  0
LINE
  8
0
  6
CONTINUOUS
 62
     7
  5
51F
 10
1.878489
 20
5.90678
 30
0.0
 11
1.87568
 21
5.903381
 31
0.0
  0
LINE
  8
0
  6
CONTINUOUS
 62
     7
  5
520
 10
1.87568
 20
5.903381
 30
0.0
 11
1.872746
 21
5.90009
 31
0.0
  0
LINE
  8
0
  6
CONTINUOUS
 62
     7
  5
521
 10
1.872746
 20
5.90009
 30
0.0
 11
1.869691
 21
5.89691
 31
0.0
  0
LINE
  8
0
  6
CONTINUOUS
 62
     7
  5
522
 10
1.869691
 20
5.89691
 30
0.0
 11
1.866519
 21
5.893846
 31
0.0
  0
LINE
  8
0
  6
CONTINUOUS
 62
     7
  5
523
 10
1.866519
 20
5.893846
 30
0.0
 11
1.863235
 21
5.890903
 31
0.0
  0
LINE
  8
0
  6
CONTINUOUS
 62
     7
  5
524
 10
1.863235
 20
5.890903
 30
0.0
 11
1.859844
 21
5.888085
 31
0.0
  0
LINE
  8
0
  6
CONTINUOUS
 62
     7
  5
525
 10
1.859844
 20
5.888085
 30
0.0
 11
1.85635
 21
5.885395
 31
0.0
  0
LINE
  8
0
  6
CONTINUOUS
 62
     7
  5
526
 10
1.85635
 20
5.885395
 30
0.0
 11
1.852758
 21
5.882838
 31
0.0
  0
LINE
  8
0
  6
CONTINUOUS
 62
     7
  5
527
 10
1.852758
 20
5.882838
 30
0.0
 11
1.849073
 21
5.880416
 31
0.0
  0
LINE
  8
0
  6
CONTINUOUS
 62
     7
  5
528
 10
1.849073
 20
5.880416
 30
0.0
 11
1.8453
 21
5.878134
 31
0.0
  0
LINE
  8
0
  6
CONTINUOUS
 62
     7
  5
529
 10
1.8453
 20
5.878134
 30
0.0
 11
1.841444
 21
5.875994
 31
0.0
  0
LINE
  8
0
  6
CONTINUOUS
 62
     7
  5
52A
 10
1.841444
 20
5.875994
 30
0.0
 11
1.837512
 21
5.873999
 31
0.0
  0
LINE
  8
0
  6
CONTINUOUS
 62
     7
  5
52B
 10
1.837512
 20
5.873999
 30
0.0
 11
1.833507
 21
5.872153
 31
0.0
  0
LINE
  8
0
  6
CONTINUOUS
 62
     7
  5
52C
 10
1.833507
 20
5.872153
 30
0.0
 11
1.829437
 21
5.870457
 31
0.0
  0
LINE
  8
0
  6
CONTINUOUS
 62
     7
  5
52D
 10
1.829437
 20
5.870457
 30
0.0
 11
1.825306
 21
5.868915
 31
0.0
  0
LINE
  8
0
  6
CONTINUOUS
 62
     7
  5
52E
 10
1.825306
 20
5.868915
 30
0.0
 11
1.82112
 21
5.867527
 31
0.0
  0
LINE
  8
0
  6
CONTINUOUS
 62
     7
  5
52F
 10
1.82112
 20
5.867527
 30
0.0
 11
1.816885
 21
5.866297
 31
0.0
  0
LINE
  8
0
  6
CONTINUOUS
 62
     7
  5
530
 10
1.816885
 20
6.094333
 30
0.0
 11
1.82112
 21
6.093103
 31
0.0
  0
LINE
  8
0
  6
CONTINUOUS
 62
     7
  5
531
 10
1.82112
 20
6.093103
 30
0.0
 11
1.825306
 21
6.091715
 31
0.0
  0
LINE
  8
0
  6
CONTINUOUS
 62
     7
  5
532
 10
1.825306
 20
6.091715
 30
0.0
 11
1.829437
 21
6.090173
 31
0.0
  0
LINE
  8
0
  6
CONTINUOUS
 62
     7
  5
533
 10
1.829437
 20
6.090173
 30
0.0
 11
1.833507
 21
6.088477
 31
0.0
  0
LINE
  8
0
  6
CONTINUOUS
 62
     7
  5
534
 10
1.833507
 20
6.088477
 30
0.0
 11
1.837512
 21
6.086631
 31
0.0
  0
LINE
  8
0
  6
CONTINUOUS
 62
     7
  5
535
 10
1.837512
 20
6.086631
 30
0.0
 11
1.841444
 21
6.084636
 31
0.0
  0
LINE
  8
0
  6
CONTINUOUS
 62
     7
  5
536
 10
1.841444
 20
6.084636
 30
0.0
 11
1.8453
 21
6.082496
 31
0.0
  0
LINE
  8
0
  6
CONTINUOUS
 62
     7
  5
537
 10
1.8453
 20
6.082496
 30
0.0
 11
1.849073
 21
6.080214
 31
0.0
  0
LINE
  8
0
  6
CONTINUOUS
 62
     7
  5
538
 10
1.849073
 20
6.080214
 30
0.0
 11
1.852758
 21
6.077792
 31
0.0
  0
LINE
  8
0
  6
CONTINUOUS
 62
     7
  5
539
 10
1.852758
 20
6.077792
 30
0.0
 11
1.85635
 21
6.075235
 31
0.0
  0
LINE
  8
0
  6
CONTINUOUS
 62
     7
  5
53A
 10
1.85635
 20
6.075235
 30
0.0
 11
1.859844
 21
6.072545
 31
0.0
  0
LINE
  8
0
  6
CONTINUOUS
 62
     7
  5
53B
 10
1.859844
 20
6.072545
 30
0.0
 11
1.863235
 21
6.069727
 31
0.0
  0
LINE
  8
0
  6
CONTINUOUS
 62
     7
  5
53C
 10
1.863235
 20
6.069727
 30
0.0
 11
1.866519
 21
6.066784
 31
0.0
  0
LINE
  8
0
  6
CONTINUOUS
 62
     7
  5
53D
 10
1.866519
 20
6.066784
 30
0.0
 11
1.869691
 21
6.06372
 31
0.0
  0
LINE
  8
0
  6
CONTINUOUS
 62
     7
  5
53E
 10
1.869691
 20
6.06372
 30
0.0
 11
1.872746
 21
6.06054
 31
0.0
  0
LINE
  8
0
  6
CONTINUOUS
 62
     7
  5
53F
 10
1.872746
 20
6.06054
 30
0.0
 11
1.87568
 21
6.057249
 31
0.0
  0
LINE
  8
0
  6
CONTINUOUS
 62
     7
  5
540
 10
1.87568
 20
6.057249
 30
0.0
 11
1.878489
 21
6.05385
 31
0.0
  0
LINE
  8
0
  6
CONTINUOUS
 62
     7
  5
541
 10
1.878489
 20
6.05385
 30
0.0
 11
1.88117
 21
6.050349
 31
0.0
  0
LINE
  8
0
  6
CONTINUOUS
 62
     7
  5
542
 10
1.88117
 20
6.050349
 30
0.0
 11
1.883718
 21
6.04675
 31
0.0
  0
LINE
  8
0
  6
CONTINUOUS
 62
     7
  5
543
 10
1.883718
 20
6.04675
 30
0.0
 11
1.88613
 21
6.043058
 31
0.0
  0
LINE
  8
0
  6
CONTINUOUS
 62
     7
  5
544
 10
1.88613
 20
6.043058
 30
0.0
 11
1.888402
 21
6.039279
 31
0.0
  0
LINE
  8
0
  6
CONTINUOUS
 62
     7
  5
545
 10
1.888402
 20
6.039279
 30
0.0
 11
1.890532
 21
6.035418
 31
0.0
  0
LINE
  8
0
  6
CONTINUOUS
 62
     7
  5
546
 10
1.890532
 20
6.035418
 30
0.0
 11
1.892516
 21
6.03148
 31
0.0
  0
LINE
  8
0
  6
CONTINUOUS
 62
     7
  5
547
 10
1.892516
 20
6.03148
 30
0.0
 11
1.894351
 21
6.027471
 31
0.0
  0
LINE
  8
0
  6
CONTINUOUS
 62
     7
  5
548
 10
1.894351
 20
6.027471
 30
0.0
 11
1.896036
 21
6.023396
 31
0.0
  0
LINE
  8
0
  6
CONTINUOUS
 62
     7
  5
549
 10
1.896036
 20
6.023396
 30
0.0
 11
1.897568
 21
6.019261
 31
0.0
  0
LINE
  8
0
  6
CONTINUOUS
 62
     7
  5
54A
 10
1.897568
 20
6.019261
 30
0.0
 11
1.898944
 21
6.015071
 31
0.0
  0
LINE
  8
0
  6
CONTINUOUS
 62
     7
  5
54B
 10
1.898944
 20
6.015071
 30
0.0
 11
1.900162
 21
6.010833
 31
0.0
  0
LINE
  8
0
  6
CONTINUOUS
 62
     7
  5
54C
 10
1.900162
 20
6.010833
 30
0.0
 11
1.901222
 21
6.006553
 31
0.0
  0
LINE
  8
0
  6
CONTINUOUS
 62
     7
  5
54D
 10
1.901222
 20
6.006553
 30
0.0
 11
1.902121
 21
6.002236
 31
0.0
  0
LINE
  8
0
  6
CONTINUOUS
 62
     7
  5
54E
 10
1.902121
 20
6.002236
 30
0.0
 11
1.902858
 21
5.997889
 31
0.0
  0
LINE
  8
0
  6
CONTINUOUS
 62
     7
  5
54F
 10
1.902858
 20
5.997889
 30
0.0
 11
1.903433
 21
5.993517
 31
0.0
  0
LINE
  8
0
  6
CONTINUOUS
 62
     7
  5
550
 10
1.903433
 20
5.993517
 30
0.0
 11
1.903844
 21
5.989126
 31
0.0
  0
LINE
  8
0
  6
CONTINUOUS
 62
     7
  5
551
 10
1.903844
 20
5.989126
 30
0.0
 11
1.904091
 21
5.984724
 31
0.0
  0
LINE
  8
0
  6
CONTINUOUS
 62
     7
  5
552
 10
1.904091
 20
5.984724
 30
0.0
 11
1.904173
 21
5.980315
 31
0.0
  0
LINE
  8
0
  6
CONTINUOUS
 62
     7
  5
553
 10
1.904173
 20
-3.153543
 30
0.0
 11
1.904091
 21
-3.157952
 31
0.0
  0
LINE
  8
0
  6
CONTINUOUS
 62
     7
  5
554
 10
1.904091
 20
-3.157952
 30
0.0
 11
1.903844
 21
-3.162355
 31
0.0
  0
LINE
  8
0
  6
CONTINUOUS
 62
     7
  5
555
 10
1.903844
 20
-3.162355
 30
0.0
 11
1.903433
 21
-3.166745
 31
0.0
  0
LINE
  8
0
  6
CONTINUOUS
 62
     7
  5
556
 10
1.903433
 20
-3.166745
 30
0.0
 11
1.902858
 21
-3.171117
 31
0.0
  0
LINE
  8
0
  6
CONTINUOUS
 62
     7
  5
557
 10
1.902858
 20
-3.171117
 30
0.0
 11
1.902121
 21
-3.175465
 31
0.0
  0
LINE
  8
0
  6
CONTINUOUS
 62
     7
  5
558
 10
1.902121
 20
-3.175465
 30
0.0
 11
1.901222
 21
-3.179781
 31
0.0
  0
LINE
  8
0
  6
CONTINUOUS
 62
     7
  5
559
 10
1.901222
 20
-3.179781
 30
0.0
 11
1.900162
 21
-3.184062
 31
0.0
  0
LINE
  8
0
  6
CONTINUOUS
 62
     7
  5
55A
 10
1.900162
 20
-3.184062
 30
0.0
 11
1.898944
 21
-3.1883
 31
0.0
  0
LINE
  8
0
  6
CONTINUOUS
 62
     7
  5
55B
 10
1.898944
 20
-3.1883
 30
0.0
 11
1.897568
 21
-3.192489
 31
0.0
  0
LINE
  8
0
  6
CONTINUOUS
 62
     7
  5
55C
 10
1.897568
 20
-3.192489
 30
0.0
 11
1.896036
 21
-3.196624
 31
0.0
  0
LINE
  8
0
  6
CONTINUOUS
 62
     7
  5
55D
 10
1.896036
 20
-3.196624
 30
0.0
 11
1.894351
 21
-3.200699
 31
0.0
  0
LINE
  8
0
  6
CONTINUOUS
 62
     7
  5
55E
 10
1.894351
 20
-3.200699
 30
0.0
 11
1.892516
 21
-3.204708
 31
0.0
  0
LINE
  8
0
  6
CONTINUOUS
 62
     7
  5
55F
 10
1.892516
 20
-3.204708
 30
0.0
 11
1.890532
 21
-3.208646
 31
0.0
  0
LINE
  8
0
  6
CONTINUOUS
 62
     7
  5
560
 10
1.890532
 20
-3.208646
 30
0.0
 11
1.888402
 21
-3.212508
 31
0.0
  0
LINE
  8
0
  6
CONTINUOUS
 62
     7
  5
561
 10
1.888402
 20
-3.212508
 30
0.0
 11
1.88613
 21
-3.216287
 31
0.0
  0
LINE
  8
0
  6
CONTINUOUS
 62
     7
  5
562
 10
1.88613
 20
-3.216287
 30
0.0
 11
1.883718
 21
-3.219978
 31
0.0
  0
LINE
  8
0
  6
CONTINUOUS
 62
     7
  5
563
 10
1.883718
 20
-3.219978
 30
0.0
 11
1.88117
 21
-3.223577
 31
0.0
  0
LINE
  8
0
  6
CONTINUOUS
 62
     7
  5
564
 10
1.88117
 20
-3.223577
 30
0.0
 11
1.878489
 21
-3.227078
 31
0.0
  0
LINE
  8
0
  6
CONTINUOUS
 62
     7
  5
565
 10
1.878489
 20
-3.227078
 30
0.0
 11
1.87568
 21
-3.230477
 31
0.0
  0
LINE
  8
0
  6
CONTINUOUS
 62
     7
  5
566
 10
1.87568
 20
-3.230477
 30
0.0
 11
1.872746
 21
-3.233769
 31
0.0
  0
LINE
  8
0
  6
CONTINUOUS
 62
     7
  5
567
 10
1.872746
 20
-3.233769
 30
0.0
 11
1.869691
 21
-3.236949
 31
0.0
  0
LINE
  8
0
  6
CONTINUOUS
 62
     7
  5
568
 10
1.869691
 20
-3.236949
 30
0.0
 11
1.866519
 21
-3.240012
 31
0.0
  0
LINE
  8
0
  6
CONTINUOUS
 62
     7
  5
569
 10
1.866519
 20
-3.240012
 30
0.0
 11
1.863235
 21
-3.242955
 31
0.0
  0
LINE
  8
0
  6
CONTINUOUS
 62
     7
  5
56A
 10
1.863235
 20
-3.242955
 30
0.0
 11
1.859844
 21
-3.245773
 31
0.0
  0
LINE
  8
0
  6
CONTINUOUS
 62
     7
  5
56B
 10
1.859844
 20
-3.245773
 30
0.0
 11
1.85635
 21
-3.248463
 31
0.0
  0
LINE
  8
0
  6
CONTINUOUS
 62
     7
  5
56C
 10
1.85635
 20
-3.248463
 30
0.0
 11
1.852758
 21
-3.251021
 31
0.0
  0
LINE
  8
0
  6
CONTINUOUS
 62
     7
  5
56D
 10
1.852758
 20
-3.251021
 30
0.0
 11
1.849073
 21
-3.253442
 31
0.0
  0
LINE
  8
0
  6
CONTINUOUS
 62
     7
  5
56E
 10
1.849073
 20
-3.253442
 30
0.0
 11
1.8453
 21
-3.255725
 31
0.0
  0
LINE
  8
0
  6
CONTINUOUS
 62
     7
  5
56F
 10
1.8453
 20
-3.255725
 30
0.0
 11
1.841444
 21
-3.257865
 31
0.0
  0
LINE
  8
0
  6
CONTINUOUS
 62
     7
  5
570
 10
1.841444
 20
-3.257865
 30
0.0
 11
1.837512
 21
-3.259859
 31
0.0
  0
LINE
  8
0
  6
CONTINUOUS
 62
     7
  5
571
 10
1.837512
 20
-3.259859
 30
0.0
 11
1.833507
 21
-3.261706
 31
0.0
  0
LINE
  8
0
  6
CONTINUOUS
 62
     7
  5
572
 10
1.833507
 20
-3.261706
 30
0.0
 11
1.829437
 21
-3.263401
 31
0.0
  0
LINE
  8
0
  6
CONTINUOUS
 62
     7
  5
573
 10
1.829437
 20
-3.263401
 30
0.0
 11
1.825306
 21
-3.264944
 31
0.0
  0
LINE
  8
0
  6
CONTINUOUS
 62
     7
  5
574
 10
1.825306
 20
-3.264944
 30
0.0
 11
1.82112
 21
-3.266331
 31
0.0
  0
LINE
  8
0
  6
CONTINUOUS
 62
     7
  5
575
 10
1.82112
 20
-3.266331
 30
0.0
 11
1.816885
 21
-3.267561
 31
0.0
  0
LINE
  8
0
  6
CONTINUOUS
 62
     7
  5
576
 10
1.816885
 20
-3.039526
 30
0.0
 11
1.82112
 21
-3.040756
 31
0.0
  0
LINE
  8
0
  6
CONTINUOUS
 62
     7
  5
577
 10
1.82112
 20
-3.040756
 30
0.0
 11
1.825306
 21
-3.042143
 31
0.0
  0
LINE
  8
0
  6
CONTINUOUS
 62
     7
  5
578
 10
1.825306
 20
-3.042143
 30
0.0
 11
1.829437
 21
-3.043685
 31
0.0
  0
LINE
  8
0
  6
CONTINUOUS
 62
     7
  5
579
 10
1.829437
 20
-3.043685
 30
0.0
 11
1.833507
 21
-3.045381
 31
0.0
  0
LINE
  8
0
  6
CONTINUOUS
 62
     7
  5
57A
 10
1.833507
 20
-3.045381
 30
0.0
 11
1.837512
 21
-3.047227
 31
0.0
  0
LINE
  8
0
  6
CONTINUOUS
 62
     7
  5
57B
 10
1.837512
 20
-3.047227
 30
0.0
 11
1.841444
 21
-3.049222
 31
0.0
  0
LINE
  8
0
  6
CONTINUOUS
 62
     7
  5
57C
 10
1.841444
 20
-3.049222
 30
0.0
 11
1.8453
 21
-3.051362
 31
0.0
  0
LINE
  8
0
  6
CONTINUOUS
 62
     7
  5
57D
 10
1.8453
 20
-3.051362
 30
0.0
 11
1.849073
 21
-3.053644
 31
0.0
  0
LINE
  8
0
  6
CONTINUOUS
 62
     7
  5
57E
 10
1.849073
 20
-3.053644
 30
0.0
 11
1.852758
 21
-3.056066
 31
0.0
  0
LINE
  8
0
  6
CONTINUOUS
 62
     7
  5
57F
 10
1.852758
 20
-3.056066
 30
0.0
 11
1.85635
 21
-3.058623
 31
0.0
  0
LINE
  8
0
  6
CONTINUOUS
 62
     7
  5
580
 10
1.85635
 20
-3.058623
 30
0.0
 11
1.859844
 21
-3.061313
 31
0.0
  0
LINE
  8
0
  6
CONTINUOUS
 62
     7
  5
581
 10
1.859844
 20
-3.061313
 30
0.0
 11
1.863235
 21
-3.064132
 31
0.0
  0
LINE
  8
0
  6
CONTINUOUS
 62
     7
  5
582
 10
1.863235
 20
-3.064132
 30
0.0
 11
1.866519
 21
-3.067075
 31
0.0
  0
LINE
  8
0
  6
CONTINUOUS
 62
     7
  5
583
 10
1.866519
 20
-3.067075
 30
0.0
 11
1.869691
 21
-3.070138
 31
0.0
  0
LINE
  8
0
  6
CONTINUOUS
 62
     7
  5
584
 10
1.869691
 20
-3.070138
 30
0.0
 11
1.872746
 21
-3.073318
 31
0.0
  0
LINE
  8
0
  6
CONTINUOUS
 62
     7
  5
585
 10
1.872746
 20
-3.073318
 30
0.0
 11
1.87568
 21
-3.076609
 31
0.0
  0
LINE
  8
0
  6
CONTINUOUS
 62
     7
  5
586
 10
1.87568
 20
-3.076609
 30
0.0
 11
1.878489
 21
-3.080008
 31
0.0
  0
LINE
  8
0
  6
CONTINUOUS
 62
     7
  5
587
 10
1.878489
 20
-3.080008
 30
0.0
 11
1.88117
 21
-3.08351
 31
0.0
  0
LINE
  8
0
  6
CONTINUOUS
 62
     7
  5
588
 10
1.88117
 20
-3.08351
 30
0.0
 11
1.883718
 21
-3.087109
 31
0.0
  0
LINE
  8
0
  6
CONTINUOUS
 62
     7
  5
589
 10
1.883718
 20
-3.087109
 30
0.0
 11
1.88613
 21
-3.0908
 31
0.0
  0
LINE
  8
0
  6
CONTINUOUS
 62
     7
  5
58A
 10
1.88613
 20
-3.0908
 30
0.0
 11
1.888402
 21
-3.094579
 31
0.0
  0
LINE
  8
0
  6
CONTINUOUS
 62
     7
  5
58B
 10
1.888402
 20
-3.094579
 30
0.0
 11
1.890532
 21
-3.09844
 31
0.0
  0
LINE
  8
0
  6
CONTINUOUS
 62
     7
  5
58C
 10
1.890532
 20
-3.09844
 30
0.0
 11
1.892516
 21
-3.102378
 31
0.0
  0
LINE
  8
0
  6
CONTINUOUS
 62
     7
  5
58D
 10
1.892516
 20
-3.102378
 30
0.0
 11
1.894351
 21
-3.106388
 31
0.0
  0
LINE
  8
0
  6
CONTINUOUS
 62
     7
  5
58E
 10
1.894351
 20
-3.106388
 30
0.0
 11
1.896036
 21
-3.110463
 31
0.0
  0
LINE
  8
0
  6
CONTINUOUS
 62
     7
  5
58F
 10
1.896036
 20
-3.110463
 30
0.0
 11
1.897568
 21
-3.114598
 31
0.0
  0
LINE
  8
0
  6
CONTINUOUS
 62
     7
  5
590
 10
1.897568
 20
-3.114598
 30
0.0
 11
1.898944
 21
-3.118787
 31
0.0
  0
LINE
  8
0
  6
CONTINUOUS
 62
     7
  5
591
 10
1.898944
 20
-3.118787
 30
0.0
 11
1.900162
 21
-3.123025
 31
0.0
  0
LINE
  8
0
  6
CONTINUOUS
 62
     7
  5
592
 10
1.900162
 20
-3.123025
 30
0.0
 11
1.901222
 21
-3.127305
 31
0.0
  0
LINE
  8
0
  6
CONTINUOUS
 62
     7
  5
593
 10
1.901222
 20
-3.127305
 30
0.0
 11
1.902121
 21
-3.131622
 31
0.0
  0
LINE
  8
0
  6
CONTINUOUS
 62
     7
  5
594
 10
1.902121
 20
-3.131622
 30
0.0
 11
1.902858
 21
-3.13597
 31
0.0
  0
LINE
  8
0
  6
CONTINUOUS
 62
     7
  5
595
 10
1.902858
 20
-3.13597
 30
0.0
 11
1.903433
 21
-3.140341
 31
0.0
  0
LINE
  8
0
  6
CONTINUOUS
 62
     7
  5
596
 10
1.903433
 20
-3.140341
 30
0.0
 11
1.903844
 21
-3.144732
 31
0.0
  0
LINE
  8
0
  6
CONTINUOUS
 62
     7
  5
597
 10
1.903844
 20
-3.144732
 30
0.0
 11
1.904091
 21
-3.149135
 31
0.0
  0
LINE
  8
0
  6
CONTINUOUS
 62
     7
  5
598
 10
1.904091
 20
-3.149135
 30
0.0
 11
1.904173
 21
-3.153543
 31
0.0
  0
LINE
  8
0
  6
CONTINUOUS
 62
     7
  5
599
 10
1.816885
 20
-3.267561
 30
0.0
 11
1.510472
 21
-3.350394
 31
0.0
  0
LINE
  8
0
  6
CONTINUOUS
 62
     7
  5
59A
 10
1.904173
 20
-3.153543
 30
0.0
 11
1.904091
 21
-3.157952
 31
0.0
  0
LINE
  8
0
  6
CONTINUOUS
 62
     7
  5
59B
 10
1.904091
 20
-3.157952
 30
0.0
 11
1.903844
 21
-3.162355
 31
0.0
  0
LINE
  8
0
  6
CONTINUOUS
 62
     7
  5
59C
 10
1.903844
 20
-3.162355
 30
0.0
 11
1.903433
 21
-3.166745
 31
0.0
  0
LINE
  8
0
  6
CONTINUOUS
 62
     7
  5
59D
 10
1.903433
 20
-3.166745
 30
0.0
 11
1.902858
 21
-3.171117
 31
0.0
  0
LINE
  8
0
  6
CONTINUOUS
 62
     7
  5
59E
 10
1.902858
 20
-3.171117
 30
0.0
 11
1.902121
 21
-3.175465
 31
0.0
  0
LINE
  8
0
  6
CONTINUOUS
 62
     7
  5
59F
 10
1.902121
 20
-3.175465
 30
0.0
 11
1.901222
 21
-3.179781
 31
0.0
  0
LINE
  8
0
  6
CONTINUOUS
 62
     7
  5
5A0
 10
1.901222
 20
-3.179781
 30
0.0
 11
1.900162
 21
-3.184062
 31
0.0
  0
LINE
  8
0
  6
CONTINUOUS
 62
     7
  5
5A1
 10
1.900162
 20
-3.184062
 30
0.0
 11
1.898944
 21
-3.1883
 31
0.0
  0
LINE
  8
0
  6
CONTINUOUS
 62
     7
  5
5A2
 10
1.898944
 20
-3.1883
 30
0.0
 11
1.897568
 21
-3.192489
 31
0.0
  0
LINE
  8
0
  6
CONTINUOUS
 62
     7
  5
5A3
 10
1.897568
 20
-3.192489
 30
0.0
 11
1.896036
 21
-3.196624
 31
0.0
  0
LINE
  8
0
  6
CONTINUOUS
 62
     7
  5
5A4
 10
1.896036
 20
-3.196624
 30
0.0
 11
1.894351
 21
-3.200699
 31
0.0
  0
LINE
  8
0
  6
CONTINUOUS
 62
     7
  5
5A5
 10
1.894351
 20
-3.200699
 30
0.0
 11
1.892516
 21
-3.204708
 31
0.0
  0
LINE
  8
0
  6
CONTINUOUS
 62
     7
  5
5A6
 10
1.892516
 20
-3.204708
 30
0.0
 11
1.890532
 21
-3.208646
 31
0.0
  0
LINE
  8
0
  6
CONTINUOUS
 62
     7
  5
5A7
 10
1.890532
 20
-3.208646
 30
0.0
 11
1.888402
 21
-3.212508
 31
0.0
  0
LINE
  8
0
  6
CONTINUOUS
 62
     7
  5
5A8
 10
1.888402
 20
-3.212508
 30
0.0
 11
1.88613
 21
-3.216287
 31
0.0
  0
LINE
  8
0
  6
CONTINUOUS
 62
     7
  5
5A9
 10
1.88613
 20
-3.216287
 30
0.0
 11
1.883718
 21
-3.219978
 31
0.0
  0
LINE
  8
0
  6
CONTINUOUS
 62
     7
  5
5AA
 10
1.883718
 20
-3.219978
 30
0.0
 11
1.88117
 21
-3.223577
 31
0.0
  0
LINE
  8
0
  6
CONTINUOUS
 62
     7
  5
5AB
 10
1.88117
 20
-3.223577
 30
0.0
 11
1.878489
 21
-3.227078
 31
0.0
  0
LINE
  8
0
  6
CONTINUOUS
 62
     7
  5
5AC
 10
1.878489
 20
-3.227078
 30
0.0
 11
1.87568
 21
-3.230477
 31
0.0
  0
LINE
  8
0
  6
CONTINUOUS
 62
     7
  5
5AD
 10
1.87568
 20
-3.230477
 30
0.0
 11
1.872746
 21
-3.233769
 31
0.0
  0
LINE
  8
0
  6
CONTINUOUS
 62
     7
  5
5AE
 10
1.872746
 20
-3.233769
 30
0.0
 11
1.869691
 21
-3.236949
 31
0.0
  0
LINE
  8
0
  6
CONTINUOUS
 62
     7
  5
5AF
 10
1.869691
 20
-3.236949
 30
0.0
 11
1.866519
 21
-3.240012
 31
0.0
  0
LINE
  8
0
  6
CONTINUOUS
 62
     7
  5
5B0
 10
1.866519
 20
-3.240012
 30
0.0
 11
1.863235
 21
-3.242955
 31
0.0
  0
LINE
  8
0
  6
CONTINUOUS
 62
     7
  5
5B1
 10
1.863235
 20
-3.242955
 30
0.0
 11
1.859844
 21
-3.245773
 31
0.0
  0
LINE
  8
0
  6
CONTINUOUS
 62
     7
  5
5B2
 10
1.859844
 20
-3.245773
 30
0.0
 11
1.85635
 21
-3.248463
 31
0.0
  0
LINE
  8
0
  6
CONTINUOUS
 62
     7
  5
5B3
 10
1.85635
 20
-3.248463
 30
0.0
 11
1.852758
 21
-3.251021
 31
0.0
  0
LINE
  8
0
  6
CONTINUOUS
 62
     7
  5
5B4
 10
1.852758
 20
-3.251021
 30
0.0
 11
1.849073
 21
-3.253442
 31
0.0
  0
LINE
  8
0
  6
CONTINUOUS
 62
     7
  5
5B5
 10
1.849073
 20
-3.253442
 30
0.0
 11
1.8453
 21
-3.255725
 31
0.0
  0
LINE
  8
0
  6
CONTINUOUS
 62
     7
  5
5B6
 10
1.8453
 20
-3.255725
 30
0.0
 11
1.841444
 21
-3.257865
 31
0.0
  0
LINE
  8
0
  6
CONTINUOUS
 62
     7
  5
5B7
 10
1.841444
 20
-3.257865
 30
0.0
 11
1.837512
 21
-3.259859
 31
0.0
  0
LINE
  8
0
  6
CONTINUOUS
 62
     7
  5
5B8
 10
1.837512
 20
-3.259859
 30
0.0
 11
1.833507
 21
-3.261706
 31
0.0
  0
LINE
  8
0
  6
CONTINUOUS
 62
     7
  5
5B9
 10
1.833507
 20
-3.261706
 30
0.0
 11
1.829437
 21
-3.263401
 31
0.0
  0
LINE
  8
0
  6
CONTINUOUS
 62
     7
  5
5BA
 10
1.829437
 20
-3.263401
 30
0.0
 11
1.825306
 21
-3.264944
 31
0.0
  0
LINE
  8
0
  6
CONTINUOUS
 62
     7
  5
5BB
 10
1.825306
 20
-3.264944
 30
0.0
 11
1.82112
 21
-3.266331
 31
0.0
  0
LINE
  8
0
  6
CONTINUOUS
 62
     7
  5
5BC
 10
1.82112
 20
-3.266331
 30
0.0
 11
1.816885
 21
-3.267561
 31
0.0
  0
LINE
  8
0
  6
CONTINUOUS
 62
     7
  5
5BD
 10
1.816885
 20
-3.039526
 30
0.0
 11
1.82112
 21
-3.040756
 31
0.0
  0
LINE
  8
0
  6
CONTINUOUS
 62
     7
  5
5BE
 10
1.82112
 20
-3.040756
 30
0.0
 11
1.825306
 21
-3.042143
 31
0.0
  0
LINE
  8
0
  6
CONTINUOUS
 62
     7
  5
5BF
 10
1.825306
 20
-3.042143
 30
0.0
 11
1.829437
 21
-3.043685
 31
0.0
  0
LINE
  8
0
  6
CONTINUOUS
 62
     7
  5
5C0
 10
1.829437
 20
-3.043685
 30
0.0
 11
1.833507
 21
-3.045381
 31
0.0
  0
LINE
  8
0
  6
CONTINUOUS
 62
     7
  5
5C1
 10
1.833507
 20
-3.045381
 30
0.0
 11
1.837512
 21
-3.047227
 31
0.0
  0
LINE
  8
0
  6
CONTINUOUS
 62
     7
  5
5C2
 10
1.837512
 20
-3.047227
 30
0.0
 11
1.841444
 21
-3.049222
 31
0.0
  0
LINE
  8
0
  6
CONTINUOUS
 62
     7
  5
5C3
 10
1.841444
 20
-3.049222
 30
0.0
 11
1.8453
 21
-3.051362
 31
0.0
  0
LINE
  8
0
  6
CONTINUOUS
 62
     7
  5
5C4
 10
1.8453
 20
-3.051362
 30
0.0
 11
1.849073
 21
-3.053644
 31
0.0
  0
LINE
  8
0
  6
CONTINUOUS
 62
     7
  5
5C5
 10
1.849073
 20
-3.053644
 30
0.0
 11
1.852758
 21
-3.056066
 31
0.0
  0
LINE
  8
0
  6
CONTINUOUS
 62
     7
  5
5C6
 10
1.852758
 20
-3.056066
 30
0.0
 11
1.85635
 21
-3.058623
 31
0.0
  0
LINE
  8
0
  6
CONTINUOUS
 62
     7
  5
5C7
 10
1.85635
 20
-3.058623
 30
0.0
 11
1.859844
 21
-3.061313
 31
0.0
  0
LINE
  8
0
  6
CONTINUOUS
 62
     7
  5
5C8
 10
1.859844
 20
-3.061313
 30
0.0
 11
1.863235
 21
-3.064132
 31
0.0
  0
LINE
  8
0
  6
CONTINUOUS
 62
     7
  5
5C9
 10
1.863235
 20
-3.064132
 30
0.0
 11
1.866519
 21
-3.067075
 31
0.0
  0
LINE
  8
0
  6
CONTINUOUS
 62
     7
  5
5CA
 10
1.866519
 20
-3.067075
 30
0.0
 11
1.869691
 21
-3.070138
 31
0.0
  0
LINE
  8
0
  6
CONTINUOUS
 62
     7
  5
5CB
 10
1.869691
 20
-3.070138
 30
0.0
 11
1.872746
 21
-3.073318
 31
0.0
  0
LINE
  8
0
  6
CONTINUOUS
 62
     7
  5
5CC
 10
1.872746
 20
-3.073318
 30
0.0
 11
1.87568
 21
-3.076609
 31
0.0
  0
LINE
  8
0
  6
CONTINUOUS
 62
     7
  5
5CD
 10
1.87568
 20
-3.076609
 30
0.0
 11
1.878489
 21
-3.080008
 31
0.0
  0
LINE
  8
0
  6
CONTINUOUS
 62
     7
  5
5CE
 10
1.878489
 20
-3.080008
 30
0.0
 11
1.88117
 21
-3.08351
 31
0.0
  0
LINE
  8
0
  6
CONTINUOUS
 62
     7
  5
5CF
 10
1.88117
 20
-3.08351
 30
0.0
 11
1.883718
 21
-3.087109
 31
0.0
  0
LINE
  8
0
  6
CONTINUOUS
 62
     7
  5
5D0
 10
1.883718
 20
-3.087109
 30
0.0
 11
1.88613
 21
-3.0908
 31
0.0
  0
LINE
  8
0
  6
CONTINUOUS
 62
     7
  5
5D1
 10
1.88613
 20
-3.0908
 30
0.0
 11
1.888402
 21
-3.094579
 31
0.0
  0
LINE
  8
0
  6
CONTINUOUS
 62
     7
  5
5D2
 10
1.888402
 20
-3.094579
 30
0.0
 11
1.890532
 21
-3.09844
 31
0.0
  0
LINE
  8
0
  6
CONTINUOUS
 62
     7
  5
5D3
 10
1.890532
 20
-3.09844
 30
0.0
 11
1.892516
 21
-3.102378
 31
0.0
  0
LINE
  8
0
  6
CONTINUOUS
 62
     7
  5
5D4
 10
1.892516
 20
-3.102378
 30
0.0
 11
1.894351
 21
-3.106388
 31
0.0
  0
LINE
  8
0
  6
CONTINUOUS
 62
     7
  5
5D5
 10
1.894351
 20
-3.106388
 30
0.0
 11
1.896036
 21
-3.110463
 31
0.0
  0
LINE
  8
0
  6
CONTINUOUS
 62
     7
  5
5D6
 10
1.896036
 20
-3.110463
 30
0.0
 11
1.897568
 21
-3.114598
 31
0.0
  0
LINE
  8
0
  6
CONTINUOUS
 62
     7
  5
5D7
 10
1.897568
 20
-3.114598
 30
0.0
 11
1.898944
 21
-3.118787
 31
0.0
  0
LINE
  8
0
  6
CONTINUOUS
 62
     7
  5
5D8
 10
1.898944
 20
-3.118787
 30
0.0
 11
1.900162
 21
-3.123025
 31
0.0
  0
LINE
  8
0
  6
CONTINUOUS
 62
     7
  5
5D9
 10
1.900162
 20
-3.123025
 30
0.0
 11
1.901222
 21
-3.127305
 31
0.0
  0
LINE
  8
0
  6
CONTINUOUS
 62
     7
  5
5DA
 10
1.901222
 20
-3.127305
 30
0.0
 11
1.902121
 21
-3.131622
 31
0.0
  0
LINE
  8
0
  6
CONTINUOUS
 62
     7
  5
5DB
 10
1.902121
 20
-3.131622
 30
0.0
 11
1.902858
 21
-3.13597
 31
0.0
  0
LINE
  8
0
  6
CONTINUOUS
 62
     7
  5
5DC
 10
1.902858
 20
-3.13597
 30
0.0
 11
1.903433
 21
-3.140341
 31
0.0
  0
LINE
  8
0
  6
CONTINUOUS
 62
     7
  5
5DD
 10
1.903433
 20
-3.140341
 30
0.0
 11
1.903844
 21
-3.144732
 31
0.0
  0
LINE
  8
0
  6
CONTINUOUS
 62
     7
  5
5DE
 10
1.903844
 20
-3.144732
 30
0.0
 11
1.904091
 21
-3.149135
 31
0.0
  0
LINE
  8
0
  6
CONTINUOUS
 62
     7
  5
5DF
 10
1.904091
 20
-3.149135
 30
0.0
 11
1.904173
 21
-3.153543
 31
0.0
  0
LINE
  8
0
  6
CONTINUOUS
 62
     7
  5
5E0
 10
1.510472
 20
-2.956693
 30
0.0
 11
1.816885
 21
-3.039526
 31
0.0
  0
LINE
  8
0
  6
CONTINUOUS
 62
     7
  5
5E1
 10
1.510472
 20
-2.956693
 30
0.0
 11
1.510472
 21
-6.71063
 31
0.0
  0
LINE
  8
0
  6
CONTINUOUS
 62
     7
  5
5E2
 10
0.720472
 20
-3.567929
 30
0.0
 11
0.720472
 21
-2.956693
 31
0.0
  0
LINE
  8
0
  6
CONTINUOUS
 62
     7
  5
5E3
 10
1.510472
 20
-6.71063
 30
0.0
 11
0.720472
 21
-6.71063
 31
0.0
  0
LINE
  8
0
  6
CONTINUOUS
 62
     7
  5
5E4
 10
1.510472
 20
-2.956693
 30
0.0
 11
0.838583
 21
-2.956693
 31
0.0
  0
LINE
  8
0
  6
CONTINUOUS
 62
     7
  5
5E5
 10
-5.822835
 20
-6.854331
 30
0.0
 11
-7.082677
 21
-6.854331
 31
0.0
  0
LINE
  8
0
  6
CONTINUOUS
 62
     7
  5
5E6
 10
-5.822835
 20
-5.279528
 30
0.0
 11
-5.822835
 21
-6.854331
 31
0.0
  0
LINE
  8
0
  6
CONTINUOUS
 62
     7
  5
5E7
 10
-7.082677
 20
-5.279528
 30
0.0
 11
-5.822835
 21
-5.279528
 31
0.0
  0
LINE
  8
0
  6
CONTINUOUS
 62
     7
  5
5E8
 10
-7.082677
 20
-6.854331
 30
0.0
 11
-7.082677
 21
-5.279528
 31
0.0
  0
LINE
  8
0
  6
CONTINUOUS
 62
     7
  5
5E9
 10
-5.822835
 20
-6.854331
 30
0.0
 11
-5.822835
 21
-8.429134
 31
0.0
  0
LINE
  8
0
  6
CONTINUOUS
 62
     7
  5
5EA
 10
-7.082677
 20
-8.429134
 30
0.0
 11
-7.082677
 21
-6.854331
 31
0.0
  0
LINE
  8
0
  6
CONTINUOUS
 62
     7
  5
5EB
 10
-5.822835
 20
-8.429134
 30
0.0
 11
-7.082677
 21
-8.429134
 31
0.0
  0
LINE
  8
0
  6
CONTINUOUS
 62
     7
  5
5EC
 10
-4.561992
 20
-6.854331
 30
0.0
 11
-5.821835
 21
-6.854331
 31
0.0
  0
LINE
  8
0
  6
CONTINUOUS
 62
     7
  5
5ED
 10
-4.561992
 20
-5.279528
 30
0.0
 11
-4.561992
 21
-6.854331
 31
0.0
  0
LINE
  8
0
  6
CONTINUOUS
 62
     7
  5
5EE
 10
-5.821835
 20
-5.279528
 30
0.0
 11
-4.561992
 21
-5.279528
 31
0.0
  0
LINE
  8
0
  6
CONTINUOUS
 62
     7
  5
5EF
 10
-5.821835
 20
-6.854331
 30
0.0
 11
-5.821835
 21
-5.279528
 31
0.0
  0
LINE
  8
0
  6
CONTINUOUS
 62
     7
  5
5F0
 10
-4.561992
 20
-6.854331
 30
0.0
 11
-4.561992
 21
-8.429134
 31
0.0
  0
LINE
  8
0
  6
CONTINUOUS
 62
     7
  5
5F1
 10
-5.821835
 20
-8.429134
 30
0.0
 11
-5.821835
 21
-6.854331
 31
0.0
  0
LINE
  8
0
  6
CONTINUOUS
 62
     7
  5
5F2
 10
-4.561992
 20
-8.429134
 30
0.0
 11
-5.821835
 21
-8.429134
 31
0.0
  0
LINE
  8
0
  6
CONTINUOUS
 62
     7
  5
5F3
 10
-3.30115
 20
-6.854331
 30
0.0
 11
-4.560992
 21
-6.854331
 31
0.0
  0
LINE
  8
0
  6
CONTINUOUS
 62
     7
  5
5F4
 10
-3.30115
 20
-5.279528
 30
0.0
 11
-3.30115
 21
-6.854331
 31
0.0
  0
LINE
  8
0
  6
CONTINUOUS
 62
     7
  5
5F5
 10
-4.560992
 20
-5.279528
 30
0.0
 11
-3.30115
 21
-5.279528
 31
0.0
  0
LINE
  8
0
  6
CONTINUOUS
 62
     7
  5
5F6
 10
-4.560992
 20
-6.854331
 30
0.0
 11
-4.560992
 21
-5.279528
 31
0.0
  0
LINE
  8
0
  6
CONTINUOUS
 62
     7
  5
5F7
 10
-3.30115
 20
-6.854331
 30
0.0
 11
-3.30115
 21
-8.429134
 31
0.0
  0
LINE
  8
0
  6
CONTINUOUS
 62
     7
  5
5F8
 10
-4.560992
 20
-8.429134
 30
0.0
 11
-4.560992
 21
-6.854331
 31
0.0
  0
LINE
  8
0
  6
CONTINUOUS
 62
     7
  5
5F9
 10
-3.30115
 20
-8.429134
 30
0.0
 11
-4.560992
 21
-8.429134
 31
0.0
  0
LINE
  8
0
  6
CONTINUOUS
 62
     7
  5
5FA
 10
-2.040307
 20
-6.854331
 30
0.0
 11
-3.30015
 21
-6.854331
 31
0.0
  0
LINE
  8
0
  6
CONTINUOUS
 62
     7
  5
5FB
 10
-2.040307
 20
-5.279528
 30
0.0
 11
-2.040307
 21
-6.854331
 31
0.0
  0
LINE
  8
0
  6
CONTINUOUS
 62
     7
  5
5FC
 10
-3.30015
 20
-5.279528
 30
0.0
 11
-2.040307
 21
-5.279528
 31
0.0
  0
LINE
  8
0
  6
CONTINUOUS
 62
     7
  5
5FD
 10
-3.30015
 20
-6.854331
 30
0.0
 11
-3.30015
 21
-5.279528
 31
0.0
  0
LINE
  8
0
  6
CONTINUOUS
 62
     7
  5
5FE
 10
-2.040307
 20
-6.854331
 30
0.0
 11
-2.040307
 21
-8.429134
 31
0.0
  0
LINE
  8
0
  6
CONTINUOUS
 62
     7
  5
5FF
 10
-3.30015
 20
-8.429134
 30
0.0
 11
-3.30015
 21
-6.854331
 31
0.0
  0
LINE
  8
0
  6
CONTINUOUS
 62
     7
  5
600
 10
-2.040307
 20
-8.429134
 30
0.0
 11
-3.30015
 21
-8.429134
 31
0.0
  0
LINE
  8
0
  6
CONTINUOUS
 62
     7
  5
601
 10
-9.248031
 20
-7.838583
 30
0.0
 11
-9.090551
 21
-7.838583
 31
0.0
  0
LINE
  8
0
  6
CONTINUOUS
 62
     7
  5
602
 10
-9.248031
 20
-4.295276
 30
0.0
 11
-9.090551
 21
-4.295276
 31
0.0
  0
LINE
  8
0
  6
CONTINUOUS
 62
     7
  5
603
 10
-9.090551
 20
-7.838583
 30
0.0
 11
-7.240157
 21
-7.838583
 31
0.0
  0
LINE
  8
0
  6
CONTINUOUS
 62
     7
  5
604
 10
-7.240157
 20
-4.295276
 30
0.0
 11
-7.240157
 21
-7.838583
 31
0.0
  0
LINE
  8
0
  6
CONTINUOUS
 62
     7
  5
605
 10
-9.090551
 20
-4.295276
 30
0.0
 11
-7.240157
 21
-4.295276
 31
0.0
  0
LINE
  8
0
  6
CONTINUOUS
 62
     7
  5
606
 10
-9.405512
 20
-4.295276
 30
0.0
 11
-9.405512
 21
-7.838583
 31
0.0
  0
LINE
  8
0
  6
CONTINUOUS
 62
     7
  5
607
 10
-9.405512
 20
-7.838583
 30
0.0
 11
-9.248031
 21
-7.838583
 31
0.0
  0
LINE
  8
0
  6
CONTINUOUS
 62
     7
  5
608
 10
-9.248031
 20
-4.295276
 30
0.0
 11
-9.248031
 21
-7.838583
 31
0.0
  0
LINE
  8
0
  6
CONTINUOUS
 62
     7
  5
609
 10
-9.405512
 20
-4.295276
 30
0.0
 11
-9.248031
 21
-4.295276
 31
0.0
  0
LINE
  8
0
  6
CONTINUOUS
 62
     7
  5
60A
 10
-8.53937
 20
-7.838583
 30
0.0
 11
-8.53937
 21
-8.565929
 31
0.0
  0
LINE
  8
0
  6
CONTINUOUS
 62
     7
  5
60B
 10
-8.53937
 20
-8.565929
 30
0.0
 11
0.523622
 21
-8.565929
 31
0.0
  0
LINE
  8
0
  6
CONTINUOUS
 62
     7
  5
60C
 10
-8.53937
 20
-3.567929
 30
0.0
 11
0.523622
 21
-3.567929
 31
0.0
  0
LINE
  8
0
  6
CONTINUOUS
 62
     7
  5
60D
 10
-8.53937
 20
-3.567929
 30
0.0
 11
-8.53937
 21
-4.295276
 31
0.0
  0
LINE
  8
0
  6
CONTINUOUS
 62
     7
  5
60E
 10
0.523622
 20
-8.565929
 30
0.0
 11
0.720472
 21
-8.565929
 31
0.0
  0
LINE
  8
0
  6
CONTINUOUS
 62
     7
  5
60F
 10
0.720472
 20
-3.567929
 30
0.0
 11
0.720472
 21
-8.565929
 31
0.0
  0
LINE
  8
0
  6
CONTINUOUS
 62
     7
  5
610
 10
0.523622
 20
-3.567929
 30
0.0
 11
0.720472
 21
-3.567929
 31
0.0
  0
LINE
  8
0
  6
CONTINUOUS
 62
     7
  5
611
 10
-8.53937
 20
-3.566929
 30
0.0
 11
0.366142
 21
-3.566929
 31
0.0
  0
LINE
  8
0
  6
CONTINUOUS
 62
     7
  5
612
 10
-8.53937
 20
-8.566929
 30
0.0
 11
0.366142
 21
-8.566929
 31
0.0
  0
LINE
  8
0
  6
CONTINUOUS
 62
     7
  5
613
 10
0.366142
 20
-8.566929
 30
0.0
 11
0.562992
 21
-8.566929
 31
0.0
  0
LINE
  8
0
  6
CONTINUOUS
 62
     7
  5
614
 10
0.366142
 20
-3.566929
 30
0.0
 11
0.562992
 21
-3.566929
 31
0.0
  0
LINE
  8
0
  6
CONTINUOUS
 62
     7
  5
615
 10
1.904173
 20
-3.153543
 30
0.0
 11
1.904091
 21
-3.157952
 31
0.0
  0
LINE
  8
0
  6
CONTINUOUS
 62
     7
  5
616
 10
1.904091
 20
-3.157952
 30
0.0
 11
1.903844
 21
-3.162355
 31
0.0
  0
LINE
  8
0
  6
CONTINUOUS
 62
     7
  5
617
 10
1.903844
 20
-3.162355
 30
0.0
 11
1.903433
 21
-3.166745
 31
0.0
  0
LINE
  8
0
  6
CONTINUOUS
 62
     7
  5
618
 10
1.903433
 20
-3.166745
 30
0.0
 11
1.902858
 21
-3.171117
 31
0.0
  0
LINE
  8
0
  6
CONTINUOUS
 62
     7
  5
619
 10
1.902858
 20
-3.171117
 30
0.0
 11
1.902121
 21
-3.175465
 31
0.0
  0
LINE
  8
0
  6
CONTINUOUS
 62
     7
  5
61A
 10
1.902121
 20
-3.175465
 30
0.0
 11
1.901222
 21
-3.179781
 31
0.0
  0
LINE
  8
0
  6
CONTINUOUS
 62
     7
  5
61B
 10
1.901222
 20
-3.179781
 30
0.0
 11
1.900162
 21
-3.184062
 31
0.0
  0
LINE
  8
0
  6
CONTINUOUS
 62
     7
  5
61C
 10
1.900162
 20
-3.184062
 30
0.0
 11
1.898944
 21
-3.1883
 31
0.0
  0
LINE
  8
0
  6
CONTINUOUS
 62
     7
  5
61D
 10
1.898944
 20
-3.1883
 30
0.0
 11
1.897568
 21
-3.192489
 31
0.0
  0
LINE
  8
0
  6
CONTINUOUS
 62
     7
  5
61E
 10
1.897568
 20
-3.192489
 30
0.0
 11
1.896036
 21
-3.196624
 31
0.0
  0
LINE
  8
0
  6
CONTINUOUS
 62
     7
  5
61F
 10
1.896036
 20
-3.196624
 30
0.0
 11
1.894351
 21
-3.200699
 31
0.0
  0
LINE
  8
0
  6
CONTINUOUS
 62
     7
  5
620
 10
1.894351
 20
-3.200699
 30
0.0
 11
1.892516
 21
-3.204708
 31
0.0
  0
LINE
  8
0
  6
CONTINUOUS
 62
     7
  5
621
 10
1.892516
 20
-3.204708
 30
0.0
 11
1.890532
 21
-3.208646
 31
0.0
  0
LINE
  8
0
  6
CONTINUOUS
 62
     7
  5
622
 10
1.890532
 20
-3.208646
 30
0.0
 11
1.888402
 21
-3.212508
 31
0.0
  0
LINE
  8
0
  6
CONTINUOUS
 62
     7
  5
623
 10
1.888402
 20
-3.212508
 30
0.0
 11
1.88613
 21
-3.216287
 31
0.0
  0
LINE
  8
0
  6
CONTINUOUS
 62
     7
  5
624
 10
1.88613
 20
-3.216287
 30
0.0
 11
1.883718
 21
-3.219978
 31
0.0
  0
LINE
  8
0
  6
CONTINUOUS
 62
     7
  5
625
 10
1.883718
 20
-3.219978
 30
0.0
 11
1.88117
 21
-3.223577
 31
0.0
  0
LINE
  8
0
  6
CONTINUOUS
 62
     7
  5
626
 10
1.88117
 20
-3.223577
 30
0.0
 11
1.878489
 21
-3.227078
 31
0.0
  0
LINE
  8
0
  6
CONTINUOUS
 62
     7
  5
627
 10
1.878489
 20
-3.227078
 30
0.0
 11
1.87568
 21
-3.230477
 31
0.0
  0
LINE
  8
0
  6
CONTINUOUS
 62
     7
  5
628
 10
1.87568
 20
-3.230477
 30
0.0
 11
1.872746
 21
-3.233769
 31
0.0
  0
LINE
  8
0
  6
CONTINUOUS
 62
     7
  5
629
 10
1.872746
 20
-3.233769
 30
0.0
 11
1.869691
 21
-3.236949
 31
0.0
  0
LINE
  8
0
  6
CONTINUOUS
 62
     7
  5
62A
 10
1.869691
 20
-3.236949
 30
0.0
 11
1.866519
 21
-3.240012
 31
0.0
  0
LINE
  8
0
  6
CONTINUOUS
 62
     7
  5
62B
 10
1.866519
 20
-3.240012
 30
0.0
 11
1.863235
 21
-3.242955
 31
0.0
  0
LINE
  8
0
  6
CONTINUOUS
 62
     7
  5
62C
 10
1.863235
 20
-3.242955
 30
0.0
 11
1.859844
 21
-3.245773
 31
0.0
  0
LINE
  8
0
  6
CONTINUOUS
 62
     7
  5
62D
 10
1.859844
 20
-3.245773
 30
0.0
 11
1.85635
 21
-3.248463
 31
0.0
  0
LINE
  8
0
  6
CONTINUOUS
 62
     7
  5
62E
 10
1.85635
 20
-3.248463
 30
0.0
 11
1.852758
 21
-3.251021
 31
0.0
  0
LINE
  8
0
  6
CONTINUOUS
 62
     7
  5
62F
 10
1.852758
 20
-3.251021
 30
0.0
 11
1.849073
 21
-3.253442
 31
0.0
  0
LINE
  8
0
  6
CONTINUOUS
 62
     7
  5
630
 10
1.849073
 20
-3.253442
 30
0.0
 11
1.8453
 21
-3.255725
 31
0.0
  0
LINE
  8
0
  6
CONTINUOUS
 62
     7
  5
631
 10
1.8453
 20
-3.255725
 30
0.0
 11
1.841444
 21
-3.257865
 31
0.0
  0
LINE
  8
0
  6
CONTINUOUS
 62
     7
  5
632
 10
1.841444
 20
-3.257865
 30
0.0
 11
1.837512
 21
-3.259859
 31
0.0
  0
LINE
  8
0
  6
CONTINUOUS
 62
     7
  5
633
 10
1.837512
 20
-3.259859
 30
0.0
 11
1.833507
 21
-3.261706
 31
0.0
  0
LINE
  8
0
  6
CONTINUOUS
 62
     7
  5
634
 10
1.833507
 20
-3.261706
 30
0.0
 11
1.829437
 21
-3.263401
 31
0.0
  0
LINE
  8
0
  6
CONTINUOUS
 62
     7
  5
635
 10
1.829437
 20
-3.263401
 30
0.0
 11
1.825306
 21
-3.264944
 31
0.0
  0
LINE
  8
0
  6
CONTINUOUS
 62
     7
  5
636
 10
1.825306
 20
-3.264944
 30
0.0
 11
1.82112
 21
-3.266331
 31
0.0
  0
LINE
  8
0
  6
CONTINUOUS
 62
     7
  5
637
 10
1.82112
 20
-3.266331
 30
0.0
 11
1.816885
 21
-3.267561
 31
0.0
  0
LINE
  8
0
  6
CONTINUOUS
 62
     7
  5
638
 10
1.816885
 20
-3.039526
 30
0.0
 11
1.82112
 21
-3.040756
 31
0.0
  0
LINE
  8
0
  6
CONTINUOUS
 62
     7
  5
639
 10
1.82112
 20
-3.040756
 30
0.0
 11
1.825306
 21
-3.042143
 31
0.0
  0
LINE
  8
0
  6
CONTINUOUS
 62
     7
  5
63A
 10
1.825306
 20
-3.042143
 30
0.0
 11
1.829437
 21
-3.043685
 31
0.0
  0
LINE
  8
0
  6
CONTINUOUS
 62
     7
  5
63B
 10
1.829437
 20
-3.043685
 30
0.0
 11
1.833507
 21
-3.045381
 31
0.0
  0
LINE
  8
0
  6
CONTINUOUS
 62
     7
  5
63C
 10
1.833507
 20
-3.045381
 30
0.0
 11
1.837512
 21
-3.047227
 31
0.0
  0
LINE
  8
0
  6
CONTINUOUS
 62
     7
  5
63D
 10
1.837512
 20
-3.047227
 30
0.0
 11
1.841444
 21
-3.049222
 31
0.0
  0
LINE
  8
0
  6
CONTINUOUS
 62
     7
  5
63E
 10
1.841444
 20
-3.049222
 30
0.0
 11
1.8453
 21
-3.051362
 31
0.0
  0
LINE
  8
0
  6
CONTINUOUS
 62
     7
  5
63F
 10
1.8453
 20
-3.051362
 30
0.0
 11
1.849073
 21
-3.053644
 31
0.0
  0
LINE
  8
0
  6
CONTINUOUS
 62
     7
  5
640
 10
1.849073
 20
-3.053644
 30
0.0
 11
1.852758
 21
-3.056066
 31
0.0
  0
LINE
  8
0
  6
CONTINUOUS
 62
     7
  5
641
 10
1.852758
 20
-3.056066
 30
0.0
 11
1.85635
 21
-3.058623
 31
0.0
  0
LINE
  8
0
  6
CONTINUOUS
 62
     7
  5
642
 10
1.85635
 20
-3.058623
 30
0.0
 11
1.859844
 21
-3.061313
 31
0.0
  0
LINE
  8
0
  6
CONTINUOUS
 62
     7
  5
643
 10
1.859844
 20
-3.061313
 30
0.0
 11
1.863235
 21
-3.064132
 31
0.0
  0
LINE
  8
0
  6
CONTINUOUS
 62
     7
  5
644
 10
1.863235
 20
-3.064132
 30
0.0
 11
1.866519
 21
-3.067075
 31
0.0
  0
LINE
  8
0
  6
CONTINUOUS
 62
     7
  5
645
 10
1.866519
 20
-3.067075
 30
0.0
 11
1.869691
 21
-3.070138
 31
0.0
  0
LINE
  8
0
  6
CONTINUOUS
 62
     7
  5
646
 10
1.869691
 20
-3.070138
 30
0.0
 11
1.872746
 21
-3.073318
 31
0.0
  0
LINE
  8
0
  6
CONTINUOUS
 62
     7
  5
647
 10
1.872746
 20
-3.073318
 30
0.0
 11
1.87568
 21
-3.076609
 31
0.0
  0
LINE
  8
0
  6
CONTINUOUS
 62
     7
  5
648
 10
1.87568
 20
-3.076609
 30
0.0
 11
1.878489
 21
-3.080008
 31
0.0
  0
LINE
  8
0
  6
CONTINUOUS
 62
     7
  5
649
 10
1.878489
 20
-3.080008
 30
0.0
 11
1.88117
 21
-3.08351
 31
0.0
  0
LINE
  8
0
  6
CONTINUOUS
 62
     7
  5
64A
 10
1.88117
 20
-3.08351
 30
0.0
 11
1.883718
 21
-3.087109
 31
0.0
  0
LINE
  8
0
  6
CONTINUOUS
 62
     7
  5
64B
 10
1.883718
 20
-3.087109
 30
0.0
 11
1.88613
 21
-3.0908
 31
0.0
  0
LINE
  8
0
  6
CONTINUOUS
 62
     7
  5
64C
 10
1.88613
 20
-3.0908
 30
0.0
 11
1.888402
 21
-3.094579
 31
0.0
  0
LINE
  8
0
  6
CONTINUOUS
 62
     7
  5
64D
 10
1.888402
 20
-3.094579
 30
0.0
 11
1.890532
 21
-3.09844
 31
0.0
  0
LINE
  8
0
  6
CONTINUOUS
 62
     7
  5
64E
 10
1.890532
 20
-3.09844
 30
0.0
 11
1.892516
 21
-3.102378
 31
0.0
  0
LINE
  8
0
  6
CONTINUOUS
 62
     7
  5
64F
 10
1.892516
 20
-3.102378
 30
0.0
 11
1.894351
 21
-3.106388
 31
0.0
  0
LINE
  8
0
  6
CONTINUOUS
 62
     7
  5
650
 10
1.894351
 20
-3.106388
 30
0.0
 11
1.896036
 21
-3.110463
 31
0.0
  0
LINE
  8
0
  6
CONTINUOUS
 62
     7
  5
651
 10
1.896036
 20
-3.110463
 30
0.0
 11
1.897568
 21
-3.114598
 31
0.0
  0
LINE
  8
0
  6
CONTINUOUS
 62
     7
  5
652
 10
1.897568
 20
-3.114598
 30
0.0
 11
1.898944
 21
-3.118787
 31
0.0
  0
LINE
  8
0
  6
CONTINUOUS
 62
     7
  5
653
 10
1.898944
 20
-3.118787
 30
0.0
 11
1.900162
 21
-3.123025
 31
0.0
  0
LINE
  8
0
  6
CONTINUOUS
 62
     7
  5
654
 10
1.900162
 20
-3.123025
 30
0.0
 11
1.901222
 21
-3.127305
 31
0.0
  0
LINE
  8
0
  6
CONTINUOUS
 62
     7
  5
655
 10
1.901222
 20
-3.127305
 30
0.0
 11
1.902121
 21
-3.131622
 31
0.0
  0
LINE
  8
0
  6
CONTINUOUS
 62
     7
  5
656
 10
1.902121
 20
-3.131622
 30
0.0
 11
1.902858
 21
-3.13597
 31
0.0
  0
LINE
  8
0
  6
CONTINUOUS
 62
     7
  5
657
 10
1.902858
 20
-3.13597
 30
0.0
 11
1.903433
 21
-3.140341
 31
0.0
  0
LINE
  8
0
  6
CONTINUOUS
 62
     7
  5
658
 10
1.903433
 20
-3.140341
 30
0.0
 11
1.903844
 21
-3.144732
 31
0.0
  0
LINE
  8
0
  6
CONTINUOUS
 62
     7
  5
659
 10
1.903844
 20
-3.144732
 30
0.0
 11
1.904091
 21
-3.149135
 31
0.0
  0
LINE
  8
0
  6
CONTINUOUS
 62
     7
  5
65A
 10
1.904091
 20
-3.149135
 30
0.0
 11
1.904173
 21
-3.153543
 31
0.0
  0
LINE
  8
0
  6
CONTINUOUS
 62
     7
  5
65B
 10
0.720472
 20
-3.566929
 30
0.0
 11
0.562992
 21
-3.566929
 31
0.0
  0
LINE
  8
0
  6
CONTINUOUS
 62
     7
  5
65C
 10
0.720472
 20
-8.566929
 30
0.0
 11
0.562992
 21
-8.566929
 31
0.0
  0
LINE
  8
0
  6
CONTINUOUS
 62
     7
  5
65D
 10
7.100748
 20
1.663957
 30
0.0
 11
7.150664
 21
1.556913
 31
0.0
  0
LINE
  8
0
  6
CONTINUOUS
 62
     7
  5
65E
 10
7.466795
 20
0.878966
 30
0.0
 11
7.516711
 21
0.771922
 31
0.0
  0
ARC
  8
0
  6
CONTINUOUS
 62
     7
  5
65F
 10
13.035596
 20
3.888421
 30
0.0
 40
0.590551
 50
193.463041
 51
216.536959
  0
ARC
  8
0
  6
CONTINUOUS
 62
     7
  5
660
 10
13.035596
 20
3.888421
 30
0.0
 40
0.590551
 50
228.578178
 51
181.421822
  0
LINE
  8
0
  6
CONTINUOUS
 62
     7
  5
661
 10
7.472447
 20
-0.918444
 30
0.0
 11
7.416998
 21
-1.022729
 31
0.0
  0
LINE
  8
0
  6
CONTINUOUS
 62
     7
  5
662
 10
7.065818
 20
-1.683202
 30
0.0
 11
7.010369
 21
-1.787487
 31
0.0
  0
ARC
  8
0
  6
CONTINUOUS
 62
     7
  5
663
 10
12.820663
 20
-4.319508
 30
0.0
 40
0.590551
 50
140.463041
 51
163.536959
  0
ARC
  8
0
  6
CONTINUOUS
 62
     7
  5
664
 10
12.820663
 20
-4.319508
 30
0.0
 40
0.590551
 50
175.578178
 51
128.421822
  0
LINE
  8
0
  6
CONTINUOUS
 62
     3
  5
665
 10
0.0
 20
-1.53937
 30
0.0
 11
0.838583
 21
-1.53937
 31
0.0
  0
LINE
  8
0
  6
CONTINUOUS
 62
     3
  5
666
 10
0.0
 20
4.366142
 30
0.0
 11
0.838583
 21
4.366142
 31
0.0
  0
LINE
  8
0
  6
CONTINUOUS
 62
     3
  5
667
 10
0.720472
 20
-6.088583
 30
0.0
 11
1.510472
 21
-6.088583
 31
0.0
  0
LINE
  8
0
  6
CONTINUOUS
 62
     3
  5
668
 10
0.720472
 20
-4.336614
 30
0.0
 11
1.510472
 21
-4.336614
 31
0.0
  0
LINE
  8
0
  6
CONTINUOUS
 62
     3
  5
669
 10
0.720472
 20
8.915354
 30
0.0
 11
1.510472
 21
8.915354
 31
0.0
  0
LINE
  8
0
  6
CONTINUOUS
 62
     3
  5
66A
 10
0.720472
 20
7.163386
 30
0.0
 11
1.510472
 21
7.163386
 31
0.0
  0
ENDSEC
  0
EOF
