999
DXF file: C:\Users\sesa63760\OneDrive - Schneider Electric\Documents\7-Dev\_Creo\CAD\MCADPP0000153_3D-CAD\drw0001_3.dxf
999
Pro/ENGINEER 2019471 by Parametric Technology Corporation
  0
SECTION
  2
HEADER
  9
$ACADVER
  1
AC1024
  9
$DWGCODEPAGE
  3
ANSI_1252
  9
$EXTMAX
 10
91.0125323254
 20
128.7177242888
 30
0.0
  9
$EXTMIN
 10
0.0
 20
0.0
 30
0.0
  9
$LIMMIN
 10
0.0
 20
0.0
  9
$LIMMAX
 10
91.0125323254
 20
128.7177242888
  9
$VIEWCTR
 10
45.5062661627
 20
64.3588621444
  9
$VIEWSIZE
 40
128.7177242888
  9
$CLAYER
  8
0
  9
$LTSCALE
 40
8.3904886944
  9
$CELTYPE
  6
BYLAYER
  9
$DIMSCALE
 40
1.0
  9
$DIMASZ
 40
1.0834825277
  9
$DIMEXO
 40
1.0
  9
$DIMDLI
 40
5.7970649161
  9
$DIMEXE
 40
1.0
  9
$DIMCEN
 40
1.3729890591
  9
$DIMLFAC
 40
1.0
  9
$DIMBLK
  1
_FILLED
  9
$DIMALT
 70
0
  9
$DIMALTF
 40
0.0393700787
  9
$DIMTXT
 40
1.5168755388
  9
$DIMTOL
 70
1
  9
$DIMLIM
 70
0
  9
$DIMTFAC
 40
1.0
  9
$DIMTP
 40
0.01
  9
$DIMTM
 40
0.01
  9
$DIMGAP
 40
0.625
  9
$DIMDSEP
 70
46
  9
$AUNITS
 70
0
  9
$PDMODE
 70
3
  9
$PDSIZE
 40
0.3125
  9
$HANDSEED
  5
256
  9
$TILEMODE
 70
1
  9
$MEASUREMENT
 70
1
  9
$INSUNITS
 70
4
  0
ENDSEC
  0
SECTION
  2
CLASSES
  0
CLASS
  1
ACDBDICTIONARYWDFLT
  2
AcDbDictionaryWithDefault
  3
AutoCAD 2000
 90
0
 91
1
280
0
281
0
  0
CLASS
  1
ACDBPLACEHOLDER
  2
AcDbPlaceHolder
  3
AutoCAD 2000
 90
0
 91
1
280
0
281
0
  0
CLASS
  1
LAYOUT
  2
AcDbLayout
  3
AutoCAD 2000
 90
0
 91
0
280
0
281
0
  0
ENDSEC
  0
SECTION
  2
TABLES
  0
TABLE
  2
VPORT
  5
8
100
AcDbSymbolTable
 70
2
  0
VPORT
  5
1F4
100
AcDbSymbolTableRecord
100
AcDbViewportTableRecord
  2
*ACTIVE
 70
0
 10
0.0
 20
0.0
 11
1.0
 21
1.0
 12
45.5062661627
 22
64.3588621444
 13
0.0
 23
0.0
 14
1.0
 24
1.0
 15
0.0
 25
0.0
 16
0.0
 26
0.0
 36
1.0
 17
0.0
 27
0.0
 37
0.0
 40
128.7177242888
 41
0.7070707071
 42
50.0
 43
0.0
 44
0.0
 50
0.0
 51
0.0
 71
0
 72
100
 73
1
 74
1
 75
0
 76
0
 77
0
 78
0
  0
ENDTAB
  0
TABLE
  2
LTYPE
  5
5
100
AcDbSymbolTable
 70
6
  0
LTYPE
  5
14
100
AcDbSymbolTableRecord
100
AcDbLinetypeTableRecord
  2
BYBLOCK
 70
0
  3

 72
65
 73
0
 40
0.0
  0
LTYPE
  5
15
100
AcDbSymbolTableRecord
100
AcDbLinetypeTableRecord
  2
BYLAYER
 70
0
  3

 72
65
 73
0
 40
0.0
  0
LTYPE
  5
16
100
AcDbSymbolTableRecord
100
AcDbLinetypeTableRecord
  2
CONTINUOUS
 70
64
  3
Solid line
 72
65
 73
0
 40
0.0
  0
LTYPE
  5
1F5
100
AcDbSymbolTableRecord
100
AcDbLinetypeTableRecord
  2
CENTER
 70
64
  3
____ _ ____ _ ____ _ ____ _ ____ _ ____ _ ____
 72
65
 73
4
 40
0.6
 49
0.375
 74
0
 49
-0.075
 74
0
 49
0.075
 74
0
 49
-0.075
 74
0
  0
LTYPE
  5
1F6
100
AcDbSymbolTableRecord
100
AcDbLinetypeTableRecord
  2
HIDDEN
 70
64
  3
- - - - - - - - - - - - - - - - - - - -
 72
65
 73
2
 40
0.2
 49
0.1
 74
0
 49
-0.1
 74
0
  0
LTYPE
  5
1F7
100
AcDbSymbolTableRecord
100
AcDbLinetypeTableRecord
  2
PHANTOM
 70
64
  3
_____ _ _ _____ _ _ _____ _ _ _____
 72
65
 73
6
 40
0.8
 49
0.45
 74
0
 49
-0.05
 74
0
 49
0.1
 74
0
 49
-0.05
 74
0
 49
0.1
 74
0
 49
-0.05
 74
0
  0
LTYPE
  5
1F8
100
AcDbSymbolTableRecord
100
AcDbLinetypeTableRecord
  2
DOT
 70
64
  3
. . . . . . . . . . . . . . . . . . . .
 72
65
 73
2
 40
0.2
 49
0.1
 74
0
 49
-0.1
 74
0
  0
LTYPE
  5
1F9
100
AcDbSymbolTableRecord
100
AcDbLinetypeTableRecord
  2
DASHED
 70
64
  3
- - - - - - - - - - - - - - - - - - - -
 72
65
 73
2
 40
0.2
 49
0.1
 74
0
 49
-0.1
 74
0
  0
ENDTAB
  0
TABLE
  2
LAYER
  5
2
100
AcDbSymbolTable
 70
36
  0
LAYER
  5
10
100
AcDbSymbolTableRecord
100
AcDbLayerTableRecord
  2
0
 70
0
 62
7
  6
CONTINUOUS
370
-3
390
F
  0
LAYER
  5
1FA
100
AcDbSymbolTableRecord
100
AcDbLayerTableRecord
  2
DEFAULT_1
 70
0
 62
7
  6
CENTER
370
-3
390
F
  0
LAYER
  5
1FB
100
AcDbSymbolTableRecord
100
AcDbLayerTableRecord
  2
DEFAULT_2
 70
0
 62
8
  6
HIDDEN
370
-3
390
F
  0
LAYER
  5
1FC
100
AcDbSymbolTableRecord
100
AcDbLayerTableRecord
  2
DEFAULT_3
 70
0
 62
7
  6
PHANTOM
370
-3
390
F
  0
LAYER
  5
1FD
100
AcDbSymbolTableRecord
100
AcDbLayerTableRecord
  2
00_COMPONENTS
 70
0
 62
7
  6
CONTINUOUS
370
-3
390
F
  0
LAYER
  5
1FE
100
AcDbSymbolTableRecord
100
AcDbLayerTableRecord
  2
01_1_DEFAULT_DATUMS
 70
0
 62
7
  6
CONTINUOUS
370
-3
390
F
  0
LAYER
  5
1FF
100
AcDbSymbolTableRecord
100
AcDbLayerTableRecord
  2
01_PLANES
 70
0
 62
7
  6
CONTINUOUS
370
-3
390
F
  0
LAYER
  5
200
100
AcDbSymbolTableRecord
100
AcDbLayerTableRecord
  2
02_COORD_SYS
 70
0
 62
7
  6
CONTINUOUS
370
-3
390
F
  0
LAYER
  5
201
100
AcDbSymbolTableRecord
100
AcDbLayerTableRecord
  2
03_AXES
 70
0
 62
7
  6
CONTINUOUS
370
-3
390
F
  0
LAYER
  5
202
100
AcDbSymbolTableRecord
100
AcDbLayerTableRecord
  2
04_POINTS
 70
0
 62
7
  6
CONTINUOUS
370
-3
390
F
  0
LAYER
  5
203
100
AcDbSymbolTableRecord
100
AcDbLayerTableRecord
  2
05_CURVES
 70
0
 62
7
  6
CONTINUOUS
370
-3
390
F
  0
LAYER
  5
204
100
AcDbSymbolTableRecord
100
AcDbLayerTableRecord
  2
06_SURFS
 70
0
 62
7
  6
CONTINUOUS
370
-3
390
F
  0
LAYER
  5
205
100
AcDbSymbolTableRecord
100
AcDbLayerTableRecord
  2
07_COSMETICS
 70
0
 62
7
  6
CONTINUOUS
370
-3
390
F
  0
LAYER
  5
206
100
AcDbSymbolTableRecord
100
AcDbLayerTableRecord
  2
10_NOTES
 70
0
 62
7
  6
CONTINUOUS
370
-3
390
F
  0
LAYER
  5
207
100
AcDbSymbolTableRecord
100
AcDbLayerTableRecord
  2
11_NOTES_PUB
 70
0
 62
7
  6
CONTINUOUS
370
-3
390
F
  0
LAYER
  5
208
100
AcDbSymbolTableRecord
100
AcDbLayerTableRecord
  2
13_REF_GTOL
 70
0
 62
7
  6
CONTINUOUS
370
-3
390
F
  0
LAYER
  5
209
100
AcDbSymbolTableRecord
100
AcDbLayerTableRecord
  2
16_MISC
 70
0
 62
7
  6
CONTINUOUS
370
-3
390
F
  0
LAYER
  5
20A
100
AcDbSymbolTableRecord
100
AcDbLayerTableRecord
  2
17_NO_PRINT
 70
0
 62
7
  6
CONTINUOUS
370
-3
390
F
  0
LAYER
  5
20B
100
AcDbSymbolTableRecord
100
AcDbLayerTableRecord
  2
18_DATUM_CAMS_JOINTS
 70
0
 62
7
  6
CONTINUOUS
370
-3
390
F
  0
LAYER
  5
20C
100
AcDbSymbolTableRecord
100
AcDbLayerTableRecord
  2
19_DATUM_FUNCTIONAL
 70
0
 62
7
  6
CONTINUOUS
370
-3
390
F
  0
LAYER
  5
20D
100
AcDbSymbolTableRecord
100
AcDbLayerTableRecord
  2
20_DATUM_KINEMATIC_SCHEME
 70
0
 62
7
  6
CONTINUOUS
370
-3
390
F
  0
ENDTAB
  0
TABLE
  2
STYLE
  5
3
100
AcDbSymbolTable
 70
1
  0
STYLE
  5
11
100
AcDbSymbolTableRecord
100
AcDbTextStyleTableRecord
  2
STANDARD
 70
0
 40
0.0
 41
0.8
 50
0.0
 71
0
 42
0.2
  3
txt
  4

  0
STYLE
  5
20E
100
AcDbSymbolTableRecord
100
AcDbTextStyleTableRecord
  2
TEXTSTYLE_1
 70
0
 40
0.0
 41
0.8
 50
0.0
 71
0
 42
0.2
  3
gdt
  4

  0
ENDTAB
  0
TABLE
  2
VIEW
  5
6
100
AcDbSymbolTable
 70
0
  0
ENDTAB
  0
TABLE
  2
UCS
  5
7
100
AcDbSymbolTable
 70
0
  0
ENDTAB
  0
TABLE
  2
APPID
  5
9
100
AcDbSymbolTable
 70
1
  0
APPID
  5
20F
100
AcDbSymbolTableRecord
100
AcDbRegAppTableRecord
  2
ACAD
 70
0
  0
ENDTAB
  0
TABLE
  2
BLOCK_RECORD
  5
1
100
AcDbSymbolTable
 70
0
  0
BLOCK_RECORD
  5
210
100
AcDbSymbolTableRecord
100
AcDbBlockTableRecord
  2
*Model_Space
  0
BLOCK_RECORD
  5
211
100
AcDbSymbolTableRecord
100
AcDbBlockTableRecord
  2
*Paper_Space
  0
BLOCK_RECORD
  5
212
100
AcDbSymbolTableRecord
100
AcDbBlockTableRecord
  2
_FILLED
  0
ENDTAB
  0
TABLE
  2
DIMSTYLE
  5
A
100
AcDbSymbolTable
 70
1
100
AcDbDimStyleTable
 71
0
  0
DIMSTYLE
105
213
100
AcDbSymbolTableRecord
100
AcDbDimStyleTableRecord
  2
STANDARD
 70
0
  3

  4

 40
1.0
 41
1.0834825277
 42
1.0
 43
0.38
 44
1.0
 45
0.0
 46
0.0
 47
0.01
 48
0.01
140
1.5168755388
141
0.09
142
0.0
143
25.4
144
1.0
145
0.0
146
1.0
147
0.625
 71
1
 72
0
 73
0
 74
0
 75
0
 76
0
 77
1
 78
8
 79
2
170
0
171
1
172
0
173
0
174
0
175
0
176
0
177
0
178
0
270
2
179
2
271
2
272
2
273
2
274
2
275
0
280
0
281
0
282
0
283
1
284
8
285
0
286
0
287
3
288
0
340
11
278
46
341
212
342
212
343
212
344
212
  0
ENDTAB
  0
ENDSEC
  0
SECTION
  2
BLOCKS
  0
BLOCK
  5
20
100
AcDbEntity
  8
0
100
AcDbBlockBegin
  2
*Model_Space
 70
0
 10
0.0
 20
0.0
 30
0.0
  3
*Model_Space
  1

  0
ENDBLK
  5
21
100
AcDbEntity
  8
0
100
AcDbBlockEnd
  0
BLOCK
  5
1C
100
AcDbEntity
  8
0
100
AcDbBlockBegin
  2
*Paper_Space
 70
0
 10
0.0
 20
0.0
 30
0.0
  3
*Paper_Space
  1

  0
ENDBLK
  5
1D
100
AcDbEntity
  8
0
100
AcDbBlockEnd
  0
BLOCK
  5
214
100
AcDbEntity
  8
0
100
AcDbBlockBegin
  2
_FILLED
 70
64
 10
0.0
 20
0.0
  3
_FILLED
  1

  0
SOLID
  5
215
100
AcDbEntity
  8
0
  6
BYBLOCK
 62
0
100
AcDbTrace
 10
0.0
 20
0.0
 11
-1.0
 21
0.25
 12
-1.0
 22
-0.25
 13
-1.0
 23
-0.25
  0
ENDBLK
  5
216
100
AcDbEntity
  8
0
  6
BYBLOCK
 62
0
100
AcDbBlockEnd
  0
ENDSEC
  0
SECTION
  2
ENTITIES
  0
LINE
  5
217
100
AcDbEntity
  8
0
100
AcDbLine
 62
7
  6
CONTINUOUS
 10
10.7666600358
 20
44.8959279609
 11
10.7666600358
 21
43.0959279609
  0
LINE
  5
218
100
AcDbEntity
  8
0
100
AcDbLine
 62
7
  6
CONTINUOUS
 10
16.5666600358
 20
42.0959279609
 11
16.5666600358
 21
45.8959279609
  0
LINE
  5
219
100
AcDbEntity
  8
0
100
AcDbLine
 62
7
  6
CONTINUOUS
 10
71.3666600358
 20
42.0959279609
 11
56.3666600358
 21
42.0959279609
  0
LINE
  5
21A
100
AcDbEntity
  8
0
100
AcDbLine
 62
7
  6
CONTINUOUS
 10
28.3666600358
 20
42.0959279609
 11
16.5666600358
 21
42.0959279609
  0
LINE
  5
21B
100
AcDbEntity
  8
0
100
AcDbLine
 62
7
  6
CONTINUOUS
 10
79.4666600358
 20
42.0959279609
 11
81.4666600358
 21
42.0959279609
  0
LWPOLYLINE
  5
21C
100
AcDbEntity
  8
0
100
AcDbPolyline
 62
7
  6
CONTINUOUS
 90
3
 70
0
 10
41.8003027402
 20
85.4604189446
 10
41.7009921263
 20
85.4245747971
 10
41.5595852847
 20
85.3745825715
  0
LINE
  5
21D
100
AcDbEntity
  8
0
100
AcDbLine
 62
7
  6
CONTINUOUS
 10
82.7666600358
 20
43.0959279609
 11
81.4666600358
 21
43.0959279609
  0
LINE
  5
21E
100
AcDbEntity
  8
0
100
AcDbLine
 62
7
  6
CONTINUOUS
 10
10.7666600358
 20
43.0959279609
 11
80.7666600358
 21
43.0959279609
  0
LINE
  5
21F
100
AcDbEntity
  8
0
100
AcDbLine
 62
7
  6
CONTINUOUS
 10
82.7666600358
 20
44.8959279609
 11
81.4666600358
 21
44.8959279609
  0
LINE
  5
220
100
AcDbEntity
  8
0
100
AcDbLine
 62
7
  6
CONTINUOUS
 10
10.7666600358
 20
44.8959279609
 11
80.7666600358
 21
44.8959279609
  0
LINE
  5
221
100
AcDbEntity
  8
0
100
AcDbLine
 62
7
  6
CONTINUOUS
 10
28.3666600358
 20
45.8959279609
 11
28.3666600358
 21
44.8959279609
  0
LINE
  5
222
100
AcDbEntity
  8
0
100
AcDbLine
 62
7
  6
CONTINUOUS
 10
28.3666600358
 20
42.0959279609
 11
28.3666600358
 21
43.0959279609
  0
LINE
  5
223
100
AcDbEntity
  8
0
100
AcDbLine
 62
7
  6
CONTINUOUS
 10
81.4666600358
 20
45.8959279609
 11
79.4666600358
 21
45.8959279609
  0
LINE
  5
224
100
AcDbEntity
  8
0
100
AcDbLine
 62
7
  6
CONTINUOUS
 10
71.3666600358
 20
45.8959279609
 11
56.3666600358
 21
45.8959279609
  0
LINE
  5
225
100
AcDbEntity
  8
0
100
AcDbLine
 62
7
  6
CONTINUOUS
 10
28.3666600358
 20
45.8959279609
 11
16.5666600358
 21
45.8959279609
  0
LINE
  5
226
100
AcDbEntity
  8
0
100
AcDbLine
 62
7
  6
CONTINUOUS
 10
47.6883869164
 20
78.8383383426
 11
47.6900396212
 21
78.8422682953
  0
LINE
  5
227
100
AcDbEntity
  8
0
100
AcDbLine
 62
7
  6
CONTINUOUS
 10
47.6883869164
 20
78.8383383426
 11
47.7135755233
 21
78.4391322127
  0
LWPOLYLINE
  5
228
100
AcDbEntity
  8
0
100
AcDbPolyline
 62
7
  6
CONTINUOUS
 90
3
 70
0
 10
42.4549410071
 20
71.1843777607
 10
42.5967077216
 20
71.1536187271
 10
42.7043217947
 20
71.1295348522
  0
LINE
  5
229
100
AcDbEntity
  8
0
100
AcDbLine
 62
7
  6
CONTINUOUS
 10
42.4357854986
 20
71.2925982169
 11
51.5134552339
 21
71.865369618
  0
LINE
  5
22A
100
AcDbEntity
  8
0
100
AcDbLine
 62
7
  6
CONTINUOUS
 10
41.0845429336
 20
72.3095266955
 11
24.9329088026
 21
71.2904111756
  0
LINE
  5
22B
100
AcDbEntity
  8
0
100
AcDbLine
 62
7
  6
CONTINUOUS
 10
67.6282692757
 20
72.4813664612
 11
44.2241706641
 21
71.0046726156
  0
LINE
  5
22C
100
AcDbEntity
  8
0
100
AcDbLine
 62
7
  6
CONTINUOUS
 10
42.704613956
 20
71.1293999407
 11
42.8451603955
 21
71.1326195433
  0
LINE
  5
22D
100
AcDbEntity
  8
0
100
AcDbLine
 62
7
  6
CONTINUOUS
 10
47.7157090886
 20
78.4354411613
 11
47.7135755233
 21
78.4391322128
  0
LINE
  5
22E
100
AcDbEntity
  8
0
100
AcDbLine
 62
7
  6
CONTINUOUS
 10
56.3666600358
 20
45.8959279609
 11
56.3666600358
 21
44.8959279609
  0
LINE
  5
22F
100
AcDbEntity
  8
0
100
AcDbLine
 62
7
  6
CONTINUOUS
 10
56.3666600358
 20
42.0959279609
 11
56.3666600358
 21
43.0959279609
  0
LINE
  5
230
100
AcDbEntity
  8
0
100
AcDbLine
 62
7
  6
CONTINUOUS
 10
40.3414790308
 20
84.0861075251
 11
24.1898448998
 21
83.0669920052
  0
LINE
  5
231
100
AcDbEntity
  8
0
100
AcDbLine
 62
7
  6
CONTINUOUS
 10
67.6282692757
 20
72.4813664612
 11
66.6962908213
 21
87.2519932645
  0
LINE
  5
232
100
AcDbEntity
  8
0
100
AcDbLine
 62
7
  6
CONTINUOUS
 10
41.8003027402
 20
85.4604189446
 11
41.9402127754
 21
85.4749182125
  0
LINE
  5
233
100
AcDbEntity
  8
0
100
AcDbLine
 62
7
  6
CONTINUOUS
 10
50.6318539933
 20
85.8375841616
 11
41.5541842579
 21
85.2648127605
  0
LINE
  5
234
100
AcDbEntity
  8
0
100
AcDbLine
 62
7
  6
CONTINUOUS
 10
43.2832804551
 20
85.7746394785
 11
66.6962908213
 21
87.2519932645
  0
LINE
  5
235
100
AcDbEntity
  8
0
100
AcDbLine
 62
7
  6
CONTINUOUS
 10
71.3666600358
 20
42.0959279609
 11
71.3666600358
 21
45.8959279609
  0
LINE
  5
236
100
AcDbEntity
  8
0
100
AcDbLine
 62
7
  6
CONTINUOUS
 10
79.4666600358
 20
42.0959279609
 11
79.4666600358
 21
43.0959279609
  0
LINE
  5
237
100
AcDbEntity
  8
0
100
AcDbLine
 62
7
  6
CONTINUOUS
 10
79.4666600358
 20
44.8959279609
 11
79.4666600358
 21
45.8959279609
  0
LINE
  5
238
100
AcDbEntity
  8
0
100
AcDbLine
 62
7
  6
CONTINUOUS
 10
79.7666600358
 20
42.0959279609
 11
79.7666600358
 21
43.0959279609
  0
LINE
  5
239
100
AcDbEntity
  8
0
100
AcDbLine
 62
7
  6
CONTINUOUS
 10
79.7666600358
 20
44.8959279609
 11
79.7666600358
 21
45.8959279609
  0
LINE
  5
23A
100
AcDbEntity
  8
0
100
AcDbLine
 62
7
  6
CONTINUOUS
 10
80.7666600358
 20
42.0959279609
 11
80.7666600358
 21
43.0959279609
  0
LINE
  5
23B
100
AcDbEntity
  8
0
100
AcDbLine
 62
7
  6
CONTINUOUS
 10
80.7666600358
 20
44.8959279609
 11
80.7666600358
 21
45.8959279609
  0
LINE
  5
23C
100
AcDbEntity
  8
0
100
AcDbLine
 62
7
  6
CONTINUOUS
 10
81.4666600358
 20
45.8959279609
 11
81.4666600358
 21
44.8959279609
  0
LINE
  5
23D
100
AcDbEntity
  8
0
100
AcDbLine
 62
7
  6
CONTINUOUS
 10
81.4666600358
 20
42.0959279609
 11
81.4666600358
 21
43.0959279609
  0
LINE
  5
23E
100
AcDbEntity
  8
0
100
AcDbLine
 62
7
  6
CONTINUOUS
 10
82.7666600358
 20
44.8959279609
 11
82.7666600358
 21
43.0959279609
  0
ARC
  5
23F
100
AcDbEntity
  8
0
100
AcDbCircle
 62
7
  6
CONTINUOUS
 10
37.4334226866
 20
49.2081092291
 40
22.5826049578
100
AcDbArc
 50
76.1345930272
 51
76.4744676513
  0
ARC
  5
240
100
AcDbEntity
  8
0
100
AcDbCircle
 62
7
  6
CONTINUOUS
 10
34.2525624668
 20
105.4029216436
 40
21.3594391125
100
AcDbArc
 50
290.7522616124
 51
291.0951807469
  0
ARC
  5
241
100
AcDbEntity
  8
0
100
AcDbCircle
 62
7
  6
CONTINUOUS
 10
35.9955429232
 20
100.7967408074
 40
16.4345151056
100
AcDbArc
 50
290.2894442425
 51
290.7599335625
  0
ARC
  5
242
100
AcDbEntity
  8
0
100
AcDbCircle
 62
7
  6
CONTINUOUS
 10
39.0454568365
 20
55.904970185
 40
15.6944557793
100
AcDbArc
 50
76.478384322
 51
77.4193689396
  0
ARC
  5
243
100
AcDbEntity
  8
0
100
AcDbCircle
 62
7
  6
CONTINUOUS
 10
36.8518095641
 20
98.4770706149
 40
13.96185246
100
AcDbArc
 50
289.7655699634
 51
290.2945235894
  0
ARC
  5
244
100
AcDbEntity
  8
0
100
AcDbCircle
 62
7
  6
CONTINUOUS
 10
33.229759014
 20
77.7256482784
 40
10.5
100
AcDbArc
 50
149.4227636283
 51
217.7980183025
  0
ARC
  5
245
100
AcDbEntity
  8
0
100
AcDbCircle
 62
7
  6
CONTINUOUS
 10
43.9412960276
 20
76.6265263287
 40
5.6345169333
100
AcDbArc
 50
257.3213165747
 51
258.7286336898
  0
CIRCLE
  5
246
100
AcDbEntity
  8
0
100
AcDbCircle
 62
7
  6
CONTINUOUS
 10
29.8864076768
 20
77.5146936958
 40
3.15
  0
ARC
  5
247
100
AcDbEntity
  8
0
100
AcDbCircle
 62
7
  6
CONTINUOUS
 10
40.2596160584
 20
85.383527447
 40
1.3
100
AcDbArc
 50
273.6103909654
 51
359.6082366858
  0
ARC
  5
248
100
AcDbEntity
  8
0
100
AcDbCircle
 62
7
  6
CONTINUOUS
 10
41.1664059059
 20
71.0121067735
 40
1.3
100
AcDbArc
 50
7.6133371762
 51
93.6103909654
  0
SPLINE
  5
249
100
AcDbEntity
  8
0
100
AcDbSpline
 62
7
  6
CONTINUOUS
 70
0
 71
3
 72
9
 73
5
 74
0
 42
0.0000001
 43
0.0000001
 44
0.0000000001
 40
0.0
 40
0.0
 40
0.0
 40
0.0
 40
0.4980790373
 40
1.0
 40
1.0
 40
1.0
 40
1.0
 10
44.2226360762
 20
71.00455914
 30
0.0
 10
43.9924674327
 20
70.9906880168
 30
0.0
 10
43.5280449401
 20
70.9930343803
 30
0.0
 10
43.0678796493
 20
71.0552730724
 30
0.0
 10
42.8399955732
 20
71.1006853628
 30
0.0
  0
SPLINE
  5
24A
100
AcDbEntity
  8
0
100
AcDbSpline
 62
7
  6
CONTINUOUS
 70
0
 71
3
 72
9
 73
5
 74
0
 42
0.0000001
 43
0.0000001
 44
0.0000000001
 40
0.0
 40
0.0
 40
0.0
 40
0.0
 40
0.5023119419
 40
1.0
 40
1.0
 40
1.0
 40
1.0
 10
41.8003027402
 20
85.4604189446
 30
0.0
 10
42.0391585884
 20
85.5469521076
 30
0.0
 10
42.5269539538
 20
85.6872612601
 30
0.0
 10
43.0297594538
 20
85.7574970043
 30
0.0
 10
43.2808968494
 20
85.7744490636
 30
0.0
  0
SPLINE
  5
24B
100
AcDbEntity
  8
0
100
AcDbSpline
 62
7
  6
CONTINUOUS
 70
0
 71
3
 72
22
 73
18
 74
0
 42
0.0000001
 43
0.0000001
 44
0.0000000001
 40
0.0
 40
0.0
 40
0.0
 40
0.0
 40
0.0589790826
 40
0.1159720778
 40
0.1712664084
 40
0.2254172729
 40
0.2792255349
 40
0.3336284037
 40
0.3895337182
 40
0.4476637962
 40
0.5084670885
 40
0.5721103419
 40
0.6385219553
 40
0.7074527221
 40
0.7785325496
 40
0.8513157062
 40
1.0
 40
1.0
 40
1.0
 40
1.0
 10
51.5134552339
 20
71.865369618
 30
0.0
 10
51.3533643445
 20
71.897094878
 30
0.0
 10
51.0405555277
 20
71.9704570033
 30
0.0
 10
50.5897708296
 20
72.1190441628
 30
0.0
 10
50.1692131711
 20
72.3092822978
 30
0.0
 10
49.782588473
 20
72.5454025816
 30
0.0
 10
49.4331232098
 20
72.8300298252
 30
0.0
 10
49.1228995877
 20
73.1636069023
 30
0.0
 10
48.8522041687
 20
73.544525313
 30
0.0
 10
48.6195033377
 20
73.9697719612
 30
0.0
 10
48.421964388
 20
74.4355155392
 30
0.0
 10
48.256056121
 20
74.9374111037
 30
0.0
 10
48.1179639815
 20
75.4707614604
 30
0.0
 10
48.0038366995
 20
76.0306512059
 30
0.0
 10
47.909904242
 20
76.6120719857
 30
0.0
 10
47.806115512
 20
77.4150100934
 30
0.0
 10
47.7492562875
 20
78.0253789939
 30
0.0
 10
47.7157090886
 20
78.4354411613
 30
0.0
  0
SPLINE
  5
24C
100
AcDbEntity
  8
0
100
AcDbSpline
 62
7
  6
CONTINUOUS
 70
0
 71
3
 72
22
 73
18
 74
0
 42
0.0000001
 43
0.0000001
 44
0.0000000001
 40
0.0
 40
0.0
 40
0.0
 40
0.0
 40
0.148682425
 40
0.221464231
 40
0.2925300877
 40
0.3614539555
 40
0.4278652692
 40
0.4915139412
 40
0.5523196435
 40
0.6104537318
 40
0.6663631897
 40
0.720768222
 40
0.7745707438
 40
0.8287133896
 40
0.8840126577
 40
0.9410319286
 40
1.0
 40
1.0
 40
1.0
 40
1.0
 10
47.6900396212
 20
78.8422682953
 30
0.0
 10
47.6717790341
 20
79.253289421
 30
0.0
 10
47.6515153091
 20
79.8659559601
 30
0.0
 10
47.6535319614
 20
80.6755233448
 30
0.0
 10
47.6736462468
 20
81.2640769214
 30
0.0
 10
47.7164586786
 20
81.8338152638
 30
0.0
 10
47.7864447076
 20
82.3802831912
 30
0.0
 10
47.8879165551
 20
82.8990803903
 30
0.0
 10
48.0253520375
 20
83.385987984
 30
0.0
 10
48.2026527831
 20
83.8371880037
 30
0.0
 10
48.4234568829
 20
84.2490730334
 30
0.0
 10
48.689251997
 20
84.6190172306
 30
0.0
 10
49.0000958664
 20
84.9453427731
 30
0.0
 10
49.3539599157
 20
85.2281638331
 30
0.0
 10
49.7472934812
 20
85.4698416208
 30
0.0
 10
50.1759188195
 20
85.6738503034
 30
0.0
 10
50.4770504707
 20
85.7859948351
 30
0.0
 10
50.6318539933
 20
85.8375841616
 30
0.0
  0
SPLINE
  5
24D
100
AcDbEntity
  8
0
100
AcDbSpline
 62
7
  6
CONTINUOUS
 70
0
 71
3
 72
22
 73
18
 74
0
 42
0.0000001
 43
0.0000001
 44
0.0000000001
 40
0.0
 40
0.0
 40
0.0
 40
0.0
 40
0.0625149155
 40
0.1250263092
 40
0.187531355
 40
0.2500265629
 40
0.3125077891
 40
0.3749770882
 40
0.4374448647
 40
0.4999226841
 40
0.5624143188
 40
0.6249175405
 40
0.6874274694
 40
0.7499415683
 40
0.8124578469
 40
0.87497496
 40
1.0
 40
1.0
 40
1.0
 40
1.0
 10
47.6883869164
 20
78.8383383426
 30
0.0
 10
47.6755903956
 20
79.0411462868
 30
0.0
 10
47.6403814956
 20
79.4462506818
 30
0.0
 10
47.5508244995
 20
80.0496934402
 30
0.0
 10
47.4142925983
 20
80.6445480582
 30
0.0
 10
47.2183713299
 20
81.223004195
 30
0.0
 10
46.950220987
 20
81.77238028
 30
0.0
 10
46.6015280498
 20
82.2751703955
 30
0.0
 10
46.1750962324
 20
82.7140747623
 30
0.0
 10
45.6856338497
 20
83.0805977839
 30
0.0
 10
45.1520290118
 20
83.377970888
 30
0.0
 10
44.5900344486
 20
83.6162108075
 30
0.0
 10
44.010394221
 20
83.8066307194
 30
0.0
 10
43.41982786
 20
83.9591491183
 30
0.0
 10
42.8224242253
 20
84.0817136912
 30
0.0
 10
42.0201508689
 20
84.2132766337
 30
0.0
 10
41.4141891801
 20
84.283364402
 30
0.0
 10
41.00959172
 20
84.3216722275
 30
0.0
  0
SPLINE
  5
24E
100
AcDbEntity
  8
0
100
AcDbSpline
 62
7
  6
CONTINUOUS
 70
0
 71
3
 72
9
 73
5
 74
0
 42
0.0000001
 43
0.0000001
 44
0.0000000001
 40
0.0
 40
0.0
 40
0.0
 40
0.0
 40
0.4963765553
 40
1.0
 40
1.0
 40
1.0
 40
1.0
 10
44.224191392
 20
71.0046697855
 30
0.0
 10
43.9947923852
 20
70.990957356
 30
0.0
 10
43.5298463721
 20
70.9987600011
 30
0.0
 10
43.0715734957
 20
71.0769844051
 30
0.0
 10
42.8451614248
 20
71.1326874579
 30
0.0
  0
LINE
  5
24F
100
AcDbEntity
  8
0
100
AcDbLine
 62
7
  6
CONTINUOUS
 10
42.4639183326
 20
71.2226091417
 11
42.4486910462
 21
71.225987181
  0
LINE
  5
250
100
AcDbEntity
  8
0
100
AcDbLine
 62
7
  6
CONTINUOUS
 10
41.5586149056
 20
85.3325177019
 11
41.57332366
 21
85.3377925237
  0
SPLINE
  5
251
100
AcDbEntity
  8
0
100
AcDbSpline
 62
7
  6
CONTINUOUS
 70
0
 71
3
 72
9
 73
5
 74
0
 42
0.0000001
 43
0.0000001
 44
0.0000000001
 40
0.0
 40
0.0
 40
0.0
 40
0.0
 40
0.5036179755
 40
1.0
 40
1.0
 40
1.0
 40
1.0
 10
41.9402162161
 20
85.4749107286
 30
0.0
 10
42.1564210222
 20
85.5581267602
 30
0.0
 10
42.5983113183
 20
85.6925927058
 30
0.0
 10
43.0555033216
 20
85.7590951557
 30
0.0
 10
43.2833108669
 20
85.7746511828
 30
0.0
  0
SPLINE
  5
252
100
AcDbEntity
  8
0
100
AcDbSpline
 62
7
  6
CONTINUOUS
 70
0
 71
3
 72
22
 73
18
 74
0
 42
0.0000001
 43
0.0000001
 44
0.0000000001
 40
0.0
 40
0.0
 40
0.0
 40
0.0
 40
0.1250249807
 40
0.1875420959
 40
0.2500584215
 40
0.312572616
 40
0.3750826515
 40
0.4375859336
 40
0.5000775759
 40
0.5625553044
 40
0.6250228945
 40
0.6874920278
 40
0.7499731319
 40
0.8124683206
 40
0.8749734495
 40
0.9374849548
 40
1.0
 40
1.0
 40
1.0
 40
1.0
 10
41.7769657913
 20
72.1598073557
 30
0.0
 10
42.1735392455
 20
72.2486664272
 30
0.0
 10
42.7658853343
 20
72.394363856
 30
0.0
 10
43.5452595769
 20
72.6257230641
 30
0.0
 10
44.1225202598
 20
72.8224052137
 30
0.0
 10
44.6892331418
 20
73.0479445434
 30
0.0
 10
45.240342619
 20
73.3097114886
 30
0.0
 10
45.7679353166
 20
73.6167013706
 30
0.0
 10
46.2599303595
 20
73.9787865616
 30
0.0
 10
46.6994405291
 20
74.4039245237
 30
0.0
 10
47.067322303
 20
74.8929463313
 30
0.0
 10
47.3500521138
 20
75.4355757142
 30
0.0
 10
47.5470226671
 20
76.0142984879
 30
0.0
 10
47.66868285
 20
76.6127926103
 30
0.0
 10
47.7293628301
 20
77.2200912529
 30
0.0
 10
47.7423611117
 20
77.8300059528
 30
0.0
 10
47.7263720708
 20
78.2363238465
 30
0.0
 10
47.7135755233
 20
78.4391322127
 30
0.0
  0
ELLIPSE
  5
253
100
AcDbEntity
  8
0
100
AcDbEllipse
 62
7
  6
CONTINUOUS
 10
52.6910578426
 20
78.9535928636
 30
0.0
 11
-0.4659892272
 21
7.3853134016
 31
0.0
 40
0.6756756757
 41
1.5432498594
 42
1.5983427942
  0
ENDSEC
  0
SECTION
  2
OBJECTS
  0
DICTIONARY
  5
C
100
AcDbDictionary
280
0
281
1
  3
ACAD_GROUP
350
D
  3
ACAD_MLINESTYLE
350
17
  3
ACAD_LAYOUT
350
1A
  3
ACAD_PLOTSETTINGS
350
19
  3
ACAD_PLOTSTYLENAME
350
E
  0
DICTIONARY
  5
D
102
{ACAD_REACTORS
330
C
102
}
100
AcDbDictionary
280
0
281
1
  0
ACDBDICTIONARYWDFLT
  5
E
102
{ACAD_REACTORS
330
C
102
}
100
AcDbDictionary
281
1
  3
Normal
350
F
100
AcDbDictionaryWithDefault
340
F
  0
DICTIONARY
  5
17
102
{ACAD_REACTORS
330
C
102
}
100
AcDbDictionary
280
0
281
1
  3
Standard
350
18
  0
DICTIONARY
  5
19
102
{ACAD_REACTORS
330
C
102
}
100
AcDbDictionary
281
1
  0
DICTIONARY
  5
1A
102
{ACAD_REACTORS
330
C
102
}
100
AcDbDictionary
281
1
  3
Model
350
254
  3
Layout1
350
255
  0
ACDBPLACEHOLDER
  5
F
102
{ACAD_REACTORS
330
E
102
}
  0
MLINESTYLE
  5
18
102
{ACAD_REACTORS
330
17
102
}
100
AcDbMlineStyle
  2
STANDARD
 70
0
  3

 62
256
 51
90.0
 52
90.0
 71
2
 49
0.5
 62
256
  6
BYLAYER
 49
-0.5
 62
256
  6
BYLAYER
  0
LAYOUT
  5
254
102
{ACAD_REACTORS
330
1A
102
}
100
AcDbPlotSettings
  1

  2
none_device
  4

  6

 40
0.0
 41
0.0
 42
0.0
 43
0.0
 44
210.0
 45
297.0
 46
0.0
 47
0.0
 48
0.0
 49
0.0
140
0.0
141
0.0
142
1.0
143
1.0
 70
1024
 72
1
 73
0
 74
0
  7

 75
0
147
1.0
148
0.0
149
0.0
100
AcDbLayout
  1
Model
 70
0
 71
0
 10
0.0
 20
0.0
 11
210.0
 21
297.0
 12
0.0
 22
0.0
 32
0.0
 14
0.0
 24
0.0
 34
0.0
 15
0.0
 25
0.0
 35
0.0
146
0.0
 13
0.0
 23
0.0
 33
0.0
 16
1.0
 26
0.0
 36
0.0
 17
0.0
 27
1.0
 37
0.0
 76
0
330
210
345
0
346
0
  0
LAYOUT
  5
255
102
{ACAD_REACTORS
330
1A
102
}
100
AcDbPlotSettings
  1

  2
none_device
  4

  6

 40
0.0
 41
0.0
 42
0.0
 43
0.0
 44
210.0
 45
297.0
 46
0.0
 47
0.0
 48
0.0
 49
0.0
140
0.0
141
0.0
142
1.0
143
1.0
 70
0
 72
1
 73
0
 74
0
  7

 75
0
147
1.0
148
0.0
149
0.0
100
AcDbLayout
  1
Layout1
 70
0
 71
1
 10
0.0
 20
0.0
 11
210.0
 21
297.0
 12
0.0
 22
0.0
 32
0.0
 14
0.0
 24
0.0
 34
0.0
 15
0.0
 25
0.0
 35
0.0
146
0.0
 13
0.0
 23
0.0
 33
0.0
 16
1.0
 26
0.0
 36
0.0
 17
0.0
 27
1.0
 37
0.0
 76
0
330
211
345
0
346
0
  0
ENDSEC
  0
EOF
