999
DXF file: C:\Users\sesa63760\Dev\_Creo\CAD\MCADID0005623_3D-CAD\mcadid0005623_3d-simplified_5.dxf
999
Pro/ENGINEER 2019471 by Parametric Technology Corporation
  0
SECTION
  2
HEADER
  9
$ACADVER
  1
AC1024
  9
$DWGCODEPAGE
  3
ANSI_1252
  9
$EXTMAX
 10
115.4006184292
 20
163.2094460641
 30
0.0
  9
$EXTMIN
 10
0.0
 20
0.0
 30
0.0
  9
$LIMMIN
 10
0.0
 20
0.0
  9
$LIMMAX
 10
115.4006184292
 20
163.2094460641
  9
$VIEWCTR
 10
57.7003092146
 20
81.6047230321
  9
$VIEWSIZE
 40
163.2094460641
  9
$CLAYER
  8
0
  9
$LTSCALE
 40
10.6388379657
  9
$CELTYPE
  6
BYLAYER
  9
$DIMSCALE
 40
1.0
  9
$DIMASZ
 40
1.3738168861
  9
$DIMEXO
 40
1.0
  9
$DIMDLI
 40
7.3504698672
  9
$DIMEXE
 40
1.0
  9
$DIMCEN
 40
1.740900758
  9
$DIMLFAC
 40
1.0
  9
$DIMBLK
  1
_FILLED
  9
$DIMALT
 70
0
  9
$DIMALTF
 40
0.0393700787
  9
$DIMTXT
 40
1.9233436405
  9
$DIMTOL
 70
1
  9
$DIMLIM
 70
0
  9
$DIMTFAC
 40
1.0
  9
$DIMTP
 40
0.01
  9
$DIMTM
 40
0.01
  9
$DIMGAP
 40
0.625
  9
$DIMDSEP
 70
46
  9
$AUNITS
 70
0
  9
$PDMODE
 70
3
  9
$PDSIZE
 40
0.3125
  9
$HANDSEED
  5
2BB
  9
$TILEMODE
 70
1
  9
$MEASUREMENT
 70
1
  9
$INSUNITS
 70
4
  0
ENDSEC
  0
SECTION
  2
CLASSES
  0
CLASS
  1
ACDBDICTIONARYWDFLT
  2
AcDbDictionaryWithDefault
  3
AutoCAD 2000
 90
0
 91
1
280
0
281
0
  0
CLASS
  1
ACDBPLACEHOLDER
  2
AcDbPlaceHolder
  3
AutoCAD 2000
 90
0
 91
1
280
0
281
0
  0
CLASS
  1
LAYOUT
  2
AcDbLayout
  3
AutoCAD 2000
 90
0
 91
0
280
0
281
0
  0
ENDSEC
  0
SECTION
  2
TABLES
  0
TABLE
  2
VPORT
  5
8
100
AcDbSymbolTable
 70
2
  0
VPORT
  5
1F4
100
AcDbSymbolTableRecord
100
AcDbViewportTableRecord
  2
*ACTIVE
 70
0
 10
0.0
 20
0.0
 11
1.0
 21
1.0
 12
57.7003092146
 22
81.6047230321
 13
0.0
 23
0.0
 14
1.0
 24
1.0
 15
0.0
 25
0.0
 16
0.0
 26
0.0
 36
1.0
 17
0.0
 27
0.0
 37
0.0
 40
163.2094460641
 41
0.7070707071
 42
50.0
 43
0.0
 44
0.0
 50
0.0
 51
0.0
 71
0
 72
100
 73
1
 74
1
 75
0
 76
0
 77
0
 78
0
  0
ENDTAB
  0
TABLE
  2
LTYPE
  5
5
100
AcDbSymbolTable
 70
6
  0
LTYPE
  5
14
100
AcDbSymbolTableRecord
100
AcDbLinetypeTableRecord
  2
BYBLOCK
 70
0
  3

 72
65
 73
0
 40
0.0
  0
LTYPE
  5
15
100
AcDbSymbolTableRecord
100
AcDbLinetypeTableRecord
  2
BYLAYER
 70
0
  3

 72
65
 73
0
 40
0.0
  0
LTYPE
  5
16
100
AcDbSymbolTableRecord
100
AcDbLinetypeTableRecord
  2
CONTINUOUS
 70
64
  3
Solid line
 72
65
 73
0
 40
0.0
  0
LTYPE
  5
1F5
100
AcDbSymbolTableRecord
100
AcDbLinetypeTableRecord
  2
CENTER
 70
64
  3
____ _ ____ _ ____ _ ____ _ ____ _ ____ _ ____
 72
65
 73
4
 40
0.6
 49
0.375
 74
0
 49
-0.075
 74
0
 49
0.075
 74
0
 49
-0.075
 74
0
  0
LTYPE
  5
1F6
100
AcDbSymbolTableRecord
100
AcDbLinetypeTableRecord
  2
HIDDEN
 70
64
  3
- - - - - - - - - - - - - - - - - - - -
 72
65
 73
2
 40
0.2
 49
0.1
 74
0
 49
-0.1
 74
0
  0
LTYPE
  5
1F7
100
AcDbSymbolTableRecord
100
AcDbLinetypeTableRecord
  2
PHANTOM
 70
64
  3
_____ _ _ _____ _ _ _____ _ _ _____
 72
65
 73
6
 40
0.8
 49
0.45
 74
0
 49
-0.05
 74
0
 49
0.1
 74
0
 49
-0.05
 74
0
 49
0.1
 74
0
 49
-0.05
 74
0
  0
LTYPE
  5
1F8
100
AcDbSymbolTableRecord
100
AcDbLinetypeTableRecord
  2
DOT
 70
64
  3
. . . . . . . . . . . . . . . . . . . .
 72
65
 73
2
 40
0.2
 49
0.1
 74
0
 49
-0.1
 74
0
  0
LTYPE
  5
1F9
100
AcDbSymbolTableRecord
100
AcDbLinetypeTableRecord
  2
DASHED
 70
64
  3
- - - - - - - - - - - - - - - - - - - -
 72
65
 73
2
 40
0.2
 49
0.1
 74
0
 49
-0.1
 74
0
  0
ENDTAB
  0
TABLE
  2
LAYER
  5
2
100
AcDbSymbolTable
 70
36
  0
LAYER
  5
10
100
AcDbSymbolTableRecord
100
AcDbLayerTableRecord
  2
0
 70
0
 62
7
  6
CONTINUOUS
370
-3
390
F
  0
LAYER
  5
1FA
100
AcDbSymbolTableRecord
100
AcDbLayerTableRecord
  2
DEFAULT_1
 70
0
 62
7
  6
CENTER
370
-3
390
F
  0
LAYER
  5
1FB
100
AcDbSymbolTableRecord
100
AcDbLayerTableRecord
  2
DEFAULT_2
 70
0
 62
7
  6
HIDDEN
370
-3
390
F
  0
LAYER
  5
1FC
100
AcDbSymbolTableRecord
100
AcDbLayerTableRecord
  2
DEFAULT_3
 70
0
 62
7
  6
PHANTOM
370
-3
390
F
  0
LAYER
  5
1FD
100
AcDbSymbolTableRecord
100
AcDbLayerTableRecord
  2
00_COMPONENTS
 70
0
 62
7
  6
CONTINUOUS
370
-3
390
F
  0
LAYER
  5
1FE
100
AcDbSymbolTableRecord
100
AcDbLayerTableRecord
  2
00_COMPONENTS_1
 70
0
 62
7
  6
CONTINUOUS
370
-3
390
F
  0
LAYER
  5
1FF
100
AcDbSymbolTableRecord
100
AcDbLayerTableRecord
  2
00_COMPONENTS_3
 70
0
 62
7
  6
CONTINUOUS
370
-3
390
F
  0
LAYER
  5
200
100
AcDbSymbolTableRecord
100
AcDbLayerTableRecord
  2
00_COMPONENTS_4
 70
0
 62
7
  6
CONTINUOUS
370
-3
390
F
  0
LAYER
  5
201
100
AcDbSymbolTableRecord
100
AcDbLayerTableRecord
  2
01_1_DEFAULT_DATUMS
 70
0
 62
7
  6
CONTINUOUS
370
-3
390
F
  0
LAYER
  5
202
100
AcDbSymbolTableRecord
100
AcDbLayerTableRecord
  2
01_PLANES
 70
0
 62
7
  6
CONTINUOUS
370
-3
390
F
  0
LAYER
  5
203
100
AcDbSymbolTableRecord
100
AcDbLayerTableRecord
  2
02_COORD_SYS
 70
0
 62
7
  6
CONTINUOUS
370
-3
390
F
  0
LAYER
  5
204
100
AcDbSymbolTableRecord
100
AcDbLayerTableRecord
  2
03_AXES
 70
0
 62
7
  6
CONTINUOUS
370
-3
390
F
  0
LAYER
  5
205
100
AcDbSymbolTableRecord
100
AcDbLayerTableRecord
  2
04_POINTS
 70
0
 62
7
  6
CONTINUOUS
370
-3
390
F
  0
LAYER
  5
206
100
AcDbSymbolTableRecord
100
AcDbLayerTableRecord
  2
05_CURVES
 70
0
 62
7
  6
CONTINUOUS
370
-3
390
F
  0
LAYER
  5
207
100
AcDbSymbolTableRecord
100
AcDbLayerTableRecord
  2
06_SURFS
 70
0
 62
7
  6
CONTINUOUS
370
-3
390
F
  0
LAYER
  5
208
100
AcDbSymbolTableRecord
100
AcDbLayerTableRecord
  2
07_COSMETICS
 70
0
 62
7
  6
CONTINUOUS
370
-3
390
F
  0
LAYER
  5
209
100
AcDbSymbolTableRecord
100
AcDbLayerTableRecord
  2
10_NOTES
 70
0
 62
7
  6
CONTINUOUS
370
-3
390
F
  0
LAYER
  5
20A
100
AcDbSymbolTableRecord
100
AcDbLayerTableRecord
  2
11_NOTES_PUB
 70
0
 62
7
  6
CONTINUOUS
370
-3
390
F
  0
LAYER
  5
20B
100
AcDbSymbolTableRecord
100
AcDbLayerTableRecord
  2
13_REF_GTOL
 70
0
 62
7
  6
CONTINUOUS
370
-3
390
F
  0
LAYER
  5
20C
100
AcDbSymbolTableRecord
100
AcDbLayerTableRecord
  2
16_MISC
 70
0
 62
7
  6
CONTINUOUS
370
-3
390
F
  0
LAYER
  5
20D
100
AcDbSymbolTableRecord
100
AcDbLayerTableRecord
  2
17_NO_PRINT
 70
0
 62
7
  6
CONTINUOUS
370
-3
390
F
  0
LAYER
  5
20E
100
AcDbSymbolTableRecord
100
AcDbLayerTableRecord
  2
18_DATUM_CAMS_JOINTS
 70
0
 62
7
  6
CONTINUOUS
370
-3
390
F
  0
LAYER
  5
20F
100
AcDbSymbolTableRecord
100
AcDbLayerTableRecord
  2
19_DATUM_FUNCTIONAL
 70
0
 62
7
  6
CONTINUOUS
370
-3
390
F
  0
LAYER
  5
210
100
AcDbSymbolTableRecord
100
AcDbLayerTableRecord
  2
20_DATUM_KINEMATIC_SCHEME
 70
0
 62
7
  6
CONTINUOUS
370
-3
390
F
  0
LAYER
  5
211
100
AcDbSymbolTableRecord
100
AcDbLayerTableRecord
  2
INTF_BLANK
 70
0
 62
7
  6
CONTINUOUS
370
-3
390
F
  0
LAYER
  5
212
100
AcDbSymbolTableRecord
100
AcDbLayerTableRecord
  2
SHELL1
 70
0
 62
7
  6
CONTINUOUS
370
-3
390
F
  0
LAYER
  5
213
100
AcDbSymbolTableRecord
100
AcDbLayerTableRecord
  2
SHELL506
 70
0
 62
7
  6
CONTINUOUS
370
-3
390
F
  0
LAYER
  5
214
100
AcDbSymbolTableRecord
100
AcDbLayerTableRecord
  2
SHELL507
 70
0
 62
7
  6
CONTINUOUS
370
-3
390
F
  0
LAYER
  5
215
100
AcDbSymbolTableRecord
100
AcDbLayerTableRecord
  2
_BLACK_HOLE
 70
0
 62
7
  6
CONTINUOUS
370
-3
390
F
  0
LAYER
  5
216
100
AcDbSymbolTableRecord
100
AcDbLayerTableRecord
  2
black
 70
0
 62
7
  6
CONTINUOUS
370
-3
390
F
  0
ENDTAB
  0
TABLE
  2
STYLE
  5
3
100
AcDbSymbolTable
 70
1
  0
STYLE
  5
11
100
AcDbSymbolTableRecord
100
AcDbTextStyleTableRecord
  2
STANDARD
 70
0
 40
0.0
 41
1.0
 50
0.0
 71
0
 42
0.2
  3
ARIAL.TTF
  4

  0
STYLE
  5
217
100
AcDbSymbolTableRecord
100
AcDbTextStyleTableRecord
  2
TEXTSTYLE_1
 70
0
 40
0.0
 41
0.8
 50
0.0
 71
0
 42
0.2
  3
gdt
  4

  0
ENDTAB
  0
TABLE
  2
VIEW
  5
6
100
AcDbSymbolTable
 70
0
  0
ENDTAB
  0
TABLE
  2
UCS
  5
7
100
AcDbSymbolTable
 70
0
  0
ENDTAB
  0
TABLE
  2
APPID
  5
9
100
AcDbSymbolTable
 70
1
  0
APPID
  5
218
100
AcDbSymbolTableRecord
100
AcDbRegAppTableRecord
  2
ACAD
 70
0
  0
ENDTAB
  0
TABLE
  2
BLOCK_RECORD
  5
1
100
AcDbSymbolTable
 70
0
  0
BLOCK_RECORD
  5
219
100
AcDbSymbolTableRecord
100
AcDbBlockTableRecord
  2
*Model_Space
  0
BLOCK_RECORD
  5
21A
100
AcDbSymbolTableRecord
100
AcDbBlockTableRecord
  2
*Paper_Space
  0
BLOCK_RECORD
  5
21B
100
AcDbSymbolTableRecord
100
AcDbBlockTableRecord
  2
_FILLED
  0
ENDTAB
  0
TABLE
  2
DIMSTYLE
  5
A
100
AcDbSymbolTable
 70
1
100
AcDbDimStyleTable
 71
0
  0
DIMSTYLE
105
21C
100
AcDbSymbolTableRecord
100
AcDbDimStyleTableRecord
  2
STANDARD
 70
0
  3

  4

 40
1.0
 41
1.3738168861
 42
1.0
 43
0.38
 44
1.0
 45
0.0
 46
0.0
 47
0.01
 48
0.01
140
1.9233436405
141
0.09
142
0.0
143
25.4
144
1.0
145
0.0
146
1.0
147
0.625
 71
1
 72
0
 73
0
 74
0
 75
0
 76
0
 77
1
 78
8
 79
2
170
0
171
1
172
0
173
0
174
0
175
0
176
0
177
0
178
0
270
2
179
2
271
2
272
2
273
2
274
2
275
0
280
0
281
0
282
0
283
1
284
8
285
0
286
0
287
3
288
0
340
11
278
46
341
21B
342
21B
343
21B
344
21B
  0
ENDTAB
  0
ENDSEC
  0
SECTION
  2
BLOCKS
  0
BLOCK
  5
20
100
AcDbEntity
  8
0
100
AcDbBlockBegin
  2
*Model_Space
 70
0
 10
0.0
 20
0.0
 30
0.0
  3
*Model_Space
  1

  0
ENDBLK
  5
21
100
AcDbEntity
  8
0
100
AcDbBlockEnd
  0
BLOCK
  5
1C
100
AcDbEntity
  8
0
100
AcDbBlockBegin
  2
*Paper_Space
 70
0
 10
0.0
 20
0.0
 30
0.0
  3
*Paper_Space
  1

  0
ENDBLK
  5
1D
100
AcDbEntity
  8
0
100
AcDbBlockEnd
  0
BLOCK
  5
21D
100
AcDbEntity
  8
0
100
AcDbBlockBegin
  2
_FILLED
 70
64
 10
0.0
 20
0.0
  3
_FILLED
  1

  0
SOLID
  5
21E
100
AcDbEntity
  8
0
  6
BYBLOCK
 62
0
100
AcDbTrace
 10
0.0
 20
0.0
 11
-1.0
 21
0.25
 12
-1.0
 22
-0.25
 13
-1.0
 23
-0.25
  0
ENDBLK
  5
21F
100
AcDbEntity
  8
0
  6
BYBLOCK
 62
0
100
AcDbBlockEnd
  0
ENDSEC
  0
SECTION
  2
ENTITIES
  0
LINE
  5
220
100
AcDbEntity
  8
00_COMPONENTS
100
AcDbLine
 62
7
  6
BYLAYER
 10
45.0109433254
 20
13.2844897959
 11
73.5859424904
 21
13.2844897959
  0
LINE
  5
221
100
AcDbEntity
  8
00_COMPONENTS_1
100
AcDbLine
 62
7
  6
BYLAYER
 10
43.0367402585
 20
142.4504366581
 11
49.1073933963
 21
148.5210897959
  0
LINE
  5
222
100
AcDbEntity
  8
00_COMPONENTS_1
100
AcDbLine
 62
7
  6
BYLAYER
 10
47.7693352343
 20
145.3869804097
 11
45.2369030082
 21
142.8545481835
  0
LINE
  5
223
100
AcDbEntity
  8
00_COMPONENTS
100
AcDbLine
 62
7
  6
BYLAYER
 10
54.2984433793
 20
26.6685346348
 11
64.29844327
 21
26.6685346348
  0
LINE
  5
224
100
AcDbEntity
  8
00_COMPONENTS_1
100
AcDbLine
 62
7
  6
BYLAYER
 10
53.1080936075
 20
148.5210897959
 11
48.8716597278
 21
144.2846559162
  0
LINE
  5
225
100
AcDbEntity
  8
00_COMPONENTS_1
100
AcDbLine
 62
7
  6
BYLAYER
 10
46.3392275016
 20
141.75222369
 11
45.0370903641
 21
140.4500865525
  0
LINE
  5
226
100
AcDbEntity
  8
00_COMPONENTS_1
100
AcDbLine
 62
7
  6
BYLAYER
 10
38.7262173204
 20
133.1828123411
 11
45.5152909479
 21
139.9718859687
  0
LINE
  5
227
100
AcDbEntity
  8
00_COMPONENTS_1
100
AcDbLine
 62
7
  6
BYLAYER
 10
47.7154536976
 20
140.3759974941
 11
50.2478859237
 21
142.9084297203
  0
LINE
  5
228
100
AcDbEntity
  8
00_COMPONENTS_1
100
AcDbLine
 62
7
  6
BYLAYER
 10
49.0594516384
 20
140.4268385535
 11
48.4372812438
 21
139.8046681589
  0
LINE
  5
229
100
AcDbEntity
  8
00_COMPONENTS_1
100
AcDbLine
 62
7
  6
BYLAYER
 10
48.7930844321
 20
139.2983667596
 11
51.3255166582
 21
141.8307989857
  0
LINE
  5
22A
100
AcDbEntity
  8
00_COMPONENTS_1
100
AcDbLine
 62
7
  6
BYLAYER
 10
47.5156410535
 20
137.9715358631
 11
40.028067426
 21
130.4839622355
  0
LINE
  5
22B
100
AcDbEntity
  8
00_COMPONENTS_1
100
AcDbLine
 62
7
  6
BYLAYER
 10
68.6484307158
 20
138.2476767934
 11
68.7275149068
 21
138.2728794477
  0
LINE
  5
22C
100
AcDbEntity
  8
00_COMPONENTS_1
100
AcDbLine
 62
7
  6
BYLAYER
 10
49.8707151666
 20
138.2207360251
 11
52.4031473928
 21
140.7531682512
  0
LINE
  5
22D
100
AcDbEntity
  8
00_COMPONENTS_1
100
AcDbLine
 62
7
  6
BYLAYER
 10
52.8521601988
 20
140.3041554451
 11
50.3197279727
 21
137.771723219
  0
LINE
  5
22E
100
AcDbEntity
  8
00_COMPONENTS_1
100
AcDbLine
 62
7
  6
BYLAYER
 10
50.4993330951
 20
137.5921180966
 11
53.0317653212
 21
140.1245503227
  0
LINE
  5
22F
100
AcDbEntity
  8
00_COMPONENTS_1
100
AcDbLine
 62
7
  6
BYLAYER
 10
54.2979814343
 20
141.0315561909
 11
53.2113704437
 21
139.9449452003
  0
LINE
  5
230
100
AcDbEntity
  8
00_COMPONENTS_1
100
AcDbLine
 62
7
  6
BYLAYER
 10
50.6789382175
 20
137.4125129742
 11
49.5923272269
 21
136.3259019835
  0
LINE
  5
231
100
AcDbEntity
  8
00_COMPONENTS_1
100
AcDbLine
 62
7
  6
BYLAYER
 10
54.1004157996
 20
140.1155700666
 11
50.5083133512
 21
136.5234676182
  0
LINE
  5
232
100
AcDbEntity
  8
00_COMPONENTS_1
100
AcDbLine
 62
7
  6
BYLAYER
 10
51.4781810123
 20
134.4400481981
 11
56.1838352197
 21
139.1457024055
  0
LINE
  5
233
100
AcDbEntity
  8
00_COMPONENTS_1
100
AcDbLine
 62
7
  6
BYLAYER
 10
64.2481052165
 20
141.0315561909
 11
62.362251431
 21
139.1457024055
  0
LINE
  5
234
100
AcDbEntity
  8
00_COMPONENTS_1
100
AcDbLine
 62
7
  6
BYLAYER
 10
62.4700145045
 20
139.0379393321
 11
64.3558682899
 21
140.9237931175
  0
LINE
  5
235
100
AcDbEntity
  8
00_COMPONENTS_1
100
AcDbLine
 62
7
  6
BYLAYER
 10
64.804881096
 20
140.4747803114
 11
62.9190273105
 21
138.588926526
  0
LINE
  5
236
100
AcDbEntity
  8
00_COMPONENTS_1
100
AcDbLine
 62
7
  6
BYLAYER
 10
65.3347162071
 20
139.9449452003
 11
70.7767514165
 21
145.3869804097
  0
LINE
  5
237
100
AcDbEntity
  8
00_COMPONENTS_1
100
AcDbLine
 62
7
  6
BYLAYER
 10
65.7208672203
 20
140.2772146768
 11
65.5412620979
 21
140.0976095544
  0
LINE
  5
238
100
AcDbEntity
  8
00_COMPONENTS_1
100
AcDbLine
 62
7
  6
BYLAYER
 10
65.0024467306
 20
139.5587941871
 11
63.47580319
 21
138.0321506465
  0
LINE
  5
239
100
AcDbEntity
  8
00_COMPONENTS_1
100
AcDbLine
 62
7
  6
BYLAYER
 10
67.7268713918
 20
142.186602174
 11
68.3734498325
 21
142.8331806148
  0
LINE
  5
23A
100
AcDbEntity
  8
00_COMPONENTS_1
100
AcDbLine
 62
7
  6
BYLAYER
 10
68.9956202272
 20
142.2110102201
 11
68.3490417865
 21
141.5644317794
  0
LINE
  5
23B
100
AcDbEntity
  8
00_COMPONENTS_1
100
AcDbLine
 62
7
  6
BYLAYER
 10
65.9543538795
 20
135.5535999571
 11
67.48099742
 21
137.0802434977
  0
LINE
  5
23C
100
AcDbEntity
  8
00_COMPONENTS_1
100
AcDbLine
 62
7
  6
BYLAYER
 10
68.0198127873
 20
137.6190588649
 11
68.1994179097
 21
137.7986639874
  0
LINE
  5
23D
100
AcDbEntity
  8
00_COMPONENTS_1
100
AcDbLine
 62
7
  6
BYLAYER
 10
67.8671484332
 20
137.4125129742
 11
73.3091836426
 21
142.8545481835
  0
LINE
  5
23E
100
AcDbEntity
  8
00_COMPONENTS
100
AcDbLine
 62
7
  6
BYLAYER
 10
46.7986446867
 20
45.071289796
 11
71.7982419641
 21
45.071289796
  0
LINE
  5
23F
100
AcDbEntity
  8
00_COMPONENTS
100
AcDbLine
 62
7
  6
BYLAYER
 10
71.7984433253
 20
48.0712897959
 11
46.7984433254
 21
48.0712897959
  0
LINE
  5
240
100
AcDbEntity
  8
00_COMPONENTS_1
100
AcDbLine
 62
7
  6
BYLAYER
 10
66.511129759
 20
134.9968240776
 11
68.3969835444
 21
136.882677863
  0
LINE
  5
241
100
AcDbEntity
  8
00_COMPONENTS_1
100
AcDbLine
 62
7
  6
BYLAYER
 10
68.8459963504
 20
136.433665057
 11
66.960142565
 21
134.5478112715
  0
LINE
  5
242
100
AcDbEntity
  8
00_COMPONENTS_1
100
AcDbLine
 62
7
  6
BYLAYER
 10
67.0679056385
 20
134.4400481981
 11
68.9537594239
 21
136.3259019835
  0
LINE
  5
243
100
AcDbEntity
  8
00_COMPONENTS_1
100
AcDbLine
 62
7
  6
BYLAYER
 10
75.5093463923
 20
142.4504366581
 11
71.0304455973
 21
137.9715358631
  0
LINE
  5
244
100
AcDbEntity
  8
00_COMPONENTS
100
AcDbLine
 62
7
  6
BYLAYER
 10
43.5524433214
 20
60.0712897959
 11
43.2984433214
 21
60.3252897959
  0
LINE
  5
245
100
AcDbEntity
  8
00_COMPONENTS_3
100
AcDbLine
 62
7
  6
BYLAYER
 10
36.7984433254
 20
87.2619897959
 11
36.7984433254
 21
88.8830897959
  0
LINE
  5
246
100
AcDbEntity
  8
00_COMPONENTS_1
100
AcDbLine
 62
7
  6
BYLAYER
 10
38.7262173204
 20
131.7858123411
 11
38.7262173204
 21
133.1828123411
  0
LINE
  5
247
100
AcDbEntity
  8
00_COMPONENTS_1
100
AcDbLine
 62
7
  6
BYLAYER
 10
39.0800433254
 20
148.5210897959
 11
39.0800433254
 21
133.5366383461
  0
LINE
  5
248
100
AcDbEntity
  8
00_COMPONENTS_1
100
AcDbLine
 62
7
  6
BYLAYER
 10
39.0800433254
 20
131.4319863361
 11
39.0800433254
 21
123.8830897959
  0
LINE
  5
249
100
AcDbEntity
  8
00_COMPONENTS_3
100
AcDbLine
 62
7
  6
BYLAYER
 10
39.1054433254
 20
88.8830897959
 11
39.1054433254
 21
91.3830897959
  0
LINE
  5
24A
100
AcDbEntity
  8
00_COMPONENTS_3
100
AcDbLine
 62
7
  6
BYLAYER
 10
39.1054433254
 20
113.8830897959
 11
39.1054433254
 21
123.8830897959
  0
LINE
  5
24B
100
AcDbEntity
  8
00_COMPONENTS_3
100
AcDbLine
 62
7
  6
BYLAYER
 10
39.1308433254
 20
91.3830897959
 11
39.1308433254
 21
113.8830897959
  0
LINE
  5
24C
100
AcDbEntity
  8
00_COMPONENTS
100
AcDbLine
 62
7
  6
BYLAYER
 10
39.4546933254
 20
77.8004897959
 11
39.4546933254
 21
79.3244897959
  0
LINE
  5
24D
100
AcDbEntity
  8
00_COMPONENTS_3
100
AcDbLine
 62
7
  6
BYLAYER
 10
39.4546933254
 20
85.6744897959
 11
39.4546933254
 21
87.2619897959
  0
LINE
  5
24E
100
AcDbEntity
  8
00_COMPONENTS
100
AcDbLine
 62
7
  6
BYLAYER
 10
40.6294433254
 20
76.5304897959
 11
40.6294433254
 21
77.8004897959
  0
LINE
  5
24F
100
AcDbEntity
  8
00_COMPONENTS_1
100
AcDbLine
 62
7
  6
BYLAYER
 10
79.8198693304
 20
131.7858123411
 11
72.0429675295
 21
124.0089105403
  0
LINE
  5
250
100
AcDbEntity
  8
00_COMPONENTS
100
AcDbLine
 62
7
  6
BYLAYER
 10
43.5524599912
 20
60.0712897959
 11
75.0444266596
 21
60.0712897959
  0
LINE
  5
251
100
AcDbEntity
  8
00_COMPONENTS
100
AcDbLine
 62
7
  6
BYLAYER
 10
43.2984433214
 20
60.3252897959
 11
75.2984433294
 21
60.3252897959
  0
LINE
  5
252
100
AcDbEntity
  8
00_COMPONENTS
100
AcDbLine
 62
7
  6
BYLAYER
 10
42.9047433214
 20
69.6203925969
 11
41.8359433254
 21
70.2374645623
  0
LINE
  5
253
100
AcDbEntity
  8
00_COMPONENTS
100
AcDbLine
 62
7
  6
BYLAYER
 10
41.8359433254
 20
70.2374422593
 11
41.8359433254
 21
76.5304897959
  0
LINE
  5
254
100
AcDbEntity
  8
00_COMPONENTS
100
AcDbLine
 62
7
  6
BYLAYER
 10
43.2984433214
 20
60.3252897959
 11
43.2984433214
 21
68.938484194
  0
LINE
  5
255
100
AcDbEntity
  8
00_COMPONENTS_3
100
AcDbLine
 62
7
  6
BYLAYER
 10
44.3124433254
 20
79.3244897959
 11
44.3124433254
 21
85.6744897959
  0
LINE
  5
256
100
AcDbEntity
  8
00_COMPONENTS
100
AcDbLine
 62
7
  6
BYLAYER
 10
46.7984433254
 20
48.071289796
 11
45.2984433254
 21
60.0712897959
  0
LINE
  5
257
100
AcDbEntity
  8
00_COMPONENTS
100
AcDbLine
 62
7
  6
BYLAYER
 10
46.7984433254
 20
45.071289796
 11
46.7984433254
 21
48.0712897959
  0
LINE
  5
258
100
AcDbEntity
  8
00_COMPONENTS_1
100
AcDbLine
 62
7
  6
BYLAYER
 10
66.1950826806
 20
140.8053116738
 11
66.1698800264
 21
140.7262274828
  0
LINE
  5
259
100
AcDbEntity
  8
00_COMPONENTS
100
AcDbLine
 62
7
  6
BYLAYER
 10
75.2984433294
 20
68.938484194
 11
43.2984433214
 21
68.938484194
  0
LINE
  5
25A
100
AcDbEntity
  8
00_COMPONENTS
100
AcDbLine
 62
7
  6
BYLAYER
 10
42.9047433214
 20
69.6203925969
 11
75.6921433294
 21
69.6203925969
  0
LINE
  5
25B
100
AcDbEntity
  8
00_COMPONENTS_3
100
AcDbLine
 62
7
  6
BYLAYER
 10
51.7984433254
 20
113.8830897959
 11
51.7984433254
 21
118.8830897959
  0
LINE
  5
25C
100
AcDbEntity
  8
00_COMPONENTS
100
AcDbLine
 62
7
  6
BYLAYER
 10
52.0652389924
 20
76.5304897959
 11
52.0652389924
 21
71.0681410016
  0
LINE
  5
25D
100
AcDbEntity
  8
00_COMPONENTS
100
AcDbLine
 62
7
  6
BYLAYER
 10
53.7421933254
 20
79.3244897959
 11
53.7421933254
 21
77.8004897959
  0
LINE
  5
25E
100
AcDbEntity
  8
00_COMPONENTS
100
AcDbLine
 62
7
  6
BYLAYER
 10
54.2984433254
 20
26.6685346348
 11
54.2984433254
 21
45.071289796
  0
LINE
  5
25F
100
AcDbEntity
  8
00_COMPONENTS
100
AcDbLine
 62
7
  6
BYLAYER
 10
40.6296434447
 20
76.5304897959
 11
77.7134433254
 21
76.5304897959
  0
LINE
  5
260
100
AcDbEntity
  8
00_COMPONENTS_1
100
AcDbLine
 62
7
  6
BYLAYER
 10
56.0345433254
 20
148.5210897959
 11
56.0345433254
 21
150.3244897959
  0
LINE
  5
261
100
AcDbEntity
  8
00_COMPONENTS
100
AcDbLine
 62
7
  6
BYLAYER
 10
56.2293496481
 20
77.8004897959
 11
56.2293496481
 21
76.5304897959
  0
LINE
  5
262
100
AcDbEntity
  8
00_COMPONENTS
100
AcDbLine
 62
7
  6
BYLAYER
 10
39.4549298083
 20
77.8004897959
 11
79.1419568425
 21
77.8004897959
  0
LINE
  5
263
100
AcDbEntity
  8
00_COMPONENTS
100
AcDbLine
 62
7
  6
BYLAYER
 10
39.4549298083
 20
79.3244897959
 11
79.1419568425
 21
79.3244897959
  0
LINE
  5
264
100
AcDbEntity
  8
00_COMPONENTS
100
AcDbLine
 62
7
  6
BYLAYER
 10
62.3675370027
 20
76.5304897959
 11
62.3675370027
 21
77.8004897959
  0
LINE
  5
265
100
AcDbEntity
  8
00_COMPONENTS_1
100
AcDbLine
 62
7
  6
BYLAYER
 10
62.5115433254
 20
148.5210897959
 11
62.5115433254
 21
150.3244897959
  0
LINE
  5
266
100
AcDbEntity
  8
00_COMPONENTS
100
AcDbLine
 62
7
  6
BYLAYER
 10
64.2984433254
 20
26.6685346348
 11
64.2984433254
 21
45.071289796
  0
LINE
  5
267
100
AcDbEntity
  8
00_COMPONENTS_3
100
AcDbLine
 62
7
  6
BYLAYER
 10
39.4549471872
 20
85.6744897959
 11
79.1419394636
 21
85.6744897959
  0
LINE
  5
268
100
AcDbEntity
  8
00_COMPONENTS
100
AcDbLine
 62
7
  6
BYLAYER
 10
64.8546933254
 20
77.8004897959
 11
64.8546933254
 21
79.3244897959
  0
LINE
  5
269
100
AcDbEntity
  8
00_COMPONENTS
100
AcDbLine
 62
7
  6
BYLAYER
 10
66.5316476583
 20
76.5304897959
 11
66.5316476583
 21
71.0681410016
  0
LINE
  5
26A
100
AcDbEntity
  8
00_COMPONENTS_3
100
AcDbLine
 62
7
  6
BYLAYER
 10
66.7984433254
 20
118.8830897959
 11
66.7984433254
 21
113.8830897959
  0
LINE
  5
26B
100
AcDbEntity
  8
00_COMPONENTS_3
100
AcDbLine
 62
7
  6
BYLAYER
 10
81.7984433254
 20
87.2619897959
 11
36.7984433254
 21
87.2619897959
  0
LINE
  5
26C
100
AcDbEntity
  8
00_COMPONENTS_3
100
AcDbLine
 62
7
  6
BYLAYER
 10
81.7984433254
 20
88.8830897959
 11
36.7984433254
 21
88.8830897959
  0
LINE
  5
26D
100
AcDbEntity
  8
00_COMPONENTS_3
100
AcDbLine
 62
7
  6
BYLAYER
 10
79.4914433254
 20
91.3830897959
 11
39.1054433254
 21
91.3830897959
  0
LINE
  5
26E
100
AcDbEntity
  8
00_COMPONENTS
100
AcDbLine
 62
7
  6
BYLAYER
 10
71.7984433253
 20
45.071289796
 11
71.7984433253
 21
48.0712897959
  0
LINE
  5
26F
100
AcDbEntity
  8
00_COMPONENTS_3
100
AcDbLine
 62
7
  6
BYLAYER
 10
74.2844433254
 20
79.3244897959
 11
74.2844433254
 21
85.6744897959
  0
LINE
  5
270
100
AcDbEntity
  8
00_COMPONENTS_1
100
AcDbLine
 62
7
  6
BYLAYER
 10
52.3762066244
 20
140.7262274828
 11
52.3510039701
 21
140.8053116738
  0
LINE
  5
271
100
AcDbEntity
  8
00_COMPONENTS
100
AcDbLine
 62
7
  6
BYLAYER
 10
75.2984433294
 20
60.3252897959
 11
75.2984433294
 21
68.938484194
  0
LINE
  5
272
100
AcDbEntity
  8
00_COMPONENTS
100
AcDbLine
 62
7
  6
BYLAYER
 10
76.7609433254
 20
76.5304897959
 11
76.7609433254
 21
70.2374422593
  0
LINE
  5
273
100
AcDbEntity
  8
00_COMPONENTS
100
AcDbLine
 62
7
  6
BYLAYER
 10
77.7134433254
 20
77.8004897959
 11
77.7134433254
 21
76.5304897959
  0
LINE
  5
274
100
AcDbEntity
  8
00_COMPONENTS
100
AcDbLine
 62
7
  6
BYLAYER
 10
79.1421933254
 20
77.8004897959
 11
79.1421933254
 21
79.3244897959
  0
LINE
  5
275
100
AcDbEntity
  8
00_COMPONENTS_3
100
AcDbLine
 62
7
  6
BYLAYER
 10
79.1421933254
 20
85.6744897959
 11
79.1421933254
 21
87.2619897959
  0
LINE
  5
276
100
AcDbEntity
  8
00_COMPONENTS
100
AcDbLine
 62
7
  6
BYLAYER
 10
71.7984433253
 20
48.071289796
 11
73.2984433254
 21
60.0712897959
  0
LINE
  5
277
100
AcDbEntity
  8
00_COMPONENTS
100
AcDbLine
 62
7
  6
BYLAYER
 10
75.6921433294
 20
69.6203925969
 11
76.7609433254
 21
70.2374645623
  0
LINE
  5
278
100
AcDbEntity
  8
00_COMPONENTS_3
100
AcDbLine
 62
7
  6
BYLAYER
 10
79.4660433254
 20
113.8830897959
 11
79.4660433254
 21
91.3830897959
  0
LINE
  5
279
100
AcDbEntity
  8
00_COMPONENTS_1
100
AcDbLine
 62
7
  6
BYLAYER
 10
79.4660433254
 20
123.8830897959
 11
79.4660433254
 21
131.4319863361
  0
LINE
  5
27A
100
AcDbEntity
  8
00_COMPONENTS_1
100
AcDbLine
 62
7
  6
BYLAYER
 10
79.4660433254
 20
133.5366383461
 11
79.4660433254
 21
148.5210897959
  0
LINE
  5
27B
100
AcDbEntity
  8
00_COMPONENTS_3
100
AcDbLine
 62
7
  6
BYLAYER
 10
79.4914433254
 20
123.8830897959
 11
79.4914433254
 21
113.8830897959
  0
LINE
  5
27C
100
AcDbEntity
  8
00_COMPONENTS_3
100
AcDbLine
 62
7
  6
BYLAYER
 10
79.4914433254
 20
91.3830897959
 11
79.4914433254
 21
88.8830897959
  0
LINE
  5
27D
100
AcDbEntity
  8
00_COMPONENTS_1
100
AcDbLine
 62
7
  6
BYLAYER
 10
79.8198693304
 20
133.1828123411
 11
79.8198693304
 21
131.7858123411
  0
LINE
  5
27E
100
AcDbEntity
  8
00_COMPONENTS_3
100
AcDbLine
 62
7
  6
BYLAYER
 10
81.7984433254
 20
88.8830897959
 11
81.7984433254
 21
87.2619897959
  0
LINE
  5
27F
100
AcDbEntity
  8
00_COMPONENTS_1
100
AcDbLine
 62
7
  6
BYLAYER
 10
46.5031191212
 20
124.0089105403
 11
38.7262173204
 21
131.7858123411
  0
LINE
  5
280
100
AcDbEntity
  8
00_COMPONENTS
100
AcDbLine
 62
7
  6
BYLAYER
 10
75.0444433294
 20
60.0712897959
 11
75.2984433294
 21
60.3252897959
  0
LINE
  5
281
100
AcDbEntity
  8
00_COMPONENTS_3
100
AcDbLine
 62
7
  6
BYLAYER
 10
79.4914433254
 20
113.8830897959
 11
66.7984433254
 21
113.8830897959
  0
LINE
  5
282
100
AcDbEntity
  8
00_COMPONENTS_3
100
AcDbLine
 62
7
  6
BYLAYER
 10
51.7984433254
 20
113.8830897959
 11
39.1054433254
 21
113.8830897959
  0
LINE
  5
283
100
AcDbEntity
  8
00_COMPONENTS_1
100
AcDbLine
 62
7
  6
BYLAYER
 10
47.5156410535
 20
137.9715358631
 11
43.0367402585
 21
142.4504366581
  0
LINE
  5
284
100
AcDbEntity
  8
00_COMPONENTS_1
100
AcDbLine
 62
7
  6
BYLAYER
 10
49.5923272269
 20
136.3259019835
 11
51.4781810123
 21
134.4400481981
  0
LINE
  5
285
100
AcDbEntity
  8
00_COMPONENTS_1
100
AcDbLine
 62
7
  6
BYLAYER
 10
51.5859440857
 20
134.5478112715
 11
49.7000903003
 21
136.433665057
  0
LINE
  5
286
100
AcDbEntity
  8
00_COMPONENTS_1
100
AcDbLine
 62
7
  6
BYLAYER
 10
50.1491031064
 20
136.882677863
 11
52.0349568918
 21
134.9968240776
  0
LINE
  5
287
100
AcDbEntity
  8
00_COMPONENTS_1
100
AcDbLine
 62
7
  6
BYLAYER
 10
50.6789382175
 20
137.4125129742
 11
45.2369030082
 21
142.8545481835
  0
LINE
  5
288
100
AcDbEntity
  8
00_COMPONENTS_1
100
AcDbLine
 62
7
  6
BYLAYER
 10
50.346668741
 20
137.7986639874
 11
50.5262738635
 21
137.6190588649
  0
LINE
  5
289
100
AcDbEntity
  8
00_COMPONENTS_1
100
AcDbLine
 62
7
  6
BYLAYER
 10
51.0650892307
 20
137.0802434977
 11
52.5917327713
 21
135.5535999571
  0
LINE
  5
28A
100
AcDbEntity
  8
00_COMPONENTS_1
100
AcDbLine
 62
7
  6
BYLAYER
 10
48.4372812438
 20
139.8046681589
 11
47.7907028031
 21
140.4512465996
  0
LINE
  5
28B
100
AcDbEntity
  8
00_COMPONENTS_1
100
AcDbLine
 62
7
  6
BYLAYER
 10
48.4128731977
 20
141.0734169943
 11
49.0594516384
 21
140.4268385535
  0
LINE
  5
28C
100
AcDbEntity
  8
00_COMPONENTS_3
100
AcDbLine
 62
7
  6
BYLAYER
 10
51.7984433254
 20
118.8830897959
 11
66.7984433254
 21
118.8830897959
  0
LINE
  5
28D
100
AcDbEntity
  8
00_COMPONENTS_1
100
AcDbLine
 62
7
  6
BYLAYER
 10
55.0702834607
 20
138.0321506465
 11
53.5436399201
 21
139.5587941871
  0
LINE
  5
28E
100
AcDbEntity
  8
00_COMPONENTS_1
100
AcDbLine
 62
7
  6
BYLAYER
 10
53.0048245529
 20
140.0976095544
 11
52.8252194305
 21
140.2772146768
  0
LINE
  5
28F
100
AcDbEntity
  8
00_COMPONENTS_1
100
AcDbLine
 62
7
  6
BYLAYER
 10
53.2113704437
 20
139.9449452003
 11
47.7693352343
 21
145.3869804097
  0
LINE
  5
290
100
AcDbEntity
  8
00_COMPONENTS_1
100
AcDbLine
 62
7
  6
BYLAYER
 10
55.6270593402
 20
138.588926526
 11
53.7412055548
 21
140.4747803114
  0
LINE
  5
291
100
AcDbEntity
  8
00_COMPONENTS_1
100
AcDbLine
 62
7
  6
BYLAYER
 10
54.1902183609
 20
140.9237931175
 11
56.0760721463
 21
139.0379393321
  0
LINE
  5
292
100
AcDbEntity
  8
00_COMPONENTS_1
100
AcDbLine
 62
7
  6
BYLAYER
 10
56.1838352197
 20
139.1457024055
 11
54.2979814343
 21
141.0315561909
  0
LINE
  5
293
100
AcDbEntity
  8
00_COMPONENTS_3
100
AcDbLine
 62
7
  6
BYLAYER
 10
79.4914433254
 20
123.8830897959
 11
39.1054433254
 21
123.8830897959
  0
LINE
  5
294
100
AcDbEntity
  8
00_COMPONENTS_1
100
AcDbLine
 62
7
  6
BYLAYER
 10
39.0800433254
 20
123.8830897959
 11
39.1054433254
 21
123.8830897959
  0
LINE
  5
295
100
AcDbEntity
  8
00_COMPONENTS_1
100
AcDbLine
 62
7
  6
BYLAYER
 10
72.0429675295
 20
124.0089105403
 11
46.5031191212
 21
124.0089105403
  0
LINE
  5
296
100
AcDbEntity
  8
00_COMPONENTS_1
100
AcDbLine
 62
7
  6
BYLAYER
 10
62.362251431
 20
139.1457024055
 11
67.0679056385
 21
134.4400481981
  0
LINE
  5
297
100
AcDbEntity
  8
00_COMPONENTS_1
100
AcDbLine
 62
7
  6
BYLAYER
 10
68.0377732995
 20
136.5234676182
 11
64.4456708511
 21
140.1155700666
  0
LINE
  5
298
100
AcDbEntity
  8
00_COMPONENTS_1
100
AcDbLine
 62
7
  6
BYLAYER
 10
68.9537594239
 20
136.3259019835
 11
67.8671484332
 21
137.4125129742
  0
LINE
  5
299
100
AcDbEntity
  8
00_COMPONENTS_1
100
AcDbLine
 62
7
  6
BYLAYER
 10
65.3347162071
 20
139.9449452003
 11
64.2481052165
 21
141.0315561909
  0
LINE
  5
29A
100
AcDbEntity
  8
00_COMPONENTS_1
100
AcDbLine
 62
7
  6
BYLAYER
 10
65.5143213295
 20
140.1245503227
 11
68.0467535557
 21
137.5921180966
  0
LINE
  5
29B
100
AcDbEntity
  8
00_COMPONENTS_1
100
AcDbLine
 62
7
  6
BYLAYER
 10
68.2263586781
 20
137.771723219
 11
65.6939264519
 21
140.3041554451
  0
LINE
  5
29C
100
AcDbEntity
  8
00_COMPONENTS_1
100
AcDbLine
 62
7
  6
BYLAYER
 10
66.142939258
 20
140.7531682512
 11
68.6753714841
 21
138.2207360251
  0
LINE
  5
29D
100
AcDbEntity
  8
00_COMPONENTS_1
100
AcDbLine
 62
7
  6
BYLAYER
 10
78.5180192248
 20
130.4839622355
 11
71.0304455973
 21
137.9715358631
  0
LINE
  5
29E
100
AcDbEntity
  8
00_COMPONENTS_1
100
AcDbLine
 62
7
  6
BYLAYER
 10
67.2205699925
 20
141.8307989857
 11
69.7530022187
 21
139.2983667596
  0
LINE
  5
29F
100
AcDbEntity
  8
00_COMPONENTS_1
100
AcDbLine
 62
7
  6
BYLAYER
 10
68.3490417865
 20
141.5644317794
 11
67.7268713918
 21
142.186602174
  0
LINE
  5
2A0
100
AcDbEntity
  8
00_COMPONENTS_1
100
AcDbLine
 62
7
  6
BYLAYER
 10
49.818571744
 20
138.2728794477
 11
49.897655935
 21
138.2476767934
  0
LINE
  5
2A1
100
AcDbEntity
  8
00_COMPONENTS_1
100
AcDbLine
 62
7
  6
BYLAYER
 10
70.8306329532
 20
140.3759974941
 11
68.2982007271
 21
142.9084297202
  0
LINE
  5
2A2
100
AcDbEntity
  8
00_COMPONENTS_1
100
AcDbLine
 62
7
  6
BYLAYER
 10
73.0307957029
 20
139.9718859687
 11
79.8198693304
 21
133.1828123411
  0
LINE
  5
2A3
100
AcDbEntity
  8
00_COMPONENTS_1
100
AcDbLine
 62
7
  6
BYLAYER
 10
73.5089962867
 20
140.4500865525
 11
72.2068591491
 21
141.75222369
  0
LINE
  5
2A4
100
AcDbEntity
  8
00_COMPONENTS_1
100
AcDbLine
 62
7
  6
BYLAYER
 10
69.674426923
 20
144.2846559162
 11
65.4379930433
 21
148.5210897959
  0
LINE
  5
2A5
100
AcDbEntity
  8
00_COMPONENTS_1
100
AcDbLine
 62
7
  6
BYLAYER
 10
73.3091836426
 20
142.8545481835
 11
70.7767514165
 21
145.3869804097
  0
LINE
  5
2A6
100
AcDbEntity
  8
00_COMPONENTS_1
100
AcDbLine
 62
7
  6
BYLAYER
 10
69.4386932544
 20
148.5210897959
 11
75.5093463923
 21
142.4504366581
  0
LINE
  5
2A7
100
AcDbEntity
  8
00_COMPONENTS_1
100
AcDbLine
 62
7
  6
BYLAYER
 10
39.0800433254
 20
148.5210897959
 11
79.4660433254
 21
148.5210897959
  0
LINE
  5
2A8
100
AcDbEntity
  8
00_COMPONENTS_1
100
AcDbLine
 62
7
  6
BYLAYER
 10
62.5115433254
 20
150.3244897959
 11
56.0345433254
 21
150.3244897959
  0
ARC
  5
2A9
100
AcDbEntity
  8
00_COMPONENTS
100
AcDbCircle
 62
7
  6
BYLAYER
 10
59.2984433254
 20
13.2844897959
 40
14.2875
100
AcDbArc
 50
0.0
 51
69.51536068
  0
ARC
  5
2AA
100
AcDbEntity
  8
00_COMPONENTS
100
AcDbCircle
 62
7
  6
BYLAYER
 10
59.2984433254
 20
13.2844897959
 40
14.2875
100
AcDbArc
 50
110.4846393253
 51
180.0
  0
ARC
  5
2AB
100
AcDbEntity
  8
00_COMPONENTS
100
AcDbCircle
 62
7
  6
BYLAYER
 10
42.5110433214
 20
68.938484194
 40
0.7874
100
AcDbArc
 50
0.0
 51
60.0
  0
ARC
  5
2AC
100
AcDbEntity
  8
00_COMPONENTS
100
AcDbCircle
 62
7
  6
BYLAYER
 10
76.0858433294
 20
68.938484194
 40
0.7874
100
AcDbArc
 50
120.0
 51
180.0
  0
SPLINE
  5
2AD
100
AcDbEntity
  8
00_COMPONENTS_1
100
AcDbSpline
 62
7
  6
BYLAYER
 70
0
 71
3
 72
15
 73
11
 74
0
 42
0.0000001
 43
0.0000001
 44
0.0000000001
 40
0.0
 40
0.0
 40
0.0
 40
0.0
 40
0.0762796551
 40
0.1604963053
 40
0.2581855293
 40
0.3724034092
 40
0.5042198134
 40
0.6535053273
 40
0.8193679375
 40
1.0
 40
1.0
 40
1.0
 40
1.0
 10
44.0950451629
 20
141.9848286577
 30
0.0
 10
44.1271796611
 20
141.9526941595
 30
0.0
 10
44.2081494479
 20
141.8975717008
 30
0.0
 10
44.3584225615
 20
141.8563616374
 30
0.0
 10
44.5360662786
 20
141.8523528577
 30
0.0
 10
44.7391504411
 20
141.8840142116
 30
0.0
 10
44.965643701
 20
141.9503961284
 30
0.0
 10
45.2127048807
 20
142.0506838619
 30
0.0
 10
45.4768269807
 20
142.1834633527
 30
0.0
 10
45.6548463167
 20
142.288272856
 30
0.0
 10
45.7460385598
 20
142.3454126319
 30
0.0
  0
SPLINE
  5
2AE
100
AcDbEntity
  8
00_COMPONENTS_1
100
AcDbSpline
 62
7
  6
BYLAYER
 70
0
 71
3
 72
15
 73
11
 74
0
 42
0.0000001
 43
0.0000001
 44
0.0000000001
 40
0.0
 40
0.0
 40
0.0
 40
0.0
 40
0.1806320625
 40
0.3464946727
 40
0.4957801866
 40
0.6275965908
 40
0.7418144707
 40
0.8395036947
 40
0.9237203449
 40
1.0
 40
1.0
 40
1.0
 40
1.0
 10
48.2784707859
 20
144.877844858
 30
0.0
 10
48.3356105618
 20
144.9690371011
 30
0.0
 10
48.4404200652
 20
145.1470564371
 30
0.0
 10
48.5731995559
 20
145.4111785371
 30
0.0
 10
48.6734872894
 20
145.6582397168
 30
0.0
 10
48.7398692062
 20
145.8847329767
 30
0.0
 10
48.7715305601
 20
146.0878171392
 30
0.0
 10
48.7675217804
 20
146.2654608563
 30
0.0
 10
48.726311717
 20
146.4157339699
 30
0.0
 10
48.6711892583
 20
146.4967037568
 30
0.0
 10
48.6390547601
 20
146.528838255
 30
0.0
  0
SPLINE
  5
2AF
100
AcDbEntity
  8
00_COMPONENTS_1
100
AcDbSpline
 62
7
  6
BYLAYER
 70
0
 71
3
 72
15
 73
11
 74
0
 42
0.0000001
 43
0.0000001
 44
0.0000000001
 40
0.0
 40
0.0
 40
0.0
 40
0.0
 40
0.1806320625
 40
0.3464946727
 40
0.4957801866
 40
0.6275965908
 40
0.7418144707
 40
0.8395036947
 40
0.9237203449
 40
1.0
 40
1.0
 40
1.0
 40
1.0
 10
72.800048091
 20
142.3454126319
 30
0.0
 10
72.891240334
 20
142.288272856
 30
0.0
 10
73.06925967
 20
142.1834633527
 30
0.0
 10
73.3333817701
 20
142.0506838619
 30
0.0
 10
73.5804429498
 20
141.9503961284
 30
0.0
 10
73.8069362096
 20
141.8840142116
 30
0.0
 10
74.0100203722
 20
141.8523528577
 30
0.0
 10
74.1876640893
 20
141.8563616374
 30
0.0
 10
74.3379372029
 20
141.8975717008
 30
0.0
 10
74.4189069897
 20
141.9526941595
 30
0.0
 10
74.4510414879
 20
141.9848286577
 30
0.0
  0
SPLINE
  5
2B0
100
AcDbEntity
  8
00_COMPONENTS_1
100
AcDbSpline
 62
7
  6
BYLAYER
 70
0
 71
3
 72
15
 73
11
 74
0
 42
0.0000001
 43
0.0000001
 44
0.0000000001
 40
0.0
 40
0.0
 40
0.0
 40
0.0
 40
0.0762796551
 40
0.1604963053
 40
0.2581855293
 40
0.3724034092
 40
0.5042198134
 40
0.6535053273
 40
0.8193679375
 40
1.0
 40
1.0
 40
1.0
 40
1.0
 10
69.9070318907
 20
146.528838255
 30
0.0
 10
69.8748973924
 20
146.4967037568
 30
0.0
 10
69.8197749338
 20
146.4157339699
 30
0.0
 10
69.7785648703
 20
146.2654608563
 30
0.0
 10
69.7745560906
 20
146.0878171392
 30
0.0
 10
69.8062174445
 20
145.8847329767
 30
0.0
 10
69.8725993614
 20
145.6582397168
 30
0.0
 10
69.9728870949
 20
145.4111785371
 30
0.0
 10
70.1056665856
 20
145.1470564371
 30
0.0
 10
70.2104760889
 20
144.9690371011
 30
0.0
 10
70.2676158648
 20
144.877844858
 30
0.0
  0
SPLINE
  5
2B1
100
AcDbEntity
  8
00_COMPONENTS_1
100
AcDbSpline
 62
7
  6
BYLAYER
 70
0
 71
3
 72
18
 73
14
 74
0
 42
0.0000001
 43
0.0000001
 44
0.0000000001
 40
0.0
 40
0.0
 40
0.0
 40
0.0
 40
0.0320502393
 40
0.0658354606
 40
0.1027430072
 40
0.1437865228
 40
0.1896179225
 40
0.2405849253
 40
0.35813741
 40
0.4957588799
 40
0.6510061269
 40
0.8204831006
 40
1.0
 40
1.0
 40
1.0
 40
1.0
 10
74.4510414879
 20
141.9848286577
 30
0.0
 10
74.4734067894
 20
142.0071939592
 30
0.0
 10
74.5135501868
 20
142.0592907043
 30
0.0
 10
74.554787303
 20
142.1528054472
 30
0.0
 10
74.5777582262
 20
142.2613203431
 30
0.0
 10
74.5827813082
 20
142.3838201788
 30
0.0
 10
74.5701618666
 20
142.5195913824
 30
0.0
 10
74.5279698001
 20
142.7272018897
 30
0.0
 10
74.4280912759
 20
143.0136654142
 30
0.0
 10
74.2498410869
 20
143.3780345598
 30
0.0
 10
74.0122830514
 20
143.7682368502
 30
0.0
 10
73.7220780954
 20
144.1729316096
 30
0.0
 10
73.5033533955
 20
144.4393172275
 30
0.0
 10
73.3869316513
 20
144.572851399
 30
0.0
  0
SPLINE
  5
2B2
100
AcDbEntity
  8
00_COMPONENTS_1
100
AcDbSpline
 62
7
  6
BYLAYER
 70
0
 71
3
 72
18
 73
14
 74
0
 42
0.0000001
 43
0.0000001
 44
0.0000000001
 40
0.0
 40
0.0
 40
0.0
 40
0.0
 40
0.1795168994
 40
0.3489938731
 40
0.5042411201
 40
0.64186259
 40
0.7594150747
 40
0.8103820775
 40
0.8562134772
 40
0.8972569928
 40
0.9341645394
 40
0.9679497607
 40
1.0
 40
1.0
 40
1.0
 40
1.0
 10
45.1591549995
 20
144.572851399
 30
0.0
 10
45.0427332552
 20
144.4393172275
 30
0.0
 10
44.8240085554
 20
144.1729316096
 30
0.0
 10
44.5338035994
 20
143.7682368502
 30
0.0
 10
44.2962455638
 20
143.3780345598
 30
0.0
 10
44.1179953749
 20
143.0136654143
 30
0.0
 10
44.0181168507
 20
142.7272018897
 30
0.0
 10
43.9759247842
 20
142.5195913824
 30
0.0
 10
43.9633053425
 20
142.3838201788
 30
0.0
 10
43.9683284246
 20
142.2613203431
 30
0.0
 10
43.9912993477
 20
142.1528054472
 30
0.0
 10
44.032536464
 20
142.0592907043
 30
0.0
 10
44.0726798614
 20
142.0071939592
 30
0.0
 10
44.0950451629
 20
141.9848286577
 30
0.0
  0
SPLINE
  5
2B3
100
AcDbEntity
  8
00_COMPONENTS_1
100
AcDbSpline
 62
7
  6
BYLAYER
 70
0
 71
3
 72
18
 73
14
 74
0
 42
0.0000001
 43
0.0000001
 44
0.0000000001
 40
0.0
 40
0.0
 40
0.0
 40
0.0
 40
0.1795168994
 40
0.3489938731
 40
0.5042411201
 40
0.64186259
 40
0.7594150747
 40
0.8103820775
 40
0.8562134772
 40
0.8972569928
 40
0.9341645394
 40
0.9679497607
 40
1.0
 40
1.0
 40
1.0
 40
1.0
 10
72.495054632
 20
145.4647284184
 30
0.0
 10
72.3615204605
 20
145.5811501626
 30
0.0
 10
72.0951348426
 20
145.7998748624
 30
0.0
 10
71.6904400831
 20
146.0900798184
 30
0.0
 10
71.3002377927
 20
146.327637854
 30
0.0
 10
70.9358686472
 20
146.5058880429
 30
0.0
 10
70.6494051227
 20
146.6057665671
 30
0.0
 10
70.4417946154
 20
146.6479586336
 30
0.0
 10
70.3060234117
 20
146.6605780753
 30
0.0
 10
70.1835235761
 20
146.6555549932
 30
0.0
 10
70.0750086802
 20
146.6325840701
 30
0.0
 10
69.9814939373
 20
146.5913469538
 30
0.0
 10
69.9293971921
 20
146.5512035564
 30
0.0
 10
69.9070318907
 20
146.528838255
 30
0.0
  0
SPLINE
  5
2B4
100
AcDbEntity
  8
00_COMPONENTS_1
100
AcDbSpline
 62
7
  6
BYLAYER
 70
0
 71
3
 72
18
 73
14
 74
0
 42
0.0000001
 43
0.0000001
 44
0.0000000001
 40
0.0
 40
0.0
 40
0.0
 40
0.0
 40
0.0320502393
 40
0.0658354606
 40
0.1027430072
 40
0.1437865228
 40
0.1896179225
 40
0.2405849253
 40
0.35813741
 40
0.4957588799
 40
0.6510061269
 40
0.8204831006
 40
1.0
 40
1.0
 40
1.0
 40
1.0
 10
48.6390547601
 20
146.528838255
 30
0.0
 10
48.6166894586
 20
146.5512035564
 30
0.0
 10
48.5645927135
 20
146.5913469538
 30
0.0
 10
48.4710779706
 20
146.6325840701
 30
0.0
 10
48.3625630747
 20
146.6555549932
 30
0.0
 10
48.240063239
 20
146.6605780753
 30
0.0
 10
48.1042920354
 20
146.6479586336
 30
0.0
 10
47.8966815281
 20
146.6057665671
 30
0.0
 10
47.6102180036
 20
146.5058880429
 30
0.0
 10
47.2458488581
 20
146.327637854
 30
0.0
 10
46.8556465676
 20
146.0900798184
 30
0.0
 10
46.4509518082
 20
145.7998748624
 30
0.0
 10
46.1845661903
 20
145.5811501626
 30
0.0
 10
46.0510320188
 20
145.4647284184
 30
0.0
  0
SPLINE
  5
2B5
100
AcDbEntity
  8
00_COMPONENTS
100
AcDbSpline
 62
7
  6
BYLAYER
 70
0
 71
3
 72
13
 73
9
 74
0
 42
0.0000001
 43
0.0000001
 44
0.0000000001
 40
0.0
 40
0.0
 40
0.0
 40
0.0
 40
0.2514376165
 40
0.3759332228
 40
0.5
 40
0.6240667772
 40
0.7485623835
 40
1.0
 40
1.0
 40
1.0
 40
1.0
 10
41.8359433254
 20
71.0681410016
 30
0.0
 10
42.6677829052
 20
70.8082246443
 30
0.0
 10
43.9378122667
 20
70.4929663038
 30
0.0
 10
45.6586093248
 20
70.2744537521
 30
0.0
 10
46.9505911589
 20
70.2189684398
 30
0.0
 10
48.2425729931
 20
70.2744537521
 30
0.0
 10
49.9633700512
 20
70.4929663038
 30
0.0
 10
51.2333994126
 20
70.8082246443
 30
0.0
 10
52.0652389924
 20
71.0681410016
 30
0.0
  0
SPLINE
  5
2B6
100
AcDbEntity
  8
00_COMPONENTS
100
AcDbSpline
 62
7
  6
BYLAYER
 70
0
 71
3
 72
10
 73
6
 74
0
 42
0.0000001
 43
0.0000001
 44
0.0000000001
 40
0.0
 40
0.0
 40
0.0
 40
0.0
 40
0.4999178017
 40
0.7499636292
 40
1.0
 40
1.0
 40
1.0
 40
1.0
 10
52.0652389924
 20
71.0681410016
 30
0.0
 10
53.2519694417
 20
70.8059419486
 30
0.0
 10
55.0520683845
 20
70.4914762077
 30
0.0
 10
57.4744783126
 20
70.2743288312
 30
0.0
 10
58.6905796014
 20
70.2374645623
 30
0.0
 10
59.2984433254
 20
70.2374645623
 30
0.0
  0
SPLINE
  5
2B7
100
AcDbEntity
  8
00_COMPONENTS
100
AcDbSpline
 62
7
  6
BYLAYER
 70
0
 71
3
 72
10
 73
6
 74
0
 42
0.0000001
 43
0.0000001
 44
0.0000000001
 40
0.0
 40
0.0
 40
0.0
 40
0.0
 40
0.2500363762
 40
0.5000822131
 40
1.0
 40
1.0
 40
1.0
 40
1.0
 10
59.2984433254
 20
70.2374645623
 30
0.0
 10
59.9063070613
 20
70.2374645623
 30
0.0
 10
61.1224083665
 20
70.2743292492
 30
0.0
 10
63.544818339
 20
70.4914759666
 30
0.0
 10
65.3449172463
 20
70.8059419568
 30
0.0
 10
66.5316476583
 20
71.0681410016
 30
0.0
  0
SPLINE
  5
2B8
100
AcDbEntity
  8
00_COMPONENTS
100
AcDbSpline
 62
7
  6
BYLAYER
 70
0
 71
3
 72
13
 73
9
 74
0
 42
0.0000001
 43
0.0000001
 44
0.0000000001
 40
0.0
 40
0.0
 40
0.0
 40
0.0
 40
0.2514376165
 40
0.3759332228
 40
0.5
 40
0.6240667772
 40
0.7485623835
 40
1.0
 40
1.0
 40
1.0
 40
1.0
 10
66.5316476583
 20
71.0681410016
 30
0.0
 10
67.3634872382
 20
70.8082246443
 30
0.0
 10
68.6335165996
 20
70.4929663038
 30
0.0
 10
70.3543136577
 20
70.2744537521
 30
0.0
 10
71.6462954919
 20
70.2189684398
 30
0.0
 10
72.938277326
 20
70.2744537521
 30
0.0
 10
74.6590743841
 20
70.4929663038
 30
0.0
 10
75.9291037455
 20
70.8082246443
 30
0.0
 10
76.7609433254
 20
71.0681410016
 30
0.0
  0
ENDSEC
  0
SECTION
  2
OBJECTS
  0
DICTIONARY
  5
C
100
AcDbDictionary
280
0
281
1
  3
ACAD_GROUP
350
D
  3
ACAD_MLINESTYLE
350
17
  3
ACAD_LAYOUT
350
1A
  3
ACAD_PLOTSETTINGS
350
19
  3
ACAD_PLOTSTYLENAME
350
E
  0
DICTIONARY
  5
D
102
{ACAD_REACTORS
330
C
102
}
100
AcDbDictionary
280
0
281
1
  0
ACDBDICTIONARYWDFLT
  5
E
102
{ACAD_REACTORS
330
C
102
}
100
AcDbDictionary
281
1
  3
Normal
350
F
100
AcDbDictionaryWithDefault
340
F
  0
DICTIONARY
  5
17
102
{ACAD_REACTORS
330
C
102
}
100
AcDbDictionary
280
0
281
1
  3
Standard
350
18
  0
DICTIONARY
  5
19
102
{ACAD_REACTORS
330
C
102
}
100
AcDbDictionary
281
1
  0
DICTIONARY
  5
1A
102
{ACAD_REACTORS
330
C
102
}
100
AcDbDictionary
281
1
  3
Model
350
2B9
  3
Layout1
350
2BA
  0
ACDBPLACEHOLDER
  5
F
102
{ACAD_REACTORS
330
E
102
}
  0
MLINESTYLE
  5
18
102
{ACAD_REACTORS
330
17
102
}
100
AcDbMlineStyle
  2
STANDARD
 70
0
  3

 62
256
 51
90.0
 52
90.0
 71
2
 49
0.5
 62
256
  6
BYLAYER
 49
-0.5
 62
256
  6
BYLAYER
  0
LAYOUT
  5
2B9
102
{ACAD_REACTORS
330
1A
102
}
100
AcDbPlotSettings
  1

  2
none_device
  4

  6

 40
0.0
 41
0.0
 42
0.0
 43
0.0
 44
210.0
 45
297.0
 46
0.0
 47
0.0
 48
0.0
 49
0.0
140
0.0
141
0.0
142
1.0
143
1.0
 70
1024
 72
1
 73
0
 74
0
  7

 75
0
147
1.0
148
0.0
149
0.0
100
AcDbLayout
  1
Model
 70
0
 71
0
 10
0.0
 20
0.0
 11
210.0
 21
297.0
 12
0.0
 22
0.0
 32
0.0
 14
0.0
 24
0.0
 34
0.0
 15
0.0
 25
0.0
 35
0.0
146
0.0
 13
0.0
 23
0.0
 33
0.0
 16
1.0
 26
0.0
 36
0.0
 17
0.0
 27
1.0
 37
0.0
 76
0
330
219
345
0
346
0
  0
LAYOUT
  5
2BA
102
{ACAD_REACTORS
330
1A
102
}
100
AcDbPlotSettings
  1

  2
none_device
  4

  6

 40
0.0
 41
0.0
 42
0.0
 43
0.0
 44
210.0
 45
297.0
 46
0.0
 47
0.0
 48
0.0
 49
0.0
140
0.0
141
0.0
142
1.0
143
1.0
 70
0
 72
1
 73
0
 74
0
  7

 75
0
147
1.0
148
0.0
149
0.0
100
AcDbLayout
  1
Layout1
 70
0
 71
1
 10
0.0
 20
0.0
 11
210.0
 21
297.0
 12
0.0
 22
0.0
 32
0.0
 14
0.0
 24
0.0
 34
0.0
 15
0.0
 25
0.0
 35
0.0
146
0.0
 13
0.0
 23
0.0
 33
0.0
 16
1.0
 26
0.0
 36
0.0
 17
0.0
 27
1.0
 37
0.0
 76
0
330
21A
345
0
346
0
  0
ENDSEC
  0
EOF
