999
DXF file: C:\Users\sesa63760\Dev\_Creo\CAD\MCADID0002333_3D-CAD\drw0001_7.dxf
999
Pro/ENGINEER 2019471 by Parametric Technology Corporation
  0
SECTION
  2
HEADER
  9
$ACADVER
  1
AC1024
  9
$DWGCODEPAGE
  3
ANSI_1252
  9
$EXTMAX
 10
91.0125323254
 20
128.7177242888
 30
0.0
  9
$EXTMIN
 10
0.0
 20
0.0
 30
0.0
  9
$LIMMIN
 10
0.0
 20
0.0
  9
$LIMMAX
 10
91.0125323254
 20
128.7177242888
  9
$VIEWCTR
 10
45.5062661627
 20
64.3588621444
  9
$VIEWSIZE
 40
128.7177242888
  9
$CLAYER
  8
0
  9
$LTSCALE
 40
8.3904886944
  9
$CELTYPE
  6
BYLAYER
  9
$DIMSCALE
 40
1.0
  9
$DIMASZ
 40
1.0834825277
  9
$DIMEXO
 40
1.0
  9
$DIMDLI
 40
5.7970649161
  9
$DIMEXE
 40
1.0
  9
$DIMCEN
 40
1.3729890591
  9
$DIMLFAC
 40
1.0
  9
$DIMBLK
  1
_FILLED
  9
$DIMALT
 70
0
  9
$DIMALTF
 40
0.0393700787
  9
$DIMTXT
 40
1.5168755388
  9
$DIMTOL
 70
1
  9
$DIMLIM
 70
0
  9
$DIMTFAC
 40
1.0
  9
$DIMTP
 40
0.01
  9
$DIMTM
 40
0.01
  9
$DIMGAP
 40
0.625
  9
$DIMDSEP
 70
46
  9
$AUNITS
 70
0
  9
$PDMODE
 70
3
  9
$PDSIZE
 40
0.3125
  9
$HANDSEED
  5
36E
  9
$TILEMODE
 70
1
  9
$MEASUREMENT
 70
1
  9
$INSUNITS
 70
4
  0
ENDSEC
  0
SECTION
  2
CLASSES
  0
CLASS
  1
ACDBDICTIONARYWDFLT
  2
AcDbDictionaryWithDefault
  3
AutoCAD 2000
 90
0
 91
1
280
0
281
0
  0
CLASS
  1
ACDBPLACEHOLDER
  2
AcDbPlaceHolder
  3
AutoCAD 2000
 90
0
 91
1
280
0
281
0
  0
CLASS
  1
LAYOUT
  2
AcDbLayout
  3
AutoCAD 2000
 90
0
 91
0
280
0
281
0
  0
ENDSEC
  0
SECTION
  2
TABLES
  0
TABLE
  2
VPORT
  5
8
100
AcDbSymbolTable
 70
2
  0
VPORT
  5
1F4
100
AcDbSymbolTableRecord
100
AcDbViewportTableRecord
  2
*ACTIVE
 70
0
 10
0.0
 20
0.0
 11
1.0
 21
1.0
 12
45.5062661627
 22
64.3588621444
 13
0.0
 23
0.0
 14
1.0
 24
1.0
 15
0.0
 25
0.0
 16
0.0
 26
0.0
 36
1.0
 17
0.0
 27
0.0
 37
0.0
 40
128.7177242888
 41
0.7070707071
 42
50.0
 43
0.0
 44
0.0
 50
0.0
 51
0.0
 71
0
 72
100
 73
1
 74
1
 75
0
 76
0
 77
0
 78
0
  0
ENDTAB
  0
TABLE
  2
LTYPE
  5
5
100
AcDbSymbolTable
 70
6
  0
LTYPE
  5
14
100
AcDbSymbolTableRecord
100
AcDbLinetypeTableRecord
  2
BYBLOCK
 70
0
  3

 72
65
 73
0
 40
0.0
  0
LTYPE
  5
15
100
AcDbSymbolTableRecord
100
AcDbLinetypeTableRecord
  2
BYLAYER
 70
0
  3

 72
65
 73
0
 40
0.0
  0
LTYPE
  5
16
100
AcDbSymbolTableRecord
100
AcDbLinetypeTableRecord
  2
CONTINUOUS
 70
64
  3
Solid line
 72
65
 73
0
 40
0.0
  0
LTYPE
  5
1F5
100
AcDbSymbolTableRecord
100
AcDbLinetypeTableRecord
  2
CENTER
 70
64
  3
____ _ ____ _ ____ _ ____ _ ____ _ ____ _ ____
 72
65
 73
4
 40
0.6
 49
0.375
 74
0
 49
-0.075
 74
0
 49
0.075
 74
0
 49
-0.075
 74
0
  0
LTYPE
  5
1F6
100
AcDbSymbolTableRecord
100
AcDbLinetypeTableRecord
  2
HIDDEN
 70
64
  3
- - - - - - - - - - - - - - - - - - - -
 72
65
 73
2
 40
0.2
 49
0.1
 74
0
 49
-0.1
 74
0
  0
LTYPE
  5
1F7
100
AcDbSymbolTableRecord
100
AcDbLinetypeTableRecord
  2
PHANTOM
 70
64
  3
_____ _ _ _____ _ _ _____ _ _ _____
 72
65
 73
6
 40
0.8
 49
0.45
 74
0
 49
-0.05
 74
0
 49
0.1
 74
0
 49
-0.05
 74
0
 49
0.1
 74
0
 49
-0.05
 74
0
  0
LTYPE
  5
1F8
100
AcDbSymbolTableRecord
100
AcDbLinetypeTableRecord
  2
DOT
 70
64
  3
. . . . . . . . . . . . . . . . . . . .
 72
65
 73
2
 40
0.2
 49
0.1
 74
0
 49
-0.1
 74
0
  0
LTYPE
  5
1F9
100
AcDbSymbolTableRecord
100
AcDbLinetypeTableRecord
  2
DASHED
 70
64
  3
- - - - - - - - - - - - - - - - - - - -
 72
65
 73
2
 40
0.2
 49
0.1
 74
0
 49
-0.1
 74
0
  0
ENDTAB
  0
TABLE
  2
LAYER
  5
2
100
AcDbSymbolTable
 70
36
  0
LAYER
  5
10
100
AcDbSymbolTableRecord
100
AcDbLayerTableRecord
  2
0
 70
0
 62
7
  6
CONTINUOUS
370
-3
390
F
  0
LAYER
  5
1FA
100
AcDbSymbolTableRecord
100
AcDbLayerTableRecord
  2
DEFAULT_1
 70
0
 62
7
  6
CENTER
370
-3
390
F
  0
LAYER
  5
1FB
100
AcDbSymbolTableRecord
100
AcDbLayerTableRecord
  2
DEFAULT_2
 70
0
 62
8
  6
HIDDEN
370
-3
390
F
  0
LAYER
  5
1FC
100
AcDbSymbolTableRecord
100
AcDbLayerTableRecord
  2
DEFAULT_3
 70
0
 62
7
  6
PHANTOM
370
-3
390
F
  0
LAYER
  5
1FD
100
AcDbSymbolTableRecord
100
AcDbLayerTableRecord
  2
00_COMPONENTS
 70
0
 62
7
  6
CONTINUOUS
370
-3
390
F
  0
LAYER
  5
1FE
100
AcDbSymbolTableRecord
100
AcDbLayerTableRecord
  2
01_1_DEFAULT_DATUMS
 70
0
 62
7
  6
CONTINUOUS
370
-3
390
F
  0
LAYER
  5
1FF
100
AcDbSymbolTableRecord
100
AcDbLayerTableRecord
  2
01_PLANES
 70
0
 62
7
  6
CONTINUOUS
370
-3
390
F
  0
LAYER
  5
200
100
AcDbSymbolTableRecord
100
AcDbLayerTableRecord
  2
02_COORD_SYS
 70
0
 62
7
  6
CONTINUOUS
370
-3
390
F
  0
LAYER
  5
201
100
AcDbSymbolTableRecord
100
AcDbLayerTableRecord
  2
03_AXES
 70
0
 62
7
  6
CONTINUOUS
370
-3
390
F
  0
LAYER
  5
202
100
AcDbSymbolTableRecord
100
AcDbLayerTableRecord
  2
04_POINTS
 70
0
 62
7
  6
CONTINUOUS
370
-3
390
F
  0
LAYER
  5
203
100
AcDbSymbolTableRecord
100
AcDbLayerTableRecord
  2
05_CURVES
 70
0
 62
7
  6
CONTINUOUS
370
-3
390
F
  0
LAYER
  5
204
100
AcDbSymbolTableRecord
100
AcDbLayerTableRecord
  2
06_SURFS
 70
0
 62
7
  6
CONTINUOUS
370
-3
390
F
  0
LAYER
  5
205
100
AcDbSymbolTableRecord
100
AcDbLayerTableRecord
  2
07_COSMETICS
 70
0
 62
7
  6
CONTINUOUS
370
-3
390
F
  0
LAYER
  5
206
100
AcDbSymbolTableRecord
100
AcDbLayerTableRecord
  2
10_NOTES
 70
0
 62
7
  6
CONTINUOUS
370
-3
390
F
  0
LAYER
  5
207
100
AcDbSymbolTableRecord
100
AcDbLayerTableRecord
  2
11_NOTES_PUB
 70
0
 62
7
  6
CONTINUOUS
370
-3
390
F
  0
LAYER
  5
208
100
AcDbSymbolTableRecord
100
AcDbLayerTableRecord
  2
13_REF_GTOL
 70
0
 62
7
  6
CONTINUOUS
370
-3
390
F
  0
LAYER
  5
209
100
AcDbSymbolTableRecord
100
AcDbLayerTableRecord
  2
16_MISC
 70
0
 62
7
  6
CONTINUOUS
370
-3
390
F
  0
LAYER
  5
20A
100
AcDbSymbolTableRecord
100
AcDbLayerTableRecord
  2
17_NO_PRINT
 70
0
 62
7
  6
CONTINUOUS
370
-3
390
F
  0
LAYER
  5
20B
100
AcDbSymbolTableRecord
100
AcDbLayerTableRecord
  2
18_DATUM_CAMS_JOINTS
 70
0
 62
7
  6
CONTINUOUS
370
-3
390
F
  0
LAYER
  5
20C
100
AcDbSymbolTableRecord
100
AcDbLayerTableRecord
  2
19_DATUM_FUNCTIONAL
 70
0
 62
7
  6
CONTINUOUS
370
-3
390
F
  0
LAYER
  5
20D
100
AcDbSymbolTableRecord
100
AcDbLayerTableRecord
  2
20_DATUM_KINEMATIC_SCHEME
 70
0
 62
7
  6
CONTINUOUS
370
-3
390
F
  0
ENDTAB
  0
TABLE
  2
STYLE
  5
3
100
AcDbSymbolTable
 70
1
  0
STYLE
  5
11
100
AcDbSymbolTableRecord
100
AcDbTextStyleTableRecord
  2
STANDARD
 70
0
 40
0.0
 41
0.8
 50
0.0
 71
0
 42
0.2
  3
txt
  4

  0
STYLE
  5
20E
100
AcDbSymbolTableRecord
100
AcDbTextStyleTableRecord
  2
TEXTSTYLE_1
 70
0
 40
0.0
 41
0.8
 50
0.0
 71
0
 42
0.2
  3
gdt
  4

  0
ENDTAB
  0
TABLE
  2
VIEW
  5
6
100
AcDbSymbolTable
 70
0
  0
ENDTAB
  0
TABLE
  2
UCS
  5
7
100
AcDbSymbolTable
 70
0
  0
ENDTAB
  0
TABLE
  2
APPID
  5
9
100
AcDbSymbolTable
 70
1
  0
APPID
  5
20F
100
AcDbSymbolTableRecord
100
AcDbRegAppTableRecord
  2
ACAD
 70
0
  0
ENDTAB
  0
TABLE
  2
BLOCK_RECORD
  5
1
100
AcDbSymbolTable
 70
0
  0
BLOCK_RECORD
  5
210
100
AcDbSymbolTableRecord
100
AcDbBlockTableRecord
  2
*Model_Space
  0
BLOCK_RECORD
  5
211
100
AcDbSymbolTableRecord
100
AcDbBlockTableRecord
  2
*Paper_Space
  0
BLOCK_RECORD
  5
212
100
AcDbSymbolTableRecord
100
AcDbBlockTableRecord
  2
_FILLED
  0
ENDTAB
  0
TABLE
  2
DIMSTYLE
  5
A
100
AcDbSymbolTable
 70
1
100
AcDbDimStyleTable
 71
0
  0
DIMSTYLE
105
213
100
AcDbSymbolTableRecord
100
AcDbDimStyleTableRecord
  2
STANDARD
 70
0
  3

  4

 40
1.0
 41
1.0834825277
 42
1.0
 43
0.38
 44
1.0
 45
0.0
 46
0.0
 47
0.01
 48
0.01
140
1.5168755388
141
0.09
142
0.0
143
25.4
144
1.0
145
0.0
146
1.0
147
0.625
 71
1
 72
0
 73
0
 74
0
 75
0
 76
0
 77
1
 78
8
 79
2
170
0
171
1
172
0
173
0
174
0
175
0
176
0
177
0
178
0
270
2
179
2
271
2
272
2
273
2
274
2
275
0
280
0
281
0
282
0
283
1
284
8
285
0
286
0
287
3
288
0
340
11
278
46
341
212
342
212
343
212
344
212
  0
ENDTAB
  0
ENDSEC
  0
SECTION
  2
BLOCKS
  0
BLOCK
  5
20
100
AcDbEntity
  8
0
100
AcDbBlockBegin
  2
*Model_Space
 70
0
 10
0.0
 20
0.0
 30
0.0
  3
*Model_Space
  1

  0
ENDBLK
  5
21
100
AcDbEntity
  8
0
100
AcDbBlockEnd
  0
BLOCK
  5
1C
100
AcDbEntity
  8
0
100
AcDbBlockBegin
  2
*Paper_Space
 70
0
 10
0.0
 20
0.0
 30
0.0
  3
*Paper_Space
  1

  0
ENDBLK
  5
1D
100
AcDbEntity
  8
0
100
AcDbBlockEnd
  0
BLOCK
  5
214
100
AcDbEntity
  8
0
100
AcDbBlockBegin
  2
_FILLED
 70
64
 10
0.0
 20
0.0
  3
_FILLED
  1

  0
SOLID
  5
215
100
AcDbEntity
  8
0
  6
BYBLOCK
 62
0
100
AcDbTrace
 10
0.0
 20
0.0
 11
-1.0
 21
0.25
 12
-1.0
 22
-0.25
 13
-1.0
 23
-0.25
  0
ENDBLK
  5
216
100
AcDbEntity
  8
0
  6
BYBLOCK
 62
0
100
AcDbBlockEnd
  0
ENDSEC
  0
SECTION
  2
ENTITIES
  0
LINE
  5
217
100
AcDbEntity
  8
0
100
AcDbLine
 62
7
  6
CONTINUOUS
 10
20.6638153969
 20
104.5739574631
 11
22.1638153969
 21
106.0739574631
  0
LINE
  5
218
100
AcDbEntity
  8
0
100
AcDbLine
 62
7
  6
CONTINUOUS
 10
75.1638153969
 20
25.9670898685
 11
74.6638153969
 21
25.8929806695
  0
LINE
  5
219
100
AcDbEntity
  8
0
100
AcDbLine
 62
7
  6
CONTINUOUS
 10
80.3931383662
 20
25.4136551366
 11
80.3309935897
 21
25.4125703955
  0
LINE
  5
21A
100
AcDbEntity
  8
0
100
AcDbLine
 62
7
  6
CONTINUOUS
 10
10.9344924275
 20
25.4136551366
 11
10.9966372041
 21
25.4125703955
  0
LINE
  5
21B
100
AcDbEntity
  8
0
100
AcDbLine
 62
7
  6
CONTINUOUS
 10
16.6638153969
 20
25.8929806695
 11
16.1638153969
 21
25.9670898685
  0
LINE
  5
21C
100
AcDbEntity
  8
0
100
AcDbLine
 62
7
  6
CONTINUOUS
 10
9.6638153969
 20
33.1739574631
 11
9.7728129044
 21
26.9294944406
  0
LINE
  5
21D
100
AcDbEntity
  8
0
100
AcDbLine
 62
7
  6
CONTINUOUS
 10
9.7895153969
 20
25.9739574631
 11
9.81185631
 21
24.6940474039
  0
LINE
  5
21E
100
AcDbEntity
  8
0
100
AcDbLine
 62
7
  6
CONTINUOUS
 10
10.6643546078
 20
106.0739574631
 11
10.1638153969
 21
100.5739574631
  0
LINE
  5
21F
100
AcDbEntity
  8
0
100
AcDbLine
 62
7
  6
CONTINUOUS
 10
10.9133026695
 20
24.1996947141
 11
10.3293544396
 21
24.1708980461
  0
LINE
  5
220
100
AcDbEntity
  8
0
100
AcDbLine
 62
7
  6
CONTINUOUS
 10
9.759818254
 20
27.6739574631
 11
81.5678125398
 21
27.6739574631
  0
LINE
  5
221
100
AcDbEntity
  8
0
100
AcDbLine
 62
7
  6
CONTINUOUS
 10
80.4143281242
 20
24.1996947141
 11
80.9982763542
 21
24.1708980461
  0
LINE
  5
222
100
AcDbEntity
  8
0
100
AcDbLine
 62
7
  6
CONTINUOUS
 10
9.7138153969
 20
34.1739574631
 11
9.7138153969
 21
33.1739574631
  0
LINE
  5
223
100
AcDbEntity
  8
0
100
AcDbLine
 62
7
  6
CONTINUOUS
 10
9.8113835876
 20
24.6722746735
 11
9.8113835876
 21
26.744542344
  0
LINE
  5
224
100
AcDbEntity
  8
0
100
AcDbLine
 62
7
  6
CONTINUOUS
 10
10.0638153969
 20
98.5739574631
 11
10.0638153978
 21
34.1739574631
  0
LINE
  5
225
100
AcDbEntity
  8
0
100
AcDbLine
 62
7
  6
CONTINUOUS
 10
10.3293544396
 20
26.4243796959
 11
10.3293544396
 21
24.1708980461
  0
LINE
  5
226
100
AcDbEntity
  8
0
100
AcDbLine
 62
7
  6
CONTINUOUS
 10
10.9133026695
 20
26.3196857542
 11
10.9133026695
 21
24.1996947141
  0
LINE
  5
227
100
AcDbEntity
  8
0
100
AcDbLine
 62
7
  6
CONTINUOUS
 10
10.9344924275
 20
26.3159053375
 11
10.9344924275
 21
25.4136551366
  0
LINE
  5
228
100
AcDbEntity
  8
0
100
AcDbLine
 62
7
  6
CONTINUOUS
 10
10.9978740751
 20
26.3047003778
 11
10.9966372041
 21
25.4125703955
  0
LINE
  5
229
100
AcDbEntity
  8
0
100
AcDbLine
 62
7
  6
CONTINUOUS
 10
11.1931467228
 20
26.2702014424
 11
11.1931467228
 21
24.2199536395
  0
LINE
  5
22A
100
AcDbEntity
  8
0
100
AcDbLine
 62
7
  6
CONTINUOUS
 10
11.6638153959
 20
96.8739574631
 11
11.6638153959
 21
34.1739574631
  0
LINE
  5
22B
100
AcDbEntity
  8
0
100
AcDbLine
 62
7
  6
CONTINUOUS
 10
11.9225422646
 20
98.4739574631
 11
11.9225422646
 21
96.8739574631
  0
LINE
  5
22C
100
AcDbEntity
  8
0
100
AcDbLine
 62
7
  6
CONTINUOUS
 10
12.4225159123
 20
39.123957457
 11
12.4225159123
 21
34.1739574631
  0
LINE
  5
22D
100
AcDbEntity
  8
0
100
AcDbLine
 62
7
  6
CONTINUOUS
 10
12.4268105077
 20
85.1739579051
 11
12.4268105077
 21
69.8739574631
  0
LINE
  5
22E
100
AcDbEntity
  8
0
100
AcDbLine
 62
7
  6
CONTINUOUS
 10
12.6638153969
 20
53.1739574631
 11
12.6638153969
 21
38.1739574631
  0
LINE
  5
22F
100
AcDbEntity
  8
0
100
AcDbLine
 62
7
  6
CONTINUOUS
 10
12.4777837802
 20
93.8959280323
 11
11.9225422665
 21
34.1739574631
  0
LINE
  5
230
100
AcDbEntity
  8
0
100
AcDbLine
 62
7
  6
CONTINUOUS
 10
9.7895153969
 20
25.9739574631
 11
9.8033227424
 21
26.7649797611
  0
LINE
  5
231
100
AcDbEntity
  8
0
100
AcDbLine
 62
7
  6
CONTINUOUS
 10
10.9344924275
 20
25.4136551366
 11
10.9133026695
 21
24.1996947141
  0
LINE
  5
232
100
AcDbEntity
  8
0
100
AcDbLine
 62
7
  6
CONTINUOUS
 10
13.6638153969
 20
100.0739574631
 11
13.6638153969
 21
100.5739574631
  0
LINE
  5
233
100
AcDbEntity
  8
0
100
AcDbLine
 62
7
  6
CONTINUOUS
 10
13.9410432251
 20
25.8066659026
 11
13.9410432251
 21
24.6906695306
  0
LINE
  5
234
100
AcDbEntity
  8
0
100
AcDbLine
 62
7
  6
CONTINUOUS
 10
14.4079847178
 20
98.4739574631
 11
14.4079847178
 21
98.5739574631
  0
LINE
  5
235
100
AcDbEntity
  8
0
100
AcDbLine
 62
7
  6
CONTINUOUS
 10
15.0638153969
 20
100.0739599943
 11
15.0638153969
 21
98.4739574631
  0
LINE
  5
236
100
AcDbEntity
  8
0
100
AcDbLine
 62
7
  6
CONTINUOUS
 10
15.6638153969
 20
94.8728605645
 11
15.6638153969
 21
96.8739574631
  0
LINE
  5
237
100
AcDbEntity
  8
0
100
AcDbLine
 62
7
  6
CONTINUOUS
 10
16.1638153969
 20
25.9670898685
 11
16.1638153969
 21
25.4615463257
  0
LINE
  5
238
100
AcDbEntity
  8
0
100
AcDbLine
 62
7
  6
CONTINUOUS
 10
16.6638153969
 20
85.1739579051
 11
16.6638153969
 21
69.8739574631
  0
LINE
  5
239
100
AcDbEntity
  8
0
100
AcDbLine
 62
7
  6
CONTINUOUS
 10
16.6638153969
 20
25.8929806695
 11
16.6638153969
 21
25.3876264546
  0
LINE
  5
23A
100
AcDbEntity
  8
0
100
AcDbLine
 62
7
  6
CONTINUOUS
 10
81.6638153969
 20
33.1739574631
 11
9.6638153969
 21
33.1739574631
  0
LINE
  5
23B
100
AcDbEntity
  8
0
100
AcDbLine
 62
7
  6
CONTINUOUS
 10
81.6138153969
 20
34.1739574631
 11
79.4050885272
 21
34.1739574631
  0
LINE
  5
23C
100
AcDbEntity
  8
0
100
AcDbLine
 62
7
  6
CONTINUOUS
 10
78.9051154511
 20
34.1739574631
 11
9.7138153969
 21
34.1739574631
  0
LINE
  5
23D
100
AcDbEntity
  8
0
100
AcDbLine
 62
7
  6
CONTINUOUS
 10
78.9051154511
 20
34.1739574631
 11
79.4050885272
 21
34.1739574631
  0
LINE
  5
23E
100
AcDbEntity
  8
0
100
AcDbLine
 62
7
  6
CONTINUOUS
 10
19.6638153969
 20
94.8708834
 11
19.6638153969
 21
96.8739574631
  0
LINE
  5
23F
100
AcDbEntity
  8
0
100
AcDbLine
 62
7
  6
CONTINUOUS
 10
20.0447283884
 20
85.1739579051
 11
20.0447174063
 21
69.8739574631
  0
LINE
  5
240
100
AcDbEntity
  8
0
100
AcDbLine
 62
7
  6
CONTINUOUS
 10
20.53607702
 20
74.3283207489
 11
20.53607702
 21
69.8739574631
  0
LINE
  5
241
100
AcDbEntity
  8
0
100
AcDbLine
 62
7
  6
CONTINUOUS
 10
12.6638153969
 20
38.1739574631
 11
11.959730692
 21
38.1739574631
  0
LINE
  5
242
100
AcDbEntity
  8
0
100
AcDbLine
 62
7
  6
CONTINUOUS
 10
78.6638153969
 20
38.1739574631
 11
79.3701810579
 21
38.1739574631
  0
LINE
  5
243
100
AcDbEntity
  8
0
100
AcDbLine
 62
7
  6
CONTINUOUS
 10
12.4225232262
 20
39.1239574631
 11
78.9051075657
 21
39.1239574631
  0
LINE
  5
244
100
AcDbEntity
  8
0
100
AcDbLine
 62
7
  6
CONTINUOUS
 10
21.5013309769
 20
84.6826841083
 11
21.6149228403
 21
78.1739574666
  0
LINE
  5
245
100
AcDbEntity
  8
0
100
AcDbLine
 62
7
  6
CONTINUOUS
 10
21.0014071293
 20
86.6363845196
 11
21.0014071293
 21
85.1739579051
  0
LINE
  5
246
100
AcDbEntity
  8
0
100
AcDbLine
 62
7
  6
CONTINUOUS
 10
21.6638153969
 20
100.0739574631
 11
21.6638153969
 21
100.5739574631
  0
LINE
  5
247
100
AcDbEntity
  8
0
100
AcDbLine
 62
7
  6
CONTINUOUS
 10
22.2338153969
 20
81.1739574631
 11
22.2338153969
 21
80.1739574631
  0
LINE
  5
248
100
AcDbEntity
  8
0
100
AcDbLine
 62
7
  6
CONTINUOUS
 10
22.9138153969
 20
81.1739574631
 11
22.9138153969
 21
81.7708206981
  0
LINE
  5
249
100
AcDbEntity
  8
0
100
AcDbLine
 62
7
  6
CONTINUOUS
 10
24.1436738393
 20
82.9273989472
 11
24.1436738393
 21
81.6739574631
  0
LINE
  5
24A
100
AcDbEntity
  8
0
100
AcDbLine
 62
7
  6
CONTINUOUS
 10
24.1638153969
 20
78.1739576317
 11
24.1638153969
 21
80.1739574631
  0
LINE
  5
24B
100
AcDbEntity
  8
0
100
AcDbLine
 62
7
  6
CONTINUOUS
 10
24.9888153969
 20
83.0922767294
 11
24.9888153969
 21
81.6739574631
  0
LINE
  5
24C
100
AcDbEntity
  8
0
100
AcDbLine
 62
7
  6
CONTINUOUS
 10
25.2888153969
 20
83.092349023
 11
25.2888153969
 21
81.6739574631
  0
LINE
  5
24D
100
AcDbEntity
  8
0
100
AcDbLine
 62
7
  6
CONTINUOUS
 10
26.0388153969
 20
83.092349023
 11
26.0388153969
 21
81.6739574631
  0
LINE
  5
24E
100
AcDbEntity
  8
0
100
AcDbLine
 62
7
  6
CONTINUOUS
 10
26.3388153969
 20
83.0922767294
 11
26.3388153969
 21
81.6739574631
  0
LINE
  5
24F
100
AcDbEntity
  8
0
100
AcDbLine
 62
7
  6
CONTINUOUS
 10
27.1638153969
 20
78.1739577671
 11
27.1638153969
 21
80.1739574631
  0
LINE
  5
250
100
AcDbEntity
  8
0
100
AcDbLine
 62
7
  6
CONTINUOUS
 10
27.1839569544
 20
82.9273989472
 11
27.1839569544
 21
81.6739574631
  0
LINE
  5
251
100
AcDbEntity
  8
0
100
AcDbLine
 62
7
  6
CONTINUOUS
 10
24.6632761859
 20
106.0739574631
 11
25.1638153969
 21
100.5739574631
  0
LINE
  5
252
100
AcDbEntity
  8
0
100
AcDbLine
 62
7
  6
CONTINUOUS
 10
29.6275253944
 20
83.0587412656
 11
29.5990793507
 21
84.6826841086
  0
LINE
  5
253
100
AcDbEntity
  8
0
100
AcDbLine
 62
7
  6
CONTINUOUS
 10
28.4138153969
 20
81.1739574631
 11
28.4138153969
 21
81.7708206981
  0
LINE
  5
254
100
AcDbEntity
  8
0
100
AcDbLine
 62
7
  6
CONTINUOUS
 10
29.0938153969
 20
81.1739574631
 11
29.0938153969
 21
80.1739574631
  0
LINE
  5
255
100
AcDbEntity
  8
0
100
AcDbLine
 62
7
  6
CONTINUOUS
 10
29.0991555031
 20
86.4044814049
 11
29.0991555031
 21
85.1739579051
  0
LINE
  5
256
100
AcDbEntity
  8
0
100
AcDbLine
 62
7
  6
CONTINUOUS
 10
30.3262236681
 20
86.1739579051
 11
30.3262236681
 21
85.1739579051
  0
LINE
  5
257
100
AcDbEntity
  8
0
100
AcDbLine
 62
7
  6
CONTINUOUS
 10
31.0014071293
 20
86.1739579051
 11
31.0014071293
 21
85.1739579051
  0
LINE
  5
258
100
AcDbEntity
  8
0
100
AcDbLine
 62
7
  6
CONTINUOUS
 10
29.7126895823
 20
78.1739579051
 11
29.8262998206
 21
84.6826841083
  0
LINE
  5
259
100
AcDbEntity
  8
0
100
AcDbLine
 62
7
  6
CONTINUOUS
 10
31.5013309769
 20
84.6826841083
 11
31.6149412151
 21
78.1739579051
  0
LINE
  5
25A
100
AcDbEntity
  8
0
100
AcDbLine
 62
7
  6
CONTINUOUS
 10
31.6060211167
 20
78.1656889436
 11
31.5382522042
 21
82.5674674688
  0
LINE
  5
25B
100
AcDbEntity
  8
0
100
AcDbLine
 62
7
  6
CONTINUOUS
 10
32.2338153969
 20
81.1739574631
 11
32.2338153969
 21
80.1739574631
  0
LINE
  5
25C
100
AcDbEntity
  8
0
100
AcDbLine
 62
7
  6
CONTINUOUS
 10
32.9138153969
 20
81.1739574631
 11
32.9138153969
 21
81.7708206981
  0
LINE
  5
25D
100
AcDbEntity
  8
0
100
AcDbLine
 62
7
  6
CONTINUOUS
 10
34.1436738393
 20
82.9273989472
 11
34.1436738393
 21
81.6739574631
  0
LINE
  5
25E
100
AcDbEntity
  8
0
100
AcDbLine
 62
7
  6
CONTINUOUS
 10
34.1638153969
 20
78.1656889436
 11
34.1638153969
 21
80.1739574631
  0
LINE
  5
25F
100
AcDbEntity
  8
0
100
AcDbLine
 62
7
  6
CONTINUOUS
 10
34.9888153969
 20
83.0922767294
 11
34.9888153969
 21
81.6739574631
  0
LINE
  5
260
100
AcDbEntity
  8
0
100
AcDbLine
 62
7
  6
CONTINUOUS
 10
79.2363904002
 20
53.5048483309
 11
78.5739049999
 21
53.4983112449
  0
LINE
  5
261
100
AcDbEntity
  8
0
100
AcDbLine
 62
7
  6
CONTINUOUS
 10
12.6638153969
 20
53.1739574631
 11
12.0991872877
 21
53.1739574631
  0
LINE
  5
262
100
AcDbEntity
  8
0
100
AcDbLine
 62
7
  6
CONTINUOUS
 10
78.6638153969
 20
53.1739574631
 11
79.239278041
 21
53.1739574631
  0
LINE
  5
263
100
AcDbEntity
  8
0
100
AcDbLine
 62
7
  6
CONTINUOUS
 10
35.2888153969
 20
83.092349023
 11
35.2888153969
 21
81.6739574631
  0
LINE
  5
264
100
AcDbEntity
  8
0
100
AcDbLine
 62
7
  6
CONTINUOUS
 10
36.0388153969
 20
83.092349023
 11
36.0388153969
 21
81.6739574631
  0
LINE
  5
265
100
AcDbEntity
  8
0
100
AcDbLine
 62
7
  6
CONTINUOUS
 10
36.3388153969
 20
83.0922767294
 11
36.3388153969
 21
81.6739574631
  0
LINE
  5
266
100
AcDbEntity
  8
0
100
AcDbLine
 62
7
  6
CONTINUOUS
 10
37.1638153969
 20
78.1656889436
 11
37.1638153969
 21
80.1739574631
  0
LINE
  5
267
100
AcDbEntity
  8
0
100
AcDbLine
 62
7
  6
CONTINUOUS
 10
37.1839569544
 20
82.9273989472
 11
37.1839569544
 21
81.6739574631
  0
LINE
  5
268
100
AcDbEntity
  8
0
100
AcDbLine
 62
7
  6
CONTINUOUS
 10
38.4138153969
 20
81.1739574631
 11
38.4138153969
 21
81.7708206981
  0
LINE
  5
269
100
AcDbEntity
  8
0
100
AcDbLine
 62
7
  6
CONTINUOUS
 10
41.5027388342
 20
84.6020280136
 11
41.6149228403
 21
78.1739574666
  0
LINE
  5
26A
100
AcDbEntity
  8
0
100
AcDbLine
 62
7
  6
CONTINUOUS
 10
39.0938153969
 20
81.1739574631
 11
39.0938153969
 21
80.1739574631
  0
LINE
  5
26B
100
AcDbEntity
  8
0
100
AcDbLine
 62
7
  6
CONTINUOUS
 10
40.3262236681
 20
86.1739579051
 11
40.3262236681
 21
85.1739579051
  0
LINE
  5
26C
100
AcDbEntity
  8
0
100
AcDbLine
 62
7
  6
CONTINUOUS
 10
41.0014071293
 20
86.1739579051
 11
41.0014071293
 21
85.1739579051
  0
LINE
  5
26D
100
AcDbEntity
  8
0
100
AcDbLine
 62
7
  6
CONTINUOUS
 10
42.2338153969
 20
81.1739574631
 11
42.2338153969
 21
80.1739574631
  0
LINE
  5
26E
100
AcDbEntity
  8
0
100
AcDbLine
 62
7
  6
CONTINUOUS
 10
39.8088447704
 20
83.6826841083
 11
39.7216096791
 21
78.1656889436
  0
LINE
  5
26F
100
AcDbEntity
  8
0
100
AcDbLine
 62
7
  6
CONTINUOUS
 10
39.7126895823
 20
78.1739579051
 11
39.8262998206
 21
84.6826841083
  0
LINE
  5
270
100
AcDbEntity
  8
0
100
AcDbLine
 62
7
  6
CONTINUOUS
 10
76.6638153969
 20
104.5739574631
 11
78.1638153969
 21
106.0739574631
  0
LINE
  5
271
100
AcDbEntity
  8
0
100
AcDbLine
 62
7
  6
CONTINUOUS
 10
42.9138153969
 20
81.1739574631
 11
42.9138153969
 21
81.7708206981
  0
LINE
  5
272
100
AcDbEntity
  8
0
100
AcDbLine
 62
7
  6
CONTINUOUS
 10
44.1436738393
 20
82.9273989472
 11
44.1436738393
 21
81.6739574631
  0
LINE
  5
273
100
AcDbEntity
  8
0
100
AcDbLine
 62
7
  6
CONTINUOUS
 10
44.1638153969
 20
78.1739576317
 11
44.1638153969
 21
80.1739574631
  0
LINE
  5
274
100
AcDbEntity
  8
0
100
AcDbLine
 62
7
  6
CONTINUOUS
 10
44.9888153969
 20
83.0922767294
 11
44.9888153969
 21
81.6739574631
  0
LINE
  5
275
100
AcDbEntity
  8
0
100
AcDbLine
 62
7
  6
CONTINUOUS
 10
45.2888153969
 20
83.092349023
 11
45.2888153969
 21
81.6739574631
  0
LINE
  5
276
100
AcDbEntity
  8
0
100
AcDbLine
 62
7
  6
CONTINUOUS
 10
46.0388153969
 20
83.092349023
 11
46.0388153969
 21
81.6739574631
  0
LINE
  5
277
100
AcDbEntity
  8
0
100
AcDbLine
 62
7
  6
CONTINUOUS
 10
46.3388153969
 20
83.0922767294
 11
46.3388153969
 21
81.6739574631
  0
LINE
  5
278
100
AcDbEntity
  8
0
100
AcDbLine
 62
7
  6
CONTINUOUS
 10
47.1638153969
 20
78.1739577671
 11
47.1638153969
 21
80.1739574631
  0
LINE
  5
279
100
AcDbEntity
  8
0
100
AcDbLine
 62
7
  6
CONTINUOUS
 10
47.1839569544
 20
82.9273989472
 11
47.1839569544
 21
81.6739574631
  0
LINE
  5
27A
100
AcDbEntity
  8
0
100
AcDbLine
 62
7
  6
CONTINUOUS
 10
48.4138153969
 20
81.1739574631
 11
48.4138153969
 21
81.7708206981
  0
LINE
  5
27B
100
AcDbEntity
  8
0
100
AcDbLine
 62
7
  6
CONTINUOUS
 10
49.0938153969
 20
81.1739574631
 11
49.0938153969
 21
80.1739574631
  0
LINE
  5
27C
100
AcDbEntity
  8
0
100
AcDbLine
 62
7
  6
CONTINUOUS
 10
49.7126895823
 20
78.1739579051
 11
49.8262998206
 21
84.6826841083
  0
LINE
  5
27D
100
AcDbEntity
  8
0
100
AcDbLine
 62
7
  6
CONTINUOUS
 10
51.5013309769
 20
84.6826841083
 11
51.6149412151
 21
78.1739579051
  0
LINE
  5
27E
100
AcDbEntity
  8
0
100
AcDbLine
 62
7
  6
CONTINUOUS
 10
50.3262236681
 20
86.1739579051
 11
50.3262236681
 21
85.1739579051
  0
LINE
  5
27F
100
AcDbEntity
  8
0
100
AcDbLine
 62
7
  6
CONTINUOUS
 10
51.0014071293
 20
86.1739579051
 11
51.0014071293
 21
85.1739579051
  0
LINE
  5
280
100
AcDbEntity
  8
0
100
AcDbLine
 62
7
  6
CONTINUOUS
 10
52.2338153969
 20
81.1739574631
 11
52.2338153969
 21
80.1739574631
  0
LINE
  5
281
100
AcDbEntity
  8
0
100
AcDbLine
 62
7
  6
CONTINUOUS
 10
52.9138153969
 20
81.1739574631
 11
52.9138153969
 21
81.7708206981
  0
LINE
  5
282
100
AcDbEntity
  8
0
100
AcDbLine
 62
7
  6
CONTINUOUS
 10
79.0935393489
 20
69.8739574631
 11
70.7915537737
 21
69.8739574631
  0
LINE
  5
283
100
AcDbEntity
  8
0
100
AcDbLine
 62
7
  6
CONTINUOUS
 10
20.53607702
 20
69.8739574631
 11
12.2544489643
 21
69.8739574631
  0
LINE
  5
284
100
AcDbEntity
  8
0
100
AcDbLine
 62
7
  6
CONTINUOUS
 10
14.6638153969
 20
104.5739574631
 11
13.1638153969
 21
106.0739574631
  0
LINE
  5
285
100
AcDbEntity
  8
0
100
AcDbLine
 62
7
  6
CONTINUOUS
 10
54.1436738393
 20
82.9273989472
 11
54.1436738393
 21
81.6739574631
  0
LINE
  5
286
100
AcDbEntity
  8
0
100
AcDbLine
 62
7
  6
CONTINUOUS
 10
54.1638153969
 20
78.1739577671
 11
54.1638153969
 21
80.1739574631
  0
LINE
  5
287
100
AcDbEntity
  8
0
100
AcDbLine
 62
7
  6
CONTINUOUS
 10
54.9888153969
 20
83.0922767294
 11
54.9888153969
 21
81.6739574631
  0
LINE
  5
288
100
AcDbEntity
  8
0
100
AcDbLine
 62
7
  6
CONTINUOUS
 10
55.2888153969
 20
83.092349023
 11
55.2888153969
 21
81.6739574631
  0
LINE
  5
289
100
AcDbEntity
  8
0
100
AcDbLine
 62
7
  6
CONTINUOUS
 10
56.0388153969
 20
83.092349023
 11
56.0388153969
 21
81.6739574631
  0
LINE
  5
28A
100
AcDbEntity
  8
0
100
AcDbLine
 62
7
  6
CONTINUOUS
 10
56.3388153969
 20
83.0922767294
 11
56.3388153969
 21
81.6739574631
  0
LINE
  5
28B
100
AcDbEntity
  8
0
100
AcDbLine
 62
7
  6
CONTINUOUS
 10
57.1638153969
 20
78.1739576332
 11
57.1638153969
 21
80.1739574631
  0
LINE
  5
28C
100
AcDbEntity
  8
0
100
AcDbLine
 62
7
  6
CONTINUOUS
 10
57.1839569544
 20
82.9273989472
 11
57.1839569544
 21
81.6739574631
  0
LINE
  5
28D
100
AcDbEntity
  8
0
100
AcDbLine
 62
7
  6
CONTINUOUS
 10
58.4138153969
 20
81.1739574631
 11
58.4138153969
 21
81.7708206981
  0
LINE
  5
28E
100
AcDbEntity
  8
0
100
AcDbLine
 62
7
  6
CONTINUOUS
 10
59.0938153969
 20
81.1739574631
 11
59.0938153969
 21
80.1739574631
  0
LINE
  5
28F
100
AcDbEntity
  8
0
100
AcDbLine
 62
7
  6
CONTINUOUS
 10
60.3262236681
 20
86.1739579051
 11
60.3262236681
 21
85.1739579051
  0
LINE
  5
290
100
AcDbEntity
  8
0
100
AcDbLine
 62
7
  6
CONTINUOUS
 10
59.7126895896
 20
78.1739574843
 11
59.8262998206
 21
84.6826841083
  0
LINE
  5
291
100
AcDbEntity
  8
0
100
AcDbLine
 62
7
  6
CONTINUOUS
 10
39.7216096791
 20
78.1656889436
 11
31.6060211167
 21
78.1656889436
  0
LINE
  5
292
100
AcDbEntity
  8
0
100
AcDbLine
 62
7
  6
CONTINUOUS
 10
59.7126895896
 20
78.1739574843
 11
51.6149228239
 21
78.1739574666
  0
LINE
  5
293
100
AcDbEntity
  8
0
100
AcDbLine
 62
7
  6
CONTINUOUS
 10
49.7127079698
 20
78.1739574666
 11
41.6149228219
 21
78.1739574666
  0
LINE
  5
294
100
AcDbEntity
  8
0
100
AcDbLine
 62
7
  6
CONTINUOUS
 10
39.7126895823
 20
78.1739579051
 11
31.6149412151
 21
78.1739579051
  0
LINE
  5
295
100
AcDbEntity
  8
0
100
AcDbLine
 62
7
  6
CONTINUOUS
 10
29.7126895823
 20
78.1739579051
 11
21.6149228403
 21
78.1739574666
  0
LINE
  5
296
100
AcDbEntity
  8
0
100
AcDbLine
 62
7
  6
CONTINUOUS
 10
69.7216096644
 20
78.1656889436
 11
61.6149412151
 21
78.1739579051
  0
LINE
  5
297
100
AcDbEntity
  8
0
100
AcDbLine
 62
7
  6
CONTINUOUS
 10
61.5014753045
 20
84.6744155852
 11
61.6149412151
 21
78.1739579051
  0
LINE
  5
298
100
AcDbEntity
  8
0
100
AcDbLine
 62
7
  6
CONTINUOUS
 10
61.0014071293
 20
86.1739579051
 11
61.0014071293
 21
85.1739579051
  0
LINE
  5
299
100
AcDbEntity
  8
0
100
AcDbLine
 62
7
  6
CONTINUOUS
 10
62.228475294
 20
86.4044814049
 11
62.228475294
 21
85.1739579051
  0
LINE
  5
29A
100
AcDbEntity
  8
0
100
AcDbLine
 62
7
  6
CONTINUOUS
 10
62.2338153969
 20
81.1739574631
 11
62.2338153969
 21
80.1739574631
  0
LINE
  5
29B
100
AcDbEntity
  8
0
100
AcDbLine
 62
7
  6
CONTINUOUS
 10
62.9138153969
 20
81.1739574631
 11
62.9138153969
 21
81.7708206981
  0
LINE
  5
29C
100
AcDbEntity
  8
0
100
AcDbLine
 62
7
  6
CONTINUOUS
 10
64.1436738393
 20
82.9273989472
 11
64.1436738393
 21
81.6739574631
  0
LINE
  5
29D
100
AcDbEntity
  8
0
100
AcDbLine
 62
7
  6
CONTINUOUS
 10
64.1638153969
 20
78.1713580032
 11
64.1638153969
 21
80.1739574631
  0
LINE
  5
29E
100
AcDbEntity
  8
0
100
AcDbLine
 62
7
  6
CONTINUOUS
 10
61.7279448056
 20
84.6479296852
 11
61.700105403
 21
83.0587412656
  0
LINE
  5
29F
100
AcDbEntity
  8
0
100
AcDbLine
 62
7
  6
CONTINUOUS
 10
66.6643546078
 20
106.0739574631
 11
66.1638153969
 21
100.5739574631
  0
LINE
  5
2A0
100
AcDbEntity
  8
0
100
AcDbLine
 62
7
  6
CONTINUOUS
 10
22.2338153969
 20
80.1739574631
 11
29.0938153969
 21
80.1739574631
  0
LINE
  5
2A1
100
AcDbEntity
  8
0
100
AcDbLine
 62
7
  6
CONTINUOUS
 10
32.2338153969
 20
80.1739574631
 11
39.0938153969
 21
80.1739574631
  0
LINE
  5
2A2
100
AcDbEntity
  8
0
100
AcDbLine
 62
7
  6
CONTINUOUS
 10
42.2338153969
 20
80.1739574631
 11
49.0938153969
 21
80.1739574631
  0
LINE
  5
2A3
100
AcDbEntity
  8
0
100
AcDbLine
 62
7
  6
CONTINUOUS
 10
52.2338153969
 20
80.1739574631
 11
59.0938153969
 21
80.1739574631
  0
LINE
  5
2A4
100
AcDbEntity
  8
0
100
AcDbLine
 62
7
  6
CONTINUOUS
 10
62.2338153969
 20
80.1739574631
 11
69.0938153969
 21
80.1739574631
  0
LINE
  5
2A5
100
AcDbEntity
  8
0
100
AcDbLine
 62
7
  6
CONTINUOUS
 10
22.2338153969
 20
81.1739574631
 11
29.0938153969
 21
81.1739574631
  0
LINE
  5
2A6
100
AcDbEntity
  8
0
100
AcDbLine
 62
7
  6
CONTINUOUS
 10
32.2338153969
 20
81.1739574631
 11
39.0938153969
 21
81.1739574631
  0
LINE
  5
2A7
100
AcDbEntity
  8
0
100
AcDbLine
 62
7
  6
CONTINUOUS
 10
42.2338153969
 20
81.1739574631
 11
49.0938153969
 21
81.1739574631
  0
LINE
  5
2A8
100
AcDbEntity
  8
0
100
AcDbLine
 62
7
  6
CONTINUOUS
 10
52.2338153969
 20
81.1739574631
 11
59.0938153969
 21
81.1739574631
  0
LINE
  5
2A9
100
AcDbEntity
  8
0
100
AcDbLine
 62
7
  6
CONTINUOUS
 10
62.2338153969
 20
81.1739574631
 11
69.0938153969
 21
81.1739574631
  0
LINE
  5
2AA
100
AcDbEntity
  8
0
100
AcDbLine
 62
7
  6
CONTINUOUS
 10
67.1839569544
 20
81.6739574631
 11
64.1436738393
 21
81.6739574631
  0
LINE
  5
2AB
100
AcDbEntity
  8
0
100
AcDbLine
 62
7
  6
CONTINUOUS
 10
57.1839569544
 20
81.6739574631
 11
54.1436738393
 21
81.6739574631
  0
LINE
  5
2AC
100
AcDbEntity
  8
0
100
AcDbLine
 62
7
  6
CONTINUOUS
 10
47.1839569544
 20
81.6739574631
 11
44.1436738393
 21
81.6739574631
  0
LINE
  5
2AD
100
AcDbEntity
  8
0
100
AcDbLine
 62
7
  6
CONTINUOUS
 10
37.1839569544
 20
81.6739574631
 11
34.1436738393
 21
81.6739574631
  0
LINE
  5
2AE
100
AcDbEntity
  8
0
100
AcDbLine
 62
7
  6
CONTINUOUS
 10
27.1839569544
 20
81.6739574631
 11
24.1436738393
 21
81.6739574631
  0
LINE
  5
2AF
100
AcDbEntity
  8
0
100
AcDbLine
 62
7
  6
CONTINUOUS
 10
68.4138153969
 20
81.7708206981
 11
62.9138153969
 21
81.7708206981
  0
LINE
  5
2B0
100
AcDbEntity
  8
0
100
AcDbLine
 62
7
  6
CONTINUOUS
 10
58.4138153969
 20
81.7708206981
 11
52.9138153969
 21
81.7708206981
  0
LINE
  5
2B1
100
AcDbEntity
  8
0
100
AcDbLine
 62
7
  6
CONTINUOUS
 10
48.4138153969
 20
81.7708206981
 11
42.9138153969
 21
81.7708206981
  0
LINE
  5
2B2
100
AcDbEntity
  8
0
100
AcDbLine
 62
7
  6
CONTINUOUS
 10
38.4138153969
 20
81.7708206981
 11
32.9138153969
 21
81.7708206981
  0
LINE
  5
2B3
100
AcDbEntity
  8
0
100
AcDbLine
 62
7
  6
CONTINUOUS
 10
28.4138153969
 20
81.7708206981
 11
22.9138153969
 21
81.7708206981
  0
LINE
  5
2B4
100
AcDbEntity
  8
0
100
AcDbLine
 62
7
  6
CONTINUOUS
 10
67.8513164639
 20
82.6700385895
 11
63.4763143298
 21
82.6700385895
  0
LINE
  5
2B5
100
AcDbEntity
  8
0
100
AcDbLine
 62
7
  6
CONTINUOUS
 10
57.8513164639
 20
82.6700385895
 11
53.4763143298
 21
82.6700385895
  0
LINE
  5
2B6
100
AcDbEntity
  8
0
100
AcDbLine
 62
7
  6
CONTINUOUS
 10
47.8513164639
 20
82.6700385895
 11
43.4763143298
 21
82.6700385895
  0
LINE
  5
2B7
100
AcDbEntity
  8
0
100
AcDbLine
 62
7
  6
CONTINUOUS
 10
37.8513164639
 20
82.6700385895
 11
33.4763143298
 21
82.6700385895
  0
LINE
  5
2B8
100
AcDbEntity
  8
0
100
AcDbLine
 62
7
  6
CONTINUOUS
 10
27.8513164639
 20
82.6700385895
 11
23.4763143298
 21
82.6700385895
  0
LINE
  5
2B9
100
AcDbEntity
  8
0
100
AcDbLine
 62
7
  6
CONTINUOUS
 10
61.700105403
 20
83.0587412656
 11
60.2893024391
 21
83.0587412656
  0
LINE
  5
2BA
100
AcDbEntity
  8
0
100
AcDbLine
 62
7
  6
CONTINUOUS
 10
31.0383283567
 20
83.0587412656
 11
29.6275253944
 21
83.0587412656
  0
LINE
  5
2BB
100
AcDbEntity
  8
0
100
AcDbLine
 62
7
  6
CONTINUOUS
 10
64.9888153969
 20
83.0922767294
 11
64.9888153969
 21
81.6739574631
  0
LINE
  5
2BC
100
AcDbEntity
  8
0
100
AcDbLine
 62
7
  6
CONTINUOUS
 10
65.2888153969
 20
83.092349023
 11
65.2888153969
 21
81.6739574631
  0
LINE
  5
2BD
100
AcDbEntity
  8
0
100
AcDbLine
 62
7
  6
CONTINUOUS
 10
66.0388153969
 20
83.092349023
 11
66.0388153969
 21
81.6739574631
  0
LINE
  5
2BE
100
AcDbEntity
  8
0
100
AcDbLine
 62
7
  6
CONTINUOUS
 10
66.3388153969
 20
83.0922767294
 11
66.3388153969
 21
81.6739574631
  0
LINE
  5
2BF
100
AcDbEntity
  8
0
100
AcDbLine
 62
7
  6
CONTINUOUS
 10
67.1638153969
 20
78.1682979441
 11
67.1638153969
 21
80.1739574631
  0
LINE
  5
2C0
100
AcDbEntity
  8
0
100
AcDbLine
 62
7
  6
CONTINUOUS
 10
67.1839569544
 20
82.9273989472
 11
67.1839569544
 21
81.6739574631
  0
LINE
  5
2C1
100
AcDbEntity
  8
0
100
AcDbLine
 62
7
  6
CONTINUOUS
 10
51.0188621778
 20
84.1739579051
 11
50.3087686159
 21
84.1739579051
  0
LINE
  5
2C2
100
AcDbEntity
  8
0
100
AcDbLine
 62
7
  6
CONTINUOUS
 10
41.0188621758
 20
84.1739579051
 11
40.3087686179
 21
84.1739579051
  0
LINE
  5
2C3
100
AcDbEntity
  8
0
100
AcDbLine
 62
7
  6
CONTINUOUS
 10
20.167480171
 20
84.1826844406
 11
29.6078376715
 21
84.1826844406
  0
LINE
  5
2C4
100
AcDbEntity
  8
0
100
AcDbLine
 62
7
  6
CONTINUOUS
 10
29.8175722939
 20
84.1826844406
 11
31.5100585035
 21
84.1826844406
  0
LINE
  5
2C5
100
AcDbEntity
  8
0
100
AcDbLine
 62
7
  6
CONTINUOUS
 10
39.8175722939
 20
84.1826844406
 11
41.5100573043
 21
84.1826844406
  0
LINE
  5
2C6
100
AcDbEntity
  8
0
100
AcDbLine
 62
7
  6
CONTINUOUS
 10
49.8175722939
 20
84.1826844406
 11
51.5100585035
 21
84.1826844406
  0
LINE
  5
2C7
100
AcDbEntity
  8
0
100
AcDbLine
 62
7
  6
CONTINUOUS
 10
59.8175737061
 20
84.1826844406
 11
61.5100585035
 21
84.1826844406
  0
LINE
  5
2C8
100
AcDbEntity
  8
0
100
AcDbLine
 62
7
  6
CONTINUOUS
 10
61.7197946395
 20
84.1826844406
 11
71.1601506227
 21
84.1826844406
  0
LINE
  5
2C9
100
AcDbEntity
  8
0
100
AcDbLine
 62
7
  6
CONTINUOUS
 10
78.9600182679
 20
85.1739579051
 11
62.228475294
 21
85.1739579051
  0
LINE
  5
2CA
100
AcDbEntity
  8
0
100
AcDbLine
 62
7
  6
CONTINUOUS
 10
61.0014071293
 20
85.1739579051
 11
60.3262236681
 21
85.1739579051
  0
LINE
  5
2CB
100
AcDbEntity
  8
0
100
AcDbLine
 62
7
  6
CONTINUOUS
 10
51.0014071293
 20
85.1739579051
 11
50.3262236681
 21
85.1739579051
  0
LINE
  5
2CC
100
AcDbEntity
  8
0
100
AcDbLine
 62
7
  6
CONTINUOUS
 10
40.999257676
 20
85.1739579051
 11
40.3262236681
 21
85.1739579051
  0
LINE
  5
2CD
100
AcDbEntity
  8
0
100
AcDbLine
 62
7
  6
CONTINUOUS
 10
31.0014071293
 20
85.1739579051
 11
30.3262236681
 21
85.1739579051
  0
LINE
  5
2CE
100
AcDbEntity
  8
0
100
AcDbLine
 62
7
  6
CONTINUOUS
 10
29.0991555031
 20
85.1739579051
 11
12.396694696
 21
85.1739579051
  0
LINE
  5
2CF
100
AcDbEntity
  8
0
100
AcDbLine
 62
7
  6
CONTINUOUS
 10
61.0014071293
 20
86.1739579051
 11
60.3262236681
 21
86.1739579051
  0
LINE
  5
2D0
100
AcDbEntity
  8
0
100
AcDbLine
 62
7
  6
CONTINUOUS
 10
30.3262236681
 20
86.1739579051
 11
31.0014071293
 21
86.1739579051
  0
LINE
  5
2D1
100
AcDbEntity
  8
0
100
AcDbLine
 62
7
  6
CONTINUOUS
 10
40.3262236681
 20
86.1739579051
 11
41.0014071293
 21
86.1739579051
  0
LINE
  5
2D2
100
AcDbEntity
  8
0
100
AcDbLine
 62
7
  6
CONTINUOUS
 10
50.3262236681
 20
86.1739579051
 11
51.0014071293
 21
86.1739579051
  0
LINE
  5
2D3
100
AcDbEntity
  8
0
100
AcDbLine
 62
7
  6
CONTINUOUS
 10
29.0991555031
 20
86.4044814049
 11
62.228475294
 21
86.4044814049
  0
LINE
  5
2D4
100
AcDbEntity
  8
0
100
AcDbLine
 62
7
  6
CONTINUOUS
 10
70.3262236681
 20
86.6363845196
 11
21.0014071293
 21
86.6363845196
  0
LINE
  5
2D5
100
AcDbEntity
  8
0
100
AcDbLine
 62
7
  6
CONTINUOUS
 10
68.4138153969
 20
81.1739574631
 11
68.4138153969
 21
81.7708206981
  0
LINE
  5
2D6
100
AcDbEntity
  8
0
100
AcDbLine
 62
7
  6
CONTINUOUS
 10
69.0938153969
 20
81.1739574631
 11
69.0938153969
 21
80.1739574631
  0
LINE
  5
2D7
100
AcDbEntity
  8
0
100
AcDbLine
 62
7
  6
CONTINUOUS
 10
69.6638153969
 20
100.0739574631
 11
69.6638153969
 21
100.5739574631
  0
LINE
  5
2D8
100
AcDbEntity
  8
0
100
AcDbLine
 62
7
  6
CONTINUOUS
 10
70.3262236681
 20
86.6363845196
 11
70.3262236681
 21
85.1739579051
  0
LINE
  5
2D9
100
AcDbEntity
  8
0
100
AcDbLine
 62
7
  6
CONTINUOUS
 10
70.7915537737
 20
69.8739574631
 11
70.7915537737
 21
74.3283207489
  0
LINE
  5
2DA
100
AcDbEntity
  8
0
100
AcDbLine
 62
7
  6
CONTINUOUS
 10
71.2829024053
 20
85.1739579051
 11
71.2829024053
 21
69.8739574631
  0
LINE
  5
2DB
100
AcDbEntity
  8
0
100
AcDbLine
 62
7
  6
CONTINUOUS
 10
71.6638153969
 20
94.8451802605
 11
71.6638153969
 21
96.8739574631
  0
LINE
  5
2DC
100
AcDbEntity
  8
0
100
AcDbLine
 62
7
  6
CONTINUOUS
 10
69.7216096644
 20
78.1656889436
 11
69.8262998206
 21
84.6826841083
  0
LINE
  5
2DD
100
AcDbEntity
  8
0
100
AcDbLine
 62
7
  6
CONTINUOUS
 10
74.6638153969
 20
85.1739579051
 11
74.6638153969
 21
69.8739574631
  0
LINE
  5
2DE
100
AcDbEntity
  8
0
100
AcDbLine
 62
7
  6
CONTINUOUS
 10
74.6638153969
 20
25.8929806695
 11
74.6638153969
 21
25.3876264546
  0
LINE
  5
2DF
100
AcDbEntity
  8
0
100
AcDbLine
 62
7
  6
CONTINUOUS
 10
75.1638153969
 20
25.9670898685
 11
75.1638153969
 21
25.4615463257
  0
LINE
  5
2E0
100
AcDbEntity
  8
0
100
AcDbLine
 62
7
  6
CONTINUOUS
 10
78.8836305321
 20
93.9262939663
 11
12.4766022481
 21
93.9262939663
  0
LINE
  5
2E1
100
AcDbEntity
  8
0
100
AcDbLine
 62
7
  6
CONTINUOUS
 10
12.4855104131
 20
94.0569236848
 11
78.8703714652
 21
94.0569236848
  0
LINE
  5
2E2
100
AcDbEntity
  8
0
100
AcDbLine
 62
7
  6
CONTINUOUS
 10
75.6638153969
 20
94.8432030959
 11
75.6638153969
 21
96.8739574631
  0
LINE
  5
2E3
100
AcDbEntity
  8
0
100
AcDbLine
 62
7
  6
CONTINUOUS
 10
76.2638153969
 20
98.4739574631
 11
76.2638153969
 21
100.0739574631
  0
LINE
  5
2E4
100
AcDbEntity
  8
0
100
AcDbLine
 62
7
  6
CONTINUOUS
 10
76.919646076
 20
98.5739574631
 11
76.919646076
 21
98.4739574631
  0
LINE
  5
2E5
100
AcDbEntity
  8
0
100
AcDbLine
 62
7
  6
CONTINUOUS
 10
77.3865875686
 20
24.6906695306
 11
77.3865875686
 21
25.8058187125
  0
LINE
  5
2E6
100
AcDbEntity
  8
0
100
AcDbLine
 62
7
  6
CONTINUOUS
 10
77.6638153969
 20
100.0739574631
 11
77.6638153969
 21
100.5739574631
  0
LINE
  5
2E7
100
AcDbEntity
  8
0
100
AcDbLine
 62
7
  6
CONTINUOUS
 10
78.6638153969
 20
53.1739574631
 11
78.6638153969
 21
38.1739574631
  0
LINE
  5
2E8
100
AcDbEntity
  8
0
100
AcDbLine
 62
7
  6
CONTINUOUS
 10
78.9008202861
 20
85.1739579051
 11
78.9008202861
 21
69.8739574631
  0
LINE
  5
2E9
100
AcDbEntity
  8
0
100
AcDbLine
 62
7
  6
CONTINUOUS
 10
78.9051075657
 20
39.1239574631
 11
78.9051075657
 21
34.1739574631
  0
LINE
  5
2EA
100
AcDbEntity
  8
0
100
AcDbLine
 62
7
  6
CONTINUOUS
 10
75.6638153969
 20
94.8441916782
 11
71.6638153969
 21
94.8441916782
  0
LINE
  5
2EB
100
AcDbEntity
  8
0
100
AcDbLine
 62
7
  6
CONTINUOUS
 10
77.8840564388
 20
94.87395801
 11
13.4435743568
 21
94.8421056504
  0
LINE
  5
2EC
100
AcDbEntity
  8
0
100
AcDbLine
 62
7
  6
CONTINUOUS
 10
19.6638153969
 20
94.8718719822
 11
15.6638153969
 21
94.8718719822
  0
LINE
  5
2ED
100
AcDbEntity
  8
0
100
AcDbLine
 62
7
  6
CONTINUOUS
 10
81.2638153978
 20
94.87395801
 11
79.6638153959
 21
94.87395801
  0
LINE
  5
2EE
100
AcDbEntity
  8
0
100
AcDbLine
 62
7
  6
CONTINUOUS
 10
13.4427201943
 20
94.87395801
 11
13.3962866583
 21
94.87395801
  0
LINE
  5
2EF
100
AcDbEntity
  8
0
100
AcDbLine
 62
7
  6
CONTINUOUS
 10
11.6638153959
 20
94.87395801
 11
10.0638153978
 21
94.87395801
  0
LINE
  5
2F0
100
AcDbEntity
  8
0
100
AcDbLine
 62
7
  6
CONTINUOUS
 10
79.6638153959
 20
96.8739574631
 11
11.6638153959
 21
96.8739574631
  0
LINE
  5
2F1
100
AcDbEntity
  8
0
100
AcDbLine
 62
7
  6
CONTINUOUS
 10
80.3931383662
 20
25.4136551366
 11
80.4143281242
 21
24.1996947141
  0
LINE
  5
2F2
100
AcDbEntity
  8
0
100
AcDbLine
 62
7
  6
CONTINUOUS
 10
81.5381153969
 20
25.9739574631
 11
81.5242905534
 21
26.7659822154
  0
LINE
  5
2F3
100
AcDbEntity
  8
0
100
AcDbLine
 62
7
  6
CONTINUOUS
 10
78.8840183619
 20
93.8826845455
 11
79.2363904
 21
53.5048483505
  0
LINE
  5
2F4
100
AcDbEntity
  8
0
100
AcDbLine
 62
7
  6
CONTINUOUS
 10
79.4050885291
 20
34.1739574631
 11
79.2363904
 21
53.5048483505
  0
LINE
  5
2F5
100
AcDbEntity
  8
0
100
AcDbLine
 62
7
  6
CONTINUOUS
 10
79.4050885272
 20
98.4739574631
 11
79.4050885272
 21
96.8739574631
  0
LINE
  5
2F6
100
AcDbEntity
  8
0
100
AcDbLine
 62
7
  6
CONTINUOUS
 10
79.6638153959
 20
96.8739574631
 11
79.6638153959
 21
34.1739574631
  0
LINE
  5
2F7
100
AcDbEntity
  8
0
100
AcDbLine
 62
7
  6
CONTINUOUS
 10
80.1344840709
 20
24.2199536395
 11
80.1344288196
 21
26.2651333187
  0
LINE
  5
2F8
100
AcDbEntity
  8
0
100
AcDbLine
 62
7
  6
CONTINUOUS
 10
80.3297567186
 20
26.3011880635
 11
80.3309935897
 21
25.4125703955
  0
LINE
  5
2F9
100
AcDbEntity
  8
0
100
AcDbLine
 62
7
  6
CONTINUOUS
 10
80.3931383662
 20
26.3123150975
 11
80.3931383662
 21
25.4136551366
  0
LINE
  5
2FA
100
AcDbEntity
  8
0
100
AcDbLine
 62
7
  6
CONTINUOUS
 10
80.4143281242
 20
26.3160721603
 11
80.4143281242
 21
24.1996947141
  0
LINE
  5
2FB
100
AcDbEntity
  8
0
100
AcDbLine
 62
7
  6
CONTINUOUS
 10
80.9982763542
 20
26.4200143007
 11
80.9982763542
 21
24.1708980461
  0
LINE
  5
2FC
100
AcDbEntity
  8
0
100
AcDbLine
 62
7
  6
CONTINUOUS
 10
81.2638153969
 20
98.5739574631
 11
81.2638153978
 21
34.1739574631
  0
LINE
  5
2FD
100
AcDbEntity
  8
0
100
AcDbLine
 62
7
  6
CONTINUOUS
 10
81.5162472061
 20
24.6722746735
 11
81.5157744837
 21
26.7443420064
  0
LINE
  5
2FE
100
AcDbEntity
  8
0
100
AcDbLine
 62
7
  6
CONTINUOUS
 10
81.6138153969
 20
34.1739574631
 11
81.6138153969
 21
33.1739574631
  0
LINE
  5
2FF
100
AcDbEntity
  8
0
100
AcDbLine
 62
7
  6
CONTINUOUS
 10
81.5381153969
 20
25.9739574631
 11
81.5157744837
 21
24.6940474039
  0
LINE
  5
300
100
AcDbEntity
  8
0
100
AcDbLine
 62
7
  6
CONTINUOUS
 10
81.6638153969
 20
33.1739574631
 11
81.5548178894
 21
26.9294944406
  0
LINE
  5
301
100
AcDbEntity
  8
0
100
AcDbLine
 62
7
  6
CONTINUOUS
 10
81.2638153969
 20
98.4739574631
 11
10.0638153969
 21
98.4739574631
  0
LINE
  5
302
100
AcDbEntity
  8
0
100
AcDbLine
 62
7
  6
CONTINUOUS
 10
81.2638153969
 20
98.5739574631
 11
10.0638153969
 21
98.5739574631
  0
LINE
  5
303
100
AcDbEntity
  8
0
100
AcDbLine
 62
7
  6
CONTINUOUS
 10
79.7638153978
 20
100.0739574631
 11
11.458808013
 21
100.0739574631
  0
LINE
  5
304
100
AcDbEntity
  8
0
100
AcDbLine
 62
7
  6
CONTINUOUS
 10
10.1638153969
 20
100.5739574631
 11
25.1638153969
 21
100.5739574631
  0
LINE
  5
305
100
AcDbEntity
  8
0
100
AcDbLine
 62
7
  6
CONTINUOUS
 10
66.1638153969
 20
100.5739574631
 11
81.1638153969
 21
100.5739574631
  0
LINE
  5
306
100
AcDbEntity
  8
0
100
AcDbLine
 62
7
  6
CONTINUOUS
 10
80.6632761859
 20
106.0739574631
 11
81.1638153969
 21
100.5739574631
  0
LINE
  5
307
100
AcDbEntity
  8
0
100
AcDbLine
 62
7
  6
CONTINUOUS
 10
14.6638153969
 20
104.5739574631
 11
20.6638153969
 21
104.5739574631
  0
LINE
  5
308
100
AcDbEntity
  8
0
100
AcDbLine
 62
7
  6
CONTINUOUS
 10
70.6638153969
 20
104.5739574631
 11
76.6638153969
 21
104.5739574631
  0
LINE
  5
309
100
AcDbEntity
  8
0
100
AcDbLine
 62
7
  6
CONTINUOUS
 10
10.6643546078
 20
106.0739574631
 11
24.6632761859
 21
106.0739574631
  0
LINE
  5
30A
100
AcDbEntity
  8
0
100
AcDbLine
 62
7
  6
CONTINUOUS
 10
66.6643546078
 20
106.0739574631
 11
80.6632761859
 21
106.0739574631
  0
LINE
  5
30B
100
AcDbEntity
  8
0
100
AcDbLine
 62
7
  6
CONTINUOUS
 10
70.6638153969
 20
104.5739574631
 11
69.1638153969
 21
106.0739574631
  0
ARC
  5
30C
100
AcDbEntity
  8
0
100
AcDbCircle
 62
7
  6
CONTINUOUS
 10
8.6619769561
 20
47.2522053096
 40
23.1709179227
100
AcDbArc
 50
276.2714537605
 51
283.1694398832
  0
ARC
  5
30D
100
AcDbEntity
  8
0
100
AcDbCircle
 62
7
  6
CONTINUOUS
 10
12.8136715342
 20
29.3690780688
 40
4.8123251532
100
AcDbArc
 50
314.1196532009
 51
314.897734953
  0
ARC
  5
30E
100
AcDbEntity
  8
0
100
AcDbCircle
 62
7
  6
CONTINUOUS
 10
12.8136715342
 20
29.3690780688
 40
4.8123251532
100
AcDbArc
 50
283.5484521231
 51
307.0673898269
  0
ARC
  5
30F
100
AcDbEntity
  8
0
100
AcDbCircle
 62
7
  6
CONTINUOUS
 10
10.3130260294
 20
24.6722746735
 40
0.5016424418
100
AcDbArc
 50
177.5124162863
 51
271.8653012404
  0
ARC
  5
310
100
AcDbEntity
  8
0
100
AcDbCircle
 62
7
  6
CONTINUOUS
 10
10.2670174893
 20
26.9360600361
 40
0.4942481956
100
AcDbArc
 50
180.7611398098
 51
254.6868087569
  0
ARC
  5
311
100
AcDbEntity
  8
0
100
AcDbCircle
 62
7
  6
CONTINUOUS
 10
10.9978740751
 20
25.2172464127
 40
0.195327899
100
AcDbArc
 50
358.6371846294
 51
90.3628153708
  0
ARC
  5
312
100
AcDbEntity
  8
0
100
AcDbCircle
 62
7
  6
CONTINUOUS
 10
25.6638153969
 20
77.950746433
 40
4.9766524791
100
AcDbArc
 50
85.678560634
 51
94.321439366
  0
ARC
  5
313
100
AcDbEntity
  8
0
100
AcDbCircle
 62
7
  6
CONTINUOUS
 10
25.5869950103
 20
78.1856077648
 40
4.9430687457
100
AcDbArc
 50
96.9506164003
 51
106.9770657248
  0
ARC
  5
314
100
AcDbEntity
  8
0
100
AcDbCircle
 62
7
  6
CONTINUOUS
 10
25.7406357834
 20
78.1856077648
 40
4.9430687457
100
AcDbArc
 50
73.0229342752
 51
83.0493835997
  0
ARC
  5
315
100
AcDbEntity
  8
0
100
AcDbCircle
 62
7
  6
CONTINUOUS
 10
25.7571038525
 20
78.2334921941
 40
4.9059831207
100
AcDbArc
 50
64.7309710241
 51
73.0917846882
  0
ARC
  5
316
100
AcDbEntity
  8
0
100
AcDbCircle
 62
7
  6
CONTINUOUS
 10
25.5705269412
 20
78.2334921941
 40
4.9059831207
100
AcDbArc
 50
106.9082153118
 51
115.2690289759
  0
ARC
  5
317
100
AcDbEntity
  8
0
100
AcDbCircle
 62
7
  6
CONTINUOUS
 10
11.5709415089
 20
98.5710057308
 40
1.5071290026
100
AcDbArc
 50
94.2668666253
 51
179.8877853792
  0
ARC
  5
318
100
AcDbEntity
  8
0
100
AcDbCircle
 62
7
  6
CONTINUOUS
 10
23.9694415289
 20
81.736024193
 40
1.0561994733
100
AcDbArc
 50
117.832499576
 51
178.1120481874
  0
ARC
  5
319
100
AcDbEntity
  8
0
100
AcDbCircle
 62
7
  6
CONTINUOUS
 10
13.419899014
 20
93.9314699109
 40
0.9427854151
100
AcDbArc
 50
91.4389698996
 51
182.1604940748
  0
ARC
  5
31A
100
AcDbEntity
  8
0
100
AcDbCircle
 62
7
  6
CONTINUOUS
 10
21.0014081008
 20
84.6739588938
 40
0.4999990113
100
AcDbArc
 50
0.9998886673
 51
90.0001113311
  0
ARC
  5
31B
100
AcDbEntity
  8
0
100
AcDbCircle
 62
7
  6
CONTINUOUS
 10
35.6638153969
 20
77.950746433
 40
4.9766524791
100
AcDbArc
 50
85.678560634
 51
94.321439366
  0
ARC
  5
31C
100
AcDbEntity
  8
0
100
AcDbCircle
 62
7
  6
CONTINUOUS
 10
35.5869950103
 20
78.1856077648
 40
4.9430687457
100
AcDbArc
 50
96.9506164003
 51
106.9770657248
  0
ARC
  5
31D
100
AcDbEntity
  8
0
100
AcDbCircle
 62
7
  6
CONTINUOUS
 10
35.7406357834
 20
78.1856077648
 40
4.9430687457
100
AcDbArc
 50
73.0229342752
 51
83.0493835997
  0
ARC
  5
31E
100
AcDbEntity
  8
0
100
AcDbCircle
 62
7
  6
CONTINUOUS
 10
35.7571038525
 20
78.2334921941
 40
4.9059831207
100
AcDbArc
 50
64.7309710241
 51
73.0917846882
  0
ARC
  5
31F
100
AcDbEntity
  8
0
100
AcDbCircle
 62
7
  6
CONTINUOUS
 10
35.5705269412
 20
78.2334921941
 40
4.9059831207
100
AcDbArc
 50
106.9082153118
 51
115.2690289759
  0
ARC
  5
320
100
AcDbEntity
  8
0
100
AcDbCircle
 62
7
  6
CONTINUOUS
 10
33.9694415289
 20
81.736024193
 40
1.0561994733
100
AcDbArc
 50
117.832499576
 51
178.1120481874
  0
ARC
  5
321
100
AcDbEntity
  8
0
100
AcDbCircle
 62
7
  6
CONTINUOUS
 10
27.3581892648
 20
81.736024193
 40
1.0561994733
100
AcDbArc
 50
1.8879518126
 51
62.167500424
  0
ARC
  5
322
100
AcDbEntity
  8
0
100
AcDbCircle
 62
7
  6
CONTINUOUS
 10
30.3262236681
 20
84.6739579051
 40
0.5
100
AcDbArc
 50
90.0
 51
179.0000000016
  0
ARC
  5
323
100
AcDbEntity
  8
0
100
AcDbCircle
 62
7
  6
CONTINUOUS
 10
31.0014071293
 20
84.6739579051
 40
0.5
100
AcDbArc
 50
0.9999999984
 51
90.0
  0
ARC
  5
324
100
AcDbEntity
  8
0
100
AcDbCircle
 62
7
  6
CONTINUOUS
 10
29.0991555031
 20
84.6739579051
 40
0.5
100
AcDbArc
 50
1.0000000252
 51
90.0
  0
ARC
  5
325
100
AcDbEntity
  8
0
100
AcDbCircle
 62
7
  6
CONTINUOUS
 10
31.0383283567
 20
82.5587412656
 40
0.5
100
AcDbArc
 50
0.9999999984
 51
90.0
  0
ARC
  5
326
100
AcDbEntity
  8
0
100
AcDbCircle
 62
7
  6
CONTINUOUS
 10
45.5869950103
 20
78.1856077648
 40
4.9430687457
100
AcDbArc
 50
96.9506164003
 51
106.9770657248
  0
ARC
  5
327
100
AcDbEntity
  8
0
100
AcDbCircle
 62
7
  6
CONTINUOUS
 10
45.5705269412
 20
78.2334921941
 40
4.9059831207
100
AcDbArc
 50
106.9082153118
 51
115.2690289759
  0
ARC
  5
328
100
AcDbEntity
  8
0
100
AcDbCircle
 62
7
  6
CONTINUOUS
 10
43.9694415289
 20
81.736024193
 40
1.0561994733
100
AcDbArc
 50
117.832499576
 51
178.1120481874
  0
ARC
  5
329
100
AcDbEntity
  8
0
100
AcDbCircle
 62
7
  6
CONTINUOUS
 10
37.3581892648
 20
81.736024193
 40
1.0561994733
100
AcDbArc
 50
1.8879518126
 51
62.167500424
  0
ARC
  5
32A
100
AcDbEntity
  8
0
100
AcDbCircle
 62
7
  6
CONTINUOUS
 10
40.9957014775
 20
84.6632675774
 40
0.5107221997
100
AcDbArc
 50
353.1132198148
 51
89.3598935683
  0
ARC
  5
32B
100
AcDbEntity
  8
0
100
AcDbCircle
 62
7
  6
CONTINUOUS
 10
40.3140778143
 20
83.6685552277
 40
0.5054305629
100
AcDbArc
 50
90.6018633631
 51
178.3981366385
  0
ARC
  5
32C
100
AcDbEntity
  8
0
100
AcDbCircle
 62
7
  6
CONTINUOUS
 10
40.3262236681
 20
84.6739579051
 40
0.5
100
AcDbArc
 50
90.0
 51
179.0000000016
  0
ARC
  5
32D
100
AcDbEntity
  8
0
100
AcDbCircle
 62
7
  6
CONTINUOUS
 10
41.0188621758
 20
83.6739579051
 40
0.5
100
AcDbArc
 50
0.9999999984
 51
90.0
  0
ARC
  5
32E
100
AcDbEntity
  8
0
100
AcDbCircle
 62
7
  6
CONTINUOUS
 10
44.5916609837
 20
215.884055789
 40
192.5327881558
100
AcDbArc
 50
259.6909613341
 51
261.509120751
  0
ARC
  5
32F
100
AcDbEntity
  8
0
100
AcDbCircle
 62
7
  6
CONTINUOUS
 10
45.6638153969
 20
77.950746433
 40
4.9766524791
100
AcDbArc
 50
85.678560634
 51
94.321439366
  0
ARC
  5
330
100
AcDbEntity
  8
0
100
AcDbCircle
 62
7
  6
CONTINUOUS
 10
45.7406357834
 20
78.1856077648
 40
4.9430687457
100
AcDbArc
 50
73.0229342752
 51
83.0493835997
  0
ARC
  5
331
100
AcDbEntity
  8
0
100
AcDbCircle
 62
7
  6
CONTINUOUS
 10
45.7571038525
 20
78.2334921941
 40
4.9059831207
100
AcDbArc
 50
64.7309710241
 51
73.0917846882
  0
ARC
  5
332
100
AcDbEntity
  8
0
100
AcDbCircle
 62
7
  6
CONTINUOUS
 10
53.9694415289
 20
81.736024193
 40
1.0561994733
100
AcDbArc
 50
117.832499576
 51
178.1120481874
  0
ARC
  5
333
100
AcDbEntity
  8
0
100
AcDbCircle
 62
7
  6
CONTINUOUS
 10
47.3581892648
 20
81.736024193
 40
1.0561994733
100
AcDbArc
 50
1.8879518126
 51
62.167500424
  0
ARC
  5
334
100
AcDbEntity
  8
0
100
AcDbCircle
 62
7
  6
CONTINUOUS
 10
50.3140778122
 20
83.6685552277
 40
0.5054305629
100
AcDbArc
 50
90.6018633631
 51
178.3981366385
  0
ARC
  5
335
100
AcDbEntity
  8
0
100
AcDbCircle
 62
7
  6
CONTINUOUS
 10
51.0135529815
 20
83.6685552277
 40
0.5054305629
100
AcDbArc
 50
1.6018633615
 51
89.3981366369
  0
ARC
  5
336
100
AcDbEntity
  8
0
100
AcDbCircle
 62
7
  6
CONTINUOUS
 10
50.3262236681
 20
84.6739579051
 40
0.5
100
AcDbArc
 50
90.0
 51
179.0000000016
  0
ARC
  5
337
100
AcDbEntity
  8
0
100
AcDbCircle
 62
7
  6
CONTINUOUS
 10
51.0014071293
 20
84.6739579051
 40
0.5
100
AcDbArc
 50
0.9999999984
 51
90.0
  0
ARC
  5
338
100
AcDbEntity
  8
0
100
AcDbCircle
 62
7
  6
CONTINUOUS
 10
55.6638153969
 20
77.950746433
 40
4.976652479
100
AcDbArc
 50
85.678560634
 51
94.321439366
  0
ARC
  5
339
100
AcDbEntity
  8
0
100
AcDbCircle
 62
7
  6
CONTINUOUS
 10
55.5869950103
 20
78.1856077648
 40
4.9430687457
100
AcDbArc
 50
96.9506164003
 51
106.9770657248
  0
ARC
  5
33A
100
AcDbEntity
  8
0
100
AcDbCircle
 62
7
  6
CONTINUOUS
 10
55.7406357834
 20
78.1856077648
 40
4.9430687457
100
AcDbArc
 50
73.0229342752
 51
83.0493835997
  0
ARC
  5
33B
100
AcDbEntity
  8
0
100
AcDbCircle
 62
7
  6
CONTINUOUS
 10
55.7571038525
 20
78.2334921941
 40
4.9059831207
100
AcDbArc
 50
64.7309710241
 51
73.0917846882
  0
ARC
  5
33C
100
AcDbEntity
  8
0
100
AcDbCircle
 62
7
  6
CONTINUOUS
 10
55.5705269412
 20
78.2334921941
 40
4.9059831207
100
AcDbArc
 50
106.9082153118
 51
115.2690289759
  0
ARC
  5
33D
100
AcDbEntity
  8
0
100
AcDbCircle
 62
7
  6
CONTINUOUS
 10
63.9694415289
 20
81.736024193
 40
1.0561994733
100
AcDbArc
 50
117.832499576
 51
178.1120481874
  0
ARC
  5
33E
100
AcDbEntity
  8
0
100
AcDbCircle
 62
7
  6
CONTINUOUS
 10
57.3581892648
 20
81.736024193
 40
1.0561994733
100
AcDbArc
 50
1.8879518126
 51
62.167500424
  0
ARC
  5
33F
100
AcDbEntity
  8
0
100
AcDbCircle
 62
7
  6
CONTINUOUS
 10
60.9948806569
 20
84.6673561105
 40
0.5066438326
100
AcDbArc
 50
0.7983738711
 51
89.2619081839
  0
ARC
  5
340
100
AcDbEntity
  8
0
100
AcDbCircle
 62
7
  6
CONTINUOUS
 10
62.2292446236
 20
84.672077413
 40
0.5018810818
100
AcDbArc
 50
90.0878282918
 51
182.7578191695
  0
ARC
  5
341
100
AcDbEntity
  8
0
100
AcDbCircle
 62
7
  6
CONTINUOUS
 10
60.3262236681
 20
84.6739579051
 40
0.5
100
AcDbArc
 50
90.0
 51
179.0000000016
  0
ARC
  5
342
100
AcDbEntity
  8
0
100
AcDbCircle
 62
7
  6
CONTINUOUS
 10
60.2893024391
 20
82.5587412656
 40
0.5
100
AcDbArc
 50
90.0
 51
179.0000000016
  0
ARC
  5
343
100
AcDbEntity
  8
0
100
AcDbCircle
 62
7
  6
CONTINUOUS
 10
82.6656538376
 20
47.2522053096
 40
23.1709179227
100
AcDbArc
 50
256.8305601168
 51
263.7285462395
  0
ARC
  5
344
100
AcDbEntity
  8
0
100
AcDbCircle
 62
7
  6
CONTINUOUS
 10
78.5139592595
 20
29.3690780688
 40
4.8123251532
100
AcDbArc
 50
225.102265047
 51
225.8803467991
  0
ARC
  5
345
100
AcDbEntity
  8
0
100
AcDbCircle
 62
7
  6
CONTINUOUS
 10
78.5139592595
 20
29.3690780688
 40
4.8123251532
100
AcDbArc
 50
232.9341085573
 51
256.4515478769
  0
ARC
  5
346
100
AcDbEntity
  8
0
100
AcDbCircle
 62
7
  6
CONTINUOUS
 10
81.0146047643
 20
24.6722746735
 40
0.5016424418
100
AcDbArc
 50
268.1346987596
 51
2.4875837137
  0
ARC
  5
347
100
AcDbEntity
  8
0
100
AcDbCircle
 62
7
  6
CONTINUOUS
 10
81.0548806208
 20
26.938225714
 40
0.5000135074
100
AcDbArc
 50
279.8810583261
 51
358.9994459503
  0
ARC
  5
348
100
AcDbEntity
  8
0
100
AcDbCircle
 62
7
  6
CONTINUOUS
 10
80.3297567186
 20
25.2172464127
 40
0.195327899
100
AcDbArc
 50
89.6371846292
 51
181.3628153706
  0
ARC
  5
349
100
AcDbEntity
  8
0
100
AcDbCircle
 62
7
  6
CONTINUOUS
 10
65.6638153969
 20
77.950746433
 40
4.9766524791
100
AcDbArc
 50
85.678560634
 51
94.321439366
  0
ARC
  5
34A
100
AcDbEntity
  8
0
100
AcDbCircle
 62
7
  6
CONTINUOUS
 10
65.5869950103
 20
78.1856077648
 40
4.9430687457
100
AcDbArc
 50
96.9506164003
 51
106.9770657248
  0
ARC
  5
34B
100
AcDbEntity
  8
0
100
AcDbCircle
 62
7
  6
CONTINUOUS
 10
65.7406357834
 20
78.1856077648
 40
4.9430687457
100
AcDbArc
 50
73.0229342752
 51
83.0493835997
  0
ARC
  5
34C
100
AcDbEntity
  8
0
100
AcDbCircle
 62
7
  6
CONTINUOUS
 10
65.7571038525
 20
78.2334921941
 40
4.9059831207
100
AcDbArc
 50
64.7309710241
 51
73.0917846882
  0
ARC
  5
34D
100
AcDbEntity
  8
0
100
AcDbCircle
 62
7
  6
CONTINUOUS
 10
65.5705269412
 20
78.2334921941
 40
4.9059831207
100
AcDbArc
 50
106.9082153118
 51
115.2690289759
  0
ARC
  5
34E
100
AcDbEntity
  8
0
100
AcDbCircle
 62
7
  6
CONTINUOUS
 10
79.7310618038
 20
98.5412038691
 40
1.5331035117
100
AcDbArc
 50
1.2241740182
 51
88.775825982
  0
ARC
  5
34F
100
AcDbEntity
  8
0
100
AcDbCircle
 62
7
  6
CONTINUOUS
 10
67.3581892648
 20
81.736024193
 40
1.0561994733
100
AcDbArc
 50
1.8879518126
 51
62.167500424
  0
ARC
  5
350
100
AcDbEntity
  8
0
100
AcDbCircle
 62
7
  6
CONTINUOUS
 10
77.9367213183
 20
93.8961774514
 40
0.9473931324
100
AcDbArc
 50
359.1839578846
 51
93.186672426
  0
ARC
  5
351
100
AcDbEntity
  8
0
100
AcDbCircle
 62
7
  6
CONTINUOUS
 10
70.3327867946
 20
84.6672792191
 40
0.506721191
100
AcDbArc
 50
90.7421240051
 51
178.2578759965
  0
ARC
  5
352
100
AcDbEntity
  8
0
100
AcDbCircle
 62
7
  6
CONTINUOUS
 10
45.6638153969
 20
223.2745535119
 40
200.0005897496
100
AcDbArc
 50
261.6627455706
 51
278.3372544294
  0
ARC
  5
353
100
AcDbEntity
  8
0
100
AcDbCircle
 62
7
  6
CONTINUOUS
 10
45.6655071855
 20
223.2631737884
 40
199.9890847378
100
AcDbArc
 50
278.4820518872
 51
280.2175134409
  0
SPLINE
  5
354
100
AcDbEntity
  8
0
100
AcDbSpline
 62
7
  6
CONTINUOUS
 70
0
 71
3
 72
12
 73
8
 74
0
 42
0.0000001
 43
0.0000001
 44
0.0000000001
 40
0.0
 40
0.0
 40
0.0
 40
0.0
 40
0.2936883107
 40
0.5615563632
 40
0.7801981656
 40
0.9302416765
 40
1.0
 40
1.0
 40
1.0
 40
1.0
 10
14.4079847178
 20
98.5739574631
 30
0.0
 10
14.4080037615
 20
98.7215797128
 30
0.0
 10
14.4102999902
 20
99.0043143613
 30
0.0
 10
14.4238194681
 20
99.3945277132
 30
0.0
 10
14.4383462292
 20
99.7188289614
 30
0.0
 10
14.4706612069
 20
99.927911343
 30
0.0
 10
14.482124108
 20
100.0496614187
 30
0.0
 10
14.5074062132
 20
100.0739574631
 30
0.0
  0
SPLINE
  5
355
100
AcDbEntity
  8
0
100
AcDbSpline
 62
7
  6
CONTINUOUS
 70
0
 71
3
 72
10
 73
6
 74
0
 42
0.0000001
 43
0.0000001
 44
0.0000000001
 40
0.0
 40
0.0
 40
0.0
 40
0.0
 40
0.3181244713
 40
0.651590707
 40
1.0
 40
1.0
 40
1.0
 40
1.0
 10
70.9950567424
 20
69.8739574631
 30
0.0
 10
71.023216987
 20
71.3911216007
 30
0.0
 10
71.0682717559
 20
74.4988462301
 30
0.0
 10
71.1201157685
 20
79.2684771784
 30
0.0
 10
71.1475526009
 20
82.5208508126
 30
0.0
 10
71.1601489197
 20
84.1826844406
 30
0.0
  0
SPLINE
  5
356
100
AcDbEntity
  8
0
100
AcDbSpline
 62
7
  6
CONTINUOUS
 70
0
 71
3
 72
10
 73
6
 74
0
 42
0.0000001
 43
0.0000001
 44
0.0000000001
 40
0.0
 40
0.0
 40
0.0
 40
0.0
 40
0.3789238263
 40
0.7241500601
 40
1.0
 40
1.0
 40
1.0
 40
1.0
 10
20.167481938
 20
84.1826764649
 30
0.0
 10
20.1667701868
 20
84.2765778721
 30
0.0
 10
20.1413652002
 20
84.4559620931
 30
0.0
 10
20.0771399391
 20
84.6942508125
 30
0.0
 10
20.0447174063
 20
84.8466027657
 30
0.0
 10
20.0447174063
 20
84.9149633169
 30
0.0
  0
SPLINE
  5
357
100
AcDbEntity
  8
0
100
AcDbSpline
 62
7
  6
CONTINUOUS
 70
0
 71
3
 72
10
 73
6
 74
0
 42
0.0000001
 43
0.0000001
 44
0.0000000001
 40
0.0
 40
0.0
 40
0.0
 40
0.0
 40
0.3181244727
 40
0.6515907084
 40
1.0
 40
1.0
 40
1.0
 40
1.0
 10
20.3325740513
 20
69.8739574631
 30
0.0
 10
20.3044138066
 20
71.3911216073
 30
0.0
 10
20.2593590376
 20
74.4988462436
 30
0.0
 10
20.2075150251
 20
79.2684771919
 30
0.0
 10
20.1800781928
 20
82.5208508195
 30
0.0
 10
20.167481874
 20
84.1826844406
 30
0.0
  0
SPLINE
  5
358
100
AcDbEntity
  8
0
100
AcDbSpline
 62
7
  6
CONTINUOUS
 70
0
 71
3
 72
12
 73
8
 74
0
 42
0.0000001
 43
0.0000001
 44
0.0000000001
 40
0.0
 40
0.0
 40
0.0
 40
0.0
 40
0.0579858199
 40
0.1993814824
 40
0.4169619931
 40
0.6918575001
 40
1.0
 40
1.0
 40
1.0
 40
1.0
 10
66.0388153969
 20
83.0922767294
 30
0.0
 10
66.0388153969
 20
83.098146439
 30
0.0
 10
66.0657162542
 20
83.1052702348
 30
0.0
 10
66.101812931
 20
83.1072842665
 30
0.0
 10
66.1691017297
 20
83.107264241
 30
0.0
 10
66.24880864
 20
83.1020233907
 30
0.0
 10
66.3078532712
 20
83.0960585229
 30
0.0
 10
66.3388153969
 20
83.0922767294
 30
0.0
  0
SPLINE
  5
359
100
AcDbEntity
  8
0
100
AcDbSpline
 62
7
  6
CONTINUOUS
 70
0
 71
3
 72
12
 73
8
 74
0
 42
0.0000001
 43
0.0000001
 44
0.0000000001
 40
0.0
 40
0.0
 40
0.0
 40
0.0
 40
0.3083618452
 40
0.5836138012
 40
0.8010360999
 40
0.9420846406
 40
1.0
 40
1.0
 40
1.0
 40
1.0
 10
64.9888153969
 20
83.0922767294
 30
0.0
 10
65.0197996826
 20
83.0960612295
 30
0.0
 10
65.0789029576
 20
83.102031198
 30
0.0
 10
65.1586516198
 20
83.1072707881
 30
0.0
 10
65.2259226153
 20
83.1072803784
 30
0.0
 10
65.2619777063
 20
83.1052604968
 30
0.0
 10
65.2888153969
 20
83.0981393293
 30
0.0
 10
65.2888153969
 20
83.0922767294
 30
0.0
  0
SPLINE
  5
35A
100
AcDbEntity
  8
0
100
AcDbSpline
 62
7
  6
CONTINUOUS
 70
0
 71
3
 72
101
 73
97
 74
0
 42
0.0000001
 43
0.0000001
 44
0.0000000001
 40
0.0
 40
0.0
 40
0.0
 40
0.0
 40
0.0719224245
 40
0.139339541
 40
0.2023836071
 40
0.2612039525
 40
0.3159616881
 40
0.3636676667
 40
0.3772857503
 40
0.3907934727
 40
0.4041904597
 40
0.4174740989
 40
0.4306440928
 40
0.4436978525
 40
0.4566349573
 40
0.4694530413
 40
0.482151361
 40
0.4947279734
 40
0.5071816212
 40
0.5195109575
 40
0.5317141213
 40
0.5437903025
 40
0.555737187
 40
0.5675543181
 40
0.5792391284
 40
0.5907913147
 40
0.6022082561
 40
0.6134896032
 40
0.6246328815
 40
0.6356374954
 40
0.6465013168
 40
0.6572233042
 40
0.6678018754
 40
0.6782353972
 40
0.6885228716
 40
0.6986621349
 40
0.7086526163
 40
0.7184918149
 40
0.7281793771
 40
0.7377131079
 40
0.7470927981
 40
0.7563167306
 40
0.7653845856
 40
0.7742948171
 40
0.7830468527
 40
0.7916394641
 40
0.8000717079
 40
0.8083427659
 40
0.816451296
 40
0.8243968199
 40
0.8321777201
 40
0.8397937267
 40
0.8472430827
 40
0.8545255913
 40
0.8616394912
 40
0.8685845234
 40
0.8753590583
 40
0.8819626393
 40
0.8883939038
 40
0.8946520651
 40
0.9007361558
 40
0.9066449814
 40
0.9123779535
 40
0.9179335485
 40
0.9233114291
 40
0.92850992
 40
0.9335288236
 40
0.9383671624
 40
0.9430248803
 40
0.9465954774
 40
0.9499199521
 40
0.953138396
 40
0.9562508696
 40
0.9592571294
 40
0.9621569368
 40
0.964950354
 40
0.9676369624
 40
0.9702168726
 40
0.9726897826
 40
0.9750555455
 40
0.9773141726
 40
0.9794652843
 40
0.98150903
 40
0.9834450745
 40
0.98527339
 40
0.9869939369
 40
0.9886064248
 40
0.9901110557
 40
0.991507527
 40
0.9927959853
 40
0.9946923345
 40
0.9964227061
 40
0.9975819202
 40
0.9984046737
 40
0.9990311994
 40
1.0
 40
1.0
 40
1.0
 40
1.0
 10
78.5739049999
 20
53.4983112449
 30
0.0
 10
78.5773149623
 20
53.153449117
 30
0.0
 10
78.5840849464
 20
52.4853290399
 30
0.0
 10
78.5945067131
 20
51.514924705
 30
0.0
 10
78.6047961887
 20
50.6073492029
 30
0.0
 10
78.6149215942
 20
49.7604795642
 30
0.0
 10
78.6246579065
 20
48.9871591566
 30
0.0
 10
78.6320176677
 20
48.4305778636
 30
0.0
 10
78.6369115278
 20
48.0717814247
 30
0.0
 10
78.63959875
 20
47.8774870378
 30
0.0
 10
78.6423010023
 20
47.6847967274
 30
0.0
 10
78.6450187044
 20
47.4937262566
 30
0.0
 10
78.6477512157
 20
47.3043019935
 30
0.0
 10
78.6504989712
 20
47.1165398128
 30
0.0
 10
78.6532613695
 20
46.9304654927
 30
0.0
 10
78.6560387528
 20
46.7460959764
 30
0.0
 10
78.6588306677
 20
46.563455495
 30
0.0
 10
78.6616372518
 20
46.3825629742
 30
0.0
 10
78.664458311
 20
46.2034402273
 30
0.0
 10
78.6672936822
 20
46.0261086764
 30
0.0
 10
78.6701434869
 20
45.8505876025
 30
0.0
 10
78.67300726
 20
45.6769009169
 30
0.0
 10
78.6758853912
 20
45.5050658108
 30
0.0
 10
78.6787771912
 20
45.3351078862
 30
0.0
 10
78.681683223
 20
45.1670431221
 30
0.0
 10
78.6846026787
 20
45.0008978541
 30
0.0
 10
78.6875361813
 20
44.836687806
 30
0.0
 10
78.6904829251
 20
44.6744390905
 30
0.0
 10
78.6934434641
 20
44.5141681321
 30
0.0
 10
78.6964171324
 20
44.355899865
 30
0.0
 10
78.699404269
 20
44.1996523698
 30
0.0
 10
78.7024045004
 20
44.045448447
 30
0.0
 10
78.7054178032
 20
43.8933085301
 30
0.0
 10
78.7084442128
 20
43.7432528476
 30
0.0
 10
78.7114832835
 20
43.595304407
 30
0.0
 10
78.7145354496
 20
43.4494811405
 30
0.0
 10
78.7175999205
 20
43.305808164
 30
0.0
 10
78.7206773901
 20
43.1643019456
 30
0.0
 10
78.7237670182
 20
43.0249867108
 30
0.0
 10
78.7268692751
 20
42.8878757244
 30
0.0
 10
78.7299834661
 20
42.7529887659
 30
0.0
 10
78.7331097175
 20
42.6203366415
 30
0.0
 10
78.7362475028
 20
42.4899365559
 30
0.0
 10
78.7393968704
 20
42.3618002378
 30
0.0
 10
78.7425574012
 20
42.2359437661
 30
0.0
 10
78.7457289946
 20
42.1123803368
 30
0.0
 10
78.7489114219
 20
41.9911243263
 30
0.0
 10
78.7521043599
 20
41.8721906549
 30
0.0
 10
78.7553078151
 20
41.755592026
 30
0.0
 10
78.7585212342
 20
41.6413449626
 30
0.0
 10
78.7617448313
 20
41.5294608707
 30
0.0
 10
78.764977873
 20
41.4199572655
 30
0.0
 10
78.7682207172
 20
41.3128448846
 30
0.0
 10
78.771472527
 20
41.2081415876
 30
0.0
 10
78.7747337137
 20
41.1058580912
 30
0.0
 10
78.7780034411
 20
41.0060119523
 30
0.0
 10
78.7812820541
 20
40.9086145128
 30
0.0
 10
78.784568853
 20
40.8136823816
 30
0.0
 10
78.7878639632
 20
40.7212281581
 30
0.0
 10
78.7911669882
 20
40.6312668838
 30
0.0
 10
78.7944776694
 20
40.5438128077
 30
0.0
 10
78.7977960408
 20
40.4588792496
 30
0.0
 10
78.8011213949
 20
40.3764821811
 30
0.0
 10
78.8044541821
 20
40.2966335204
 30
0.0
 10
78.8077933471
 20
40.2193503566
 30
0.0
 10
78.8111395677
 20
40.1446435057
 30
0.0
 10
78.8144919471
 20
40.0725268094
 30
0.0
 10
78.8178506691
 20
40.003006409
 30
0.0
 10
78.8209970217
 20
39.9404288158
 30
0.0
 10
78.8238846534
 20
39.8851067128
 30
0.0
 10
78.8264979455
 20
39.8366813003
 30
0.0
 10
78.8290780985
 20
39.7904541442
 30
0.0
 10
78.831661184
 20
39.7457554997
 30
0.0
 10
78.834247121
 20
39.7025875727
 30
0.0
 10
78.8368358779
 20
39.6609525849
 30
0.0
 10
78.8394271266
 20
39.6208536034
 30
0.0
 10
78.842021029
 20
39.5822920778
 30
0.0
 10
78.8446171899
 20
39.5452712023
 30
0.0
 10
78.8472156367
 20
39.5097929324
 30
0.0
 10
78.8498162734
 20
39.4758597372
 30
0.0
 10
78.8524187022
 20
39.4434744879
 30
0.0
 10
78.8550232118
 20
39.4126387503
 30
0.0
 10
78.8576291558
 20
39.3833557565
 30
0.0
 10
78.8602367611
 20
39.3556272161
 30
0.0
 10
78.862845712
 20
39.3294558138
 30
0.0
 10
78.8654555997
 20
39.3048441697
 30
0.0
 10
78.8680667066
 20
39.2817939925
 30
0.0
 10
78.8706782782
 20
39.2603086028
 30
0.0
 10
78.8732897161
 20
39.2403887964
 30
0.0
 10
78.8763880046
 20
39.2186411943
 30
0.0
 10
78.8800867203
 20
39.1953561433
 30
0.0
 10
78.8844068568
 20
39.1728296709
 30
0.0
 10
78.8883923238
 20
39.1554348551
 30
0.0
 10
78.8921152928
 20
39.1435588758
 30
0.0
 10
78.895603105
 20
39.1322848443
 30
0.0
 10
78.9016557678
 20
39.1270577442
 30
0.0
 10
78.9051154443
 20
39.1239574631
 30
0.0
  0
SPLINE
  5
35B
100
AcDbEntity
  8
0
100
AcDbSpline
 62
7
  6
CONTINUOUS
 70
0
 71
3
 72
54
 73
50
 74
0
 42
0.0000001
 43
0.0000001
 44
0.0000000001
 40
0.0
 40
0.0
 40
0.0
 40
0.0
 40
0.0754995632
 40
0.145436799
 40
0.2102150837
 40
0.2702254639
 40
0.3258213454
 40
0.3773290532
 40
0.4250534
 40
0.4692766323
 40
0.510242886
 40
0.5481801316
 40
0.5833126322
 40
0.615861341
 40
0.6460385887
 40
0.6740171827
 40
0.6999550436
 40
0.724000079
 40
0.7462939227
 40
0.7669639079
 40
0.7861298917
 40
0.8038984553
 40
0.8203728189
 40
0.83565547
 40
0.8498306961
 40
0.8629424945
 40
0.8750460455
 40
0.8862225638
 40
0.8965555583
 40
0.9061285287
 40
0.9150144102
 40
0.923260648
 40
0.9309109896
 40
0.9380092356
 40
0.9445992152
 40
0.95072295
 40
0.9564120351
 40
0.9616945201
 40
0.9665985982
 40
0.9711525474
 40
0.975384701
 40
0.979319075
 40
0.9829726075
 40
0.9863625138
 40
0.9895066538
 40
0.9924269184
 40
0.9951544604
 40
0.9976705386
 40
1.0
 40
1.0
 40
1.0
 40
1.0
 10
71.062688176
 20
84.1826844406
 30
0.0
 10
71.0594881091
 20
83.9345264162
 30
0.0
 10
71.0531704081
 20
83.4564950301
 30
0.0
 10
71.0435635893
 20
82.7655525028
 30
0.0
 10
71.0342103595
 20
82.1255268523
 30
0.0
 10
71.0251112324
 20
81.5326449162
 30
0.0
 10
71.0162649418
 20
80.9833868193
 30
0.0
 10
71.0076694517
 20
80.474516156
 30
0.0
 10
70.9993216604
 20
80.0030304421
 30
0.0
 10
70.9912185185
 20
79.5661973613
 30
0.0
 10
70.9833573717
 20
79.1615371862
 30
0.0
 10
70.9757353785
 20
78.7867607894
 30
0.0
 10
70.9683474331
 20
78.4396552723
 30
0.0
 10
70.9611854884
 20
78.1180591827
 30
0.0
 10
70.9542410753
 20
77.8199802254
 30
0.0
 10
70.947506668
 20
77.5436333027
 30
0.0
 10
70.9409765275
 20
77.2874450698
 30
0.0
 10
70.9346444644
 20
77.0499446669
 30
0.0
 10
70.9285039599
 20
76.8297617905
 30
0.0
 10
70.922548135
 20
76.6256183587
 30
0.0
 10
70.9167706688
 20
76.4363515147
 30
0.0
 10
70.9111650205
 20
76.2608776774
 30
0.0
 10
70.9057238808
 20
76.0981703875
 30
0.0
 10
70.9004397216
 20
75.9472764881
 30
0.0
 10
70.8953094448
 20
75.8074374354
 30
0.0
 10
70.8903343184
 20
75.6780501101
 30
0.0
 10
70.8855153147
 20
75.5585214841
 30
0.0
 10
70.8808467775
 20
75.4481287798
 30
0.0
 10
70.8763164118
 20
75.346056294
 30
0.0
 10
70.871909565
 20
75.251515644
 30
0.0
 10
70.8676134181
 20
75.163837015
 30
0.0
 10
70.8634185233
 20
75.0824812431
 30
0.0
 10
70.859318123
 20
75.0070049172
 30
0.0
 10
70.8553040443
 20
74.9369766082
 30
0.0
 10
70.8513660075
 20
74.8719707009
 30
0.0
 10
70.8474933542
 20
74.8116018209
 30
0.0
 10
70.8436759508
 20
74.7555365801
 30
0.0
 10
70.8399041309
 20
74.7034871893
 30
0.0
 10
70.8361661963
 20
74.6551770385
 30
0.0
 10
70.832446734
 20
74.6103290271
 30
0.0
 10
70.8287266063
 20
74.5686803488
 30
0.0
 10
70.824983643
 20
74.5300063158
 30
0.0
 10
70.8211916566
 20
74.4941196879
 30
0.0
 10
70.8173151263
 20
74.46085622
 30
0.0
 10
70.8133023837
 20
74.4300362925
 30
0.0
 10
70.8090544206
 20
74.4014512401
 30
0.0
 10
70.8044574389
 20
74.3749961304
 30
0.0
 10
70.7991519528
 20
74.3507001032
 30
0.0
 10
70.7947041714
 20
74.3352999463
 30
0.0
 10
70.7915537737
 20
74.3283207489
 30
0.0
  0
SPLINE
  5
35C
100
AcDbEntity
  8
0
100
AcDbSpline
 62
7
  6
CONTINUOUS
 70
0
 71
3
 72
63
 73
59
 74
0
 42
0.0000001
 43
0.0000001
 44
0.0000000001
 40
0.0
 40
0.0
 40
0.0
 40
0.0
 40
0.0753714071
 40
0.145099345
 40
0.2096125924
 40
0.269306854
 40
0.3245441193
 40
0.3756731897
 40
0.4230207824
 40
0.4668350747
 40
0.5073829058
 40
0.544910359
 40
0.5796446962
 40
0.6117958286
 40
0.6415576684
 40
0.6691093753
 40
0.6946164997
 40
0.7182320361
 40
0.7400973891
 40
0.760343269
 40
0.7790905129
 40
0.7964508426
 40
0.8125275635
 40
0.8274162071
 40
0.8412051246
 40
0.8539760372
 40
0.8658045373
 40
0.8767605462
 40
0.8869087653
 40
0.8963090418
 40
0.9050167711
 40
0.9130831084
 40
0.9205550913
 40
0.9274762056
 40
0.9338868036
 40
0.9398240414
 40
0.9453241358
 40
0.9504176498
 40
0.9551340402
 40
0.9595008606
 40
0.9635436496
 40
0.9672860719
 40
0.9707500377
 40
0.9739558393
 40
0.9769222656
 40
0.9796667002
 40
0.9822052201
 40
0.9845526853
 40
0.9867228122
 40
0.988728244
 40
0.9905805557
 40
0.9922904785
 40
0.9938664185
 40
0.9953182611
 40
0.9966550222
 40
0.997882199
 40
0.9989997875
 40
1.0
 40
1.0
 40
1.0
 40
1.0
 10
12.0969575772
 20
52.9341290165
 30
0.0
 10
12.1004894076
 20
52.5869039995
 30
0.0
 10
12.1074803672
 20
51.9184545298
 30
0.0
 10
12.1181702469
 20
50.9528092183
 30
0.0
 10
12.1286213319
 20
50.0593919088
 30
0.0
 10
12.1388245957
 20
49.2327362985
 30
0.0
 10
12.148774331
 20
48.467744555
 30
0.0
 10
12.1584681832
 20
47.7596366956
 30
0.0
 10
12.167903699
 20
47.1041570774
 30
0.0
 10
12.1770791348
 20
46.4974276666
 30
0.0
 10
12.1859926288
 20
45.9359419093
 30
0.0
 10
12.1946461506
 20
45.4162896385
 30
0.0
 10
12.203042601
 20
44.9353229665
 30
0.0
 10
12.2111856756
 20
44.49013437
 30
0.0
 10
12.2190797269
 20
44.0780379444
 30
0.0
 10
12.2267296472
 20
43.696552165
 30
0.0
 10
12.2341407674
 20
43.3433840257
 30
0.0
 10
12.2413187702
 20
43.0164144688
 30
0.0
 10
12.2482696164
 20
42.713684954
 30
0.0
 10
12.2549994814
 20
42.4333851004
 30
0.0
 10
12.2615147027
 20
42.1738412838
 30
0.0
 10
12.267821734
 20
41.9335061454
 30
0.0
 10
12.2739271082
 20
41.7109489174
 30
0.0
 10
12.2798374058
 20
41.5048465101
 30
0.0
 10
12.2855592298
 20
41.3139752813
 30
0.0
 10
12.2910991854
 20
41.137203458
 30
0.0
 10
12.2964638627
 20
40.9734841843
 30
0.0
 10
12.301659827
 20
40.8218490254
 30
0.0
 10
12.306693608
 20
40.6814020966
 30
0.0
 10
12.3115717002
 20
40.5513144456
 30
0.0
 10
12.3163005413
 20
40.4308195408
 30
0.0
 10
12.3208864576
 20
40.3192098777
 30
0.0
 10
12.3253356437
 20
40.2158328345
 30
0.0
 10
12.3296541992
 20
40.1200855744
 30
0.0
 10
12.3338481577
 20
40.0314108041
 30
0.0
 10
12.3379239239
 20
39.9492847497
 30
0.0
 10
12.3418876308
 20
39.8732287587
 30
0.0
 10
12.3457454593
 20
39.802799682
 30
0.0
 10
12.3495032238
 20
39.7375943067
 30
0.0
 10
12.3531672203
 20
39.6772326225
 30
0.0
 10
12.3567440013
 20
39.6213613613
 30
0.0
 10
12.3602403703
 20
39.5696533243
 30
0.0
 10
12.3636634669
 20
39.5218055696
 30
0.0
 10
12.3670208794
 20
39.4775377295
 30
0.0
 10
12.3703207972
 20
39.4365904342
 30
0.0
 10
12.3735722206
 20
39.3987239246
 30
0.0
 10
12.3767852279
 20
39.3637167908
 30
0.0
 10
12.3799714401
 20
39.3313648938
 30
0.0
 10
12.3831444241
 20
39.3014803353
 30
0.0
 10
12.3863212071
 20
39.2738913508
 30
0.0
 10
12.3895216535
 20
39.2484401734
 30
0.0
 10
12.3927770165
 20
39.2249932376
 30
0.0
 10
12.3961122056
 20
39.2034182035
 30
0.0
 10
12.3996310393
 20
39.1836284563
 30
0.0
 10
12.403280175
 20
39.1654573783
 30
0.0
 10
12.4077225748
 20
39.1491606888
 30
0.0
 10
12.4117303215
 20
39.1340281823
 30
0.0
 10
12.4187265984
 20
39.1265795723
 30
0.0
 10
12.4225159066
 20
39.1239574631
 30
0.0
  0
SPLINE
  5
35D
100
AcDbEntity
  8
0
100
AcDbSpline
 62
7
  6
CONTINUOUS
 70
0
 71
3
 72
11
 73
7
 74
0
 42
0.0000001
 43
0.0000001
 44
0.0000000001
 40
0.0
 40
0.0
 40
0.0
 40
0.0
 40
0.2874661669
 40
0.5608673986
 40
0.8052224243
 40
1.0
 40
1.0
 40
1.0
 40
1.0
 10
71.0626880912
 20
84.182677979
 30
0.0
 10
71.0637199057
 20
84.2626928832
 30
0.0
 10
71.0958108256
 20
84.4180401392
 30
0.0
 10
71.1780274206
 20
84.6266339453
 30
0.0
 10
71.2506374892
 20
84.8103019542
 30
0.0
 10
71.2829133874
 20
84.9307780454
 30
0.0
 10
71.2829133874
 20
84.984998008
 30
0.0
  0
SPLINE
  5
35E
100
AcDbEntity
  8
0
100
AcDbSpline
 62
7
  6
CONTINUOUS
 70
0
 71
3
 72
12
 73
8
 74
0
 42
0.0000001
 43
0.0000001
 44
0.0000000001
 40
0.0
 40
0.0
 40
0.0
 40
0.0
 40
0.0579858199
 40
0.1993814824
 40
0.4169619931
 40
0.6918575001
 40
1.0
 40
1.0
 40
1.0
 40
1.0
 10
56.0388153969
 20
83.0922767294
 30
0.0
 10
56.0388153969
 20
83.098146439
 30
0.0
 10
56.0657162542
 20
83.1052702348
 30
0.0
 10
56.101812931
 20
83.1072842665
 30
0.0
 10
56.1691017297
 20
83.107264241
 30
0.0
 10
56.24880864
 20
83.1020233907
 30
0.0
 10
56.3078532712
 20
83.0960585229
 30
0.0
 10
56.3388153969
 20
83.0922767294
 30
0.0
  0
SPLINE
  5
35F
100
AcDbEntity
  8
0
100
AcDbSpline
 62
7
  6
CONTINUOUS
 70
0
 71
3
 72
12
 73
8
 74
0
 42
0.0000001
 43
0.0000001
 44
0.0000000001
 40
0.0
 40
0.0
 40
0.0
 40
0.0
 40
0.3083618452
 40
0.5836138012
 40
0.8010360999
 40
0.9420846406
 40
1.0
 40
1.0
 40
1.0
 40
1.0
 10
54.9888153969
 20
83.0922767294
 30
0.0
 10
55.0197996826
 20
83.0960612295
 30
0.0
 10
55.0789029576
 20
83.102031198
 30
0.0
 10
55.1586516198
 20
83.1072707881
 30
0.0
 10
55.2259226153
 20
83.1072803784
 30
0.0
 10
55.2619777063
 20
83.1052604968
 30
0.0
 10
55.2888153969
 20
83.0981393293
 30
0.0
 10
55.2888153969
 20
83.0922767294
 30
0.0
  0
SPLINE
  5
360
100
AcDbEntity
  8
0
100
AcDbSpline
 62
7
  6
CONTINUOUS
 70
0
 71
3
 72
12
 73
8
 74
0
 42
0.0000001
 43
0.0000001
 44
0.0000000001
 40
0.0
 40
0.0
 40
0.0
 40
0.0
 40
0.0579858199
 40
0.1993814824
 40
0.4169619931
 40
0.6918575001
 40
1.0
 40
1.0
 40
1.0
 40
1.0
 10
46.0388153969
 20
83.0922767294
 30
0.0
 10
46.0388153969
 20
83.098146439
 30
0.0
 10
46.0657162542
 20
83.1052702348
 30
0.0
 10
46.101812931
 20
83.1072842665
 30
0.0
 10
46.1691017297
 20
83.107264241
 30
0.0
 10
46.24880864
 20
83.1020233907
 30
0.0
 10
46.3078532712
 20
83.0960585229
 30
0.0
 10
46.3388153969
 20
83.0922767294
 30
0.0
  0
SPLINE
  5
361
100
AcDbEntity
  8
0
100
AcDbSpline
 62
7
  6
CONTINUOUS
 70
0
 71
3
 72
12
 73
8
 74
0
 42
0.0000001
 43
0.0000001
 44
0.0000000001
 40
0.0
 40
0.0
 40
0.0
 40
0.0
 40
0.3083618452
 40
0.5836138012
 40
0.8010360999
 40
0.9420846406
 40
1.0
 40
1.0
 40
1.0
 40
1.0
 10
44.9888153969
 20
83.0922767294
 30
0.0
 10
45.0197996826
 20
83.0960612295
 30
0.0
 10
45.0789029576
 20
83.102031198
 30
0.0
 10
45.1586516198
 20
83.1072707881
 30
0.0
 10
45.2259226153
 20
83.1072803784
 30
0.0
 10
45.2619777063
 20
83.1052604968
 30
0.0
 10
45.2888153969
 20
83.0981393293
 30
0.0
 10
45.2888153969
 20
83.0922767294
 30
0.0
  0
SPLINE
  5
362
100
AcDbEntity
  8
0
100
AcDbSpline
 62
7
  6
CONTINUOUS
 70
0
 71
3
 72
12
 73
8
 74
0
 42
0.0000001
 43
0.0000001
 44
0.0000000001
 40
0.0
 40
0.0
 40
0.0
 40
0.0
 40
0.0579858199
 40
0.1993814824
 40
0.4169619931
 40
0.6918575001
 40
1.0
 40
1.0
 40
1.0
 40
1.0
 10
36.0388153969
 20
83.0922767294
 30
0.0
 10
36.0388153969
 20
83.098146439
 30
0.0
 10
36.0657162542
 20
83.1052702348
 30
0.0
 10
36.101812931
 20
83.1072842665
 30
0.0
 10
36.1691017297
 20
83.107264241
 30
0.0
 10
36.24880864
 20
83.1020233907
 30
0.0
 10
36.3078532712
 20
83.0960585229
 30
0.0
 10
36.3388153969
 20
83.0922767294
 30
0.0
  0
SPLINE
  5
363
100
AcDbEntity
  8
0
100
AcDbSpline
 62
7
  6
CONTINUOUS
 70
0
 71
3
 72
12
 73
8
 74
0
 42
0.0000001
 43
0.0000001
 44
0.0000000001
 40
0.0
 40
0.0
 40
0.0
 40
0.0
 40
0.3083618452
 40
0.5836138012
 40
0.8010360999
 40
0.9420846406
 40
1.0
 40
1.0
 40
1.0
 40
1.0
 10
34.9888153969
 20
83.0922767294
 30
0.0
 10
35.0197996826
 20
83.0960612295
 30
0.0
 10
35.0789029576
 20
83.102031198
 30
0.0
 10
35.1586516198
 20
83.1072707881
 30
0.0
 10
35.2259226153
 20
83.1072803784
 30
0.0
 10
35.2619777063
 20
83.1052604968
 30
0.0
 10
35.2888153969
 20
83.0981393293
 30
0.0
 10
35.2888153969
 20
83.0922767294
 30
0.0
  0
SPLINE
  5
364
100
AcDbEntity
  8
0
100
AcDbSpline
 62
7
  6
CONTINUOUS
 70
0
 71
3
 72
54
 73
50
 74
0
 42
0.0000001
 43
0.0000001
 44
0.0000000001
 40
0.0
 40
0.0
 40
0.0
 40
0.0
 40
0.0754997646
 40
0.1454371667
 40
0.2102155908
 40
0.2702260848
 40
0.3258220575
 40
0.3773298376
 40
0.4250542402
 40
0.4692775066
 40
0.5102437934
 40
0.5481810704
 40
0.5833135691
 40
0.6158622685
 40
0.6460395175
 40
0.6740181038
 40
0.6999559474
 40
0.7240009606
 40
0.7462947805
 40
0.7669647388
 40
0.7861306917
 40
0.8038992208
 40
0.8203735546
 40
0.8356561806
 40
0.8498313567
 40
0.8629430915
 40
0.875046608
 40
0.8862231224
 40
0.8965561338
 40
0.9061291318
 40
0.9150150027
 40
0.9232611837
 40
0.9309114422
 40
0.9380095987
 40
0.9445995022
 40
0.9507231819
 40
0.9564122221
 40
0.9616946713
 40
0.9665987217
 40
0.9711526505
 40
0.9753847895
 40
0.979319146
 40
0.9829726581
 40
0.9863625437
 40
0.9895066652
 40
0.9924269226
 40
0.9951544582
 40
0.9976705304
 40
1.0
 40
1.0
 40
1.0
 40
1.0
 10
20.2649426177
 20
84.1826844406
 30
0.0
 10
20.2681426964
 20
83.9345257541
 30
0.0
 10
20.2744604091
 20
83.4564931593
 30
0.0
 10
20.2840672547
 20
82.7655489651
 30
0.0
 10
20.2934205073
 20
82.1255219359
 30
0.0
 10
20.3025196561
 20
81.5326388683
 30
0.0
 10
20.3113659663
 20
80.98337986
 30
0.0
 10
20.3199614745
 20
80.4745084763
 30
0.0
 10
20.3283092819
 20
80.0030222291
 30
0.0
 10
20.3364124386
 20
79.5661887441
 30
0.0
 10
20.3442735995
 20
79.1615282446
 30
0.0
 10
20.3518956053
 20
78.7867516424
 30
0.0
 10
20.359283561
 20
78.4396460597
 30
0.0
 10
20.3664455142
 20
78.1180500033
 30
0.0
 10
20.3733899357
 20
77.8199710985
 30
0.0
 10
20.3801243511
 20
77.5436242535
 30
0.0
 10
20.3866544979
 20
77.2874361762
 30
0.0
 10
20.392986566
 20
77.0499359814
 30
0.0
 10
20.3991270746
 20
76.8297533452
 30
0.0
 10
20.4050829026
 20
76.6256101819
 30
0.0
 10
20.4108603707
 20
76.4363436411
 30
0.0
 10
20.4164660202
 20
76.2608701171
 30
0.0
 10
20.4219071615
 20
76.0981631215
 30
0.0
 10
20.4271913201
 20
75.9472695675
 30
0.0
 10
20.4323215918
 20
75.8074309708
 30
0.0
 10
20.4372967107
 20
75.6780441319
 30
0.0
 10
20.4421157119
 20
75.5585158413
 30
0.0
 10
20.4467842573
 20
75.4481232077
 30
0.0
 10
20.4513146409
 20
75.3460505894
 30
0.0
 10
20.4557215063
 20
75.2515098287
 30
0.0
 10
20.4600176612
 20
75.1638313312
 30
0.0
 10
20.4642125453
 20
75.0824760541
 30
0.0
 10
20.4683129188
 20
75.0070004816
 30
0.0
 10
20.4723269632
 20
74.9369729895
 30
0.0
 10
20.4762649672
 20
74.871967807
 30
0.0
 10
20.4801375929
 20
74.8115995056
 30
0.0
 10
20.4839549745
 20
74.7555347111
 30
0.0
 10
20.4877267764
 20
74.7034856764
 30
0.0
 10
20.4914646968
 20
74.6551758009
 30
0.0
 10
20.4951841487
 20
74.6103279949
 30
0.0
 10
20.4989042675
 20
74.568679489
 30
0.0
 10
20.5026472205
 20
74.5300056287
 30
0.0
 10
20.5064391925
 20
74.4941191932
 30
0.0
 10
20.510315705
 20
74.4608559204
 30
0.0
 10
20.5143284312
 20
74.4300361444
 30
0.0
 10
20.5185763806
 20
74.4014511968
 30
0.0
 10
20.5231733516
 20
74.374996151
 30
0.0
 10
20.5284788331
 20
74.3507001373
 30
0.0
 10
20.5329266112
 20
74.335299971
 30
0.0
 10
20.53607702
 20
74.3283207489
 30
0.0
  0
SPLINE
  5
365
100
AcDbEntity
  8
0
100
AcDbSpline
 62
7
  6
CONTINUOUS
 70
0
 71
3
 72
11
 73
7
 74
0
 42
0.0000001
 43
0.0000001
 44
0.0000000001
 40
0.0
 40
0.0
 40
0.0
 40
0.0
 40
0.1972500763
 40
0.4382182894
 40
0.7142937394
 40
1.0
 40
1.0
 40
1.0
 40
1.0
 10
20.0447174063
 20
84.9849780883
 30
0.0
 10
20.0447174063
 20
84.9300743813
 30
0.0
 10
20.0772048526
 20
84.8098778484
 30
0.0
 10
20.1503874001
 20
84.6259378544
 30
0.0
 10
20.2312828446
 20
84.4176224774
 30
0.0
 10
20.2639174802
 20
84.2621818551
 30
0.0
 10
20.2649428944
 20
84.1826633625
 30
0.0
  0
SPLINE
  5
366
100
AcDbEntity
  8
0
100
AcDbSpline
 62
7
  6
CONTINUOUS
 70
0
 71
3
 72
10
 73
6
 74
0
 42
0.0000001
 43
0.0000001
 44
0.0000000001
 40
0.0
 40
0.0
 40
0.0
 40
0.0
 40
0.2758546208
 40
0.6210815162
 40
1.0
 40
1.0
 40
1.0
 40
1.0
 10
71.2829133874
 20
84.9149633169
 30
0.0
 10
71.2829133874
 20
84.8466016055
 30
0.0
 10
71.2504901631
 20
84.6942483982
 30
0.0
 10
71.1862650667
 20
84.4559596344
 30
0.0
 10
71.1608605968
 20
84.2765765485
 30
0.0
 10
71.1601488557
 20
84.1826764648
 30
0.0
  0
SPLINE
  5
367
100
AcDbEntity
  8
0
100
AcDbSpline
 62
7
  6
CONTINUOUS
 70
0
 71
3
 72
12
 73
8
 74
0
 42
0.0000001
 43
0.0000001
 44
0.0000000001
 40
0.0
 40
0.0
 40
0.0
 40
0.0
 40
0.0579858199
 40
0.1993814824
 40
0.4169619931
 40
0.6918575001
 40
1.0
 40
1.0
 40
1.0
 40
1.0
 10
26.0388153969
 20
83.0922767294
 30
0.0
 10
26.0388153969
 20
83.098146439
 30
0.0
 10
26.0657162542
 20
83.1052702348
 30
0.0
 10
26.101812931
 20
83.1072842665
 30
0.0
 10
26.1691017297
 20
83.107264241
 30
0.0
 10
26.24880864
 20
83.1020233907
 30
0.0
 10
26.3078532712
 20
83.0960585229
 30
0.0
 10
26.3388153969
 20
83.0922767294
 30
0.0
  0
SPLINE
  5
368
100
AcDbEntity
  8
0
100
AcDbSpline
 62
7
  6
CONTINUOUS
 70
0
 71
3
 72
12
 73
8
 74
0
 42
0.0000001
 43
0.0000001
 44
0.0000000001
 40
0.0
 40
0.0
 40
0.0
 40
0.0
 40
0.3083618452
 40
0.5836138012
 40
0.8010360999
 40
0.9420846406
 40
1.0
 40
1.0
 40
1.0
 40
1.0
 10
24.9888153969
 20
83.0922767294
 30
0.0
 10
25.0197996826
 20
83.0960612295
 30
0.0
 10
25.0789029576
 20
83.102031198
 30
0.0
 10
25.1586516198
 20
83.1072707881
 30
0.0
 10
25.2259226153
 20
83.1072803784
 30
0.0
 10
25.2619777063
 20
83.1052604968
 30
0.0
 10
25.2888153969
 20
83.0981393293
 30
0.0
 10
25.2888153969
 20
83.0922767294
 30
0.0
  0
SPLINE
  5
369
100
AcDbEntity
  8
0
100
AcDbSpline
 62
7
  6
CONTINUOUS
 70
0
 71
3
 72
12
 73
8
 74
0
 42
0.0000001
 43
0.0000001
 44
0.0000000001
 40
0.0
 40
0.0
 40
0.0
 40
0.0
 40
0.0697320708
 40
0.2197342615
 40
0.4383531676
 40
0.7062413981
 40
1.0
 40
1.0
 40
1.0
 40
1.0
 10
76.8202245805
 20
100.0739574631
 30
0.0
 10
76.8454971766
 20
100.0496705568
 30
0.0
 10
76.8569660168
 20
99.9279613861
 30
0.0
 10
76.8892757095
 20
99.7189207229
 30
0.0
 10
76.9038068518
 20
99.3946425996
 30
0.0
 10
76.9173297734
 20
99.0043953789
 30
0.0
 10
76.9196270192
 20
98.7216150772
 30
0.0
 10
76.9196460675
 20
98.5739574631
 30
0.0
  0
ELLIPSE
  5
36A
100
AcDbEntity
  8
0
100
AcDbEllipse
 62
7
  6
CONTINUOUS
 10
78.9051154508
 20
86.5151973905
 30
0.0
 11
0.0
 21
57.2912399346
 31
0.0
 40
0.0087268678
 41
-2.7228461678
 42
-2.2950619364
  0
ELLIPSE
  5
36B
100
AcDbEntity
  8
0
100
AcDbEllipse
 62
7
  6
CONTINUOUS
 10
12.4225153411
 20
86.5151973904
 30
0.0
 11
0.0
 21
57.2912399345
 31
0.0
 40
0.0087268678
 41
-3.9768947141
 42
-3.5603391394
  0
ENDSEC
  0
SECTION
  2
OBJECTS
  0
DICTIONARY
  5
C
100
AcDbDictionary
280
0
281
1
  3
ACAD_GROUP
350
D
  3
ACAD_MLINESTYLE
350
17
  3
ACAD_LAYOUT
350
1A
  3
ACAD_PLOTSETTINGS
350
19
  3
ACAD_PLOTSTYLENAME
350
E
  0
DICTIONARY
  5
D
102
{ACAD_REACTORS
330
C
102
}
100
AcDbDictionary
280
0
281
1
  0
ACDBDICTIONARYWDFLT
  5
E
102
{ACAD_REACTORS
330
C
102
}
100
AcDbDictionary
281
1
  3
Normal
350
F
100
AcDbDictionaryWithDefault
340
F
  0
DICTIONARY
  5
17
102
{ACAD_REACTORS
330
C
102
}
100
AcDbDictionary
280
0
281
1
  3
Standard
350
18
  0
DICTIONARY
  5
19
102
{ACAD_REACTORS
330
C
102
}
100
AcDbDictionary
281
1
  0
DICTIONARY
  5
1A
102
{ACAD_REACTORS
330
C
102
}
100
AcDbDictionary
281
1
  3
Model
350
36C
  3
Layout1
350
36D
  0
ACDBPLACEHOLDER
  5
F
102
{ACAD_REACTORS
330
E
102
}
  0
MLINESTYLE
  5
18
102
{ACAD_REACTORS
330
17
102
}
100
AcDbMlineStyle
  2
STANDARD
 70
0
  3

 62
256
 51
90.0
 52
90.0
 71
2
 49
0.5
 62
256
  6
BYLAYER
 49
-0.5
 62
256
  6
BYLAYER
  0
LAYOUT
  5
36C
102
{ACAD_REACTORS
330
1A
102
}
100
AcDbPlotSettings
  1

  2
none_device
  4

  6

 40
0.0
 41
0.0
 42
0.0
 43
0.0
 44
210.0
 45
297.0
 46
0.0
 47
0.0
 48
0.0
 49
0.0
140
0.0
141
0.0
142
1.0
143
1.0
 70
1024
 72
1
 73
0
 74
0
  7

 75
0
147
1.0
148
0.0
149
0.0
100
AcDbLayout
  1
Model
 70
0
 71
0
 10
0.0
 20
0.0
 11
210.0
 21
297.0
 12
0.0
 22
0.0
 32
0.0
 14
0.0
 24
0.0
 34
0.0
 15
0.0
 25
0.0
 35
0.0
146
0.0
 13
0.0
 23
0.0
 33
0.0
 16
1.0
 26
0.0
 36
0.0
 17
0.0
 27
1.0
 37
0.0
 76
0
330
210
345
0
346
0
  0
LAYOUT
  5
36D
102
{ACAD_REACTORS
330
1A
102
}
100
AcDbPlotSettings
  1

  2
none_device
  4

  6

 40
0.0
 41
0.0
 42
0.0
 43
0.0
 44
210.0
 45
297.0
 46
0.0
 47
0.0
 48
0.0
 49
0.0
140
0.0
141
0.0
142
1.0
143
1.0
 70
0
 72
1
 73
0
 74
0
  7

 75
0
147
1.0
148
0.0
149
0.0
100
AcDbLayout
  1
Layout1
 70
0
 71
1
 10
0.0
 20
0.0
 11
210.0
 21
297.0
 12
0.0
 22
0.0
 32
0.0
 14
0.0
 24
0.0
 34
0.0
 15
0.0
 25
0.0
 35
0.0
146
0.0
 13
0.0
 23
0.0
 33
0.0
 16
1.0
 26
0.0
 36
0.0
 17
0.0
 27
1.0
 37
0.0
 76
0
330
211
345
0
346
0
  0
ENDSEC
  0
EOF
