999
DXF file: C:\Users\sesa63760\Dev\_Creo\CAD\MCADID0005360_3D-CAD\drw0001_6.dxf
999
Pro/ENGINEER 2019471 by Parametric Technology Corporation
  0
SECTION
  2
HEADER
  9
$ACADVER
  1
AC1024
  9
$DWGCODEPAGE
  3
ANSI_1252
  9
$EXTMAX
 10
302.6798731295
 20
428.0758205689
 30
0.0
  9
$EXTMIN
 10
0.0
 20
0.0
 30
0.0
  9
$LIMMIN
 10
0.0
 20
0.0
  9
$LIMMAX
 10
302.6798731295
 20
428.0758205689
  9
$VIEWCTR
 10
151.3399365648
 20
214.0379102845
  9
$VIEWSIZE
 40
428.0758205689
  9
$CLAYER
  8
0
  9
$LTSCALE
 40
27.9042016371
  9
$CELTYPE
  6
BYLAYER
  9
$DIMSCALE
 40
1.0
  9
$DIMASZ
 40
3.603331823
  9
$DIMEXO
 40
1.0
  9
$DIMDLI
 40
19.2792665856
  9
$DIMEXE
 40
1.0
  9
$DIMCEN
 40
4.5661420861
  9
$DIMLFAC
 40
1.0
  9
$DIMBLK
  1
_FILLED
  9
$DIMALT
 70
0
  9
$DIMALTF
 40
0.0393700787
  9
$DIMTXT
 40
5.0446645522
  9
$DIMTOL
 70
1
  9
$DIMLIM
 70
0
  9
$DIMTFAC
 40
1.0
  9
$DIMTP
 40
0.01
  9
$DIMTM
 40
0.01
  9
$DIMGAP
 40
0.625
  9
$DIMDSEP
 70
46
  9
$AUNITS
 70
0
  9
$PDMODE
 70
3
  9
$PDSIZE
 40
0.3125
  9
$HANDSEED
  5
2B0
  9
$TILEMODE
 70
1
  9
$MEASUREMENT
 70
1
  9
$INSUNITS
 70
4
  0
ENDSEC
  0
SECTION
  2
CLASSES
  0
CLASS
  1
ACDBDICTIONARYWDFLT
  2
AcDbDictionaryWithDefault
  3
AutoCAD 2000
 90
0
 91
1
280
0
281
0
  0
CLASS
  1
ACDBPLACEHOLDER
  2
AcDbPlaceHolder
  3
AutoCAD 2000
 90
0
 91
1
280
0
281
0
  0
CLASS
  1
LAYOUT
  2
AcDbLayout
  3
AutoCAD 2000
 90
0
 91
0
280
0
281
0
  0
ENDSEC
  0
SECTION
  2
TABLES
  0
TABLE
  2
VPORT
  5
8
100
AcDbSymbolTable
 70
2
  0
VPORT
  5
1F4
100
AcDbSymbolTableRecord
100
AcDbViewportTableRecord
  2
*ACTIVE
 70
0
 10
0.0
 20
0.0
 11
1.0
 21
1.0
 12
151.3399365648
 22
214.0379102845
 13
0.0
 23
0.0
 14
1.0
 24
1.0
 15
0.0
 25
0.0
 16
0.0
 26
0.0
 36
1.0
 17
0.0
 27
0.0
 37
0.0
 40
428.0758205689
 41
0.7070707071
 42
50.0
 43
0.0
 44
0.0
 50
0.0
 51
0.0
 71
0
 72
100
 73
1
 74
1
 75
0
 76
0
 77
0
 78
0
  0
ENDTAB
  0
TABLE
  2
LTYPE
  5
5
100
AcDbSymbolTable
 70
6
  0
LTYPE
  5
14
100
AcDbSymbolTableRecord
100
AcDbLinetypeTableRecord
  2
BYBLOCK
 70
0
  3

 72
65
 73
0
 40
0.0
  0
LTYPE
  5
15
100
AcDbSymbolTableRecord
100
AcDbLinetypeTableRecord
  2
BYLAYER
 70
0
  3

 72
65
 73
0
 40
0.0
  0
LTYPE
  5
16
100
AcDbSymbolTableRecord
100
AcDbLinetypeTableRecord
  2
CONTINUOUS
 70
64
  3
Solid line
 72
65
 73
0
 40
0.0
  0
LTYPE
  5
1F5
100
AcDbSymbolTableRecord
100
AcDbLinetypeTableRecord
  2
CENTER
 70
64
  3
____ _ ____ _ ____ _ ____ _ ____ _ ____ _ ____
 72
65
 73
4
 40
0.6
 49
0.375
 74
0
 49
-0.075
 74
0
 49
0.075
 74
0
 49
-0.075
 74
0
  0
LTYPE
  5
1F6
100
AcDbSymbolTableRecord
100
AcDbLinetypeTableRecord
  2
HIDDEN
 70
64
  3
- - - - - - - - - - - - - - - - - - - -
 72
65
 73
2
 40
0.2
 49
0.1
 74
0
 49
-0.1
 74
0
  0
LTYPE
  5
1F7
100
AcDbSymbolTableRecord
100
AcDbLinetypeTableRecord
  2
PHANTOM
 70
64
  3
_____ _ _ _____ _ _ _____ _ _ _____
 72
65
 73
6
 40
0.8
 49
0.45
 74
0
 49
-0.05
 74
0
 49
0.1
 74
0
 49
-0.05
 74
0
 49
0.1
 74
0
 49
-0.05
 74
0
  0
LTYPE
  5
1F8
100
AcDbSymbolTableRecord
100
AcDbLinetypeTableRecord
  2
DOT
 70
64
  3
. . . . . . . . . . . . . . . . . . . .
 72
65
 73
2
 40
0.2
 49
0.1
 74
0
 49
-0.1
 74
0
  0
LTYPE
  5
1F9
100
AcDbSymbolTableRecord
100
AcDbLinetypeTableRecord
  2
DASHED
 70
64
  3
- - - - - - - - - - - - - - - - - - - -
 72
65
 73
2
 40
0.2
 49
0.1
 74
0
 49
-0.1
 74
0
  0
ENDTAB
  0
TABLE
  2
LAYER
  5
2
100
AcDbSymbolTable
 70
36
  0
LAYER
  5
10
100
AcDbSymbolTableRecord
100
AcDbLayerTableRecord
  2
0
 70
0
 62
7
  6
CONTINUOUS
370
-3
390
F
  0
LAYER
  5
1FA
100
AcDbSymbolTableRecord
100
AcDbLayerTableRecord
  2
DEFAULT_1
 70
0
 62
7
  6
CENTER
370
-3
390
F
  0
LAYER
  5
1FB
100
AcDbSymbolTableRecord
100
AcDbLayerTableRecord
  2
DEFAULT_2
 70
0
 62
7
  6
HIDDEN
370
-3
390
F
  0
LAYER
  5
1FC
100
AcDbSymbolTableRecord
100
AcDbLayerTableRecord
  2
DEFAULT_3
 70
0
 62
7
  6
PHANTOM
370
-3
390
F
  0
LAYER
  5
1FD
100
AcDbSymbolTableRecord
100
AcDbLayerTableRecord
  2
00_COMPONENTS
 70
0
 62
7
  6
CONTINUOUS
370
-3
390
F
  0
LAYER
  5
1FE
100
AcDbSymbolTableRecord
100
AcDbLayerTableRecord
  2
01_1_DEFAULT_DATUMS
 70
0
 62
7
  6
CONTINUOUS
370
-3
390
F
  0
LAYER
  5
1FF
100
AcDbSymbolTableRecord
100
AcDbLayerTableRecord
  2
01_PLANES
 70
0
 62
7
  6
CONTINUOUS
370
-3
390
F
  0
LAYER
  5
200
100
AcDbSymbolTableRecord
100
AcDbLayerTableRecord
  2
02_COORD_SYS
 70
0
 62
7
  6
CONTINUOUS
370
-3
390
F
  0
LAYER
  5
201
100
AcDbSymbolTableRecord
100
AcDbLayerTableRecord
  2
03_AXES
 70
0
 62
7
  6
CONTINUOUS
370
-3
390
F
  0
LAYER
  5
202
100
AcDbSymbolTableRecord
100
AcDbLayerTableRecord
  2
04_POINTS
 70
0
 62
7
  6
CONTINUOUS
370
-3
390
F
  0
LAYER
  5
203
100
AcDbSymbolTableRecord
100
AcDbLayerTableRecord
  2
05_CURVES
 70
0
 62
7
  6
CONTINUOUS
370
-3
390
F
  0
LAYER
  5
204
100
AcDbSymbolTableRecord
100
AcDbLayerTableRecord
  2
06_SURFS
 70
0
 62
7
  6
CONTINUOUS
370
-3
390
F
  0
LAYER
  5
205
100
AcDbSymbolTableRecord
100
AcDbLayerTableRecord
  2
07_COSMETICS
 70
0
 62
7
  6
CONTINUOUS
370
-3
390
F
  0
LAYER
  5
206
100
AcDbSymbolTableRecord
100
AcDbLayerTableRecord
  2
10_NOTES
 70
0
 62
7
  6
CONTINUOUS
370
-3
390
F
  0
LAYER
  5
207
100
AcDbSymbolTableRecord
100
AcDbLayerTableRecord
  2
11_NOTES_PUB
 70
0
 62
7
  6
CONTINUOUS
370
-3
390
F
  0
LAYER
  5
208
100
AcDbSymbolTableRecord
100
AcDbLayerTableRecord
  2
13_REF_GTOL
 70
0
 62
7
  6
CONTINUOUS
370
-3
390
F
  0
LAYER
  5
209
100
AcDbSymbolTableRecord
100
AcDbLayerTableRecord
  2
16_MISC
 70
0
 62
7
  6
CONTINUOUS
370
-3
390
F
  0
LAYER
  5
20A
100
AcDbSymbolTableRecord
100
AcDbLayerTableRecord
  2
17_NO_PRINT
 70
0
 62
7
  6
CONTINUOUS
370
-3
390
F
  0
LAYER
  5
20B
100
AcDbSymbolTableRecord
100
AcDbLayerTableRecord
  2
18_DATUM_CAMS_JOINTS
 70
0
 62
7
  6
CONTINUOUS
370
-3
390
F
  0
LAYER
  5
20C
100
AcDbSymbolTableRecord
100
AcDbLayerTableRecord
  2
19_DATUM_FUNCTIONAL
 70
0
 62
7
  6
CONTINUOUS
370
-3
390
F
  0
LAYER
  5
20D
100
AcDbSymbolTableRecord
100
AcDbLayerTableRecord
  2
20_DATUM_KINEMATIC_SCHEME
 70
0
 62
7
  6
CONTINUOUS
370
-3
390
F
  0
LAYER
  5
20E
100
AcDbSymbolTableRecord
100
AcDbLayerTableRecord
  2
_1
 70
0
 62
7
  6
CONTINUOUS
370
-3
390
F
  0
ENDTAB
  0
TABLE
  2
STYLE
  5
3
100
AcDbSymbolTable
 70
1
  0
STYLE
  5
11
100
AcDbSymbolTableRecord
100
AcDbTextStyleTableRecord
  2
STANDARD
 70
0
 40
0.0
 41
1.0
 50
0.0
 71
0
 42
0.2
  3
ARIAL.TTF
  4

  0
STYLE
  5
20F
100
AcDbSymbolTableRecord
100
AcDbTextStyleTableRecord
  2
TEXTSTYLE_1
 70
0
 40
0.0
 41
0.8
 50
0.0
 71
0
 42
0.2
  3
gdt
  4

  0
ENDTAB
  0
TABLE
  2
VIEW
  5
6
100
AcDbSymbolTable
 70
0
  0
ENDTAB
  0
TABLE
  2
UCS
  5
7
100
AcDbSymbolTable
 70
0
  0
ENDTAB
  0
TABLE
  2
APPID
  5
9
100
AcDbSymbolTable
 70
1
  0
APPID
  5
210
100
AcDbSymbolTableRecord
100
AcDbRegAppTableRecord
  2
ACAD
 70
0
  0
ENDTAB
  0
TABLE
  2
BLOCK_RECORD
  5
1
100
AcDbSymbolTable
 70
0
  0
BLOCK_RECORD
  5
211
100
AcDbSymbolTableRecord
100
AcDbBlockTableRecord
  2
*Model_Space
  0
BLOCK_RECORD
  5
212
100
AcDbSymbolTableRecord
100
AcDbBlockTableRecord
  2
*Paper_Space
  0
BLOCK_RECORD
  5
213
100
AcDbSymbolTableRecord
100
AcDbBlockTableRecord
  2
_FILLED
  0
ENDTAB
  0
TABLE
  2
DIMSTYLE
  5
A
100
AcDbSymbolTable
 70
1
100
AcDbDimStyleTable
 71
0
  0
DIMSTYLE
105
214
100
AcDbSymbolTableRecord
100
AcDbDimStyleTableRecord
  2
STANDARD
 70
0
  3

  4

 40
1.0
 41
3.603331823
 42
1.0
 43
0.38
 44
1.0
 45
0.0
 46
0.0
 47
0.01
 48
0.01
140
5.0446645522
141
0.09
142
0.0
143
25.4
144
1.0
145
0.0
146
1.0
147
0.625
 71
1
 72
0
 73
0
 74
0
 75
0
 76
0
 77
1
 78
8
 79
2
170
0
171
1
172
0
173
0
174
0
175
0
176
0
177
0
178
0
270
2
179
2
271
2
272
2
273
2
274
2
275
0
280
0
281
0
282
0
283
1
284
8
285
0
286
0
287
3
288
0
340
11
278
46
341
213
342
213
343
213
344
213
  0
ENDTAB
  0
ENDSEC
  0
SECTION
  2
BLOCKS
  0
BLOCK
  5
20
100
AcDbEntity
  8
0
100
AcDbBlockBegin
  2
*Model_Space
 70
0
 10
0.0
 20
0.0
 30
0.0
  3
*Model_Space
  1

  0
ENDBLK
  5
21
100
AcDbEntity
  8
0
100
AcDbBlockEnd
  0
BLOCK
  5
1C
100
AcDbEntity
  8
0
100
AcDbBlockBegin
  2
*Paper_Space
 70
0
 10
0.0
 20
0.0
 30
0.0
  3
*Paper_Space
  1

  0
ENDBLK
  5
1D
100
AcDbEntity
  8
0
100
AcDbBlockEnd
  0
BLOCK
  5
215
100
AcDbEntity
  8
0
100
AcDbBlockBegin
  2
_FILLED
 70
64
 10
0.0
 20
0.0
  3
_FILLED
  1

  0
SOLID
  5
216
100
AcDbEntity
  8
0
  6
BYBLOCK
 62
0
100
AcDbTrace
 10
0.0
 20
0.0
 11
-1.0
 21
0.25
 12
-1.0
 22
-0.25
 13
-1.0
 23
-0.25
  0
ENDBLK
  5
217
100
AcDbEntity
  8
0
  6
BYBLOCK
 62
0
100
AcDbBlockEnd
  0
ENDSEC
  0
SECTION
  2
ENTITIES
  0
LINE
  5
218
100
AcDbEntity
  8
_1
100
AcDbLine
 62
7
  6
BYLAYER
 10
34.2347396282
 20
189.7888067159
 11
34.2347396282
 21
198.7887551397
  0
LINE
  5
219
100
AcDbEntity
  8
_1
100
AcDbLine
 62
7
  6
BYLAYER
 10
52.2347396282
 20
174.28880795
 11
52.2347396282
 21
214.2887539055
  0
LINE
  5
21A
100
AcDbEntity
  8
_1
100
AcDbLine
 62
7
  6
BYLAYER
 10
54.2347396282
 20
166.7887809278
 11
54.2347396282
 21
221.7887809278
  0
LINE
  5
21B
100
AcDbEntity
  8
_1
100
AcDbLine
 62
7
  6
BYLAYER
 10
55.7347396282
 20
222.0887809278
 11
55.7347396282
 21
221.7887809278
  0
LINE
  5
21C
100
AcDbEntity
  8
_1
100
AcDbLine
 62
7
  6
BYLAYER
 10
56.2347396282
 20
225.7887809278
 11
56.2347396282
 21
226.5887809278
  0
LINE
  5
21D
100
AcDbEntity
  8
_1
100
AcDbLine
 62
7
  6
BYLAYER
 10
56.6932877439
 20
222.5887809278
 11
56.6932877439
 21
225.7887809278
  0
LINE
  5
21E
100
AcDbEntity
  8
_1
100
AcDbLine
 62
7
  6
BYLAYER
 10
56.6932877439
 20
227.4887809278
 11
56.6932877439
 21
230.6887809278
  0
LINE
  5
21F
100
AcDbEntity
  8
_1
100
AcDbLine
 62
7
  6
BYLAYER
 10
56.7347396282
 20
222.5887809278
 11
56.7347396282
 21
222.0887809278
  0
LINE
  5
220
100
AcDbEntity
  8
_1
100
AcDbLine
 62
7
  6
BYLAYER
 10
56.9347396282
 20
226.5887809278
 11
56.9347396282
 21
227.4887809278
  0
LINE
  5
221
100
AcDbEntity
  8
_1
100
AcDbLine
 62
7
  6
BYLAYER
 10
58.7140136861
 20
222.5887809278
 11
58.7140136861
 21
225.7887809278
  0
LINE
  5
222
100
AcDbEntity
  8
_1
100
AcDbLine
 62
7
  6
BYLAYER
 10
58.7140136861
 20
227.4887809278
 11
58.7140136861
 21
230.6887809278
  0
LINE
  5
223
100
AcDbEntity
  8
_1
100
AcDbLine
 62
7
  6
BYLAYER
 10
58.7347396282
 20
230.6887809278
 11
58.7347396282
 21
234.5887809278
  0
LINE
  5
224
100
AcDbEntity
  8
_1
100
AcDbLine
 62
7
  6
BYLAYER
 10
62.7347396282
 20
221.7887809278
 11
62.7347396282
 21
222.0887809278
  0
LINE
  5
225
100
AcDbEntity
  8
_1
100
AcDbLine
 62
7
  6
BYLAYER
 10
62.7347396282
 20
230.6887809278
 11
62.7347396282
 21
234.5887809278
  0
LINE
  5
226
100
AcDbEntity
  8
_1
100
AcDbLine
 62
7
  6
BYLAYER
 10
62.7554655704
 20
222.5887809278
 11
62.7554655704
 21
225.7887809278
  0
LINE
  5
227
100
AcDbEntity
  8
_1
100
AcDbLine
 62
7
  6
BYLAYER
 10
62.7554655704
 20
227.4887809278
 11
62.7554655704
 21
230.6887809278
  0
LINE
  5
228
100
AcDbEntity
  8
_1
100
AcDbLine
 62
7
  6
BYLAYER
 10
63.2347396282
 20
221.7887809278
 11
63.2347396282
 21
202.2967020807
  0
LINE
  5
229
100
AcDbEntity
  8
_1
100
AcDbLine
 62
7
  6
BYLAYER
 10
63.2347396282
 20
186.2808597748
 11
63.2347396282
 21
166.7887809278
  0
LINE
  5
22A
100
AcDbEntity
  8
_1
100
AcDbLine
 62
7
  6
BYLAYER
 10
64.5347396282
 20
226.5887809278
 11
64.5347396282
 21
227.4887809278
  0
LINE
  5
22B
100
AcDbEntity
  8
_1
100
AcDbLine
 62
7
  6
BYLAYER
 10
64.7347396282
 20
222.5887809278
 11
64.7347396282
 21
222.0887809278
  0
LINE
  5
22C
100
AcDbEntity
  8
_1
100
AcDbLine
 62
7
  6
BYLAYER
 10
64.7761915126
 20
222.5887809278
 11
64.7761915126
 21
225.7887809278
  0
LINE
  5
22D
100
AcDbEntity
  8
_1
100
AcDbLine
 62
7
  6
BYLAYER
 10
64.7761915126
 20
227.4887809278
 11
64.7761915126
 21
230.6887809278
  0
LINE
  5
22E
100
AcDbEntity
  8
_1
100
AcDbLine
 62
7
  6
BYLAYER
 10
65.2347396282
 20
225.7887809278
 11
65.2347396282
 21
226.5887809278
  0
LINE
  5
22F
100
AcDbEntity
  8
_1
100
AcDbLine
 62
7
  6
BYLAYER
 10
83.2347396282
 20
221.7887809278
 11
83.2347396282
 21
222.0887809278
  0
LINE
  5
230
100
AcDbEntity
  8
_1
100
AcDbLine
 62
7
  6
BYLAYER
 10
54.2347396282
 20
166.7887809278
 11
255.6810207805
 21
166.7887809278
  0
LINE
  5
231
100
AcDbEntity
  8
_1
100
AcDbLine
 62
7
  6
BYLAYER
 10
63.2347396282
 20
167.8860227173
 11
182.2347396282
 21
167.8860227173
  0
LINE
  5
232
100
AcDbEntity
  8
_1
100
AcDbLine
 62
7
  6
BYLAYER
 10
249.2347396282
 20
167.8978313439
 11
255.2869108181
 21
167.8978313439
  0
LINE
  5
233
100
AcDbEntity
  8
_1
100
AcDbLine
 62
7
  6
BYLAYER
 10
182.2347396282
 20
167.9002023259
 11
249.2347396282
 21
167.9002023259
  0
LINE
  5
234
100
AcDbEntity
  8
_1
100
AcDbLine
 62
7
  6
BYLAYER
 10
182.2347396282
 20
168.8563458098
 11
63.2347396282
 21
168.8563458098
  0
LINE
  5
235
100
AcDbEntity
  8
_1
100
AcDbLine
 62
7
  6
BYLAYER
 10
255.3282840502
 20
168.8681453842
 11
249.2347396282
 21
168.8681453842
  0
LINE
  5
236
100
AcDbEntity
  8
_1
100
AcDbLine
 62
7
  6
BYLAYER
 10
249.2347396282
 20
168.8704732925
 11
182.2347396282
 21
168.8704732925
  0
LINE
  5
237
100
AcDbEntity
  8
_1
100
AcDbLine
 62
7
  6
BYLAYER
 10
63.2347396282
 20
171.7451482503
 11
54.2347396282
 21
171.7451482503
  0
LINE
  5
238
100
AcDbEntity
  8
_1
100
AcDbLine
 62
7
  6
BYLAYER
 10
63.2347396282
 20
171.8324136052
 11
253.2347396282
 21
171.8324136052
  0
LINE
  5
239
100
AcDbEntity
  8
_1
100
AcDbLine
 62
7
  6
BYLAYER
 10
54.2347396282
 20
174.2887809278
 11
52.2347396282
 21
174.2887809278
  0
LINE
  5
23A
100
AcDbEntity
  8
_1
100
AcDbLine
 62
7
  6
BYLAYER
 10
63.2347396282
 20
176.7887809278
 11
253.2347396282
 21
176.7887809278
  0
LINE
  5
23B
100
AcDbEntity
  8
_1
100
AcDbLine
 62
7
  6
BYLAYER
 10
253.2347396282
 20
177.5849914812
 11
63.2347396282
 21
177.5848483282
  0
LINE
  5
23C
100
AcDbEntity
  8
_1
100
AcDbLine
 62
7
  6
BYLAYER
 10
253.2347396282
 20
178.2887809278
 11
254.8348826636
 21
178.2887809278
  0
LINE
  5
23D
100
AcDbEntity
  8
_1
100
AcDbLine
 62
7
  6
BYLAYER
 10
255.587245953
 20
181.3357682569
 11
256.1796904482
 21
181.3357682569
  0
LINE
  5
23E
100
AcDbEntity
  8
_1
100
AcDbLine
 62
7
  6
BYLAYER
 10
253.2347396282
 20
184.2887809278
 11
254.8348818673
 21
184.2887809278
  0
LINE
  5
23F
100
AcDbEntity
  8
_1
100
AcDbLine
 62
7
  6
BYLAYER
 10
182.2347396282
 20
186.2808597748
 11
63.2347396282
 21
186.2808597748
  0
LINE
  5
240
100
AcDbEntity
  8
_1
100
AcDbLine
 62
7
  6
BYLAYER
 10
253.2347396282
 20
186.5747589
 11
182.2347396282
 21
186.5747589
  0
LINE
  5
241
100
AcDbEntity
  8
_1
100
AcDbLine
 62
7
  6
BYLAYER
 10
253.2347396282
 20
186.6732005718
 11
255.9845611658
 21
186.6732005718
  0
LINE
  5
242
100
AcDbEntity
  8
_1
100
AcDbLine
 62
7
  6
BYLAYER
 10
256.9554029866
 20
187.6237809278
 11
256.4078374294
 21
187.6237809278
  0
LINE
  5
243
100
AcDbEntity
  8
_1
100
AcDbLine
 62
7
  6
BYLAYER
 10
52.2347396282
 20
189.7887809278
 11
34.2347396282
 21
189.7887809278
  0
LINE
  5
244
100
AcDbEntity
  8
_1
100
AcDbLine
 62
7
  6
BYLAYER
 10
54.2347396282
 20
194.2887809278
 11
255.6810207805
 21
194.2887809278
  0
LINE
  5
245
100
AcDbEntity
  8
_1
100
AcDbLine
 62
7
  6
BYLAYER
 10
52.2347396282
 20
198.7887809278
 11
34.2347396282
 21
198.7887809278
  0
LINE
  5
246
100
AcDbEntity
  8
_1
100
AcDbLine
 62
7
  6
BYLAYER
 10
255.626735206
 20
199.7887809278
 11
249.2347396282
 21
199.7887809278
  0
LINE
  5
247
100
AcDbEntity
  8
_1
100
AcDbLine
 62
7
  6
BYLAYER
 10
256.4078374294
 20
200.9537809278
 11
256.9554029866
 21
200.9537809278
  0
LINE
  5
248
100
AcDbEntity
  8
_1
100
AcDbLine
 62
7
  6
BYLAYER
 10
182.2347396282
 20
202.0028029556
 11
220.2347396282
 21
202.0028029556
  0
LINE
  5
249
100
AcDbEntity
  8
_1
100
AcDbLine
 62
7
  6
BYLAYER
 10
63.2347396282
 20
202.2967020807
 11
182.2347396282
 21
202.2967020807
  0
LINE
  5
24A
100
AcDbEntity
  8
_1
100
AcDbLine
 62
7
  6
BYLAYER
 10
182.2488087946
 20
211.7910211308
 11
220.2347123242
 21
217.8236825488
  0
LINE
  5
24B
100
AcDbEntity
  8
_1
100
AcDbLine
 62
7
  6
BYLAYER
 10
182.2347396282
 20
216.7451482518
 11
220.2347396282
 21
221.7887809278
  0
LINE
  5
24C
100
AcDbEntity
  8
_1
100
AcDbLine
 62
7
  6
BYLAYER
 10
63.2347396282
 20
210.9927135273
 11
182.2347396282
 21
210.9927135273
  0
LINE
  5
24D
100
AcDbEntity
  8
_1
100
AcDbLine
 62
7
  6
BYLAYER
 10
182.2347396282
 20
211.7887809278
 11
63.2347396282
 21
211.7887809278
  0
LINE
  5
24E
100
AcDbEntity
  8
_1
100
AcDbLine
 62
7
  6
BYLAYER
 10
253.2347396282
 20
212.2887809278
 11
255.6653194288
 21
212.2887809278
  0
LINE
  5
24F
100
AcDbEntity
  8
_1
100
AcDbLine
 62
7
  6
BYLAYER
 10
253.2347396282
 20
213.2887809278
 11
254.8348826636
 21
213.2887809278
  0
LINE
  5
250
100
AcDbEntity
  8
_1
100
AcDbLine
 62
7
  6
BYLAYER
 10
54.2347396282
 20
214.2887809278
 11
52.2347396282
 21
214.2887809278
  0
LINE
  5
251
100
AcDbEntity
  8
_1
100
AcDbLine
 62
7
  6
BYLAYER
 10
182.2347396158
 20
220.797507468
 11
220.2347396282
 21
221.7887809278
  0
LINE
  5
252
100
AcDbEntity
  8
_1
100
AcDbLine
 62
7
  6
BYLAYER
 10
182.2347396282
 20
216.7451482503
 11
63.2347396282
 21
216.7451482503
  0
LINE
  5
253
100
AcDbEntity
  8
_1
100
AcDbLine
 62
7
  6
BYLAYER
 10
54.2347396282
 20
216.8324136052
 11
63.2347396282
 21
216.8324136052
  0
LINE
  5
254
100
AcDbEntity
  8
_1
100
AcDbLine
 62
7
  6
BYLAYER
 10
220.2347396282
 20
217.8236870685
 11
222.4500606245
 21
217.8236870685
  0
LINE
  5
255
100
AcDbEntity
  8
_1
100
AcDbLine
 62
7
  6
BYLAYER
 10
253.2347396282
 20
219.2887809278
 11
254.8348818673
 21
219.2887809278
  0
LINE
  5
256
100
AcDbEntity
  8
_1
100
AcDbLine
 62
7
  6
BYLAYER
 10
63.2347396282
 20
220.7975074633
 11
182.2347396282
 21
220.7975074633
  0
LINE
  5
257
100
AcDbEntity
  8
_1
100
AcDbLine
 62
7
  6
BYLAYER
 10
244.9847396282
 20
221.4913988884
 11
249.2347396282
 21
221.4913988884
  0
LINE
  5
258
100
AcDbEntity
  8
_1
100
AcDbLine
 62
7
  6
BYLAYER
 10
220.4847396282
 20
221.7887809278
 11
54.2347396282
 21
221.7887809278
  0
LINE
  5
259
100
AcDbEntity
  8
_1
100
AcDbLine
 62
7
  6
BYLAYER
 10
246.0340873496
 20
221.7887809278
 11
255.6810207805
 21
221.7887809278
  0
LINE
  5
25A
100
AcDbEntity
  8
_1
100
AcDbLine
 62
7
  6
BYLAYER
 10
216.735612315
 20
221.8887809278
 11
246.9838669415
 21
221.8887809278
  0
LINE
  5
25B
100
AcDbEntity
  8
_1
100
AcDbLine
 62
7
  6
BYLAYER
 10
55.7347396282
 20
222.0887809278
 11
83.2347396282
 21
222.0887809278
  0
LINE
  5
25C
100
AcDbEntity
  8
_1
100
AcDbLine
 62
7
  6
BYLAYER
 10
56.6932877439
 20
222.5887809278
 11
64.7761915126
 21
222.5887809278
  0
LINE
  5
25D
100
AcDbEntity
  8
_1
100
AcDbLine
 62
7
  6
BYLAYER
 10
65.2347396282
 20
225.7887809278
 11
56.2347396282
 21
225.7887809278
  0
LINE
  5
25E
100
AcDbEntity
  8
_1
100
AcDbLine
 62
7
  6
BYLAYER
 10
220.7347396282
 20
226.4887809278
 11
246.7347396282
 21
226.4887809278
  0
LINE
  5
25F
100
AcDbEntity
  8
_1
100
AcDbLine
 62
7
  6
BYLAYER
 10
56.2347396282
 20
226.5887809278
 11
65.2347396282
 21
226.5887809278
  0
LINE
  5
260
100
AcDbEntity
  8
_1
100
AcDbLine
 62
7
  6
BYLAYER
 10
56.6932877439
 20
227.4887809278
 11
64.7761915126
 21
227.4887809278
  0
LINE
  5
261
100
AcDbEntity
  8
_1
100
AcDbLine
 62
7
  6
BYLAYER
 10
220.9847396282
 20
228.4887809278
 11
226.4847396282
 21
228.4887809278
  0
LINE
  5
262
100
AcDbEntity
  8
_1
100
AcDbLine
 62
7
  6
BYLAYER
 10
240.9847396282
 20
228.4887809278
 11
246.4847396282
 21
228.4887809278
  0
LINE
  5
263
100
AcDbEntity
  8
_1
100
AcDbLine
 62
7
  6
BYLAYER
 10
221.4848837038
 20
228.9887809278
 11
225.9845955526
 21
228.9887809278
  0
LINE
  5
264
100
AcDbEntity
  8
_1
100
AcDbLine
 62
7
  6
BYLAYER
 10
241.4848837038
 20
228.9887809278
 11
245.9845955526
 21
228.9887809278
  0
LINE
  5
265
100
AcDbEntity
  8
_1
100
AcDbLine
 62
7
  6
BYLAYER
 10
252.7347396282
 20
230.0887809278
 11
219.7347548593
 21
230.0887809278
  0
LINE
  5
266
100
AcDbEntity
  8
_1
100
AcDbLine
 62
7
  6
BYLAYER
 10
56.6932877439
 20
230.6887809278
 11
64.7761915126
 21
230.6887809278
  0
LINE
  5
267
100
AcDbEntity
  8
_1
100
AcDbLine
 62
7
  6
BYLAYER
 10
58.7347396282
 20
234.5887809278
 11
62.7347396282
 21
234.5887809278
  0
LINE
  5
268
100
AcDbEntity
  8
_1
100
AcDbLine
 62
7
  6
BYLAYER
 10
273.6847396282
 20
235.7887809278
 11
255.7347396282
 21
235.7887809278
  0
LINE
  5
269
100
AcDbEntity
  8
_1
100
AcDbLine
 62
7
  6
BYLAYER
 10
182.2347396282
 20
221.7887809278
 11
182.2347396282
 21
166.7887809278
  0
LINE
  5
26A
100
AcDbEntity
  8
_1
100
AcDbLine
 62
7
  6
BYLAYER
 10
273.6847396282
 20
258.7887809278
 11
255.7347396282
 21
258.7887809278
  0
LINE
  5
26B
100
AcDbEntity
  8
_1
100
AcDbLine
 62
7
  6
BYLAYER
 10
219.7347457689
 20
261.2887809278
 11
235.4549807788
 21
261.2887809278
  0
LINE
  5
26C
100
AcDbEntity
  8
_1
100
AcDbLine
 62
7
  6
BYLAYER
 10
235.4549807788
 20
261.2887809278
 11
257.7347396282
 21
259.3395546023
  0
LINE
  5
26D
100
AcDbEntity
  8
_1
100
AcDbLine
 62
7
  6
BYLAYER
 10
219.7347396282
 20
230.0887809278
 11
219.7347396282
 21
261.2887809278
  0
LINE
  5
26E
100
AcDbEntity
  8
_1
100
AcDbLine
 62
7
  6
BYLAYER
 10
220.2347396282
 20
202.0028029556
 11
220.2347097392
 21
221.7887720769
  0
LINE
  5
26F
100
AcDbEntity
  8
_1
100
AcDbLine
 62
7
  6
BYLAYER
 10
220.7347396282
 20
226.4887809278
 11
220.7347396282
 21
221.8887809278
  0
LINE
  5
270
100
AcDbEntity
  8
_1
100
AcDbLine
 62
7
  6
BYLAYER
 10
220.9847396282
 20
226.4887809278
 11
220.9847396282
 21
228.4887809278
  0
LINE
  5
271
100
AcDbEntity
  8
_1
100
AcDbLine
 62
7
  6
BYLAYER
 10
221.7347396282
 20
228.9887809278
 11
221.7347396282
 21
230.0887809278
  0
LINE
  5
272
100
AcDbEntity
  8
_1
100
AcDbLine
 62
7
  6
BYLAYER
 10
223.7347396282
 20
221.8887809278
 11
223.7347396282
 21
226.4887809278
  0
LINE
  5
273
100
AcDbEntity
  8
_1
100
AcDbLine
 62
7
  6
BYLAYER
 10
219.0784896282
 20
221.7887809278
 11
219.0789532431
 21
221.8887809278
  0
LINE
  5
274
100
AcDbEntity
  8
_1
100
AcDbLine
 62
7
  6
BYLAYER
 10
216.735612315
 20
221.8887809278
 11
216.7347396282
 21
221.7887809278
  0
LINE
  5
275
100
AcDbEntity
  8
_1
100
AcDbLine
 62
7
  6
BYLAYER
 10
220.485612315
 20
221.8887809278
 11
220.4802108264
 21
221.2698316423
  0
LINE
  5
276
100
AcDbEntity
  8
_1
100
AcDbLine
 62
7
  6
BYLAYER
 10
222.4855361611
 20
221.8887809278
 11
222.4500606245
 21
217.8236870685
  0
LINE
  5
277
100
AcDbEntity
  8
_1
100
AcDbLine
 62
7
  6
BYLAYER
 10
223.9961506139
 20
230.0887809278
 11
223.9961506139
 21
228.9887809278
  0
LINE
  5
278
100
AcDbEntity
  8
_1
100
AcDbLine
 62
7
  6
BYLAYER
 10
226.4847396282
 20
226.4887809278
 11
226.4847396282
 21
228.4887809278
  0
LINE
  5
279
100
AcDbEntity
  8
_1
100
AcDbLine
 62
7
  6
BYLAYER
 10
226.7233286426
 20
226.4887809278
 11
226.7233286426
 21
230.0887809278
  0
LINE
  5
27A
100
AcDbEntity
  8
_1
100
AcDbLine
 62
7
  6
BYLAYER
 10
233.7347396282
 20
230.0887809278
 11
233.7347396282
 21
247.3858048013
  0
LINE
  5
27B
100
AcDbEntity
  8
_1
100
AcDbLine
 62
7
  6
BYLAYER
 10
240.7461506139
 20
230.0887809278
 11
240.7461506139
 21
226.4887809278
  0
LINE
  5
27C
100
AcDbEntity
  8
_1
100
AcDbLine
 62
7
  6
BYLAYER
 10
220.995009192
 20
261.2887809278
 11
233.7347396282
 21
247.3858048014
  0
LINE
  5
27D
100
AcDbEntity
  8
_1
100
AcDbLine
 62
7
  6
BYLAYER
 10
246.9847396282
 20
221.7887809278
 11
246.9838669415
 21
221.8887809278
  0
LINE
  5
27E
100
AcDbEntity
  8
_1
100
AcDbLine
 62
7
  6
BYLAYER
 10
240.9847396282
 20
226.4887809278
 11
240.9847396282
 21
228.4887809278
  0
LINE
  5
27F
100
AcDbEntity
  8
_1
100
AcDbLine
 62
7
  6
BYLAYER
 10
243.4733286426
 20
228.9887809278
 11
243.4733286426
 21
230.0887809278
  0
LINE
  5
280
100
AcDbEntity
  8
_1
100
AcDbLine
 62
7
  6
BYLAYER
 10
243.7347396282
 20
226.4887809278
 11
243.7347396282
 21
221.8887809278
  0
LINE
  5
281
100
AcDbEntity
  8
_1
100
AcDbLine
 62
7
  6
BYLAYER
 10
244.9847396282
 20
221.8887809278
 11
244.9847396282
 21
221.4913988884
  0
LINE
  5
282
100
AcDbEntity
  8
_1
100
AcDbLine
 62
7
  6
BYLAYER
 10
245.7347396282
 20
228.9887809278
 11
245.7347396282
 21
230.0887809278
  0
LINE
  5
283
100
AcDbEntity
  8
_1
100
AcDbLine
 62
7
  6
BYLAYER
 10
246.4847396282
 20
226.4887809278
 11
246.4847396282
 21
228.4887809278
  0
LINE
  5
284
100
AcDbEntity
  8
_1
100
AcDbLine
 62
7
  6
BYLAYER
 10
246.7347396282
 20
221.8887809278
 11
246.7347396282
 21
226.4887809278
  0
LINE
  5
285
100
AcDbEntity
  8
_1
100
AcDbLine
 62
7
  6
BYLAYER
 10
249.2347396282
 20
176.7858665962
 11
249.2347396282
 21
166.7887809278
  0
LINE
  5
286
100
AcDbEntity
  8
_1
100
AcDbLine
 62
7
  6
BYLAYER
 10
249.2347396282
 20
176.7887809278
 11
249.2347396282
 21
221.7887809278
  0
LINE
  5
287
100
AcDbEntity
  8
_1
100
AcDbLine
 62
7
  6
BYLAYER
 10
253.2347396282
 20
221.7887809278
 11
253.2347396282
 21
212.2887809278
  0
LINE
  5
288
100
AcDbEntity
  8
_1
100
AcDbLine
 62
7
  6
BYLAYER
 10
253.2347396282
 20
186.6732005718
 11
253.2347396282
 21
171.8324136052
  0
LINE
  5
289
100
AcDbEntity
  8
_1
100
AcDbLine
 62
7
  6
BYLAYER
 10
254.8348802758
 20
219.2887809278
 11
254.8348810327
 21
213.2887809278
  0
LINE
  5
28A
100
AcDbEntity
  8
_1
100
AcDbLine
 62
7
  6
BYLAYER
 10
254.8348802758
 20
184.2887809278
 11
254.8348810327
 21
178.2887809278
  0
LINE
  5
28B
100
AcDbEntity
  8
_1
100
AcDbLine
 62
7
  6
BYLAYER
 10
255.7347396282
 20
235.0887809278
 11
255.7347396282
 21
259.5145319294
  0
LINE
  5
28C
100
AcDbEntity
  8
_1
100
AcDbLine
 62
7
  6
BYLAYER
 10
257.7347396282
 20
259.3395546023
 11
257.7347396282
 21
258.7887809278
  0
LINE
  5
28D
100
AcDbEntity
  8
_1
100
AcDbLine
 62
7
  6
BYLAYER
 10
257.7347396282
 20
235.7887809278
 11
257.7347396282
 21
235.0887809278
  0
LWPOLYLINE
  5
28E
100
AcDbEntity
  8
_1
100
AcDbPolyline
 62
7
  6
BYLAYER
 90
4
 70
0
 10
254.8348881773
 20
213.2887809278
 10
255.5862229388
 20
215.6950854874
 10
255.5880995637
 20
216.8703587599
 10
254.8348881783
 20
219.2887809278
  0
LWPOLYLINE
  5
28F
100
AcDbEntity
  8
_1
100
AcDbPolyline
 62
7
  6
BYLAYER
 90
4
 70
0
 10
254.8348881773
 20
178.2887809278
 10
255.5862229388
 20
180.6950854874
 10
255.5880995637
 20
181.8703587599
 10
254.8348881783
 20
184.2887809278
  0
LINE
  5
290
100
AcDbEntity
  8
_1
100
AcDbLine
 62
7
  6
BYLAYER
 10
270.6847396282
 20
258.7885892837
 11
270.6847396282
 21
235.7889725719
  0
LINE
  5
291
100
AcDbEntity
  8
_1
100
AcDbLine
 62
7
  6
BYLAYER
 10
273.6847396282
 20
258.788591617
 11
273.6847396282
 21
235.7889702385
  0
ARC
  5
292
100
AcDbEntity
  8
_1
100
AcDbCircle
 62
7
  6
BYLAYER
 10
-22.9652603718
 20
194.2887809278
 40
280.0
100
AcDbArc
 50
354.3636496361
 51
358.6360269923
  0
ARC
  5
293
100
AcDbEntity
  8
_1
100
AcDbCircle
 62
7
  6
BYLAYER
 10
-22.9652278084
 20
194.2887829195
 40
279.9999673984
100
AcDbArc
 50
1.3639727588
 51
5.6363506127
  0
ARC
  5
294
100
AcDbEntity
  8
_1
100
AcDbCircle
 62
7
  6
BYLAYER
 10
-22.9652603718
 20
194.2887809278
 40
279.5
100
AcDbArc
 50
358.6335865068
 51
1.3664134932
  0
ARC
  5
295
100
AcDbEntity
  8
_1
100
AcDbCircle
 62
7
  6
BYLAYER
 10
-22.9652603718
 20
194.2887809278
 40
279.4834521041
100
AcDbArc
 50
4.5148023322
 51
5.6468014273
  0
ARC
  5
296
100
AcDbEntity
  8
_1
100
AcDbCircle
 62
7
  6
BYLAYER
 10
-22.9789926092
 20
194.1364628199
 40
279.4520139624
100
AcDbArc
 50
354.8121753338
 51
357.3745671476
  0
ARC
  5
297
100
AcDbEntity
  8
_1
100
AcDbCircle
 62
7
  6
BYLAYER
 10
-22.9652603718
 20
194.2887809278
 40
279.2848008754
100
AcDbArc
 50
359.1455110794
 51
0.8544889206
  0
ARC
  5
298
100
AcDbEntity
  8
_1
100
AcDbCircle
 62
7
  6
BYLAYER
 10
-22.9791895044
 20
194.5277177636
 40
278.6555940033
100
AcDbArc
 50
1.0818179602
 51
3.6544188629
  0
ARC
  5
299
100
AcDbEntity
  8
_1
100
AcDbCircle
 62
7
  6
BYLAYER
 10
-22.9652603718
 20
194.2887809278
 40
278.6462811523
100
AcDbArc
 50
0.0
 51
1.1309939319
  0
ARC
  5
29A
100
AcDbEntity
  8
_1
100
AcDbCircle
 62
7
  6
BYLAYER
 10
-22.9570599101
 20
194.048977032
 40
278.6381838816
100
AcDbArc
 50
358.4831575326
 51
0.0493103732
  0
ARC
  5
29B
100
AcDbEntity
  8
_1
100
AcDbCircle
 62
7
  6
BYLAYER
 10
252.7347396282
 20
235.0887809278
 40
5.0
100
AcDbArc
 50
270.0
 51
360.0
  0
ARC
  5
29C
100
AcDbEntity
  8
_1
100
AcDbCircle
 62
7
  6
BYLAYER
 10
250.7347396282
 20
235.0887809278
 40
5.0
100
AcDbArc
 50
270.0
 51
360.0
  0
ARC
  5
29D
100
AcDbEntity
  8
_1
100
AcDbCircle
 62
7
  6
BYLAYER
 10
225.9847396282
 20
228.4887809278
 40
0.5
100
AcDbArc
 50
0.0
 51
90.0
  0
ARC
  5
29E
100
AcDbEntity
  8
_1
100
AcDbCircle
 62
7
  6
BYLAYER
 10
221.4847396282
 20
228.4887809278
 40
0.5
100
AcDbArc
 50
90.0
 51
180.0
  0
ARC
  5
29F
100
AcDbEntity
  8
_1
100
AcDbCircle
 62
7
  6
BYLAYER
 10
245.9847396282
 20
228.4887809278
 40
0.5
100
AcDbArc
 50
0.0
 51
90.0
  0
ARC
  5
2A0
100
AcDbEntity
  8
_1
100
AcDbCircle
 62
7
  6
BYLAYER
 10
241.4847396282
 20
228.4887809278
 40
0.5
100
AcDbArc
 50
90.0
 51
180.0
  0
SPLINE
  5
2A1
100
AcDbEntity
  8
_1
100
AcDbSpline
 62
7
  6
BYLAYER
 70
0
 71
3
 72
17
 73
13
 74
0
 42
0.0000001
 43
0.0000001
 44
0.0000000001
 40
0.0
 40
0.0
 40
0.0
 40
0.0
 40
0.0076891164
 40
0.0231123002
 40
0.0474200581
 40
0.0806469658
 40
0.1728748034
 40
0.2966513524
 40
0.4473822824
 40
0.6193194779
 40
0.8059478256
 40
1.0
 40
1.0
 40
1.0
 40
1.0
 10
256.4078424444
 20
187.6237809278
 30
0.0
 10
256.4013963509
 20
187.6237809278
 30
0.0
 10
256.3867931705
 20
187.6419497069
 30
0.0
 10
256.3757201418
 20
187.6780703587
 30
0.0
 10
256.3615396821
 20
187.738680922
 30
0.0
 10
256.3431378364
 20
187.8623650754
 30
0.0
 10
256.3234547029
 20
188.0708811812
 30
0.0
 10
256.3056673279
 20
188.377656906
 30
0.0
 10
256.2925684344
 20
188.7517941822
 30
0.0
 10
256.2849739293
 20
189.1786839404
 30
0.0
 10
256.283240698
 20
189.641981997
 30
0.0
 10
256.2860396752
 20
189.9611173463
 30
0.0
 10
256.2884670062
 20
190.1237809278
 30
0.0
  0
SPLINE
  5
2A2
100
AcDbEntity
  8
_1
100
AcDbSpline
 62
7
  6
BYLAYER
 70
0
 71
3
 72
17
 73
13
 74
0
 42
0.0000001
 43
0.0000001
 44
0.0000000001
 40
0.0
 40
0.0
 40
0.0
 40
0.0
 40
0.1940207621
 40
0.3805747354
 40
0.5525158259
 40
0.703247923
 40
0.827051103
 40
0.9193108572
 40
0.9525528531
 40
0.9768745593
 40
0.992307475
 40
1.0
 40
1.0
 40
1.0
 40
1.0
 10
256.2884679119
 20
198.4537809278
 30
0.0
 10
256.2860416568
 20
198.6164180967
 30
0.0
 10
256.2832495506
 20
198.9354646187
 30
0.0
 10
256.2849731628
 20
199.3986769618
 30
0.0
 10
256.2925583541
 20
199.8255085629
 30
0.0
 10
256.3056560444
 20
200.1996722937
 30
0.0
 10
256.3234406823
 20
200.5064979673
 30
0.0
 10
256.3431259138
 20
200.7150762338
 30
0.0
 10
256.3615295805
 20
200.8388108879
 30
0.0
 10
256.3757113314
 20
200.8994558954
 30
0.0
 10
256.3867845903
 20
200.9355971479
 30
0.0
 10
256.4013926988
 20
200.9537809278
 30
0.0
 10
256.4078416463
 20
200.9537809278
 30
0.0
  0
SPLINE
  5
2A3
100
AcDbEntity
  8
_1
100
AcDbSpline
 62
7
  6
BYLAYER
 70
0
 71
3
 72
13
 73
9
 74
0
 42
0.0000001
 43
0.0000001
 44
0.0000000001
 40
0.0
 40
0.0
 40
0.0
 40
0.0
 40
0.0501361961
 40
0.1275968189
 40
0.2303147048
 40
0.3554414583
 40
0.6577559116
 40
1.0
 40
1.0
 40
1.0
 40
1.0
 10
255.2869108181
 20
167.8978313439
 30
0.0
 10
255.2838186376
 20
167.9137827823
 30
0.0
 10
255.2807499239
 20
167.9551787325
 30
0.0
 10
255.2790149738
 20
168.0297440448
 30
0.0
 10
255.280341072
 20
168.1287256411
 30
0.0
 10
255.2863588811
 20
168.3004300209
 30
0.0
 10
255.3014305178
 20
168.5494613706
 30
0.0
 10
255.3182545988
 20
168.7576836277
 30
0.0
 10
255.3282840502
 20
168.8681453842
 30
0.0
  0
SPLINE
  5
2A4
100
AcDbEntity
  8
_1
100
AcDbSpline
 62
7
  6
BYLAYER
 70
0
 71
3
 72
12
 73
8
 74
0
 42
0.0000001
 43
0.0000001
 44
0.0000000001
 40
0.0
 40
0.0
 40
0.0
 40
0.0
 40
0.055595024
 40
0.1306531874
 40
0.3403656973
 40
0.6301839313
 40
1.0
 40
1.0
 40
1.0
 40
1.0
 10
255.574147965
 20
166.7887809278
 30
0.0
 10
255.5633542708
 20
166.8071173123
 30
0.0
 10
255.5422754252
 20
166.8526567765
 30
0.0
 10
255.497560826
 20
166.975029329
 30
0.0
 10
255.438865547
 20
167.1872549072
 30
0.0
 10
255.3638453364
 20
167.5113744818
 30
0.0
 10
255.3138461694
 20
167.758881628
 30
0.0
 10
255.2869108181
 20
167.8978313439
 30
0.0
  0
SPLINE
  5
2A5
100
AcDbEntity
  8
_1
100
AcDbSpline
 62
7
  6
BYLAYER
 70
0
 71
3
 72
20
 73
16
 74
0
 42
0.0000001
 43
0.0000001
 44
0.0000000001
 40
0.0
 40
0.0
 40
0.0
 40
0.0
 40
0.1940585694
 40
0.3804031448
 40
0.5519365687
 40
0.7021414076
 40
0.7674450878
 40
0.8253990433
 40
0.8754714189
 40
0.9172544166
 40
0.9504306138
 40
0.974881999
 40
0.9838890954
 40
0.9908745845
 40
1.0
 40
1.0
 40
1.0
 40
1.0
 10
256.1796904482
 20
181.3357682569
 30
0.0
 10
256.195642377
 20
181.6836706151
 30
0.0
 10
256.2215218676
 20
182.365905848
 30
0.0
 10
256.2427726074
 20
183.3562630445
 30
0.0
 10
256.245397404
 20
184.2681448878
 30
0.0
 10
256.2318097631
 20
184.9627164801
 30
0.0
 10
256.2101357323
 20
185.4530320999
 30
0.0
 10
256.1902731301
 20
185.7634905908
 30
0.0
 10
256.166208792
 20
186.0313056611
 30
0.0
 10
256.1385463738
 20
186.2540398698
 30
0.0
 10
256.1071358283
 20
186.4298067546
 30
0.0
 10
256.0772649209
 20
186.5457069935
 30
0.0
 10
256.0487903235
 20
186.6131519146
 30
0.0
 10
256.026905876
 20
186.6514413584
 30
0.0
 10
256.0009381241
 20
186.6732005718
 30
0.0
 10
255.9845611658
 20
186.6732005718
 30
0.0
  0
SPLINE
  5
2A6
100
AcDbEntity
  8
_1
100
AcDbSpline
 62
7
  6
BYLAYER
 70
0
 71
3
 72
19
 73
15
 74
0
 42
0.0000001
 43
0.0000001
 44
0.0000000001
 40
0.0
 40
0.0
 40
0.0
 40
0.0
 40
0.0084279414
 40
0.015172679
 40
0.0239989781
 40
0.0482260424
 40
0.0813151429
 40
0.1231189114
 40
0.1732958876
 40
0.2969258562
 40
0.4475972611
 40
0.619520806
 40
0.8060511007
 40
1.0
 40
1.0
 40
1.0
 40
1.0
 10
255.6653109912
 20
212.2887809278
 30
0.0
 10
255.6766270156
 20
212.2887809278
 30
0.0
 10
255.6941248109
 20
212.3058675881
 30
0.0
 10
255.7075913093
 20
212.334115026
 30
0.0
 10
255.7253279873
 20
212.38510549
 30
0.0
 10
255.7424031176
 20
212.4722292048
 30
0.0
 10
255.7590244574
 20
212.604405915
 30
0.0
 10
255.7717300976
 20
212.7718750734
 30
0.0
 10
255.7846291712
 20
213.0611240276
 30
0.0
 10
255.7882746694
 20
213.4968916649
 30
0.0
 10
255.7769909512
 20
214.0959609753
 30
0.0
 10
255.7499014883
 20
214.7790606979
 30
0.0
 10
255.708024235
 20
215.5196052642
 30
0.0
 10
255.6714463927
 20
216.0291780771
 30
0.0
 10
255.6509436591
 20
216.2887809278
 30
0.0
  0
SPLINE
  5
2A7
100
AcDbEntity
  8
_1
100
AcDbSpline
 62
7
  6
BYLAYER
 70
0
 71
3
 72
9
 73
5
 74
0
 42
0.0000001
 43
0.0000001
 44
0.0000000001
 40
0.0
 40
0.0
 40
0.0
 40
0.0
 40
0.2825455015
 40
1.0
 40
1.0
 40
1.0
 40
1.0
 10
182.2347396282
 20
221.5620472259
 30
0.0
 10
182.2375417775
 20
221.5725549247
 30
0.0
 10
182.2457664837
 20
221.6096008248
 30
0.0
 10
182.2476967085
 20
221.6520887662
 30
0.0
 10
182.2347396282
 20
221.6764743336
 30
0.0
  0
SPLINE
  5
2A8
100
AcDbEntity
  8
_1
100
AcDbSpline
 62
7
  6
BYLAYER
 70
0
 71
3
 72
10
 73
6
 74
0
 42
0.0000001
 43
0.0000001
 44
0.0000000001
 40
0.0
 40
0.0
 40
0.0
 40
0.0
 40
0.21255504
 40
0.4645829691
 40
1.0
 40
1.0
 40
1.0
 40
1.0
 10
182.2347396282
 20
221.7471893895
 30
0.0
 10
182.2688311679
 20
221.760125251
 30
0.0
 10
182.3480796716
 20
221.7747028508
 30
0.0
 10
182.5189826244
 20
221.7866039509
 30
0.0
 10
182.654248234
 20
221.7887809278
 30
0.0
 10
182.7460976312
 20
221.7887809278
 30
0.0
  0
SPLINE
  5
2A9
100
AcDbEntity
  8
_1
100
AcDbSpline
 62
7
  6
BYLAYER
 70
0
 71
3
 72
13
 73
9
 74
0
 42
0.0000001
 43
0.0000001
 44
0.0000000001
 40
0.0
 40
0.0
 40
0.0
 40
0.0
 40
0.0820928286
 40
0.1840805006
 40
0.3016837926
 40
0.4304705075
 40
0.7086288842
 40
1.0
 40
1.0
 40
1.0
 40
1.0
 10
220.4802116076
 20
221.2699211535
 30
0.0
 10
220.4792564239
 20
221.1604679424
 30
0.0
 10
220.5344488456
 20
220.9164184521
 30
0.0
 10
220.6914632532
 20
220.5463287432
 30
0.0
 10
220.9113013144
 20
220.136334855
 30
0.0
 10
221.2733916278
 20
219.5379106426
 30
0.0
 10
221.7941566898
 20
218.7656009798
 30
0.0
 10
222.2276114514
 20
218.1421919308
 30
0.0
 10
222.4500606245
 20
217.8236870685
 30
0.0
  0
SPLINE
  5
2AA
100
AcDbEntity
  8
_1
100
AcDbSpline
 62
7
  6
BYLAYER
 70
0
 71
3
 72
14
 73
10
 74
0
 42
0.0000001
 43
0.0000001
 44
0.0000000001
 40
0.0
 40
0.0
 40
0.0
 40
0.0
 40
0.1248558541
 40
0.2497363377
 40
0.3746842146
 40
0.4997135145
 40
0.6247886938
 40
0.749872302
 40
1.0
 40
1.0
 40
1.0
 40
1.0
 10
182.2347372181
 20
211.7887829366
 30
0.0
 10
183.8139571933
 20
211.9043033291
 30
0.0
 10
186.972739334
 20
212.1349678146
 30
0.0
 10
191.7139221722
 20
212.4533376765
 30
0.0
 10
196.4607429362
 20
212.716924141
 30
0.0
 10
201.2129169033
 20
212.9210027396
 30
0.0
 10
205.9681328156
 20
213.0895373628
 30
0.0
 10
212.3093956279
 20
213.2983644906
 30
0.0
 10
217.0649135718
 20
213.466952212
 30
0.0
 10
220.2347396282
 20
213.5884758806
 30
0.0
  0
SPLINE
  5
2AB
100
AcDbEntity
  8
_1
100
AcDbSpline
 62
7
  6
BYLAYER
 70
0
 71
3
 72
10
 73
6
 74
0
 42
0.0000001
 43
0.0000001
 44
0.0000000001
 40
0.0
 40
0.0
 40
0.0
 40
0.0
 40
0.2327389667
 40
0.4809284915
 40
1.0
 40
1.0
 40
1.0
 40
1.0
 10
246.0340873496
 20
221.7887809278
 30
0.0
 10
245.9491130649
 20
221.7887809278
 30
0.0
 10
245.7739032913
 20
221.7623143286
 30
0.0
 10
245.4228203997
 20
221.661944163
 30
0.0
 10
245.161480351
 20
221.5598020006
 30
0.0
 10
244.9847396282
 20
221.4913988884
 30
0.0
  0
SPLINE
  5
2AC
100
AcDbEntity
  8
_1
100
AcDbSpline
 62
7
  6
BYLAYER
 70
0
 71
3
 72
11
 73
7
 74
0
 42
0.0000001
 43
0.0000001
 44
0.0000000001
 40
0.0
 40
0.0
 40
0.0
 40
0.0
 40
0.2500052873
 40
0.4999981327
 40
0.7499922757
 40
1.0
 40
1.0
 40
1.0
 40
1.0
 10
220.2347396282
 20
213.5884758806
 30
0.0
 10
217.0656144051
 20
213.4096993636
 30
0.0
 10
210.7284100556
 20
213.0357242041
 30
0.0
 10
201.2278675562
 20
212.3917937811
 30
0.0
 10
191.7330944746
 20
211.6691781834
 30
0.0
 10
185.4016881053
 20
211.2066937038
 30
0.0
 10
182.2347351772
 20
210.9924011439
 30
0.0
  0
ELLIPSE
  5
2AD
100
AcDbEntity
  8
_1
100
AcDbEllipse
 62
7
  6
BYLAYER
 10
634.6422855891
 20
212.3109394078
 30
0.0
 11
400.905684634
 21
-35.1175265754
 31
0.0
 40
0.0347875628
 41
2.8118190307
 42
3.1446398775
  0
ENDSEC
  0
SECTION
  2
OBJECTS
  0
DICTIONARY
  5
C
100
AcDbDictionary
280
0
281
1
  3
ACAD_GROUP
350
D
  3
ACAD_MLINESTYLE
350
17
  3
ACAD_LAYOUT
350
1A
  3
ACAD_PLOTSETTINGS
350
19
  3
ACAD_PLOTSTYLENAME
350
E
  0
DICTIONARY
  5
D
102
{ACAD_REACTORS
330
C
102
}
100
AcDbDictionary
280
0
281
1
  0
ACDBDICTIONARYWDFLT
  5
E
102
{ACAD_REACTORS
330
C
102
}
100
AcDbDictionary
281
1
  3
Normal
350
F
100
AcDbDictionaryWithDefault
340
F
  0
DICTIONARY
  5
17
102
{ACAD_REACTORS
330
C
102
}
100
AcDbDictionary
280
0
281
1
  3
Standard
350
18
  0
DICTIONARY
  5
19
102
{ACAD_REACTORS
330
C
102
}
100
AcDbDictionary
281
1
  0
DICTIONARY
  5
1A
102
{ACAD_REACTORS
330
C
102
}
100
AcDbDictionary
281
1
  3
Model
350
2AE
  3
Layout1
350
2AF
  0
ACDBPLACEHOLDER
  5
F
102
{ACAD_REACTORS
330
E
102
}
  0
MLINESTYLE
  5
18
102
{ACAD_REACTORS
330
17
102
}
100
AcDbMlineStyle
  2
STANDARD
 70
0
  3

 62
256
 51
90.0
 52
90.0
 71
2
 49
0.5
 62
256
  6
BYLAYER
 49
-0.5
 62
256
  6
BYLAYER
  0
LAYOUT
  5
2AE
102
{ACAD_REACTORS
330
1A
102
}
100
AcDbPlotSettings
  1

  2
none_device
  4

  6

 40
0.0
 41
0.0
 42
0.0
 43
0.0
 44
210.0
 45
297.0
 46
0.0
 47
0.0
 48
0.0
 49
0.0
140
0.0
141
0.0
142
1.0
143
1.0
 70
1024
 72
1
 73
0
 74
0
  7

 75
0
147
1.0
148
0.0
149
0.0
100
AcDbLayout
  1
Model
 70
0
 71
0
 10
0.0
 20
0.0
 11
210.0
 21
297.0
 12
0.0
 22
0.0
 32
0.0
 14
0.0
 24
0.0
 34
0.0
 15
0.0
 25
0.0
 35
0.0
146
0.0
 13
0.0
 23
0.0
 33
0.0
 16
1.0
 26
0.0
 36
0.0
 17
0.0
 27
1.0
 37
0.0
 76
0
330
211
345
0
346
0
  0
LAYOUT
  5
2AF
102
{ACAD_REACTORS
330
1A
102
}
100
AcDbPlotSettings
  1

  2
none_device
  4

  6

 40
0.0
 41
0.0
 42
0.0
 43
0.0
 44
210.0
 45
297.0
 46
0.0
 47
0.0
 48
0.0
 49
0.0
140
0.0
141
0.0
142
1.0
143
1.0
 70
0
 72
1
 73
0
 74
0
  7

 75
0
147
1.0
148
0.0
149
0.0
100
AcDbLayout
  1
Layout1
 70
0
 71
1
 10
0.0
 20
0.0
 11
210.0
 21
297.0
 12
0.0
 22
0.0
 32
0.0
 14
0.0
 24
0.0
 34
0.0
 15
0.0
 25
0.0
 35
0.0
146
0.0
 13
0.0
 23
0.0
 33
0.0
 16
1.0
 26
0.0
 36
0.0
 17
0.0
 27
1.0
 37
0.0
 76
0
330
212
345
0
346
0
  0
ENDSEC
  0
EOF
