999
DXF file: C:\Users\sesa63760\Dev\_Creo\CAD\MCADID0000957_3D-CAD\drw0001_2.dxf
999
Pro/ENGINEER 2019471 by Parametric Technology Corporation
  0
SECTION
  2
HEADER
  9
$ACADVER
  1
AC1024
  9
$DWGCODEPAGE
  3
ANSI_1252
  9
$EXTMAX
 10
221.2379110251
 20
312.8936170213
 30
0.0
  9
$EXTMIN
 10
0.0
 20
0.0
 30
0.0
  9
$LIMMIN
 10
0.0
 20
0.0
  9
$LIMMAX
 10
221.2379110251
 20
312.8936170213
  9
$VIEWCTR
 10
110.6189555126
 20
156.4468085106
  9
$VIEWSIZE
 40
312.8936170213
  9
$CLAYER
  8
0
  9
$LTSCALE
 40
20.3960283688
  9
$CELTYPE
  6
BYLAYER
  9
$DIMSCALE
 40
1.0
  9
$DIMASZ
 40
2.6337846551
  9
$DIMEXO
 40
1.0
  9
$DIMDLI
 40
14.0918014184
  9
$DIMEXE
 40
1.0
  9
$DIMCEN
 40
3.3375319149
  9
$DIMLFAC
 40
1.0
  9
$DIMBLK
  1
_FILLED
  9
$DIMALT
 70
0
  9
$DIMALTF
 40
0.0393700787
  9
$DIMTXT
 40
3.6872985171
  9
$DIMTOL
 70
1
  9
$DIMLIM
 70
0
  9
$DIMTFAC
 40
1.0
  9
$DIMTP
 40
0.01
  9
$DIMTM
 40
0.01
  9
$DIMGAP
 40
0.625
  9
$DIMDSEP
 70
46
  9
$AUNITS
 70
0
  9
$PDMODE
 70
3
  9
$PDSIZE
 40
0.3125
  9
$HANDSEED
  5
57D
  9
$TILEMODE
 70
1
  9
$MEASUREMENT
 70
1
  9
$INSUNITS
 70
4
  0
ENDSEC
  0
SECTION
  2
CLASSES
  0
CLASS
  1
ACDBDICTIONARYWDFLT
  2
AcDbDictionaryWithDefault
  3
AutoCAD 2000
 90
0
 91
1
280
0
281
0
  0
CLASS
  1
ACDBPLACEHOLDER
  2
AcDbPlaceHolder
  3
AutoCAD 2000
 90
0
 91
1
280
0
281
0
  0
CLASS
  1
LAYOUT
  2
AcDbLayout
  3
AutoCAD 2000
 90
0
 91
0
280
0
281
0
  0
ENDSEC
  0
SECTION
  2
TABLES
  0
TABLE
  2
VPORT
  5
8
100
AcDbSymbolTable
 70
2
  0
VPORT
  5
1F4
100
AcDbSymbolTableRecord
100
AcDbViewportTableRecord
  2
*ACTIVE
 70
0
 10
0.0
 20
0.0
 11
1.0
 21
1.0
 12
110.6189555126
 22
156.4468085106
 13
0.0
 23
0.0
 14
1.0
 24
1.0
 15
0.0
 25
0.0
 16
0.0
 26
0.0
 36
1.0
 17
0.0
 27
0.0
 37
0.0
 40
312.8936170213
 41
0.7070707071
 42
50.0
 43
0.0
 44
0.0
 50
0.0
 51
0.0
 71
0
 72
100
 73
1
 74
1
 75
0
 76
0
 77
0
 78
0
  0
ENDTAB
  0
TABLE
  2
LTYPE
  5
5
100
AcDbSymbolTable
 70
6
  0
LTYPE
  5
14
100
AcDbSymbolTableRecord
100
AcDbLinetypeTableRecord
  2
BYBLOCK
 70
0
  3

 72
65
 73
0
 40
0.0
  0
LTYPE
  5
15
100
AcDbSymbolTableRecord
100
AcDbLinetypeTableRecord
  2
BYLAYER
 70
0
  3

 72
65
 73
0
 40
0.0
  0
LTYPE
  5
16
100
AcDbSymbolTableRecord
100
AcDbLinetypeTableRecord
  2
CONTINUOUS
 70
64
  3
Solid line
 72
65
 73
0
 40
0.0
  0
LTYPE
  5
1F5
100
AcDbSymbolTableRecord
100
AcDbLinetypeTableRecord
  2
CENTER
 70
64
  3
____ _ ____ _ ____ _ ____ _ ____ _ ____ _ ____
 72
65
 73
4
 40
0.6
 49
0.375
 74
0
 49
-0.075
 74
0
 49
0.075
 74
0
 49
-0.075
 74
0
  0
LTYPE
  5
1F6
100
AcDbSymbolTableRecord
100
AcDbLinetypeTableRecord
  2
HIDDEN
 70
64
  3
- - - - - - - - - - - - - - - - - - - -
 72
65
 73
2
 40
0.2
 49
0.1
 74
0
 49
-0.1
 74
0
  0
LTYPE
  5
1F7
100
AcDbSymbolTableRecord
100
AcDbLinetypeTableRecord
  2
PHANTOM
 70
64
  3
_____ _ _ _____ _ _ _____ _ _ _____
 72
65
 73
6
 40
0.8
 49
0.45
 74
0
 49
-0.05
 74
0
 49
0.1
 74
0
 49
-0.05
 74
0
 49
0.1
 74
0
 49
-0.05
 74
0
  0
LTYPE
  5
1F8
100
AcDbSymbolTableRecord
100
AcDbLinetypeTableRecord
  2
DOT
 70
64
  3
. . . . . . . . . . . . . . . . . . . .
 72
65
 73
2
 40
0.2
 49
0.1
 74
0
 49
-0.1
 74
0
  0
LTYPE
  5
1F9
100
AcDbSymbolTableRecord
100
AcDbLinetypeTableRecord
  2
DASHED
 70
64
  3
- - - - - - - - - - - - - - - - - - - -
 72
65
 73
2
 40
0.2
 49
0.1
 74
0
 49
-0.1
 74
0
  0
ENDTAB
  0
TABLE
  2
LAYER
  5
2
100
AcDbSymbolTable
 70
36
  0
LAYER
  5
10
100
AcDbSymbolTableRecord
100
AcDbLayerTableRecord
  2
0
 70
0
 62
7
  6
CONTINUOUS
370
-3
390
F
  0
LAYER
  5
1FA
100
AcDbSymbolTableRecord
100
AcDbLayerTableRecord
  2
DEFAULT_1
 70
0
 62
7
  6
CENTER
370
-3
390
F
  0
LAYER
  5
1FB
100
AcDbSymbolTableRecord
100
AcDbLayerTableRecord
  2
DEFAULT_2
 70
0
 62
8
  6
HIDDEN
370
-3
390
F
  0
LAYER
  5
1FC
100
AcDbSymbolTableRecord
100
AcDbLayerTableRecord
  2
DEFAULT_3
 70
0
 62
7
  6
PHANTOM
370
-3
390
F
  0
LAYER
  5
1FD
100
AcDbSymbolTableRecord
100
AcDbLayerTableRecord
  2
00_COMPONENTS
 70
0
 62
7
  6
CONTINUOUS
370
-3
390
F
  0
LAYER
  5
1FE
100
AcDbSymbolTableRecord
100
AcDbLayerTableRecord
  2
01_1_DEFAULT_DATUMS
 70
0
 62
7
  6
CONTINUOUS
370
-3
390
F
  0
LAYER
  5
1FF
100
AcDbSymbolTableRecord
100
AcDbLayerTableRecord
  2
01_PLANES
 70
0
 62
7
  6
CONTINUOUS
370
-3
390
F
  0
LAYER
  5
200
100
AcDbSymbolTableRecord
100
AcDbLayerTableRecord
  2
02_COORD_SYS
 70
0
 62
7
  6
CONTINUOUS
370
-3
390
F
  0
LAYER
  5
201
100
AcDbSymbolTableRecord
100
AcDbLayerTableRecord
  2
03_AXES
 70
0
 62
7
  6
CONTINUOUS
370
-3
390
F
  0
LAYER
  5
202
100
AcDbSymbolTableRecord
100
AcDbLayerTableRecord
  2
04_POINTS
 70
0
 62
7
  6
CONTINUOUS
370
-3
390
F
  0
LAYER
  5
203
100
AcDbSymbolTableRecord
100
AcDbLayerTableRecord
  2
05_CURVES
 70
0
 62
7
  6
CONTINUOUS
370
-3
390
F
  0
LAYER
  5
204
100
AcDbSymbolTableRecord
100
AcDbLayerTableRecord
  2
06_SURFS
 70
0
 62
7
  6
CONTINUOUS
370
-3
390
F
  0
LAYER
  5
205
100
AcDbSymbolTableRecord
100
AcDbLayerTableRecord
  2
07_COSMETICS
 70
0
 62
7
  6
CONTINUOUS
370
-3
390
F
  0
LAYER
  5
206
100
AcDbSymbolTableRecord
100
AcDbLayerTableRecord
  2
10_NOTES
 70
0
 62
7
  6
CONTINUOUS
370
-3
390
F
  0
LAYER
  5
207
100
AcDbSymbolTableRecord
100
AcDbLayerTableRecord
  2
11_NOTES_PUB
 70
0
 62
7
  6
CONTINUOUS
370
-3
390
F
  0
LAYER
  5
208
100
AcDbSymbolTableRecord
100
AcDbLayerTableRecord
  2
13_REF_GTOL
 70
0
 62
7
  6
CONTINUOUS
370
-3
390
F
  0
LAYER
  5
209
100
AcDbSymbolTableRecord
100
AcDbLayerTableRecord
  2
16_MISC
 70
0
 62
7
  6
CONTINUOUS
370
-3
390
F
  0
LAYER
  5
20A
100
AcDbSymbolTableRecord
100
AcDbLayerTableRecord
  2
17_NO_PRINT
 70
0
 62
7
  6
CONTINUOUS
370
-3
390
F
  0
LAYER
  5
20B
100
AcDbSymbolTableRecord
100
AcDbLayerTableRecord
  2
18_DATUM_CAMS_JOINTS
 70
0
 62
7
  6
CONTINUOUS
370
-3
390
F
  0
LAYER
  5
20C
100
AcDbSymbolTableRecord
100
AcDbLayerTableRecord
  2
19_DATUM_FUNCTIONAL
 70
0
 62
7
  6
CONTINUOUS
370
-3
390
F
  0
LAYER
  5
20D
100
AcDbSymbolTableRecord
100
AcDbLayerTableRecord
  2
2
 70
0
 62
7
  6
CONTINUOUS
370
-3
390
F
  0
LAYER
  5
20E
100
AcDbSymbolTableRecord
100
AcDbLayerTableRecord
  2
20_DATUM_KINEMATIC_SCHEME
 70
0
 62
7
  6
CONTINUOUS
370
-3
390
F
  0
LAYER
  5
20F
100
AcDbSymbolTableRecord
100
AcDbLayerTableRecord
  2
5
 70
0
 62
7
  6
CONTINUOUS
370
-3
390
F
  0
LAYER
  5
210
100
AcDbSymbolTableRecord
100
AcDbLayerTableRecord
  2
_1
 70
0
 62
7
  6
CONTINUOUS
370
-3
390
F
  0
ENDTAB
  0
TABLE
  2
STYLE
  5
3
100
AcDbSymbolTable
 70
1
  0
STYLE
  5
11
100
AcDbSymbolTableRecord
100
AcDbTextStyleTableRecord
  2
STANDARD
 70
0
 40
0.0
 41
0.8
 50
0.0
 71
0
 42
0.2
  3
txt
  4

  0
STYLE
  5
211
100
AcDbSymbolTableRecord
100
AcDbTextStyleTableRecord
  2
TEXTSTYLE_1
 70
0
 40
0.0
 41
0.8
 50
0.0
 71
0
 42
0.2
  3
gdt
  4

  0
ENDTAB
  0
TABLE
  2
VIEW
  5
6
100
AcDbSymbolTable
 70
0
  0
ENDTAB
  0
TABLE
  2
UCS
  5
7
100
AcDbSymbolTable
 70
0
  0
ENDTAB
  0
TABLE
  2
APPID
  5
9
100
AcDbSymbolTable
 70
1
  0
APPID
  5
212
100
AcDbSymbolTableRecord
100
AcDbRegAppTableRecord
  2
ACAD
 70
0
  0
ENDTAB
  0
TABLE
  2
BLOCK_RECORD
  5
1
100
AcDbSymbolTable
 70
0
  0
BLOCK_RECORD
  5
213
100
AcDbSymbolTableRecord
100
AcDbBlockTableRecord
  2
*Model_Space
  0
BLOCK_RECORD
  5
214
100
AcDbSymbolTableRecord
100
AcDbBlockTableRecord
  2
*Paper_Space
  0
BLOCK_RECORD
  5
215
100
AcDbSymbolTableRecord
100
AcDbBlockTableRecord
  2
_FILLED
  0
ENDTAB
  0
TABLE
  2
DIMSTYLE
  5
A
100
AcDbSymbolTable
 70
1
100
AcDbDimStyleTable
 71
0
  0
DIMSTYLE
105
216
100
AcDbSymbolTableRecord
100
AcDbDimStyleTableRecord
  2
STANDARD
 70
0
  3

  4

 40
1.0
 41
2.6337846551
 42
1.0
 43
0.38
 44
1.0
 45
0.0
 46
0.0
 47
0.01
 48
0.01
140
3.6872985171
141
0.09
142
0.0
143
25.4
144
1.0
145
0.0
146
1.0
147
0.625
 71
1
 72
0
 73
0
 74
0
 75
0
 76
0
 77
1
 78
8
 79
2
170
0
171
1
172
0
173
0
174
0
175
0
176
0
177
0
178
0
270
2
179
2
271
2
272
2
273
2
274
2
275
0
280
0
281
0
282
0
283
1
284
8
285
0
286
0
287
3
288
0
340
11
278
46
341
215
342
215
343
215
344
215
  0
ENDTAB
  0
ENDSEC
  0
SECTION
  2
BLOCKS
  0
BLOCK
  5
20
100
AcDbEntity
  8
0
100
AcDbBlockBegin
  2
*Model_Space
 70
0
 10
0.0
 20
0.0
 30
0.0
  3
*Model_Space
  1

  0
ENDBLK
  5
21
100
AcDbEntity
  8
0
100
AcDbBlockEnd
  0
BLOCK
  5
1C
100
AcDbEntity
  8
0
100
AcDbBlockBegin
  2
*Paper_Space
 70
0
 10
0.0
 20
0.0
 30
0.0
  3
*Paper_Space
  1

  0
ENDBLK
  5
1D
100
AcDbEntity
  8
0
100
AcDbBlockEnd
  0
BLOCK
  5
217
100
AcDbEntity
  8
0
100
AcDbBlockBegin
  2
_FILLED
 70
64
 10
0.0
 20
0.0
  3
_FILLED
  1

  0
SOLID
  5
218
100
AcDbEntity
  8
0
  6
BYBLOCK
 62
0
100
AcDbTrace
 10
0.0
 20
0.0
 11
-1.0
 21
0.25
 12
-1.0
 22
-0.25
 13
-1.0
 23
-0.25
  0
ENDBLK
  5
219
100
AcDbEntity
  8
0
  6
BYBLOCK
 62
0
100
AcDbBlockEnd
  0
ENDSEC
  0
SECTION
  2
ENTITIES
  0
LINE
  5
21A
100
AcDbEntity
  8
_1
100
AcDbLine
 62
7
  6
CONTINUOUS
 10
68.268998119
 20
20.8723404255
 11
57.1508704062
 21
20.8723404255
  0
LINE
  5
21B
100
AcDbEntity
  8
_1
100
AcDbLine
 62
7
  6
CONTINUOUS
 10
74.0327426934
 20
20.8723404255
 11
167.1508704062
 21
20.8723404255
  0
LINE
  5
21C
100
AcDbEntity
  8
_1
100
AcDbLine
 62
7
  6
CONTINUOUS
 10
59.1508704062
 20
22.8723404255
 11
63.6249576366
 21
22.8723404255
  0
LINE
  5
21D
100
AcDbEntity
  8
_1
100
AcDbLine
 62
7
  6
CONTINUOUS
 10
65.9343587134
 20
22.8723404255
 11
66.3206843771
 21
22.8723404255
  0
LINE
  5
21E
100
AcDbEntity
  8
_1
100
AcDbLine
 62
7
  6
CONTINUOUS
 10
75.9810564352
 20
22.8723404255
 11
78.867382099
 21
22.8723404255
  0
LINE
  5
21F
100
AcDbEntity
  8
_1
100
AcDbLine
 62
7
  6
CONTINUOUS
 10
81.1767831758
 20
22.8723404255
 11
90.1249576366
 21
22.8723404255
  0
LINE
  5
220
100
AcDbEntity
  8
_1
100
AcDbLine
 62
7
  6
CONTINUOUS
 10
92.4343587134
 20
22.8723404255
 11
105.367382099
 21
22.8723404255
  0
LINE
  5
221
100
AcDbEntity
  8
_1
100
AcDbLine
 62
7
  6
CONTINUOUS
 10
107.6767831758
 20
22.8723404255
 11
116.6249576366
 21
22.8723404255
  0
LINE
  5
222
100
AcDbEntity
  8
_1
100
AcDbLine
 62
7
  6
CONTINUOUS
 10
118.9343587134
 20
22.8723404255
 11
131.867382099
 21
22.8723404255
  0
LINE
  5
223
100
AcDbEntity
  8
_1
100
AcDbLine
 62
7
  6
CONTINUOUS
 10
134.1767831758
 20
22.8723404255
 11
143.1249576366
 21
22.8723404255
  0
LINE
  5
224
100
AcDbEntity
  8
_1
100
AcDbLine
 62
7
  6
CONTINUOUS
 10
145.4343587134
 20
22.8723404255
 11
148.3206843771
 21
22.8723404255
  0
LINE
  5
225
100
AcDbEntity
  8
_1
100
AcDbLine
 62
7
  6
CONTINUOUS
 10
157.9810564352
 20
22.8723404255
 11
158.367382099
 21
22.8723404255
  0
LINE
  5
226
100
AcDbEntity
  8
_1
100
AcDbLine
 62
7
  6
CONTINUOUS
 10
160.6767831758
 20
22.8723404255
 11
165.1508704062
 21
22.8723404255
  0
LINE
  5
227
100
AcDbEntity
  8
_1
100
AcDbLine
 62
7
  6
CONTINUOUS
 10
148.0903586295
 20
33.4226672252
 11
129.2113821828
 21
33.4226672252
  0
LINE
  5
228
100
AcDbEntity
  8
_1
100
AcDbLine
 62
7
  6
CONTINUOUS
 10
121.5903586295
 20
33.4226672252
 11
102.7113821828
 21
33.4226672252
  0
LINE
  5
229
100
AcDbEntity
  8
_1
100
AcDbLine
 62
7
  6
CONTINUOUS
 10
95.0903586295
 20
33.4226672252
 11
76.2113821828
 21
33.4226672252
  0
LINE
  5
22A
100
AcDbEntity
  8
_1
100
AcDbLine
 62
7
  6
CONTINUOUS
 10
59.1508704062
 20
33.4226672252
 11
68.5903586295
 21
33.4226672252
  0
LINE
  5
22B
100
AcDbEntity
  8
_1
100
AcDbLine
 62
7
  6
CONTINUOUS
 10
155.7113821828
 20
33.4226672252
 11
165.1508704062
 21
33.4226672252
  0
LINE
  5
22C
100
AcDbEntity
  8
_1
100
AcDbLine
 62
7
  6
CONTINUOUS
 10
68.5903586295
 20
35.4226672252
 11
59.1508704062
 21
35.4226672252
  0
LINE
  5
22D
100
AcDbEntity
  8
_1
100
AcDbLine
 62
7
  6
CONTINUOUS
 10
76.2113821828
 20
35.4226672252
 11
95.0903586295
 21
35.4226672252
  0
LINE
  5
22E
100
AcDbEntity
  8
_1
100
AcDbLine
 62
7
  6
CONTINUOUS
 10
102.7113821828
 20
35.4226672252
 11
121.5903586295
 21
35.4226672252
  0
LINE
  5
22F
100
AcDbEntity
  8
_1
100
AcDbLine
 62
7
  6
CONTINUOUS
 10
129.2113821828
 20
35.4226672252
 11
148.0903586295
 21
35.4226672252
  0
LINE
  5
230
100
AcDbEntity
  8
_1
100
AcDbLine
 62
7
  6
CONTINUOUS
 10
155.7113821828
 20
35.4226672252
 11
165.1508704062
 21
35.4226672252
  0
LINE
  5
231
100
AcDbEntity
  8
_1
100
AcDbLine
 62
7
  6
CONTINUOUS
 10
149.4008704062
 20
41.0723404255
 11
148.2637523882
 21
41.0723404255
  0
LINE
  5
232
100
AcDbEntity
  8
_1
100
AcDbLine
 62
7
  6
CONTINUOUS
 10
145.9543513114
 20
41.0723404255
 11
139.9008704062
 21
41.0723404255
  0
LINE
  5
233
100
AcDbEntity
  8
_1
100
AcDbLine
 62
7
  6
CONTINUOUS
 10
84.4008704062
 20
41.0723404255
 11
78.3473895009
 21
41.0723404255
  0
LINE
  5
234
100
AcDbEntity
  8
_1
100
AcDbLine
 62
7
  6
CONTINUOUS
 10
76.0379884242
 20
41.0723404255
 11
74.9008704062
 21
41.0723404255
  0
LINE
  5
235
100
AcDbEntity
  8
_1
100
AcDbLine
 62
7
  6
CONTINUOUS
 10
165.1508704062
 20
41.7723404255
 11
159.1508704062
 21
41.7723404255
  0
LINE
  5
236
100
AcDbEntity
  8
_1
100
AcDbLine
 62
7
  6
CONTINUOUS
 10
65.1508704062
 20
41.7723404255
 11
59.1508704062
 21
41.7723404255
  0
LINE
  5
237
100
AcDbEntity
  8
_1
100
AcDbLine
 62
7
  6
CONTINUOUS
 10
76.9008704062
 20
43.0723404255
 11
82.4008704062
 21
43.0723404255
  0
LINE
  5
238
100
AcDbEntity
  8
_1
100
AcDbLine
 62
7
  6
CONTINUOUS
 10
141.9008704062
 20
43.0723404255
 11
147.4008704062
 21
43.0723404255
  0
LINE
  5
239
100
AcDbEntity
  8
_1
100
AcDbLine
 62
7
  6
CONTINUOUS
 10
58.1192068929
 20
43.7723404255
 11
63.2556007958
 21
43.7723404255
  0
LINE
  5
23A
100
AcDbEntity
  8
_1
100
AcDbLine
 62
7
  6
CONTINUOUS
 10
161.0461400166
 20
43.7723404255
 11
166.1825339195
 21
43.7723404255
  0
LINE
  5
23B
100
AcDbEntity
  8
_1
100
AcDbLine
 62
7
  6
CONTINUOUS
 10
147.4008704062
 20
46.0723404255
 11
141.9008704062
 21
46.0723404255
  0
LINE
  5
23C
100
AcDbEntity
  8
_1
100
AcDbLine
 62
7
  6
CONTINUOUS
 10
82.4008704062
 20
46.0723404255
 11
76.9008704062
 21
46.0723404255
  0
LINE
  5
23D
100
AcDbEntity
  8
_1
100
AcDbLine
 62
7
  6
CONTINUOUS
 10
74.9008704062
 20
48.0723404255
 11
80.0794403085
 21
48.0723404255
  0
LINE
  5
23E
100
AcDbEntity
  8
_1
100
AcDbLine
 62
7
  6
CONTINUOUS
 10
82.3888413853
 20
48.0723404255
 11
84.4008704062
 21
48.0723404255
  0
LINE
  5
23F
100
AcDbEntity
  8
_1
100
AcDbLine
 62
7
  6
CONTINUOUS
 10
139.9008704062
 20
48.0723404255
 11
141.9128994271
 21
48.0723404255
  0
LINE
  5
240
100
AcDbEntity
  8
_1
100
AcDbLine
 62
7
  6
CONTINUOUS
 10
144.2223005039
 20
48.0723404255
 11
149.4008704062
 21
48.0723404255
  0
LINE
  5
241
100
AcDbEntity
  8
_1
100
AcDbLine
 62
7
  6
CONTINUOUS
 10
58.1192068929
 20
49.7723404255
 11
63.2556007958
 21
49.7723404255
  0
LINE
  5
242
100
AcDbEntity
  8
_1
100
AcDbLine
 62
7
  6
CONTINUOUS
 10
161.0461400166
 20
49.7723404255
 11
166.1825339195
 21
49.7723404255
  0
LINE
  5
243
100
AcDbEntity
  8
_1
100
AcDbLine
 62
7
  6
CONTINUOUS
 10
59.1508704062
 20
51.7723404255
 11
60.2767034311
 21
51.7723404255
  0
LINE
  5
244
100
AcDbEntity
  8
_1
100
AcDbLine
 62
7
  6
CONTINUOUS
 10
62.5861045079
 20
51.7723404255
 11
65.1508704062
 21
51.7723404255
  0
LINE
  5
245
100
AcDbEntity
  8
_1
100
AcDbLine
 62
7
  6
CONTINUOUS
 10
159.1508704062
 20
51.7723404255
 11
161.7156363045
 21
51.7723404255
  0
LINE
  5
246
100
AcDbEntity
  8
_1
100
AcDbLine
 62
7
  6
CONTINUOUS
 10
164.0250373813
 20
51.7723404255
 11
165.1508704062
 21
51.7723404255
  0
LINE
  5
247
100
AcDbEntity
  8
_1
100
AcDbLine
 62
7
  6
CONTINUOUS
 10
62.9613821828
 20
53.0723404255
 11
81.8403586295
 21
53.0723404255
  0
LINE
  5
248
100
AcDbEntity
  8
_1
100
AcDbLine
 62
7
  6
CONTINUOUS
 10
89.4613821828
 20
53.0723404255
 11
108.3403586295
 21
53.0723404255
  0
LINE
  5
249
100
AcDbEntity
  8
_1
100
AcDbLine
 62
7
  6
CONTINUOUS
 10
115.9613821828
 20
53.0723404255
 11
134.8403586295
 21
53.0723404255
  0
LINE
  5
24A
100
AcDbEntity
  8
_1
100
AcDbLine
 62
7
  6
CONTINUOUS
 10
142.4613821828
 20
53.0723404255
 11
161.3403586295
 21
53.0723404255
  0
LINE
  5
24B
100
AcDbEntity
  8
_1
100
AcDbLine
 62
7
  6
CONTINUOUS
 10
161.3403586295
 20
55.0729940249
 11
142.4613821828
 21
55.0729940249
  0
LINE
  5
24C
100
AcDbEntity
  8
_1
100
AcDbLine
 62
7
  6
CONTINUOUS
 10
108.3403586295
 20
55.0729940249
 11
89.4613821828
 21
55.0729940249
  0
LINE
  5
24D
100
AcDbEntity
  8
_1
100
AcDbLine
 62
7
  6
CONTINUOUS
 10
81.8403586295
 20
55.0729940249
 11
62.9613821828
 21
55.0729940249
  0
LINE
  5
24E
100
AcDbEntity
  8
_1
100
AcDbLine
 62
7
  6
CONTINUOUS
 10
115.9613821828
 20
55.0729940249
 11
134.8403586295
 21
55.0729940249
  0
LINE
  5
24F
100
AcDbEntity
  8
_1
100
AcDbLine
 62
7
  6
CONTINUOUS
 10
59.7137869187
 20
52.7473404255
 11
60.2767034311
 21
51.7723404255
  0
LINE
  5
250
100
AcDbEntity
  8
_1
100
AcDbLine
 62
7
  6
CONTINUOUS
 10
65.1508704062
 20
43.3300355801
 11
69.153275142
 21
36.3976672252
  0
LINE
  5
251
100
AcDbEntity
  8
_1
100
AcDbLine
 62
7
  6
CONTINUOUS
 10
69.1532751419
 20
268.2476672251
 11
65.1508704062
 21
261.3152988703
  0
LINE
  5
252
100
AcDbEntity
  8
_1
100
AcDbLine
 62
7
  6
CONTINUOUS
 10
64.3755129866
 20
259.9723404255
 11
59.7137869186
 21
251.897994025
  0
LINE
  5
253
100
AcDbEntity
  8
_1
100
AcDbLine
 62
7
  6
CONTINUOUS
 10
82.4032751421
 20
287.8973404257
 11
78.3688828583
 21
280.9095680125
  0
LINE
  5
254
100
AcDbEntity
  8
_1
100
AcDbLine
 62
7
  6
CONTINUOUS
 10
62.3984656704
 20
252.5479940249
 11
71.8379538937
 21
268.8976672252
  0
LINE
  5
255
100
AcDbEntity
  8
_1
100
AcDbLine
 62
7
  6
CONTINUOUS
 10
75.6484656705
 20
272.1976672254
 11
76.4214548359
 21
273.5365237337
  0
LINE
  5
256
100
AcDbEntity
  8
_1
100
AcDbLine
 62
7
  6
CONTINUOUS
 10
78.4071154261
 20
276.9757887625
 11
85.0879538937
 21
288.5473404255
  0
LINE
  5
257
100
AcDbEntity
  8
_1
100
AcDbLine
 62
7
  6
CONTINUOUS
 10
72.9637869187
 20
33.0976672252
 11
78.867382099
 21
22.8723404255
  0
LINE
  5
258
100
AcDbEntity
  8
_1
100
AcDbLine
 62
7
  6
CONTINUOUS
 10
71.8379538938
 20
35.7476672252
 11
65.1508704062
 21
47.3300355801
  0
LINE
  5
259
100
AcDbEntity
  8
_1
100
AcDbLine
 62
7
  6
CONTINUOUS
 10
62.5861045079
 20
51.7723404255
 11
62.3984656704
 21
52.0973404255
  0
LINE
  5
25A
100
AcDbEntity
  8
_1
100
AcDbLine
 62
7
  6
CONTINUOUS
 10
81.1767831758
 20
22.8723404255
 11
75.6484656704
 21
32.4476672253
  0
LINE
  5
25B
100
AcDbEntity
  8
_1
100
AcDbLine
 62
7
  6
CONTINUOUS
 10
148.0903586295
 20
72.7226672252
 11
129.2113821828
 21
72.7226672252
  0
LINE
  5
25C
100
AcDbEntity
  8
_1
100
AcDbLine
 62
7
  6
CONTINUOUS
 10
121.5903586295
 20
72.7226672252
 11
102.7113821828
 21
72.7226672252
  0
LINE
  5
25D
100
AcDbEntity
  8
_1
100
AcDbLine
 62
7
  6
CONTINUOUS
 10
95.0903586295
 20
72.7226672252
 11
76.2113821828
 21
72.7226672252
  0
LINE
  5
25E
100
AcDbEntity
  8
_1
100
AcDbLine
 62
7
  6
CONTINUOUS
 10
59.1508704062
 20
72.7226672252
 11
68.5903586295
 21
72.7226672252
  0
LINE
  5
25F
100
AcDbEntity
  8
_1
100
AcDbLine
 62
7
  6
CONTINUOUS
 10
155.7113821828
 20
72.7226672252
 11
165.1508704062
 21
72.7226672252
  0
LINE
  5
260
100
AcDbEntity
  8
_1
100
AcDbLine
 62
7
  6
CONTINUOUS
 10
68.5903586295
 20
74.7226672252
 11
59.1508704062
 21
74.7226672252
  0
LINE
  5
261
100
AcDbEntity
  8
_1
100
AcDbLine
 62
7
  6
CONTINUOUS
 10
76.2113821828
 20
74.7226672252
 11
95.0903586295
 21
74.7226672252
  0
LINE
  5
262
100
AcDbEntity
  8
_1
100
AcDbLine
 62
7
  6
CONTINUOUS
 10
102.7113821828
 20
74.7226672252
 11
121.5903586295
 21
74.7226672252
  0
LINE
  5
263
100
AcDbEntity
  8
_1
100
AcDbLine
 62
7
  6
CONTINUOUS
 10
129.2113821828
 20
74.7226672252
 11
148.0903586295
 21
74.7226672252
  0
LINE
  5
264
100
AcDbEntity
  8
_1
100
AcDbLine
 62
7
  6
CONTINUOUS
 10
155.7113821828
 20
74.7226672252
 11
165.1508704062
 21
74.7226672252
  0
LINE
  5
265
100
AcDbEntity
  8
_1
100
AcDbLine
 62
7
  6
CONTINUOUS
 10
59.7137869186
 20
92.0473404255
 11
69.153275142
 21
75.6976672252
  0
LINE
  5
266
100
AcDbEntity
  8
_1
100
AcDbLine
 62
7
  6
CONTINUOUS
 10
69.153275142
 20
228.9476672252
 11
59.7137869186
 21
212.597994025
  0
LINE
  5
267
100
AcDbEntity
  8
_1
100
AcDbLine
 62
7
  6
CONTINUOUS
 10
82.403275142
 20
248.5973404255
 11
72.9637869186
 21
232.2476672252
  0
LINE
  5
268
100
AcDbEntity
  8
_1
100
AcDbLine
 62
7
  6
CONTINUOUS
 10
62.3984656704
 20
213.247994025
 11
71.8379538937
 21
229.5976672252
  0
LINE
  5
269
100
AcDbEntity
  8
_1
100
AcDbLine
 62
7
  6
CONTINUOUS
 10
95.653275142
 20
268.2476672253
 11
86.2137869186
 21
251.897994025
  0
LINE
  5
26A
100
AcDbEntity
  8
_1
100
AcDbLine
 62
7
  6
CONTINUOUS
 10
75.6484656704
 20
232.8976672252
 11
85.0879538937
 21
249.2473404255
  0
LINE
  5
26B
100
AcDbEntity
  8
_1
100
AcDbLine
 62
7
  6
CONTINUOUS
 10
108.903275142
 20
287.8973404255
 11
99.4637869186
 21
271.5476672252
  0
LINE
  5
26C
100
AcDbEntity
  8
_1
100
AcDbLine
 62
7
  6
CONTINUOUS
 10
88.8984656704
 20
252.5479940249
 11
98.3379538937
 21
268.8976672252
  0
LINE
  5
26D
100
AcDbEntity
  8
_1
100
AcDbLine
 62
7
  6
CONTINUOUS
 10
102.1484656704
 20
272.1976672253
 11
111.5879538937
 21
288.5473404255
  0
LINE
  5
26E
100
AcDbEntity
  8
_1
100
AcDbLine
 62
7
  6
CONTINUOUS
 10
72.9637869186
 20
72.3976672252
 11
82.4032751419
 21
56.0479940251
  0
LINE
  5
26F
100
AcDbEntity
  8
_1
100
AcDbLine
 62
7
  6
CONTINUOUS
 10
71.8379538937
 20
75.0476672252
 11
62.3984656704
 21
91.3973404255
  0
LINE
  5
270
100
AcDbEntity
  8
_1
100
AcDbLine
 62
7
  6
CONTINUOUS
 10
86.2137869186
 20
52.7473404256
 11
95.653275142
 21
36.3976672252
  0
LINE
  5
271
100
AcDbEntity
  8
_1
100
AcDbLine
 62
7
  6
CONTINUOUS
 10
85.0879538938
 20
55.3979940249
 11
75.6484656704
 21
71.7476672252
  0
LINE
  5
272
100
AcDbEntity
  8
_1
100
AcDbLine
 62
7
  6
CONTINUOUS
 10
99.4637869187
 20
33.0976672252
 11
105.367382099
 21
22.8723404255
  0
LINE
  5
273
100
AcDbEntity
  8
_1
100
AcDbLine
 62
7
  6
CONTINUOUS
 10
98.3379538937
 20
35.7476672252
 11
88.8984656704
 21
52.0973404255
  0
LINE
  5
274
100
AcDbEntity
  8
_1
100
AcDbLine
 62
7
  6
CONTINUOUS
 10
107.6767831758
 20
22.8723404255
 11
102.1484656704
 21
32.4476672253
  0
LINE
  5
275
100
AcDbEntity
  8
_1
100
AcDbLine
 62
7
  6
CONTINUOUS
 10
62.9613821828
 20
92.3723404255
 11
81.8403586295
 21
92.3723404255
  0
LINE
  5
276
100
AcDbEntity
  8
_1
100
AcDbLine
 62
7
  6
CONTINUOUS
 10
89.4613821828
 20
92.3723404255
 11
108.3403586295
 21
92.3723404255
  0
LINE
  5
277
100
AcDbEntity
  8
_1
100
AcDbLine
 62
7
  6
CONTINUOUS
 10
115.9613821828
 20
92.3723404255
 11
134.8403586295
 21
92.3723404255
  0
LINE
  5
278
100
AcDbEntity
  8
_1
100
AcDbLine
 62
7
  6
CONTINUOUS
 10
142.4613821828
 20
92.3723404255
 11
161.3403586295
 21
92.3723404255
  0
LINE
  5
279
100
AcDbEntity
  8
_1
100
AcDbLine
 62
7
  6
CONTINUOUS
 10
161.3403586295
 20
94.372994025
 11
142.4613821828
 21
94.372994025
  0
LINE
  5
27A
100
AcDbEntity
  8
_1
100
AcDbLine
 62
7
  6
CONTINUOUS
 10
108.3403586295
 20
94.372994025
 11
89.4613821828
 21
94.372994025
  0
LINE
  5
27B
100
AcDbEntity
  8
_1
100
AcDbLine
 62
7
  6
CONTINUOUS
 10
81.8403586295
 20
94.372994025
 11
62.9613821828
 21
94.372994025
  0
LINE
  5
27C
100
AcDbEntity
  8
_1
100
AcDbLine
 62
7
  6
CONTINUOUS
 10
115.9613821828
 20
94.372994025
 11
134.8403586295
 21
94.372994025
  0
LINE
  5
27D
100
AcDbEntity
  8
_1
100
AcDbLine
 62
7
  6
CONTINUOUS
 10
59.7137869186
 20
131.3473404255
 11
69.153275142
 21
114.9976672252
  0
LINE
  5
27E
100
AcDbEntity
  8
_1
100
AcDbLine
 62
7
  6
CONTINUOUS
 10
57.1508704062
 20
290.8723404255
 11
57.1508704062
 21
20.8723404255
  0
LINE
  5
27F
100
AcDbEntity
  8
_1
100
AcDbLine
 62
7
  6
CONTINUOUS
 10
58.1192068929
 20
43.7723404255
 11
58.1192068929
 21
49.7723404255
  0
LINE
  5
280
100
AcDbEntity
  8
_1
100
AcDbLine
 62
7
  6
CONTINUOUS
 10
58.1192068929
 20
152.8723404255
 11
58.1192068929
 21
158.8723404255
  0
LINE
  5
281
100
AcDbEntity
  8
_1
100
AcDbLine
 62
7
  6
CONTINUOUS
 10
58.1192068929
 20
261.9723404255
 11
58.1192068929
 21
267.9723404255
  0
LINE
  5
282
100
AcDbEntity
  8
_1
100
AcDbLine
 62
7
  6
CONTINUOUS
 10
59.1508704062
 20
33.4226672252
 11
59.1508704062
 21
22.8723404255
  0
LINE
  5
283
100
AcDbEntity
  8
_1
100
AcDbLine
 62
7
  6
CONTINUOUS
 10
59.1508704062
 20
35.4226672252
 11
59.1508704062
 21
41.7723404255
  0
LINE
  5
284
100
AcDbEntity
  8
_1
100
AcDbLine
 62
7
  6
CONTINUOUS
 10
59.1508704062
 20
51.7723404255
 11
59.1508704062
 21
53.0723404255
  0
LINE
  5
285
100
AcDbEntity
  8
_1
100
AcDbLine
 62
7
  6
CONTINUOUS
 10
59.1508704062
 20
55.0729940249
 11
59.1508704062
 21
72.7226672252
  0
LINE
  5
286
100
AcDbEntity
  8
_1
100
AcDbLine
 62
7
  6
CONTINUOUS
 10
59.1508704062
 20
74.7226672252
 11
59.1508704062
 21
92.3723404255
  0
LINE
  5
287
100
AcDbEntity
  8
_1
100
AcDbLine
 62
7
  6
CONTINUOUS
 10
59.1508704062
 20
94.372994025
 11
59.1508704062
 21
112.0226672252
  0
LINE
  5
288
100
AcDbEntity
  8
_1
100
AcDbLine
 62
7
  6
CONTINUOUS
 10
59.1508704062
 20
114.0226672252
 11
59.1508704062
 21
131.6723404255
  0
LINE
  5
289
100
AcDbEntity
  8
_1
100
AcDbLine
 62
7
  6
CONTINUOUS
 10
59.1508704062
 20
133.672994025
 11
59.1508704062
 21
150.8723404255
  0
LINE
  5
28A
100
AcDbEntity
  8
_1
100
AcDbLine
 62
7
  6
CONTINUOUS
 10
59.1508704062
 20
160.8723404255
 11
59.1508704062
 21
170.9723404255
  0
LINE
  5
28B
100
AcDbEntity
  8
_1
100
AcDbLine
 62
7
  6
CONTINUOUS
 10
59.1508704062
 20
172.972994025
 11
59.1508704062
 21
190.6226672252
  0
LINE
  5
28C
100
AcDbEntity
  8
_1
100
AcDbLine
 62
7
  6
CONTINUOUS
 10
59.1508704062
 20
192.6226672252
 11
59.1508704062
 21
210.2723404255
  0
LINE
  5
28D
100
AcDbEntity
  8
_1
100
AcDbLine
 62
7
  6
CONTINUOUS
 10
59.1508704062
 20
212.272994025
 11
59.1508704062
 21
229.9226672252
  0
LINE
  5
28E
100
AcDbEntity
  8
_1
100
AcDbLine
 62
7
  6
CONTINUOUS
 10
59.1508704062
 20
231.9226672252
 11
59.1508704062
 21
249.5723404255
  0
LINE
  5
28F
100
AcDbEntity
  8
_1
100
AcDbLine
 62
7
  6
CONTINUOUS
 10
59.1508704062
 20
251.572994025
 11
59.1508704062
 21
259.9723404255
  0
LINE
  5
290
100
AcDbEntity
  8
_1
100
AcDbLine
 62
7
  6
CONTINUOUS
 10
59.1508704062
 20
271.2226672252
 11
59.1508704062
 21
288.8723404255
  0
LINE
  5
291
100
AcDbEntity
  8
_1
100
AcDbLine
 62
7
  6
CONTINUOUS
 10
59.1906602475
 20
43.7723404255
 11
59.1906602475
 21
49.7723404255
  0
LINE
  5
292
100
AcDbEntity
  8
_1
100
AcDbLine
 62
7
  6
CONTINUOUS
 10
59.1906602475
 20
152.8723404255
 11
59.1906602475
 21
158.8723404255
  0
LINE
  5
293
100
AcDbEntity
  8
_1
100
AcDbLine
 62
7
  6
CONTINUOUS
 10
59.1906602475
 20
261.9723404255
 11
59.1906602475
 21
267.9723404255
  0
LINE
  5
294
100
AcDbEntity
  8
_1
100
AcDbLine
 62
7
  6
CONTINUOUS
 10
59.5271054709
 20
43.7723404255
 11
59.5271054709
 21
49.7723404255
  0
LINE
  5
295
100
AcDbEntity
  8
_1
100
AcDbLine
 62
7
  6
CONTINUOUS
 10
59.5271054709
 20
152.8723404255
 11
59.5271054709
 21
158.8723404255
  0
LINE
  5
296
100
AcDbEntity
  8
_1
100
AcDbLine
 62
7
  6
CONTINUOUS
 10
59.5271054709
 20
261.9723404255
 11
59.5271054709
 21
267.9723404255
  0
LINE
  5
297
100
AcDbEntity
  8
_1
100
AcDbLine
 62
7
  6
CONTINUOUS
 10
63.1770530036
 20
43.7723404255
 11
63.1770530036
 21
49.7723404255
  0
LINE
  5
298
100
AcDbEntity
  8
_1
100
AcDbLine
 62
7
  6
CONTINUOUS
 10
63.1770530036
 20
152.8723404255
 11
63.1770530036
 21
158.8723404255
  0
LINE
  5
299
100
AcDbEntity
  8
_1
100
AcDbLine
 62
7
  6
CONTINUOUS
 10
63.1770530036
 20
261.9723404255
 11
63.1770530036
 21
267.9723404255
  0
LINE
  5
29A
100
AcDbEntity
  8
_1
100
AcDbLine
 62
7
  6
CONTINUOUS
 10
63.2556007958
 20
43.7723404255
 11
63.2556007958
 21
49.7723404255
  0
LINE
  5
29B
100
AcDbEntity
  8
_1
100
AcDbLine
 62
7
  6
CONTINUOUS
 10
63.2556007958
 20
152.8723404255
 11
63.2556007958
 21
158.8723404255
  0
LINE
  5
29C
100
AcDbEntity
  8
_1
100
AcDbLine
 62
7
  6
CONTINUOUS
 10
63.2556007958
 20
261.9723404255
 11
63.2556007958
 21
267.9723404255
  0
LINE
  5
29D
100
AcDbEntity
  8
_1
100
AcDbLine
 62
7
  6
CONTINUOUS
 10
69.153275142
 20
189.6476672252
 11
59.7137869186
 21
173.297994025
  0
LINE
  5
29E
100
AcDbEntity
  8
_1
100
AcDbLine
 62
7
  6
CONTINUOUS
 10
82.403275142
 20
209.2973404255
 11
72.9637869186
 21
192.9476672252
  0
LINE
  5
29F
100
AcDbEntity
  8
_1
100
AcDbLine
 62
7
  6
CONTINUOUS
 10
62.3984656704
 20
173.947994025
 11
71.8379538937
 21
190.2976672252
  0
LINE
  5
2A0
100
AcDbEntity
  8
_1
100
AcDbLine
 62
7
  6
CONTINUOUS
 10
95.653275142
 20
228.9476672252
 11
86.2137869186
 21
212.597994025
  0
LINE
  5
2A1
100
AcDbEntity
  8
_1
100
AcDbLine
 62
7
  6
CONTINUOUS
 10
75.6484656704
 20
193.5976672252
 11
85.0879538937
 21
209.9473404255
  0
LINE
  5
2A2
100
AcDbEntity
  8
_1
100
AcDbLine
 62
7
  6
CONTINUOUS
 10
108.903275142
 20
248.5973404255
 11
99.4637869186
 21
232.2476672252
  0
LINE
  5
2A3
100
AcDbEntity
  8
_1
100
AcDbLine
 62
7
  6
CONTINUOUS
 10
88.8984656704
 20
213.247994025
 11
98.3379538937
 21
229.5976672252
  0
LINE
  5
2A4
100
AcDbEntity
  8
_1
100
AcDbLine
 62
7
  6
CONTINUOUS
 10
122.153275142
 20
268.2476672253
 11
112.7137869186
 21
251.897994025
  0
LINE
  5
2A5
100
AcDbEntity
  8
_1
100
AcDbLine
 62
7
  6
CONTINUOUS
 10
72.9637869186
 20
111.6976672252
 11
82.403275142
 21
95.347994025
  0
LINE
  5
2A6
100
AcDbEntity
  8
_1
100
AcDbLine
 62
7
  6
CONTINUOUS
 10
71.8379538937
 20
114.3476672252
 11
62.3984656704
 21
130.6973404255
  0
LINE
  5
2A7
100
AcDbEntity
  8
_1
100
AcDbLine
 62
7
  6
CONTINUOUS
 10
86.2137869186
 20
92.0473404255
 11
95.653275142
 21
75.6976672252
  0
LINE
  5
2A8
100
AcDbEntity
  8
_1
100
AcDbLine
 62
7
  6
CONTINUOUS
 10
85.0879538937
 20
94.697994025
 11
75.6484656704
 21
111.0476672252
  0
LINE
  5
2A9
100
AcDbEntity
  8
_1
100
AcDbLine
 62
7
  6
CONTINUOUS
 10
99.4637869186
 20
72.3976672252
 11
108.9032751419
 21
56.0479940251
  0
LINE
  5
2AA
100
AcDbEntity
  8
_1
100
AcDbLine
 62
7
  6
CONTINUOUS
 10
98.3379538937
 20
75.0476672252
 11
88.8984656704
 21
91.3973404255
  0
LINE
  5
2AB
100
AcDbEntity
  8
_1
100
AcDbLine
 62
7
  6
CONTINUOUS
 10
112.7137869186
 20
52.7473404256
 11
122.153275142
 21
36.3976672253
  0
LINE
  5
2AC
100
AcDbEntity
  8
_1
100
AcDbLine
 62
7
  6
CONTINUOUS
 10
111.5879538938
 20
55.3979940249
 11
102.1484656704
 21
71.7476672252
  0
LINE
  5
2AD
100
AcDbEntity
  8
_1
100
AcDbLine
 62
7
  6
CONTINUOUS
 10
125.9637869187
 20
33.0976672252
 11
131.867382099
 21
22.8723404255
  0
LINE
  5
2AE
100
AcDbEntity
  8
_1
100
AcDbLine
 62
7
  6
CONTINUOUS
 10
124.8379538937
 20
35.7476672252
 11
115.3984656704
 21
52.0973404255
  0
LINE
  5
2AF
100
AcDbEntity
  8
_1
100
AcDbLine
 62
7
  6
CONTINUOUS
 10
134.1767831758
 20
22.8723404255
 11
128.6484656704
 21
32.4476672253
  0
LINE
  5
2B0
100
AcDbEntity
  8
_1
100
AcDbLine
 62
7
  6
CONTINUOUS
 10
73.8999280499
 20
25.9443270334
 11
74.0327426934
 21
20.8723404255
  0
LINE
  5
2B1
100
AcDbEntity
  8
_1
100
AcDbLine
 62
7
  6
CONTINUOUS
 10
75.9810564352
 20
22.8723404255
 11
75.8992426998
 21
25.99668093
  0
LINE
  5
2B2
100
AcDbEntity
  8
_1
100
AcDbLine
 62
7
  6
CONTINUOUS
 10
65.1508704062
 20
269.2226672252
 11
65.1508704062
 21
261.3152988703
  0
LINE
  5
2B3
100
AcDbEntity
  8
_1
100
AcDbLine
 62
7
  6
CONTINUOUS
 10
65.1508704062
 20
160.8723404255
 11
65.1508704062
 21
153.3226672252
  0
LINE
  5
2B4
100
AcDbEntity
  8
_1
100
AcDbLine
 62
7
  6
CONTINUOUS
 10
65.1508704062
 20
151.3226672252
 11
65.1508704062
 21
150.8723404255
  0
LINE
  5
2B5
100
AcDbEntity
  8
_1
100
AcDbLine
 62
7
  6
CONTINUOUS
 10
65.1508704062
 20
51.7723404255
 11
65.1508704062
 21
47.3300355801
  0
LINE
  5
2B6
100
AcDbEntity
  8
_1
100
AcDbLine
 62
7
  6
CONTINUOUS
 10
65.1508704062
 20
43.3300355801
 11
65.1508704062
 21
41.7723404255
  0
LINE
  5
2B7
100
AcDbEntity
  8
_1
100
AcDbLine
 62
7
  6
CONTINUOUS
 10
66.4008704062
 20
284.6764338086
 11
66.4008704062
 21
284.8723404255
  0
LINE
  5
2B8
100
AcDbEntity
  8
_1
100
AcDbLine
 62
7
  6
CONTINUOUS
 10
68.4008704062
 20
284.8723404255
 11
68.4008704062
 21
283.6354801463
  0
LINE
  5
2B9
100
AcDbEntity
  8
_1
100
AcDbLine
 62
7
  6
CONTINUOUS
 10
73.9008704062
 20
283.6354801463
 11
73.9008704062
 21
284.8723404255
  0
LINE
  5
2BA
100
AcDbEntity
  8
_1
100
AcDbLine
 62
7
  6
CONTINUOUS
 10
66.3206843772
 20
22.8723404255
 11
66.3390387819
 21
23.5732668651
  0
LINE
  5
2BB
100
AcDbEntity
  8
_1
100
AcDbLine
 62
7
  6
CONTINUOUS
 10
68.268998119
 20
20.8723404255
 11
68.4018127625
 21
25.9443270334
  0
LINE
  5
2BC
100
AcDbEntity
  8
_1
100
AcDbLine
 62
7
  6
CONTINUOUS
 10
102.1484656704
 20
232.8976672253
 11
111.5879538937
 21
249.2473404255
  0
LINE
  5
2BD
100
AcDbEntity
  8
_1
100
AcDbLine
 62
7
  6
CONTINUOUS
 10
135.403275142
 20
287.8973404255
 11
125.9637869186
 21
271.5476672252
  0
LINE
  5
2BE
100
AcDbEntity
  8
_1
100
AcDbLine
 62
7
  6
CONTINUOUS
 10
115.3984656704
 20
252.5479940249
 11
124.8379538937
 21
268.8976672252
  0
LINE
  5
2BF
100
AcDbEntity
  8
_1
100
AcDbLine
 62
7
  6
CONTINUOUS
 10
128.6484656704
 20
272.1976672253
 11
138.0879538937
 21
288.5473404255
  0
LINE
  5
2C0
100
AcDbEntity
  8
_1
100
AcDbLine
 62
7
  6
CONTINUOUS
 10
148.0903586295
 20
112.0226672252
 11
129.2113821828
 21
112.0226672252
  0
LINE
  5
2C1
100
AcDbEntity
  8
_1
100
AcDbLine
 62
7
  6
CONTINUOUS
 10
121.5903586295
 20
112.0226672252
 11
102.7113821828
 21
112.0226672252
  0
LINE
  5
2C2
100
AcDbEntity
  8
_1
100
AcDbLine
 62
7
  6
CONTINUOUS
 10
95.0903586295
 20
112.0226672252
 11
76.2113821828
 21
112.0226672252
  0
LINE
  5
2C3
100
AcDbEntity
  8
_1
100
AcDbLine
 62
7
  6
CONTINUOUS
 10
59.1508704062
 20
112.0226672252
 11
68.5903586295
 21
112.0226672252
  0
LINE
  5
2C4
100
AcDbEntity
  8
_1
100
AcDbLine
 62
7
  6
CONTINUOUS
 10
155.7113821828
 20
112.0226672252
 11
165.1508704062
 21
112.0226672252
  0
LINE
  5
2C5
100
AcDbEntity
  8
_1
100
AcDbLine
 62
7
  6
CONTINUOUS
 10
68.5903586295
 20
114.0226672252
 11
59.1508704062
 21
114.0226672252
  0
LINE
  5
2C6
100
AcDbEntity
  8
_1
100
AcDbLine
 62
7
  6
CONTINUOUS
 10
76.2113821828
 20
114.0226672252
 11
95.0903586295
 21
114.0226672252
  0
LINE
  5
2C7
100
AcDbEntity
  8
_1
100
AcDbLine
 62
7
  6
CONTINUOUS
 10
102.7113821828
 20
114.0226672252
 11
121.5903586295
 21
114.0226672252
  0
LINE
  5
2C8
100
AcDbEntity
  8
_1
100
AcDbLine
 62
7
  6
CONTINUOUS
 10
129.2113821828
 20
114.0226672252
 11
148.0903586295
 21
114.0226672252
  0
LINE
  5
2C9
100
AcDbEntity
  8
_1
100
AcDbLine
 62
7
  6
CONTINUOUS
 10
155.7113821828
 20
114.0226672252
 11
165.1508704062
 21
114.0226672252
  0
LINE
  5
2CA
100
AcDbEntity
  8
_1
100
AcDbLine
 62
7
  6
CONTINUOUS
 10
59.7137869187
 20
170.6473404255
 11
69.153275142
 21
154.2976672252
  0
LINE
  5
2CB
100
AcDbEntity
  8
_1
100
AcDbLine
 62
7
  6
CONTINUOUS
 10
74.9008704062
 20
41.0723404255
 11
74.9008704062
 21
48.0723404255
  0
LINE
  5
2CC
100
AcDbEntity
  8
_1
100
AcDbLine
 62
7
  6
CONTINUOUS
 10
75.9008704062
 20
284.8723404255
 11
75.9008704062
 21
284.6764338086
  0
LINE
  5
2CD
100
AcDbEntity
  8
_1
100
AcDbLine
 62
7
  6
CONTINUOUS
 10
76.9008704062
 20
46.0723404255
 11
76.9008704062
 21
43.0723404255
  0
LINE
  5
2CE
100
AcDbEntity
  8
_1
100
AcDbLine
 62
7
  6
CONTINUOUS
 10
82.4008704062
 20
43.0723404255
 11
82.4008704062
 21
46.0723404255
  0
LINE
  5
2CF
100
AcDbEntity
  8
_1
100
AcDbLine
 62
7
  6
CONTINUOUS
 10
69.153275142
 20
150.3476672252
 11
59.7137869186
 21
133.997994025
  0
LINE
  5
2D0
100
AcDbEntity
  8
_1
100
AcDbLine
 62
7
  6
CONTINUOUS
 10
82.403275142
 20
169.9973404255
 11
72.9637869186
 21
153.6476672252
  0
LINE
  5
2D1
100
AcDbEntity
  8
_1
100
AcDbLine
 62
7
  6
CONTINUOUS
 10
62.3984656704
 20
134.647994025
 11
71.8379538937
 21
150.9976672252
  0
LINE
  5
2D2
100
AcDbEntity
  8
_1
100
AcDbLine
 62
7
  6
CONTINUOUS
 10
95.653275142
 20
189.6476672252
 11
86.2137869186
 21
173.297994025
  0
LINE
  5
2D3
100
AcDbEntity
  8
_1
100
AcDbLine
 62
7
  6
CONTINUOUS
 10
75.6484656704
 20
154.2976672252
 11
85.0879538937
 21
170.6473404255
  0
LINE
  5
2D4
100
AcDbEntity
  8
_1
100
AcDbLine
 62
7
  6
CONTINUOUS
 10
108.903275142
 20
209.2973404255
 11
99.4637869186
 21
192.9476672252
  0
LINE
  5
2D5
100
AcDbEntity
  8
_1
100
AcDbLine
 62
7
  6
CONTINUOUS
 10
88.8984656704
 20
173.947994025
 11
98.3379538937
 21
190.2976672252
  0
LINE
  5
2D6
100
AcDbEntity
  8
_1
100
AcDbLine
 62
7
  6
CONTINUOUS
 10
122.153275142
 20
228.9476672252
 11
112.7137869186
 21
212.597994025
  0
LINE
  5
2D7
100
AcDbEntity
  8
_1
100
AcDbLine
 62
7
  6
CONTINUOUS
 10
72.9637869186
 20
150.9976672252
 11
82.403275142
 21
134.647994025
  0
LINE
  5
2D8
100
AcDbEntity
  8
_1
100
AcDbLine
 62
7
  6
CONTINUOUS
 10
71.8379538937
 20
153.6476672252
 11
62.3984656704
 21
169.9973404255
  0
LINE
  5
2D9
100
AcDbEntity
  8
_1
100
AcDbLine
 62
7
  6
CONTINUOUS
 10
86.2137869186
 20
131.3473404255
 11
95.653275142
 21
114.9976672252
  0
LINE
  5
2DA
100
AcDbEntity
  8
_1
100
AcDbLine
 62
7
  6
CONTINUOUS
 10
85.0879538937
 20
133.9979940249
 11
75.6484656704
 21
150.3476672252
  0
LINE
  5
2DB
100
AcDbEntity
  8
_1
100
AcDbLine
 62
7
  6
CONTINUOUS
 10
99.4637869186
 20
111.6976672252
 11
108.903275142
 21
95.347994025
  0
LINE
  5
2DC
100
AcDbEntity
  8
_1
100
AcDbLine
 62
7
  6
CONTINUOUS
 10
98.3379538937
 20
114.3476672252
 11
88.8984656704
 21
130.6973404255
  0
LINE
  5
2DD
100
AcDbEntity
  8
_1
100
AcDbLine
 62
7
  6
CONTINUOUS
 10
112.7137869186
 20
92.0473404255
 11
122.153275142
 21
75.6976672253
  0
LINE
  5
2DE
100
AcDbEntity
  8
_1
100
AcDbLine
 62
7
  6
CONTINUOUS
 10
111.5879538937
 20
94.697994025
 11
102.1484656704
 21
111.0476672252
  0
LINE
  5
2DF
100
AcDbEntity
  8
_1
100
AcDbLine
 62
7
  6
CONTINUOUS
 10
125.9637869186
 20
72.3976672252
 11
135.4032751419
 21
56.0479940251
  0
LINE
  5
2E0
100
AcDbEntity
  8
_1
100
AcDbLine
 62
7
  6
CONTINUOUS
 10
124.8379538937
 20
75.0476672252
 11
115.3984656704
 21
91.3973404255
  0
LINE
  5
2E1
100
AcDbEntity
  8
_1
100
AcDbLine
 62
7
  6
CONTINUOUS
 10
139.2137869186
 20
52.7473404255
 11
141.9128994271
 21
48.0723404255
  0
LINE
  5
2E2
100
AcDbEntity
  8
_1
100
AcDbLine
 62
7
  6
CONTINUOUS
 10
145.9543513114
 20
41.0723404255
 11
148.653275142
 21
36.3976672252
  0
LINE
  5
2E3
100
AcDbEntity
  8
_1
100
AcDbLine
 62
7
  6
CONTINUOUS
 10
84.4008704062
 20
48.0723404255
 11
84.4008704062
 21
41.0723404255
  0
LINE
  5
2E4
100
AcDbEntity
  8
_1
100
AcDbLine
 62
7
  6
CONTINUOUS
 10
102.1484656704
 20
193.5976672253
 11
111.5879538937
 21
209.9473404255
  0
LINE
  5
2E5
100
AcDbEntity
  8
_1
100
AcDbLine
 62
7
  6
CONTINUOUS
 10
135.403275142
 20
248.5973404255
 11
125.9637869186
 21
232.2476672252
  0
LINE
  5
2E6
100
AcDbEntity
  8
_1
100
AcDbLine
 62
7
  6
CONTINUOUS
 10
115.3984656704
 20
213.247994025
 11
124.8379538937
 21
229.5976672252
  0
LINE
  5
2E7
100
AcDbEntity
  8
_1
100
AcDbLine
 62
7
  6
CONTINUOUS
 10
148.653275142
 20
268.2476672253
 11
139.2137869186
 21
251.897994025
  0
LINE
  5
2E8
100
AcDbEntity
  8
_1
100
AcDbLine
 62
7
  6
CONTINUOUS
 10
128.6484656704
 20
232.8976672252
 11
138.0879538937
 21
249.2473404255
  0
LINE
  5
2E9
100
AcDbEntity
  8
_1
100
AcDbLine
 62
7
  6
CONTINUOUS
 10
161.9032751421
 20
287.8973404257
 11
159.2292819921
 21
283.2658484308
  0
LINE
  5
2EA
100
AcDbEntity
  8
_1
100
AcDbLine
 62
7
  6
CONTINUOUS
 10
141.8984656704
 20
252.5479940249
 11
151.3379538937
 21
268.8976672252
  0
LINE
  5
2EB
100
AcDbEntity
  8
_1
100
AcDbLine
 62
7
  6
CONTINUOUS
 10
160.3039018135
 20
281.1271445603
 11
164.5879538937
 21
288.5473404255
  0
LINE
  5
2EC
100
AcDbEntity
  8
_1
100
AcDbLine
 62
7
  6
CONTINUOUS
 10
62.9613821828
 20
131.6723404255
 11
81.8403586295
 21
131.6723404255
  0
LINE
  5
2ED
100
AcDbEntity
  8
_1
100
AcDbLine
 62
7
  6
CONTINUOUS
 10
89.4613821828
 20
131.6723404255
 11
108.3403586295
 21
131.6723404255
  0
LINE
  5
2EE
100
AcDbEntity
  8
_1
100
AcDbLine
 62
7
  6
CONTINUOUS
 10
115.9613821828
 20
131.6723404255
 11
134.8403586295
 21
131.6723404255
  0
LINE
  5
2EF
100
AcDbEntity
  8
_1
100
AcDbLine
 62
7
  6
CONTINUOUS
 10
142.4613821828
 20
131.6723404255
 11
161.3403586295
 21
131.6723404255
  0
LINE
  5
2F0
100
AcDbEntity
  8
_1
100
AcDbLine
 62
7
  6
CONTINUOUS
 10
161.3403586295
 20
133.672994025
 11
142.4613821828
 21
133.672994025
  0
LINE
  5
2F1
100
AcDbEntity
  8
_1
100
AcDbLine
 62
7
  6
CONTINUOUS
 10
108.3403586295
 20
133.672994025
 11
89.4613821828
 21
133.672994025
  0
LINE
  5
2F2
100
AcDbEntity
  8
_1
100
AcDbLine
 62
7
  6
CONTINUOUS
 10
81.8403586295
 20
133.672994025
 11
62.9613821828
 21
133.672994025
  0
LINE
  5
2F3
100
AcDbEntity
  8
_1
100
AcDbLine
 62
7
  6
CONTINUOUS
 10
115.9613821828
 20
133.672994025
 11
134.8403586295
 21
133.672994025
  0
LINE
  5
2F4
100
AcDbEntity
  8
_1
100
AcDbLine
 62
7
  6
CONTINUOUS
 10
138.0879538938
 20
55.3979940249
 11
128.6484656704
 21
71.7476672252
  0
LINE
  5
2F5
100
AcDbEntity
  8
_1
100
AcDbLine
 62
7
  6
CONTINUOUS
 10
152.4637869187
 20
33.0976672252
 11
153.9300678172
 21
30.5579942107
  0
LINE
  5
2F6
100
AcDbEntity
  8
_1
100
AcDbLine
 62
7
  6
CONTINUOUS
 10
157.9627020305
 20
23.5732668651
 11
158.367382099
 21
22.8723404255
  0
LINE
  5
2F7
100
AcDbEntity
  8
_1
100
AcDbLine
 62
7
  6
CONTINUOUS
 10
151.3379538938
 20
35.7476672252
 11
148.2637523882
 21
41.0723404255
  0
LINE
  5
2F8
100
AcDbEntity
  8
_1
100
AcDbLine
 62
7
  6
CONTINUOUS
 10
144.2223005039
 20
48.0723404255
 11
141.8984656704
 21
52.0973404255
  0
LINE
  5
2F9
100
AcDbEntity
  8
_1
100
AcDbLine
 62
7
  6
CONTINUOUS
 10
160.6767831758
 20
22.8723404255
 11
155.1484656704
 21
32.4476672253
  0
LINE
  5
2FA
100
AcDbEntity
  8
_1
100
AcDbLine
 62
7
  6
CONTINUOUS
 10
59.7137869186
 20
209.9473404255
 11
69.153275142
 21
193.5976672252
  0
LINE
  5
2FB
100
AcDbEntity
  8
_1
100
AcDbLine
 62
7
  6
CONTINUOUS
 10
69.153275142
 20
111.0476672252
 11
59.7137869186
 21
94.697994025
  0
LINE
  5
2FC
100
AcDbEntity
  8
_1
100
AcDbLine
 62
7
  6
CONTINUOUS
 10
82.403275142
 20
130.6973404255
 11
72.9637869186
 21
114.3476672252
  0
LINE
  5
2FD
100
AcDbEntity
  8
_1
100
AcDbLine
 62
7
  6
CONTINUOUS
 10
62.3984656704
 20
95.347994025
 11
71.8379538937
 21
111.6976672252
  0
LINE
  5
2FE
100
AcDbEntity
  8
_1
100
AcDbLine
 62
7
  6
CONTINUOUS
 10
95.653275142
 20
150.3476672252
 11
86.2137869186
 21
133.997994025
  0
LINE
  5
2FF
100
AcDbEntity
  8
_1
100
AcDbLine
 62
7
  6
CONTINUOUS
 10
75.6484656704
 20
114.9976672252
 11
85.0879538937
 21
131.3473404255
  0
LINE
  5
300
100
AcDbEntity
  8
_1
100
AcDbLine
 62
7
  6
CONTINUOUS
 10
108.903275142
 20
169.9973404255
 11
99.4637869186
 21
153.6476672252
  0
LINE
  5
301
100
AcDbEntity
  8
_1
100
AcDbLine
 62
7
  6
CONTINUOUS
 10
88.8984656704
 20
134.647994025
 11
98.3379538937
 21
150.9976672252
  0
LINE
  5
302
100
AcDbEntity
  8
_1
100
AcDbLine
 62
7
  6
CONTINUOUS
 10
72.9637869186
 20
190.2976672252
 11
82.403275142
 21
173.947994025
  0
LINE
  5
303
100
AcDbEntity
  8
_1
100
AcDbLine
 62
7
  6
CONTINUOUS
 10
71.8379538937
 20
192.9476672252
 11
62.3984656704
 21
209.2973404255
  0
LINE
  5
304
100
AcDbEntity
  8
_1
100
AcDbLine
 62
7
  6
CONTINUOUS
 10
86.2137869187
 20
170.6473404255
 11
95.653275142
 21
154.2976672252
  0
LINE
  5
305
100
AcDbEntity
  8
_1
100
AcDbLine
 62
7
  6
CONTINUOUS
 10
85.0879538937
 20
173.297994025
 11
75.6484656704
 21
189.6476672252
  0
LINE
  5
306
100
AcDbEntity
  8
_1
100
AcDbLine
 62
7
  6
CONTINUOUS
 10
99.4637869186
 20
150.9976672253
 11
108.903275142
 21
134.647994025
  0
LINE
  5
307
100
AcDbEntity
  8
_1
100
AcDbLine
 62
7
  6
CONTINUOUS
 10
98.3379538937
 20
153.6476672252
 11
88.8984656704
 21
169.9973404255
  0
LINE
  5
308
100
AcDbEntity
  8
_1
100
AcDbLine
 62
7
  6
CONTINUOUS
 10
112.7137869186
 20
131.3473404255
 11
122.153275142
 21
114.9976672253
  0
LINE
  5
309
100
AcDbEntity
  8
_1
100
AcDbLine
 62
7
  6
CONTINUOUS
 10
111.5879538937
 20
133.9979940249
 11
102.1484656704
 21
150.3476672252
  0
LINE
  5
30A
100
AcDbEntity
  8
_1
100
AcDbLine
 62
7
  6
CONTINUOUS
 10
125.9637869186
 20
111.6976672252
 11
135.403275142
 21
95.347994025
  0
LINE
  5
30B
100
AcDbEntity
  8
_1
100
AcDbLine
 62
7
  6
CONTINUOUS
 10
124.8379538937
 20
114.3476672252
 11
115.3984656704
 21
130.6973404255
  0
LINE
  5
30C
100
AcDbEntity
  8
_1
100
AcDbLine
 62
7
  6
CONTINUOUS
 10
139.2137869186
 20
92.0473404255
 11
148.653275142
 21
75.6976672252
  0
LINE
  5
30D
100
AcDbEntity
  8
_1
100
AcDbLine
 62
7
  6
CONTINUOUS
 10
122.153275142
 20
189.6476672252
 11
112.7137869186
 21
173.297994025
  0
LINE
  5
30E
100
AcDbEntity
  8
_1
100
AcDbLine
 62
7
  6
CONTINUOUS
 10
102.1484656704
 20
154.2976672253
 11
111.5879538937
 21
170.6473404255
  0
LINE
  5
30F
100
AcDbEntity
  8
_1
100
AcDbLine
 62
7
  6
CONTINUOUS
 10
135.403275142
 20
209.2973404255
 11
125.9637869186
 21
192.9476672252
  0
LINE
  5
310
100
AcDbEntity
  8
_1
100
AcDbLine
 62
7
  6
CONTINUOUS
 10
115.3984656704
 20
173.947994025
 11
124.8379538937
 21
190.2976672252
  0
LINE
  5
311
100
AcDbEntity
  8
_1
100
AcDbLine
 62
7
  6
CONTINUOUS
 10
148.653275142
 20
228.9476672252
 11
139.2137869186
 21
212.597994025
  0
LINE
  5
312
100
AcDbEntity
  8
_1
100
AcDbLine
 62
7
  6
CONTINUOUS
 10
128.6484656704
 20
193.5976672252
 11
138.0879538937
 21
209.9473404255
  0
LINE
  5
313
100
AcDbEntity
  8
_1
100
AcDbLine
 62
7
  6
CONTINUOUS
 10
161.903275142
 20
248.5973404255
 11
152.4637869186
 21
232.2476672252
  0
LINE
  5
314
100
AcDbEntity
  8
_1
100
AcDbLine
 62
7
  6
CONTINUOUS
 10
141.8984656704
 20
213.247994025
 11
151.3379538937
 21
229.5976672252
  0
LINE
  5
315
100
AcDbEntity
  8
_1
100
AcDbLine
 62
7
  6
CONTINUOUS
 10
155.1484656704
 20
232.8976672252
 11
164.5879538937
 21
249.2473404255
  0
LINE
  5
316
100
AcDbEntity
  8
_1
100
AcDbLine
 62
7
  6
CONTINUOUS
 10
165.1508704062
 20
150.8723404255
 11
159.1508704062
 21
150.8723404255
  0
LINE
  5
317
100
AcDbEntity
  8
_1
100
AcDbLine
 62
7
  6
CONTINUOUS
 10
65.1508704062
 20
150.8723404255
 11
59.1508704062
 21
150.8723404255
  0
LINE
  5
318
100
AcDbEntity
  8
_1
100
AcDbLine
 62
7
  6
CONTINUOUS
 10
148.0903586295
 20
151.3226672252
 11
129.2113821828
 21
151.3226672252
  0
LINE
  5
319
100
AcDbEntity
  8
_1
100
AcDbLine
 62
7
  6
CONTINUOUS
 10
121.5903586295
 20
151.3226672252
 11
102.7113821828
 21
151.3226672252
  0
LINE
  5
31A
100
AcDbEntity
  8
_1
100
AcDbLine
 62
7
  6
CONTINUOUS
 10
95.0903586295
 20
151.3226672252
 11
76.2113821828
 21
151.3226672252
  0
LINE
  5
31B
100
AcDbEntity
  8
_1
100
AcDbLine
 62
7
  6
CONTINUOUS
 10
65.1508704062
 20
151.3226672252
 11
68.5903586295
 21
151.3226672252
  0
LINE
  5
31C
100
AcDbEntity
  8
_1
100
AcDbLine
 62
7
  6
CONTINUOUS
 10
155.7113821828
 20
151.3226672252
 11
159.1508704062
 21
151.3226672252
  0
LINE
  5
31D
100
AcDbEntity
  8
_1
100
AcDbLine
 62
7
  6
CONTINUOUS
 10
58.1192068929
 20
152.8723404255
 11
63.2556007958
 21
152.8723404255
  0
LINE
  5
31E
100
AcDbEntity
  8
_1
100
AcDbLine
 62
7
  6
CONTINUOUS
 10
161.0461400166
 20
152.8723404255
 11
166.1825339195
 21
152.8723404255
  0
LINE
  5
31F
100
AcDbEntity
  8
_1
100
AcDbLine
 62
7
  6
CONTINUOUS
 10
68.5903586295
 20
153.3226672252
 11
65.1508704062
 21
153.3226672252
  0
LINE
  5
320
100
AcDbEntity
  8
_1
100
AcDbLine
 62
7
  6
CONTINUOUS
 10
76.2113821828
 20
153.3226672252
 11
95.0903586295
 21
153.3226672252
  0
LINE
  5
321
100
AcDbEntity
  8
_1
100
AcDbLine
 62
7
  6
CONTINUOUS
 10
102.7113821828
 20
153.3226672252
 11
121.5903586295
 21
153.3226672252
  0
LINE
  5
322
100
AcDbEntity
  8
_1
100
AcDbLine
 62
7
  6
CONTINUOUS
 10
129.2113821828
 20
153.3226672252
 11
148.0903586295
 21
153.3226672252
  0
LINE
  5
323
100
AcDbEntity
  8
_1
100
AcDbLine
 62
7
  6
CONTINUOUS
 10
155.7113821828
 20
153.3226672252
 11
159.1508704062
 21
153.3226672252
  0
LINE
  5
324
100
AcDbEntity
  8
_1
100
AcDbLine
 62
7
  6
CONTINUOUS
 10
138.0879538937
 20
94.697994025
 11
128.6484656704
 21
111.0476672252
  0
LINE
  5
325
100
AcDbEntity
  8
_1
100
AcDbLine
 62
7
  6
CONTINUOUS
 10
152.4637869186
 20
72.3976672252
 11
161.9032751419
 21
56.0479940251
  0
LINE
  5
326
100
AcDbEntity
  8
_1
100
AcDbLine
 62
7
  6
CONTINUOUS
 10
151.3379538937
 20
75.0476672252
 11
141.8984656704
 21
91.3973404255
  0
LINE
  5
327
100
AcDbEntity
  8
_1
100
AcDbLine
 62
7
  6
CONTINUOUS
 10
164.5879538938
 20
55.3979940249
 11
155.1484656704
 21
71.7476672252
  0
LINE
  5
328
100
AcDbEntity
  8
_1
100
AcDbLine
 62
7
  6
CONTINUOUS
 10
59.7137869186
 20
249.2473404255
 11
69.153275142
 21
232.8976672252
  0
LINE
  5
329
100
AcDbEntity
  8
_1
100
AcDbLine
 62
7
  6
CONTINUOUS
 10
69.1532751419
 20
71.7476672251
 11
59.7137869186
 21
55.3979940249
  0
LINE
  5
32A
100
AcDbEntity
  8
_1
100
AcDbLine
 62
7
  6
CONTINUOUS
 10
82.403275142
 20
91.3973404255
 11
72.9637869186
 21
75.0476672252
  0
LINE
  5
32B
100
AcDbEntity
  8
_1
100
AcDbLine
 62
7
  6
CONTINUOUS
 10
62.3984656704
 20
56.047994025
 11
71.8379538937
 21
72.3976672252
  0
LINE
  5
32C
100
AcDbEntity
  8
_1
100
AcDbLine
 62
7
  6
CONTINUOUS
 10
95.653275142
 20
111.0476672252
 11
86.2137869186
 21
94.697994025
  0
LINE
  5
32D
100
AcDbEntity
  8
_1
100
AcDbLine
 62
7
  6
CONTINUOUS
 10
75.6484656704
 20
75.6976672252
 11
85.0879538937
 21
92.0473404255
  0
LINE
  5
32E
100
AcDbEntity
  8
_1
100
AcDbLine
 62
7
  6
CONTINUOUS
 10
108.903275142
 20
130.6973404255
 11
99.4637869186
 21
114.3476672252
  0
LINE
  5
32F
100
AcDbEntity
  8
_1
100
AcDbLine
 62
7
  6
CONTINUOUS
 10
88.8984656704
 20
95.347994025
 11
98.3379538937
 21
111.6976672252
  0
LINE
  5
330
100
AcDbEntity
  8
_1
100
AcDbLine
 62
7
  6
CONTINUOUS
 10
58.1192068929
 20
158.8723404255
 11
63.2556007958
 21
158.8723404255
  0
LINE
  5
331
100
AcDbEntity
  8
_1
100
AcDbLine
 62
7
  6
CONTINUOUS
 10
161.0461400166
 20
158.8723404255
 11
166.1825339195
 21
158.8723404255
  0
LINE
  5
332
100
AcDbEntity
  8
_1
100
AcDbLine
 62
7
  6
CONTINUOUS
 10
59.1508704062
 20
160.8723404255
 11
65.1508704062
 21
160.8723404255
  0
LINE
  5
333
100
AcDbEntity
  8
_1
100
AcDbLine
 62
7
  6
CONTINUOUS
 10
159.1508704062
 20
160.8723404255
 11
165.1508704062
 21
160.8723404255
  0
LINE
  5
334
100
AcDbEntity
  8
_1
100
AcDbLine
 62
7
  6
CONTINUOUS
 10
72.9637869186
 20
229.5976672252
 11
82.403275142
 21
213.247994025
  0
LINE
  5
335
100
AcDbEntity
  8
_1
100
AcDbLine
 62
7
  6
CONTINUOUS
 10
71.8379538937
 20
232.2476672252
 11
62.3984656704
 21
248.5973404255
  0
LINE
  5
336
100
AcDbEntity
  8
_1
100
AcDbLine
 62
7
  6
CONTINUOUS
 10
86.2137869186
 20
209.9473404255
 11
95.653275142
 21
193.5976672252
  0
LINE
  5
337
100
AcDbEntity
  8
_1
100
AcDbLine
 62
7
  6
CONTINUOUS
 10
85.0879538937
 20
212.597994025
 11
75.6484656704
 21
228.9476672252
  0
LINE
  5
338
100
AcDbEntity
  8
_1
100
AcDbLine
 62
7
  6
CONTINUOUS
 10
99.4637869186
 20
190.2976672252
 11
108.903275142
 21
173.947994025
  0
LINE
  5
339
100
AcDbEntity
  8
_1
100
AcDbLine
 62
7
  6
CONTINUOUS
 10
98.3379538937
 20
192.9476672252
 11
88.8984656704
 21
209.2973404255
  0
LINE
  5
33A
100
AcDbEntity
  8
_1
100
AcDbLine
 62
7
  6
CONTINUOUS
 10
112.7137869187
 20
170.6473404255
 11
122.153275142
 21
154.2976672253
  0
LINE
  5
33B
100
AcDbEntity
  8
_1
100
AcDbLine
 62
7
  6
CONTINUOUS
 10
111.5879538937
 20
173.297994025
 11
102.1484656704
 21
189.6476672252
  0
LINE
  5
33C
100
AcDbEntity
  8
_1
100
AcDbLine
 62
7
  6
CONTINUOUS
 10
125.9637869186
 20
150.9976672252
 11
135.403275142
 21
134.647994025
  0
LINE
  5
33D
100
AcDbEntity
  8
_1
100
AcDbLine
 62
7
  6
CONTINUOUS
 10
124.8379538937
 20
153.6476672252
 11
115.3984656704
 21
169.9973404255
  0
LINE
  5
33E
100
AcDbEntity
  8
_1
100
AcDbLine
 62
7
  6
CONTINUOUS
 10
122.153275142
 20
150.3476672252
 11
112.7137869186
 21
133.997994025
  0
LINE
  5
33F
100
AcDbEntity
  8
_1
100
AcDbLine
 62
7
  6
CONTINUOUS
 10
102.1484656704
 20
114.9976672253
 11
111.5879538937
 21
131.3473404255
  0
LINE
  5
340
100
AcDbEntity
  8
_1
100
AcDbLine
 62
7
  6
CONTINUOUS
 10
135.403275142
 20
169.9973404255
 11
125.9637869186
 21
153.6476672252
  0
LINE
  5
341
100
AcDbEntity
  8
_1
100
AcDbLine
 62
7
  6
CONTINUOUS
 10
115.3984656704
 20
134.647994025
 11
124.8379538937
 21
150.9976672252
  0
LINE
  5
342
100
AcDbEntity
  8
_1
100
AcDbLine
 62
7
  6
CONTINUOUS
 10
148.653275142
 20
189.6476672252
 11
139.2137869186
 21
173.297994025
  0
LINE
  5
343
100
AcDbEntity
  8
_1
100
AcDbLine
 62
7
  6
CONTINUOUS
 10
128.6484656704
 20
154.2976672252
 11
138.0879538937
 21
170.6473404255
  0
LINE
  5
344
100
AcDbEntity
  8
_1
100
AcDbLine
 62
7
  6
CONTINUOUS
 10
161.903275142
 20
209.2973404255
 11
152.4637869186
 21
192.9476672252
  0
LINE
  5
345
100
AcDbEntity
  8
_1
100
AcDbLine
 62
7
  6
CONTINUOUS
 10
141.8984656704
 20
173.947994025
 11
151.3379538937
 21
190.2976672252
  0
LINE
  5
346
100
AcDbEntity
  8
_1
100
AcDbLine
 62
7
  6
CONTINUOUS
 10
155.1484656704
 20
193.5976672252
 11
164.5879538937
 21
209.9473404255
  0
LINE
  5
347
100
AcDbEntity
  8
_1
100
AcDbLine
 62
7
  6
CONTINUOUS
 10
62.9613821828
 20
170.9723404255
 11
81.8403586295
 21
170.9723404255
  0
LINE
  5
348
100
AcDbEntity
  8
_1
100
AcDbLine
 62
7
  6
CONTINUOUS
 10
89.4613821828
 20
170.9723404255
 11
108.3403586295
 21
170.9723404255
  0
LINE
  5
349
100
AcDbEntity
  8
_1
100
AcDbLine
 62
7
  6
CONTINUOUS
 10
115.9613821828
 20
170.9723404255
 11
134.8403586295
 21
170.9723404255
  0
LINE
  5
34A
100
AcDbEntity
  8
_1
100
AcDbLine
 62
7
  6
CONTINUOUS
 10
142.4613821828
 20
170.9723404255
 11
161.3403586295
 21
170.9723404255
  0
LINE
  5
34B
100
AcDbEntity
  8
_1
100
AcDbLine
 62
7
  6
CONTINUOUS
 10
161.3403586295
 20
172.972994025
 11
142.4613821828
 21
172.972994025
  0
LINE
  5
34C
100
AcDbEntity
  8
_1
100
AcDbLine
 62
7
  6
CONTINUOUS
 10
108.3403586295
 20
172.972994025
 11
89.4613821828
 21
172.972994025
  0
LINE
  5
34D
100
AcDbEntity
  8
_1
100
AcDbLine
 62
7
  6
CONTINUOUS
 10
81.8403586295
 20
172.972994025
 11
62.9613821828
 21
172.972994025
  0
LINE
  5
34E
100
AcDbEntity
  8
_1
100
AcDbLine
 62
7
  6
CONTINUOUS
 10
115.9613821828
 20
172.972994025
 11
134.8403586295
 21
172.972994025
  0
LINE
  5
34F
100
AcDbEntity
  8
_1
100
AcDbLine
 62
7
  6
CONTINUOUS
 10
139.2137869186
 20
131.3473404255
 11
148.653275142
 21
114.9976672252
  0
LINE
  5
350
100
AcDbEntity
  8
_1
100
AcDbLine
 62
7
  6
CONTINUOUS
 10
138.0879538937
 20
133.9979940249
 11
128.6484656704
 21
150.3476672252
  0
LINE
  5
351
100
AcDbEntity
  8
_1
100
AcDbLine
 62
7
  6
CONTINUOUS
 10
152.4637869186
 20
111.6976672252
 11
161.903275142
 21
95.347994025
  0
LINE
  5
352
100
AcDbEntity
  8
_1
100
AcDbLine
 62
7
  6
CONTINUOUS
 10
151.3379538937
 20
114.3476672252
 11
141.8984656704
 21
130.6973404255
  0
LINE
  5
353
100
AcDbEntity
  8
_1
100
AcDbLine
 62
7
  6
CONTINUOUS
 10
164.5879538937
 20
94.697994025
 11
155.1484656704
 21
111.0476672252
  0
LINE
  5
354
100
AcDbEntity
  8
_1
100
AcDbLine
 62
7
  6
CONTINUOUS
 10
139.9008704062
 20
41.0723404255
 11
139.9008704062
 21
48.0723404255
  0
LINE
  5
355
100
AcDbEntity
  8
_1
100
AcDbLine
 62
7
  6
CONTINUOUS
 10
141.9008704062
 20
46.0723404255
 11
141.9008704062
 21
43.0723404255
  0
LINE
  5
356
100
AcDbEntity
  8
_1
100
AcDbLine
 62
7
  6
CONTINUOUS
 10
69.153275142
 20
32.4476672253
 11
63.6249576366
 21
22.8723404255
  0
LINE
  5
357
100
AcDbEntity
  8
_1
100
AcDbLine
 62
7
  6
CONTINUOUS
 10
82.403275142
 20
52.0973404255
 11
80.0794403085
 21
48.0723404255
  0
LINE
  5
358
100
AcDbEntity
  8
_1
100
AcDbLine
 62
7
  6
CONTINUOUS
 10
76.0379884242
 20
41.0723404255
 11
72.9637869186
 21
35.7476672252
  0
LINE
  5
359
100
AcDbEntity
  8
_1
100
AcDbLine
 62
7
  6
CONTINUOUS
 10
65.9343587133
 20
22.8723404255
 11
66.3390387819
 21
23.5732668651
  0
LINE
  5
35A
100
AcDbEntity
  8
_1
100
AcDbLine
 62
7
  6
CONTINUOUS
 10
70.3716729951
 20
30.5579942107
 11
71.8379538937
 21
33.0976672252
  0
LINE
  5
35B
100
AcDbEntity
  8
_1
100
AcDbLine
 62
7
  6
CONTINUOUS
 10
95.6532751419
 20
71.7476672251
 11
86.2137869186
 21
55.3979940249
  0
LINE
  5
35C
100
AcDbEntity
  8
_1
100
AcDbLine
 62
7
  6
CONTINUOUS
 10
75.6484656704
 20
36.3976672253
 11
78.3473895009
 21
41.0723404255
  0
LINE
  5
35D
100
AcDbEntity
  8
_1
100
AcDbLine
 62
7
  6
CONTINUOUS
 10
82.3888413853
 20
48.0723404255
 11
85.0879538937
 21
52.7473404255
  0
LINE
  5
35E
100
AcDbEntity
  8
_1
100
AcDbLine
 62
7
  6
CONTINUOUS
 10
108.903275142
 20
91.3973404255
 11
99.4637869186
 21
75.0476672252
  0
LINE
  5
35F
100
AcDbEntity
  8
_1
100
AcDbLine
 62
7
  6
CONTINUOUS
 10
88.8984656704
 20
56.047994025
 11
98.3379538937
 21
72.3976672252
  0
LINE
  5
360
100
AcDbEntity
  8
_1
100
AcDbLine
 62
7
  6
CONTINUOUS
 10
59.7137869187
 20
288.5473404254
 11
63.9978389989
 21
281.1271445603
  0
LINE
  5
361
100
AcDbEntity
  8
_1
100
AcDbLine
 62
7
  6
CONTINUOUS
 10
72.9637869187
 20
268.8976672252
 11
82.403275142
 21
252.547994025
  0
LINE
  5
362
100
AcDbEntity
  8
_1
100
AcDbLine
 62
7
  6
CONTINUOUS
 10
65.0724588203
 20
283.2658484308
 11
62.3984656704
 21
287.8973404255
  0
LINE
  5
363
100
AcDbEntity
  8
_1
100
AcDbLine
 62
7
  6
CONTINUOUS
 10
86.2137869186
 20
249.2473404255
 11
95.653275142
 21
232.8976672252
  0
LINE
  5
364
100
AcDbEntity
  8
_1
100
AcDbLine
 62
7
  6
CONTINUOUS
 10
85.0879538937
 20
251.897994025
 11
75.6484656704
 21
268.2476672252
  0
LINE
  5
365
100
AcDbEntity
  8
_1
100
AcDbLine
 62
7
  6
CONTINUOUS
 10
99.4637869186
 20
229.5976672252
 11
108.903275142
 21
213.247994025
  0
LINE
  5
366
100
AcDbEntity
  8
_1
100
AcDbLine
 62
7
  6
CONTINUOUS
 10
98.3379538937
 20
232.2476672252
 11
88.8984656704
 21
248.5973404255
  0
LINE
  5
367
100
AcDbEntity
  8
_1
100
AcDbLine
 62
7
  6
CONTINUOUS
 10
112.7137869186
 20
209.9473404255
 11
122.153275142
 21
193.5976672253
  0
LINE
  5
368
100
AcDbEntity
  8
_1
100
AcDbLine
 62
7
  6
CONTINUOUS
 10
111.5879538937
 20
212.597994025
 11
102.1484656704
 21
228.9476672252
  0
LINE
  5
369
100
AcDbEntity
  8
_1
100
AcDbLine
 62
7
  6
CONTINUOUS
 10
125.9637869186
 20
190.2976672252
 11
135.403275142
 21
173.947994025
  0
LINE
  5
36A
100
AcDbEntity
  8
_1
100
AcDbLine
 62
7
  6
CONTINUOUS
 10
124.8379538937
 20
192.9476672252
 11
115.3984656704
 21
209.2973404255
  0
LINE
  5
36B
100
AcDbEntity
  8
_1
100
AcDbLine
 62
7
  6
CONTINUOUS
 10
147.4008704062
 20
43.0723404255
 11
147.4008704062
 21
46.0723404255
  0
LINE
  5
36C
100
AcDbEntity
  8
_1
100
AcDbLine
 62
7
  6
CONTINUOUS
 10
148.4008704062
 20
284.6764338086
 11
148.4008704062
 21
284.8723404255
  0
LINE
  5
36D
100
AcDbEntity
  8
_1
100
AcDbLine
 62
7
  6
CONTINUOUS
 10
149.4008704062
 20
48.0723404255
 11
149.4008704062
 21
41.0723404255
  0
LINE
  5
36E
100
AcDbEntity
  8
_1
100
AcDbLine
 62
7
  6
CONTINUOUS
 10
150.4008704062
 20
284.8723404255
 11
150.4008704062
 21
283.6354801463
  0
LINE
  5
36F
100
AcDbEntity
  8
_1
100
AcDbLine
 62
7
  6
CONTINUOUS
 10
148.4024981126
 20
25.9966809301
 11
148.3206843772
 21
22.8723404255
  0
LINE
  5
370
100
AcDbEntity
  8
_1
100
AcDbLine
 62
7
  6
CONTINUOUS
 10
122.153275142
 20
111.0476672252
 11
112.7137869186
 21
94.697994025
  0
LINE
  5
371
100
AcDbEntity
  8
_1
100
AcDbLine
 62
7
  6
CONTINUOUS
 10
102.1484656704
 20
75.6976672253
 11
111.5879538937
 21
92.0473404255
  0
LINE
  5
372
100
AcDbEntity
  8
_1
100
AcDbLine
 62
7
  6
CONTINUOUS
 10
135.403275142
 20
130.6973404255
 11
125.9637869186
 21
114.3476672252
  0
LINE
  5
373
100
AcDbEntity
  8
_1
100
AcDbLine
 62
7
  6
CONTINUOUS
 10
115.3984656704
 20
95.347994025
 11
124.8379538937
 21
111.6976672252
  0
LINE
  5
374
100
AcDbEntity
  8
_1
100
AcDbLine
 62
7
  6
CONTINUOUS
 10
148.653275142
 20
150.3476672252
 11
139.2137869186
 21
133.997994025
  0
LINE
  5
375
100
AcDbEntity
  8
_1
100
AcDbLine
 62
7
  6
CONTINUOUS
 10
128.6484656704
 20
114.9976672252
 11
138.0879538937
 21
131.3473404255
  0
LINE
  5
376
100
AcDbEntity
  8
_1
100
AcDbLine
 62
7
  6
CONTINUOUS
 10
161.903275142
 20
169.9973404255
 11
152.4637869186
 21
153.6476672252
  0
LINE
  5
377
100
AcDbEntity
  8
_1
100
AcDbLine
 62
7
  6
CONTINUOUS
 10
141.8984656704
 20
134.647994025
 11
151.3379538937
 21
150.9976672252
  0
LINE
  5
378
100
AcDbEntity
  8
_1
100
AcDbLine
 62
7
  6
CONTINUOUS
 10
155.1484656704
 20
154.2976672252
 11
164.5879538937
 21
170.6473404255
  0
LINE
  5
379
100
AcDbEntity
  8
_1
100
AcDbLine
 62
7
  6
CONTINUOUS
 10
148.0903586295
 20
190.6226672252
 11
129.2113821828
 21
190.6226672252
  0
LINE
  5
37A
100
AcDbEntity
  8
_1
100
AcDbLine
 62
7
  6
CONTINUOUS
 10
121.5903586295
 20
190.6226672252
 11
102.7113821828
 21
190.6226672252
  0
LINE
  5
37B
100
AcDbEntity
  8
_1
100
AcDbLine
 62
7
  6
CONTINUOUS
 10
95.0903586295
 20
190.6226672252
 11
76.2113821828
 21
190.6226672252
  0
LINE
  5
37C
100
AcDbEntity
  8
_1
100
AcDbLine
 62
7
  6
CONTINUOUS
 10
59.1508704062
 20
190.6226672252
 11
68.5903586295
 21
190.6226672252
  0
LINE
  5
37D
100
AcDbEntity
  8
_1
100
AcDbLine
 62
7
  6
CONTINUOUS
 10
155.7113821828
 20
190.6226672252
 11
165.1508704062
 21
190.6226672252
  0
LINE
  5
37E
100
AcDbEntity
  8
_1
100
AcDbLine
 62
7
  6
CONTINUOUS
 10
68.5903586295
 20
192.6226672252
 11
59.1508704062
 21
192.6226672252
  0
LINE
  5
37F
100
AcDbEntity
  8
_1
100
AcDbLine
 62
7
  6
CONTINUOUS
 10
76.2113821828
 20
192.6226672252
 11
95.0903586295
 21
192.6226672252
  0
LINE
  5
380
100
AcDbEntity
  8
_1
100
AcDbLine
 62
7
  6
CONTINUOUS
 10
102.7113821828
 20
192.6226672252
 11
121.5903586295
 21
192.6226672252
  0
LINE
  5
381
100
AcDbEntity
  8
_1
100
AcDbLine
 62
7
  6
CONTINUOUS
 10
129.2113821828
 20
192.6226672252
 11
148.0903586295
 21
192.6226672252
  0
LINE
  5
382
100
AcDbEntity
  8
_1
100
AcDbLine
 62
7
  6
CONTINUOUS
 10
155.7113821828
 20
192.6226672252
 11
165.1508704062
 21
192.6226672252
  0
LINE
  5
383
100
AcDbEntity
  8
_1
100
AcDbLine
 62
7
  6
CONTINUOUS
 10
139.2137869187
 20
170.6473404255
 11
148.653275142
 21
154.2976672252
  0
LINE
  5
384
100
AcDbEntity
  8
_1
100
AcDbLine
 62
7
  6
CONTINUOUS
 10
138.0879538937
 20
173.297994025
 11
128.6484656704
 21
189.6476672252
  0
LINE
  5
385
100
AcDbEntity
  8
_1
100
AcDbLine
 62
7
  6
CONTINUOUS
 10
152.4637869186
 20
150.9976672252
 11
161.903275142
 21
134.647994025
  0
LINE
  5
386
100
AcDbEntity
  8
_1
100
AcDbLine
 62
7
  6
CONTINUOUS
 10
151.3379538937
 20
153.6476672252
 11
141.8984656704
 21
169.9973404255
  0
LINE
  5
387
100
AcDbEntity
  8
_1
100
AcDbLine
 62
7
  6
CONTINUOUS
 10
164.5879538937
 20
133.9979940249
 11
155.1484656704
 21
150.3476672252
  0
LINE
  5
388
100
AcDbEntity
  8
_1
100
AcDbLine
 62
7
  6
CONTINUOUS
 10
155.8999280499
 20
25.9443270334
 11
156.0327426934
 21
20.8723404255
  0
LINE
  5
389
100
AcDbEntity
  8
_1
100
AcDbLine
 62
7
  6
CONTINUOUS
 10
157.9627020305
 20
23.5732668651
 11
157.9810564352
 21
22.8723404255
  0
LINE
  5
38A
100
AcDbEntity
  8
_1
100
AcDbLine
 62
7
  6
CONTINUOUS
 10
155.9008704062
 20
283.6354801463
 11
155.9008704062
 21
284.8723404255
  0
LINE
  5
38B
100
AcDbEntity
  8
_1
100
AcDbLine
 62
7
  6
CONTINUOUS
 10
157.9008704062
 20
284.8723404255
 11
157.9008704062
 21
284.6764338086
  0
LINE
  5
38C
100
AcDbEntity
  8
_1
100
AcDbLine
 62
7
  6
CONTINUOUS
 10
159.1508704062
 20
41.7723404255
 11
159.1508704062
 21
43.3300355801
  0
LINE
  5
38D
100
AcDbEntity
  8
_1
100
AcDbLine
 62
7
  6
CONTINUOUS
 10
159.1508704062
 20
47.3300355801
 11
159.1508704062
 21
51.7723404255
  0
LINE
  5
38E
100
AcDbEntity
  8
_1
100
AcDbLine
 62
7
  6
CONTINUOUS
 10
159.1508704062
 20
150.8723404255
 11
159.1508704062
 21
151.3226672252
  0
LINE
  5
38F
100
AcDbEntity
  8
_1
100
AcDbLine
 62
7
  6
CONTINUOUS
 10
159.1508704062
 20
153.3226672252
 11
159.1508704062
 21
160.8723404255
  0
LINE
  5
390
100
AcDbEntity
  8
_1
100
AcDbLine
 62
7
  6
CONTINUOUS
 10
159.1508704062
 20
261.3152988703
 11
159.1508704062
 21
269.2226672252
  0
LINE
  5
391
100
AcDbEntity
  8
_1
100
AcDbLine
 62
7
  6
CONTINUOUS
 10
161.0461400166
 20
43.7723404255
 11
161.0461400166
 21
49.7723404255
  0
LINE
  5
392
100
AcDbEntity
  8
_1
100
AcDbLine
 62
7
  6
CONTINUOUS
 10
161.0461400166
 20
152.8723404255
 11
161.0461400166
 21
158.8723404255
  0
LINE
  5
393
100
AcDbEntity
  8
_1
100
AcDbLine
 62
7
  6
CONTINUOUS
 10
161.0461400166
 20
261.9723404255
 11
161.0461400166
 21
267.9723404255
  0
LINE
  5
394
100
AcDbEntity
  8
_1
100
AcDbLine
 62
7
  6
CONTINUOUS
 10
161.1246878088
 20
43.7723404255
 11
161.1246878088
 21
49.7723404255
  0
LINE
  5
395
100
AcDbEntity
  8
_1
100
AcDbLine
 62
7
  6
CONTINUOUS
 10
161.1246878088
 20
152.8723404255
 11
161.1246878088
 21
158.8723404255
  0
LINE
  5
396
100
AcDbEntity
  8
_1
100
AcDbLine
 62
7
  6
CONTINUOUS
 10
161.1246878088
 20
261.9723404255
 11
161.1246878088
 21
267.9723404255
  0
LINE
  5
397
100
AcDbEntity
  8
_1
100
AcDbLine
 62
7
  6
CONTINUOUS
 10
150.268998119
 20
20.8723404255
 11
150.4018127625
 21
25.9443270334
  0
LINE
  5
398
100
AcDbEntity
  8
_1
100
AcDbLine
 62
7
  6
CONTINUOUS
 10
95.653275142
 20
32.4476672253
 11
90.1249576366
 21
22.8723404255
  0
LINE
  5
399
100
AcDbEntity
  8
_1
100
AcDbLine
 62
7
  6
CONTINUOUS
 10
108.903275142
 20
52.0973404255
 11
99.4637869186
 21
35.7476672252
  0
LINE
  5
39A
100
AcDbEntity
  8
_1
100
AcDbLine
 62
7
  6
CONTINUOUS
 10
92.4343587134
 20
22.8723404255
 11
98.3379538937
 21
33.0976672252
  0
LINE
  5
39B
100
AcDbEntity
  8
_1
100
AcDbLine
 62
7
  6
CONTINUOUS
 10
86.2137869186
 20
288.5473404256
 11
95.653275142
 21
272.1976672252
  0
LINE
  5
39C
100
AcDbEntity
  8
_1
100
AcDbLine
 62
7
  6
CONTINUOUS
 10
99.4637869187
 20
268.8976672252
 11
108.903275142
 21
252.547994025
  0
LINE
  5
39D
100
AcDbEntity
  8
_1
100
AcDbLine
 62
7
  6
CONTINUOUS
 10
98.3379538937
 20
271.5476672252
 11
88.8984656704
 21
287.8973404255
  0
LINE
  5
39E
100
AcDbEntity
  8
_1
100
AcDbLine
 62
7
  6
CONTINUOUS
 10
112.7137869186
 20
249.2473404255
 11
122.153275142
 21
232.8976672253
  0
LINE
  5
39F
100
AcDbEntity
  8
_1
100
AcDbLine
 62
7
  6
CONTINUOUS
 10
111.5879538937
 20
251.897994025
 11
102.1484656704
 21
268.2476672252
  0
LINE
  5
3A0
100
AcDbEntity
  8
_1
100
AcDbLine
 62
7
  6
CONTINUOUS
 10
125.9637869186
 20
229.5976672252
 11
135.403275142
 21
213.247994025
  0
LINE
  5
3A1
100
AcDbEntity
  8
_1
100
AcDbLine
 62
7
  6
CONTINUOUS
 10
124.8379538937
 20
232.2476672252
 11
115.3984656704
 21
248.5973404255
  0
LINE
  5
3A2
100
AcDbEntity
  8
_1
100
AcDbLine
 62
7
  6
CONTINUOUS
 10
164.7746353415
 20
267.9723404255
 11
164.7746353415
 21
261.9723404255
  0
LINE
  5
3A3
100
AcDbEntity
  8
_1
100
AcDbLine
 62
7
  6
CONTINUOUS
 10
164.7746353415
 20
158.8723404255
 11
164.7746353415
 21
152.8723404255
  0
LINE
  5
3A4
100
AcDbEntity
  8
_1
100
AcDbLine
 62
7
  6
CONTINUOUS
 10
164.7746353415
 20
49.7723404255
 11
164.7746353415
 21
43.7723404255
  0
LINE
  5
3A5
100
AcDbEntity
  8
_1
100
AcDbLine
 62
7
  6
CONTINUOUS
 10
165.1110805649
 20
43.7723404255
 11
165.1110805649
 21
49.7723404255
  0
LINE
  5
3A6
100
AcDbEntity
  8
_1
100
AcDbLine
 62
7
  6
CONTINUOUS
 10
165.1110805649
 20
152.8723404255
 11
165.1110805649
 21
158.8723404255
  0
LINE
  5
3A7
100
AcDbEntity
  8
_1
100
AcDbLine
 62
7
  6
CONTINUOUS
 10
165.1110805649
 20
261.9723404255
 11
165.1110805649
 21
267.9723404255
  0
LINE
  5
3A8
100
AcDbEntity
  8
_1
100
AcDbLine
 62
7
  6
CONTINUOUS
 10
165.1508704062
 20
288.8723404255
 11
165.1508704062
 21
271.2226672252
  0
LINE
  5
3A9
100
AcDbEntity
  8
_1
100
AcDbLine
 62
7
  6
CONTINUOUS
 10
165.1508704062
 20
259.9723404255
 11
165.1508704062
 21
251.572994025
  0
LINE
  5
3AA
100
AcDbEntity
  8
_1
100
AcDbLine
 62
7
  6
CONTINUOUS
 10
165.1508704062
 20
249.5723404255
 11
165.1508704062
 21
231.9226672252
  0
LINE
  5
3AB
100
AcDbEntity
  8
_1
100
AcDbLine
 62
7
  6
CONTINUOUS
 10
165.1508704062
 20
229.9226672252
 11
165.1508704062
 21
212.272994025
  0
LINE
  5
3AC
100
AcDbEntity
  8
_1
100
AcDbLine
 62
7
  6
CONTINUOUS
 10
165.1508704062
 20
210.2723404255
 11
165.1508704062
 21
192.6226672252
  0
LINE
  5
3AD
100
AcDbEntity
  8
_1
100
AcDbLine
 62
7
  6
CONTINUOUS
 10
165.1508704062
 20
190.6226672252
 11
165.1508704062
 21
172.972994025
  0
LINE
  5
3AE
100
AcDbEntity
  8
_1
100
AcDbLine
 62
7
  6
CONTINUOUS
 10
165.1508704062
 20
170.9723404255
 11
165.1508704062
 21
160.8723404255
  0
LINE
  5
3AF
100
AcDbEntity
  8
_1
100
AcDbLine
 62
7
  6
CONTINUOUS
 10
165.1508704062
 20
150.8723404255
 11
165.1508704062
 21
133.672994025
  0
LINE
  5
3B0
100
AcDbEntity
  8
_1
100
AcDbLine
 62
7
  6
CONTINUOUS
 10
165.1508704062
 20
131.6723404255
 11
165.1508704062
 21
114.0226672252
  0
LINE
  5
3B1
100
AcDbEntity
  8
_1
100
AcDbLine
 62
7
  6
CONTINUOUS
 10
165.1508704062
 20
112.0226672252
 11
165.1508704062
 21
94.372994025
  0
LINE
  5
3B2
100
AcDbEntity
  8
_1
100
AcDbLine
 62
7
  6
CONTINUOUS
 10
165.1508704062
 20
92.3723404255
 11
165.1508704062
 21
74.7226672252
  0
LINE
  5
3B3
100
AcDbEntity
  8
_1
100
AcDbLine
 62
7
  6
CONTINUOUS
 10
165.1508704062
 20
72.7226672252
 11
165.1508704062
 21
55.0729940249
  0
LINE
  5
3B4
100
AcDbEntity
  8
_1
100
AcDbLine
 62
7
  6
CONTINUOUS
 10
165.1508704062
 20
53.0723404255
 11
165.1508704062
 21
51.7723404255
  0
LINE
  5
3B5
100
AcDbEntity
  8
_1
100
AcDbLine
 62
7
  6
CONTINUOUS
 10
165.1508704062
 20
41.7723404255
 11
165.1508704062
 21
35.4226672252
  0
LINE
  5
3B6
100
AcDbEntity
  8
_1
100
AcDbLine
 62
7
  6
CONTINUOUS
 10
165.1508704062
 20
33.4226672252
 11
165.1508704062
 21
22.8723404255
  0
LINE
  5
3B7
100
AcDbEntity
  8
_1
100
AcDbLine
 62
7
  6
CONTINUOUS
 10
166.1825339195
 20
43.7723404255
 11
166.1825339195
 21
49.7723404255
  0
LINE
  5
3B8
100
AcDbEntity
  8
_1
100
AcDbLine
 62
7
  6
CONTINUOUS
 10
166.1825339195
 20
152.8723404255
 11
166.1825339195
 21
158.8723404255
  0
LINE
  5
3B9
100
AcDbEntity
  8
_1
100
AcDbLine
 62
7
  6
CONTINUOUS
 10
166.1825339195
 20
261.9723404255
 11
166.1825339195
 21
267.9723404255
  0
LINE
  5
3BA
100
AcDbEntity
  8
_1
100
AcDbLine
 62
7
  6
CONTINUOUS
 10
167.1508704062
 20
20.8723404255
 11
167.1508704062
 21
290.8723404255
  0
LINE
  5
3BB
100
AcDbEntity
  8
_1
100
AcDbLine
 62
7
  6
CONTINUOUS
 10
122.1532751419
 20
71.7476672251
 11
112.7137869186
 21
55.3979940249
  0
LINE
  5
3BC
100
AcDbEntity
  8
_1
100
AcDbLine
 62
7
  6
CONTINUOUS
 10
102.1484656704
 20
36.3976672253
 11
111.5879538937
 21
52.7473404255
  0
LINE
  5
3BD
100
AcDbEntity
  8
_1
100
AcDbLine
 62
7
  6
CONTINUOUS
 10
135.403275142
 20
91.3973404255
 11
125.9637869186
 21
75.0476672252
  0
LINE
  5
3BE
100
AcDbEntity
  8
_1
100
AcDbLine
 62
7
  6
CONTINUOUS
 10
115.3984656704
 20
56.0479940251
 11
124.8379538937
 21
72.3976672252
  0
LINE
  5
3BF
100
AcDbEntity
  8
_1
100
AcDbLine
 62
7
  6
CONTINUOUS
 10
148.653275142
 20
111.0476672252
 11
139.2137869186
 21
94.697994025
  0
LINE
  5
3C0
100
AcDbEntity
  8
_1
100
AcDbLine
 62
7
  6
CONTINUOUS
 10
128.6484656704
 20
75.6976672252
 11
138.0879538937
 21
92.0473404255
  0
LINE
  5
3C1
100
AcDbEntity
  8
_1
100
AcDbLine
 62
7
  6
CONTINUOUS
 10
161.903275142
 20
130.6973404255
 11
152.4637869186
 21
114.3476672252
  0
LINE
  5
3C2
100
AcDbEntity
  8
_1
100
AcDbLine
 62
7
  6
CONTINUOUS
 10
141.8984656704
 20
95.347994025
 11
151.3379538937
 21
111.6976672252
  0
LINE
  5
3C3
100
AcDbEntity
  8
_1
100
AcDbLine
 62
7
  6
CONTINUOUS
 10
155.1484656704
 20
114.9976672252
 11
164.5879538937
 21
131.3473404255
  0
LINE
  5
3C4
100
AcDbEntity
  8
_1
100
AcDbLine
 62
7
  6
CONTINUOUS
 10
62.9613821828
 20
210.2723404255
 11
81.8403586295
 21
210.2723404255
  0
LINE
  5
3C5
100
AcDbEntity
  8
_1
100
AcDbLine
 62
7
  6
CONTINUOUS
 10
89.4613821828
 20
210.2723404255
 11
108.3403586295
 21
210.2723404255
  0
LINE
  5
3C6
100
AcDbEntity
  8
_1
100
AcDbLine
 62
7
  6
CONTINUOUS
 10
115.9613821828
 20
210.2723404255
 11
134.8403586295
 21
210.2723404255
  0
LINE
  5
3C7
100
AcDbEntity
  8
_1
100
AcDbLine
 62
7
  6
CONTINUOUS
 10
142.4613821828
 20
210.2723404255
 11
161.3403586295
 21
210.2723404255
  0
LINE
  5
3C8
100
AcDbEntity
  8
_1
100
AcDbLine
 62
7
  6
CONTINUOUS
 10
161.3403586295
 20
212.272994025
 11
142.4613821828
 21
212.272994025
  0
LINE
  5
3C9
100
AcDbEntity
  8
_1
100
AcDbLine
 62
7
  6
CONTINUOUS
 10
108.3403586295
 20
212.272994025
 11
89.4613821828
 21
212.272994025
  0
LINE
  5
3CA
100
AcDbEntity
  8
_1
100
AcDbLine
 62
7
  6
CONTINUOUS
 10
81.8403586295
 20
212.272994025
 11
62.9613821828
 21
212.272994025
  0
LINE
  5
3CB
100
AcDbEntity
  8
_1
100
AcDbLine
 62
7
  6
CONTINUOUS
 10
115.9613821828
 20
212.272994025
 11
134.8403586295
 21
212.272994025
  0
LINE
  5
3CC
100
AcDbEntity
  8
_1
100
AcDbLine
 62
7
  6
CONTINUOUS
 10
139.2137869186
 20
209.9473404255
 11
148.653275142
 21
193.5976672252
  0
LINE
  5
3CD
100
AcDbEntity
  8
_1
100
AcDbLine
 62
7
  6
CONTINUOUS
 10
138.0879538937
 20
212.597994025
 11
128.6484656704
 21
228.9476672252
  0
LINE
  5
3CE
100
AcDbEntity
  8
_1
100
AcDbLine
 62
7
  6
CONTINUOUS
 10
152.4637869186
 20
190.2976672252
 11
161.903275142
 21
173.947994025
  0
LINE
  5
3CF
100
AcDbEntity
  8
_1
100
AcDbLine
 62
7
  6
CONTINUOUS
 10
151.3379538937
 20
192.9476672252
 11
141.8984656704
 21
209.2973404255
  0
LINE
  5
3D0
100
AcDbEntity
  8
_1
100
AcDbLine
 62
7
  6
CONTINUOUS
 10
164.5879538937
 20
173.297994025
 11
155.1484656704
 21
189.6476672252
  0
LINE
  5
3D1
100
AcDbEntity
  8
_1
100
AcDbLine
 62
7
  6
CONTINUOUS
 10
112.7137869186
 20
288.5473404256
 11
122.153275142
 21
272.1976672253
  0
LINE
  5
3D2
100
AcDbEntity
  8
_1
100
AcDbLine
 62
7
  6
CONTINUOUS
 10
125.9637869187
 20
268.8976672252
 11
135.403275142
 21
252.547994025
  0
LINE
  5
3D3
100
AcDbEntity
  8
_1
100
AcDbLine
 62
7
  6
CONTINUOUS
 10
124.8379538937
 20
271.5476672252
 11
115.3984656704
 21
287.8973404255
  0
LINE
  5
3D4
100
AcDbEntity
  8
_1
100
AcDbLine
 62
7
  6
CONTINUOUS
 10
122.153275142
 20
32.4476672253
 11
116.6249576366
 21
22.8723404255
  0
LINE
  5
3D5
100
AcDbEntity
  8
_1
100
AcDbLine
 62
7
  6
CONTINUOUS
 10
135.403275142
 20
52.0973404255
 11
125.9637869186
 21
35.7476672252
  0
LINE
  5
3D6
100
AcDbEntity
  8
_1
100
AcDbLine
 62
7
  6
CONTINUOUS
 10
118.9343587134
 20
22.8723404255
 11
124.8379538937
 21
33.0976672252
  0
LINE
  5
3D7
100
AcDbEntity
  8
_1
100
AcDbLine
 62
7
  6
CONTINUOUS
 10
148.6532751419
 20
71.7476672251
 11
139.2137869186
 21
55.3979940249
  0
LINE
  5
3D8
100
AcDbEntity
  8
_1
100
AcDbLine
 62
7
  6
CONTINUOUS
 10
128.6484656704
 20
36.3976672253
 11
138.0879538937
 21
52.7473404255
  0
LINE
  5
3D9
100
AcDbEntity
  8
_1
100
AcDbLine
 62
7
  6
CONTINUOUS
 10
161.903275142
 20
91.3973404255
 11
152.4637869186
 21
75.0476672252
  0
LINE
  5
3DA
100
AcDbEntity
  8
_1
100
AcDbLine
 62
7
  6
CONTINUOUS
 10
141.8984656704
 20
56.047994025
 11
151.3379538937
 21
72.3976672252
  0
LINE
  5
3DB
100
AcDbEntity
  8
_1
100
AcDbLine
 62
7
  6
CONTINUOUS
 10
155.1484656704
 20
75.6976672252
 11
164.5879538937
 21
92.0473404255
  0
LINE
  5
3DC
100
AcDbEntity
  8
_1
100
AcDbLine
 62
7
  6
CONTINUOUS
 10
148.0903586295
 20
229.9226672252
 11
129.2113821828
 21
229.9226672252
  0
LINE
  5
3DD
100
AcDbEntity
  8
_1
100
AcDbLine
 62
7
  6
CONTINUOUS
 10
121.5903586295
 20
229.9226672252
 11
102.7113821828
 21
229.9226672252
  0
LINE
  5
3DE
100
AcDbEntity
  8
_1
100
AcDbLine
 62
7
  6
CONTINUOUS
 10
95.0903586295
 20
229.9226672252
 11
76.2113821828
 21
229.9226672252
  0
LINE
  5
3DF
100
AcDbEntity
  8
_1
100
AcDbLine
 62
7
  6
CONTINUOUS
 10
59.1508704062
 20
229.9226672252
 11
68.5903586295
 21
229.9226672252
  0
LINE
  5
3E0
100
AcDbEntity
  8
_1
100
AcDbLine
 62
7
  6
CONTINUOUS
 10
155.7113821828
 20
229.9226672252
 11
165.1508704062
 21
229.9226672252
  0
LINE
  5
3E1
100
AcDbEntity
  8
_1
100
AcDbLine
 62
7
  6
CONTINUOUS
 10
68.5903586295
 20
231.9226672252
 11
59.1508704062
 21
231.9226672252
  0
LINE
  5
3E2
100
AcDbEntity
  8
_1
100
AcDbLine
 62
7
  6
CONTINUOUS
 10
76.2113821828
 20
231.9226672252
 11
95.0903586295
 21
231.9226672252
  0
LINE
  5
3E3
100
AcDbEntity
  8
_1
100
AcDbLine
 62
7
  6
CONTINUOUS
 10
102.7113821828
 20
231.9226672252
 11
121.5903586295
 21
231.9226672252
  0
LINE
  5
3E4
100
AcDbEntity
  8
_1
100
AcDbLine
 62
7
  6
CONTINUOUS
 10
129.2113821828
 20
231.9226672252
 11
148.0903586295
 21
231.9226672252
  0
LINE
  5
3E5
100
AcDbEntity
  8
_1
100
AcDbLine
 62
7
  6
CONTINUOUS
 10
155.7113821828
 20
231.9226672252
 11
165.1508704062
 21
231.9226672252
  0
LINE
  5
3E6
100
AcDbEntity
  8
_1
100
AcDbLine
 62
7
  6
CONTINUOUS
 10
139.2137869186
 20
249.2473404255
 11
148.653275142
 21
232.8976672252
  0
LINE
  5
3E7
100
AcDbEntity
  8
_1
100
AcDbLine
 62
7
  6
CONTINUOUS
 10
138.0879538937
 20
251.897994025
 11
128.6484656704
 21
268.2476672252
  0
LINE
  5
3E8
100
AcDbEntity
  8
_1
100
AcDbLine
 62
7
  6
CONTINUOUS
 10
152.4637869186
 20
229.5976672252
 11
161.903275142
 21
213.247994025
  0
LINE
  5
3E9
100
AcDbEntity
  8
_1
100
AcDbLine
 62
7
  6
CONTINUOUS
 10
151.3379538937
 20
232.2476672252
 11
141.8984656704
 21
248.5973404255
  0
LINE
  5
3EA
100
AcDbEntity
  8
_1
100
AcDbLine
 62
7
  6
CONTINUOUS
 10
164.5879538937
 20
212.597994025
 11
155.1484656704
 21
228.9476672252
  0
LINE
  5
3EB
100
AcDbEntity
  8
_1
100
AcDbLine
 62
7
  6
CONTINUOUS
 10
148.653275142
 20
32.4476672253
 11
143.1249576366
 21
22.8723404255
  0
LINE
  5
3EC
100
AcDbEntity
  8
_1
100
AcDbLine
 62
7
  6
CONTINUOUS
 10
161.903275142
 20
52.0973404256
 11
161.7156363045
 21
51.7723404255
  0
LINE
  5
3ED
100
AcDbEntity
  8
_1
100
AcDbLine
 62
7
  6
CONTINUOUS
 10
159.1508704062
 20
47.3300355801
 11
152.4637869186
 21
35.7476672252
  0
LINE
  5
3EE
100
AcDbEntity
  8
_1
100
AcDbLine
 62
7
  6
CONTINUOUS
 10
145.4343587134
 20
22.8723404255
 11
151.3379538937
 21
33.0976672252
  0
LINE
  5
3EF
100
AcDbEntity
  8
_1
100
AcDbLine
 62
7
  6
CONTINUOUS
 10
155.1484656704
 20
36.3976672254
 11
159.1508704062
 21
43.3300355801
  0
LINE
  5
3F0
100
AcDbEntity
  8
_1
100
AcDbLine
 62
7
  6
CONTINUOUS
 10
164.0250373813
 20
51.7723404255
 11
164.5879538937
 21
52.7473404255
  0
LINE
  5
3F1
100
AcDbEntity
  8
_1
100
AcDbLine
 62
7
  6
CONTINUOUS
 10
62.9613821828
 20
249.5723404255
 11
81.8403586295
 21
249.5723404255
  0
LINE
  5
3F2
100
AcDbEntity
  8
_1
100
AcDbLine
 62
7
  6
CONTINUOUS
 10
89.4613821828
 20
249.5723404255
 11
108.3403586295
 21
249.5723404255
  0
LINE
  5
3F3
100
AcDbEntity
  8
_1
100
AcDbLine
 62
7
  6
CONTINUOUS
 10
115.9613821828
 20
249.5723404255
 11
134.8403586295
 21
249.5723404255
  0
LINE
  5
3F4
100
AcDbEntity
  8
_1
100
AcDbLine
 62
7
  6
CONTINUOUS
 10
142.4613821828
 20
249.5723404255
 11
161.3403586295
 21
249.5723404255
  0
LINE
  5
3F5
100
AcDbEntity
  8
_1
100
AcDbLine
 62
7
  6
CONTINUOUS
 10
161.3403586295
 20
251.572994025
 11
142.4613821828
 21
251.572994025
  0
LINE
  5
3F6
100
AcDbEntity
  8
_1
100
AcDbLine
 62
7
  6
CONTINUOUS
 10
108.3403586295
 20
251.572994025
 11
89.4613821828
 21
251.572994025
  0
LINE
  5
3F7
100
AcDbEntity
  8
_1
100
AcDbLine
 62
7
  6
CONTINUOUS
 10
81.8403586295
 20
251.572994025
 11
62.9613821828
 21
251.572994025
  0
LINE
  5
3F8
100
AcDbEntity
  8
_1
100
AcDbLine
 62
7
  6
CONTINUOUS
 10
115.9613821828
 20
251.572994025
 11
134.8403586295
 21
251.572994025
  0
LINE
  5
3F9
100
AcDbEntity
  8
_1
100
AcDbLine
 62
7
  6
CONTINUOUS
 10
139.2137869187
 20
288.5473404255
 11
145.8946253862
 21
276.9757887626
  0
LINE
  5
3FA
100
AcDbEntity
  8
_1
100
AcDbLine
 62
7
  6
CONTINUOUS
 10
147.8802859764
 20
273.5365237337
 11
148.653275142
 21
272.1976672252
  0
LINE
  5
3FB
100
AcDbEntity
  8
_1
100
AcDbLine
 62
7
  6
CONTINUOUS
 10
152.4637869187
 20
268.8976672252
 11
161.903275142
 21
252.547994025
  0
LINE
  5
3FC
100
AcDbEntity
  8
_1
100
AcDbLine
 62
7
  6
CONTINUOUS
 10
145.9328579541
 20
280.9095680125
 11
141.8984656704
 21
287.8973404255
  0
LINE
  5
3FD
100
AcDbEntity
  8
_1
100
AcDbLine
 62
7
  6
CONTINUOUS
 10
164.5879538937
 20
251.8979940249
 11
159.9262278258
 21
259.9723404255
  0
LINE
  5
3FE
100
AcDbEntity
  8
_1
100
AcDbLine
 62
7
  6
CONTINUOUS
 10
159.1508704062
 20
261.3152988704
 11
155.1484656704
 21
268.2476672252
  0
LINE
  5
3FF
100
AcDbEntity
  8
_1
100
AcDbLine
 62
7
  6
CONTINUOUS
 10
165.1508704062
 20
259.9723404255
 11
159.9262278258
 21
259.9723404255
  0
LINE
  5
400
100
AcDbEntity
  8
_1
100
AcDbLine
 62
7
  6
CONTINUOUS
 10
64.3755129865
 20
259.9723404255
 11
59.1508704062
 21
259.9723404255
  0
LINE
  5
401
100
AcDbEntity
  8
_1
100
AcDbLine
 62
7
  6
CONTINUOUS
 10
58.1192068929
 20
261.9723404255
 11
63.2556007958
 21
261.9723404255
  0
LINE
  5
402
100
AcDbEntity
  8
_1
100
AcDbLine
 62
7
  6
CONTINUOUS
 10
161.0461400166
 20
261.9723404255
 11
166.1825339195
 21
261.9723404255
  0
LINE
  5
403
100
AcDbEntity
  8
_1
100
AcDbLine
 62
7
  6
CONTINUOUS
 10
58.1192068929
 20
267.9723404255
 11
63.2556007958
 21
267.9723404255
  0
LINE
  5
404
100
AcDbEntity
  8
_1
100
AcDbLine
 62
7
  6
CONTINUOUS
 10
161.0461400166
 20
267.9723404255
 11
166.1825339195
 21
267.9723404255
  0
LINE
  5
405
100
AcDbEntity
  8
_1
100
AcDbLine
 62
7
  6
CONTINUOUS
 10
148.0903586295
 20
269.2226672252
 11
129.2113821828
 21
269.2226672252
  0
LINE
  5
406
100
AcDbEntity
  8
_1
100
AcDbLine
 62
7
  6
CONTINUOUS
 10
121.5903586295
 20
269.2226672252
 11
102.7113821828
 21
269.2226672252
  0
LINE
  5
407
100
AcDbEntity
  8
_1
100
AcDbLine
 62
7
  6
CONTINUOUS
 10
95.0903586295
 20
269.2226672252
 11
76.2113821828
 21
269.2226672252
  0
LINE
  5
408
100
AcDbEntity
  8
_1
100
AcDbLine
 62
7
  6
CONTINUOUS
 10
65.1508704062
 20
269.2226672252
 11
68.5903586295
 21
269.2226672252
  0
LINE
  5
409
100
AcDbEntity
  8
_1
100
AcDbLine
 62
7
  6
CONTINUOUS
 10
155.7113821828
 20
269.2226672252
 11
159.1508704062
 21
269.2226672252
  0
LINE
  5
40A
100
AcDbEntity
  8
_1
100
AcDbLine
 62
7
  6
CONTINUOUS
 10
68.5903586295
 20
271.2226672252
 11
59.1508704062
 21
271.2226672252
  0
LINE
  5
40B
100
AcDbEntity
  8
_1
100
AcDbLine
 62
7
  6
CONTINUOUS
 10
76.2113821828
 20
271.2226672252
 11
95.0903586295
 21
271.2226672252
  0
LINE
  5
40C
100
AcDbEntity
  8
_1
100
AcDbLine
 62
7
  6
CONTINUOUS
 10
102.7113821828
 20
271.2226672252
 11
121.5903586295
 21
271.2226672252
  0
LINE
  5
40D
100
AcDbEntity
  8
_1
100
AcDbLine
 62
7
  6
CONTINUOUS
 10
129.2113821828
 20
271.2226672252
 11
148.0903586295
 21
271.2226672252
  0
LINE
  5
40E
100
AcDbEntity
  8
_1
100
AcDbLine
 62
7
  6
CONTINUOUS
 10
155.7113821828
 20
271.2226672252
 11
165.1508704062
 21
271.2226672252
  0
LINE
  5
40F
100
AcDbEntity
  8
_1
100
AcDbLine
 62
7
  6
CONTINUOUS
 10
62.9613821828
 20
288.8723404255
 11
68.5891327147
 21
288.8723404255
  0
LINE
  5
410
100
AcDbEntity
  8
_1
100
AcDbLine
 62
7
  6
CONTINUOUS
 10
73.7126080977
 20
288.8723404255
 11
81.8403586295
 21
288.8723404255
  0
LINE
  5
411
100
AcDbEntity
  8
_1
100
AcDbLine
 62
7
  6
CONTINUOUS
 10
89.4613821828
 20
288.8723404255
 11
108.3403586295
 21
288.8723404255
  0
LINE
  5
412
100
AcDbEntity
  8
_1
100
AcDbLine
 62
7
  6
CONTINUOUS
 10
115.9613821828
 20
288.8723404255
 11
134.8403586295
 21
288.8723404255
  0
LINE
  5
413
100
AcDbEntity
  8
_1
100
AcDbLine
 62
7
  6
CONTINUOUS
 10
142.4613821828
 20
288.8723404255
 11
150.5891327147
 21
288.8723404255
  0
LINE
  5
414
100
AcDbEntity
  8
_1
100
AcDbLine
 62
7
  6
CONTINUOUS
 10
155.7126080977
 20
288.8723404255
 11
161.3403586295
 21
288.8723404255
  0
LINE
  5
415
100
AcDbEntity
  8
_1
100
AcDbLine
 62
7
  6
CONTINUOUS
 10
167.1508704062
 20
290.8723404255
 11
57.1508704062
 21
290.8723404255
  0
ARC
  5
416
100
AcDbEntity
  8
_1
100
AcDbCircle
 62
7
  6
CONTINUOUS
 10
71.1508704062
 20
25.8723404255
 40
4.75
100
AcDbArc
 50
1.4999999999
 51
99.4415612878
  0
ARC
  5
417
100
AcDbEntity
  8
_1
100
AcDbCircle
 62
7
  6
CONTINUOUS
 10
71.1508704062
 20
25.8723404255
 40
2.75
100
AcDbArc
 50
1.4999999995
 51
178.5000000005
  0
ARC
  5
418
100
AcDbEntity
  8
_1
100
AcDbCircle
 62
7
  6
CONTINUOUS
 10
76.2113821828
 20
32.7726672252
 40
0.65
100
AcDbArc
 50
90.0
 51
209.9999999963
  0
ARC
  5
419
100
AcDbEntity
  8
_1
100
AcDbCircle
 62
7
  6
CONTINUOUS
 10
72.4008704062
 20
32.7726672252
 40
0.65
100
AcDbArc
 50
29.999999996
 51
150.0
  0
ARC
  5
41A
100
AcDbEntity
  8
_1
100
AcDbCircle
 62
7
  6
CONTINUOUS
 10
68.5903586295
 20
32.7726672252
 40
0.65
100
AcDbArc
 50
330.0000000037
 51
90.0
  0
ARC
  5
41B
100
AcDbEntity
  8
_1
100
AcDbCircle
 62
7
  6
CONTINUOUS
 10
76.2113821828
 20
36.0726672252
 40
0.65
100
AcDbArc
 50
149.9999999939
 51
270.0
  0
ARC
  5
41C
100
AcDbEntity
  8
_1
100
AcDbCircle
 62
7
  6
CONTINUOUS
 10
68.5903586295
 20
36.0726672252
 40
0.65
100
AcDbArc
 50
270.0
 51
30.0000000001
  0
ARC
  5
41D
100
AcDbEntity
  8
_1
100
AcDbCircle
 62
7
  6
CONTINUOUS
 10
68.5903586295
 20
75.3726672252
 40
0.65
100
AcDbArc
 50
270.0
 51
30.0000000001
  0
ARC
  5
41E
100
AcDbEntity
  8
_1
100
AcDbCircle
 62
7
  6
CONTINUOUS
 10
72.4008704062
 20
75.3726672252
 40
0.65
100
AcDbArc
 50
210.0000000001
 51
330.0
  0
ARC
  5
41F
100
AcDbEntity
  8
_1
100
AcDbCircle
 62
7
  6
CONTINUOUS
 10
59.1508704062
 20
55.7229940249
 40
0.65
100
AcDbArc
 50
270.0
 51
330.0000000001
  0
ARC
  5
420
100
AcDbEntity
  8
_1
100
AcDbCircle
 62
7
  6
CONTINUOUS
 10
68.5903586295
 20
72.0726672252
 40
0.65
100
AcDbArc
 50
329.9999999896
 51
90.0
  0
ARC
  5
421
100
AcDbEntity
  8
_1
100
AcDbCircle
 62
7
  6
CONTINUOUS
 10
62.9613821828
 20
55.7229940249
 40
0.65
100
AcDbArc
 50
149.9999999896
 51
270.0
  0
ARC
  5
422
100
AcDbEntity
  8
_1
100
AcDbCircle
 62
7
  6
CONTINUOUS
 10
81.8403586295
 20
55.7229940249
 40
0.65
100
AcDbArc
 50
270.0
 51
30.0000000117
  0
ARC
  5
423
100
AcDbEntity
  8
_1
100
AcDbCircle
 62
7
  6
CONTINUOUS
 10
72.4008704062
 20
72.0726672252
 40
0.65
100
AcDbArc
 50
30.0000000001
 51
150.0
  0
ARC
  5
424
100
AcDbEntity
  8
_1
100
AcDbCircle
 62
7
  6
CONTINUOUS
 10
76.2113821828
 20
75.3726672252
 40
0.65
100
AcDbArc
 50
149.9999999997
 51
270.0
  0
ARC
  5
425
100
AcDbEntity
  8
_1
100
AcDbCircle
 62
7
  6
CONTINUOUS
 10
76.2113821828
 20
72.0726672252
 40
0.65
100
AcDbArc
 50
90.0
 51
210.0000000001
  0
ARC
  5
426
100
AcDbEntity
  8
_1
100
AcDbCircle
 62
7
  6
CONTINUOUS
 10
59.1508704062
 20
52.4223404255
 40
0.65
100
AcDbArc
 50
29.9999999999
 51
90.0
  0
ARC
  5
427
100
AcDbEntity
  8
_1
100
AcDbCircle
 62
7
  6
CONTINUOUS
 10
72.4008704062
 20
36.0726672252
 40
0.65
100
AcDbArc
 50
210.0000000054
 51
330.0
  0
ARC
  5
428
100
AcDbEntity
  8
_1
100
AcDbCircle
 62
7
  6
CONTINUOUS
 10
81.8403586295
 20
52.4223404255
 40
0.65
100
AcDbArc
 50
330.0000000013
 51
90.0
  0
ARC
  5
429
100
AcDbEntity
  8
_1
100
AcDbCircle
 62
7
  6
CONTINUOUS
 10
62.9613821828
 20
52.4223404255
 40
0.65
100
AcDbArc
 50
90.0
 51
210.0000000001
  0
ARC
  5
42A
100
AcDbEntity
  8
_1
100
AcDbCircle
 62
7
  6
CONTINUOUS
 10
68.5903586295
 20
114.6726672252
 40
0.65
100
AcDbArc
 50
270.0
 51
30.0000000001
  0
ARC
  5
42B
100
AcDbEntity
  8
_1
100
AcDbCircle
 62
7
  6
CONTINUOUS
 10
59.1508704062
 20
95.022994025
 40
0.65
100
AcDbArc
 50
270.0
 51
330.0000000001
  0
ARC
  5
42C
100
AcDbEntity
  8
_1
100
AcDbCircle
 62
7
  6
CONTINUOUS
 10
68.5903586295
 20
111.3726672252
 40
0.65
100
AcDbArc
 50
329.9999999997
 51
90.0
  0
ARC
  5
42D
100
AcDbEntity
  8
_1
100
AcDbCircle
 62
7
  6
CONTINUOUS
 10
62.9613821828
 20
95.022994025
 40
0.65
100
AcDbArc
 50
149.9999999997
 51
270.0
  0
ARC
  5
42E
100
AcDbEntity
  8
_1
100
AcDbCircle
 62
7
  6
CONTINUOUS
 10
59.1508704062
 20
91.7223404255
 40
0.65
100
AcDbArc
 50
30.0000000001
 51
90.0
  0
ARC
  5
42F
100
AcDbEntity
  8
_1
100
AcDbCircle
 62
7
  6
CONTINUOUS
 10
62.9613821828
 20
91.7223404255
 40
0.65
100
AcDbArc
 50
90.0
 51
210.0000000001
  0
ARC
  5
430
100
AcDbEntity
  8
_1
100
AcDbCircle
 62
7
  6
CONTINUOUS
 10
62.9613821828
 20
134.322994025
 40
0.65
100
AcDbArc
 50
149.9999999987
 51
270.0
  0
ARC
  5
431
100
AcDbEntity
  8
_1
100
AcDbCircle
 62
7
  6
CONTINUOUS
 10
59.1508704062
 20
131.0223404255
 40
0.65
100
AcDbArc
 50
30.0000000001
 51
90.0
  0
ARC
  5
432
100
AcDbEntity
  8
_1
100
AcDbCircle
 62
7
  6
CONTINUOUS
 10
62.9613821828
 20
131.0223404255
 40
0.65
100
AcDbArc
 50
90.0
 51
210.0000000001
  0
ARC
  5
433
100
AcDbEntity
  8
_1
100
AcDbCircle
 62
7
  6
CONTINUOUS
 10
68.5903586295
 20
153.9726672252
 40
0.65
100
AcDbArc
 50
270.0
 51
30.0000000001
  0
ARC
  5
434
100
AcDbEntity
  8
_1
100
AcDbCircle
 62
7
  6
CONTINUOUS
 10
68.5903586295
 20
150.6726672252
 40
0.65
100
AcDbArc
 50
329.9999999987
 51
90.0
  0
ARC
  5
435
100
AcDbEntity
  8
_1
100
AcDbCircle
 62
7
  6
CONTINUOUS
 10
59.1508704062
 20
134.322994025
 40
0.65
100
AcDbArc
 50
270.0
 51
330.0000000001
  0
ARC
  5
436
100
AcDbEntity
  8
_1
100
AcDbCircle
 62
7
  6
CONTINUOUS
 10
72.4008704062
 20
114.6726672252
 40
0.65
100
AcDbArc
 50
210.0000000001
 51
330.0
  0
ARC
  5
437
100
AcDbEntity
  8
_1
100
AcDbCircle
 62
7
  6
CONTINUOUS
 10
81.8403586295
 20
95.022994025
 40
0.65
100
AcDbArc
 50
270.0
 51
30.0000000001
  0
ARC
  5
438
100
AcDbEntity
  8
_1
100
AcDbCircle
 62
7
  6
CONTINUOUS
 10
72.4008704062
 20
111.3726672252
 40
0.65
100
AcDbArc
 50
30.0000000001
 51
150.0
  0
ARC
  5
439
100
AcDbEntity
  8
_1
100
AcDbCircle
 62
7
  6
CONTINUOUS
 10
76.2113821828
 20
114.6726672252
 40
0.65
100
AcDbArc
 50
149.9999999997
 51
270.0
  0
ARC
  5
43A
100
AcDbEntity
  8
_1
100
AcDbCircle
 62
7
  6
CONTINUOUS
 10
76.2113821828
 20
111.3726672252
 40
0.65
100
AcDbArc
 50
90.0
 51
210.0000000001
  0
ARC
  5
43B
100
AcDbEntity
  8
_1
100
AcDbCircle
 62
7
  6
CONTINUOUS
 10
81.8403586295
 20
91.7223404255
 40
0.65
100
AcDbArc
 50
329.9999999997
 51
90.0
  0
ARC
  5
43C
100
AcDbEntity
  8
_1
100
AcDbCircle
 62
7
  6
CONTINUOUS
 10
72.4008704062
 20
153.9726672252
 40
0.65
100
AcDbArc
 50
209.9999999996
 51
330.0
  0
ARC
  5
43D
100
AcDbEntity
  8
_1
100
AcDbCircle
 62
7
  6
CONTINUOUS
 10
81.8403586295
 20
134.322994025
 40
0.65
100
AcDbArc
 50
270.0
 51
30.0000000001
  0
ARC
  5
43E
100
AcDbEntity
  8
_1
100
AcDbCircle
 62
7
  6
CONTINUOUS
 10
72.4008704062
 20
150.6726672252
 40
0.65
100
AcDbArc
 50
30.0000000005
 51
150.0
  0
ARC
  5
43F
100
AcDbEntity
  8
_1
100
AcDbCircle
 62
7
  6
CONTINUOUS
 10
76.2113821828
 20
153.9726672252
 40
0.65
100
AcDbArc
 50
150.0000000007
 51
270.0
  0
ARC
  5
440
100
AcDbEntity
  8
_1
100
AcDbCircle
 62
7
  6
CONTINUOUS
 10
76.2113821828
 20
150.6726672252
 40
0.65
100
AcDbArc
 50
90.0
 51
210.0000000001
  0
ARC
  5
441
100
AcDbEntity
  8
_1
100
AcDbCircle
 62
7
  6
CONTINUOUS
 10
81.8403586295
 20
131.0223404255
 40
0.65
100
AcDbArc
 50
329.9999999997
 51
90.0
  0
ARC
  5
442
100
AcDbEntity
  8
_1
100
AcDbCircle
 62
7
  6
CONTINUOUS
 10
98.9008704062
 20
32.7726672252
 40
0.65
100
AcDbArc
 50
29.9999999974
 51
150.0
  0
ARC
  5
443
100
AcDbEntity
  8
_1
100
AcDbCircle
 62
7
  6
CONTINUOUS
 10
95.0903586295
 20
32.7726672252
 40
0.65
100
AcDbArc
 50
330.0000000037
 51
90.0
  0
ARC
  5
444
100
AcDbEntity
  8
_1
100
AcDbCircle
 62
7
  6
CONTINUOUS
 10
102.7113821828
 20
32.7726672252
 40
0.65
100
AcDbArc
 50
90.0
 51
209.9999999945
  0
ARC
  5
445
100
AcDbEntity
  8
_1
100
AcDbCircle
 62
7
  6
CONTINUOUS
 10
85.6508704062
 20
52.4223404255
 40
0.65
100
AcDbArc
 50
30.0000000021
 51
150.0
  0
ARC
  5
446
100
AcDbEntity
  8
_1
100
AcDbCircle
 62
7
  6
CONTINUOUS
 10
95.0903586295
 20
36.0726672252
 40
0.65
100
AcDbArc
 50
270.0
 51
30.0000000001
  0
ARC
  5
447
100
AcDbEntity
  8
_1
100
AcDbCircle
 62
7
  6
CONTINUOUS
 10
95.0903586295
 20
75.3726672252
 40
0.65
100
AcDbArc
 50
270.0
 51
30.0000000001
  0
ARC
  5
448
100
AcDbEntity
  8
_1
100
AcDbCircle
 62
7
  6
CONTINUOUS
 10
98.9008704062
 20
75.3726672252
 40
0.65
100
AcDbArc
 50
210.0000000001
 51
330.0
  0
ARC
  5
449
100
AcDbEntity
  8
_1
100
AcDbCircle
 62
7
  6
CONTINUOUS
 10
85.6508704062
 20
55.7229940249
 40
0.65
100
AcDbArc
 50
210.0000000042
 51
330.0
  0
ARC
  5
44A
100
AcDbEntity
  8
_1
100
AcDbCircle
 62
7
  6
CONTINUOUS
 10
95.0903586295
 20
72.0726672252
 40
0.65
100
AcDbArc
 50
329.9999999896
 51
90.0
  0
ARC
  5
44B
100
AcDbEntity
  8
_1
100
AcDbCircle
 62
7
  6
CONTINUOUS
 10
89.4613821828
 20
55.7229940249
 40
0.65
100
AcDbArc
 50
149.9999999896
 51
270.0
  0
ARC
  5
44C
100
AcDbEntity
  8
_1
100
AcDbCircle
 62
7
  6
CONTINUOUS
 10
108.3403586295
 20
55.7229940249
 40
0.65
100
AcDbArc
 50
270.0
 51
30.0000000117
  0
ARC
  5
44D
100
AcDbEntity
  8
_1
100
AcDbCircle
 62
7
  6
CONTINUOUS
 10
98.9008704062
 20
72.0726672252
 40
0.65
100
AcDbArc
 50
30.0000000008
 51
150.0
  0
ARC
  5
44E
100
AcDbEntity
  8
_1
100
AcDbCircle
 62
7
  6
CONTINUOUS
 10
102.7113821828
 20
75.3726672252
 40
0.65
100
AcDbArc
 50
149.999999998
 51
270.0
  0
ARC
  5
44F
100
AcDbEntity
  8
_1
100
AcDbCircle
 62
7
  6
CONTINUOUS
 10
102.7113821828
 20
72.0726672252
 40
0.65
100
AcDbArc
 50
90.0
 51
210.0000000018
  0
ARC
  5
450
100
AcDbEntity
  8
_1
100
AcDbCircle
 62
7
  6
CONTINUOUS
 10
89.4613821828
 20
52.4223404255
 40
0.65
100
AcDbArc
 50
90.0
 51
210.0000000001
  0
ARC
  5
451
100
AcDbEntity
  8
_1
100
AcDbCircle
 62
7
  6
CONTINUOUS
 10
98.9008704062
 20
36.0726672252
 40
0.65
100
AcDbArc
 50
210.0000000021
 51
330.0
  0
ARC
  5
452
100
AcDbEntity
  8
_1
100
AcDbCircle
 62
7
  6
CONTINUOUS
 10
108.3403586295
 20
52.4223404255
 40
0.65
100
AcDbArc
 50
329.9999999929
 51
90.0
  0
ARC
  5
453
100
AcDbEntity
  8
_1
100
AcDbCircle
 62
7
  6
CONTINUOUS
 10
102.7113821828
 20
36.0726672252
 40
0.65
100
AcDbArc
 50
149.999999993
 51
270.0
  0
ARC
  5
454
100
AcDbEntity
  8
_1
100
AcDbCircle
 62
7
  6
CONTINUOUS
 10
95.0903586295
 20
114.6726672252
 40
0.65
100
AcDbArc
 50
270.0
 51
30.0000000001
  0
ARC
  5
455
100
AcDbEntity
  8
_1
100
AcDbCircle
 62
7
  6
CONTINUOUS
 10
85.6508704062
 20
95.022994025
 40
0.65
100
AcDbArc
 50
210.0
 51
330.0
  0
ARC
  5
456
100
AcDbEntity
  8
_1
100
AcDbCircle
 62
7
  6
CONTINUOUS
 10
95.0903586295
 20
111.3726672252
 40
0.65
100
AcDbArc
 50
329.9999999997
 51
90.0
  0
ARC
  5
457
100
AcDbEntity
  8
_1
100
AcDbCircle
 62
7
  6
CONTINUOUS
 10
89.4613821828
 20
95.022994025
 40
0.65
100
AcDbArc
 50
149.9999999997
 51
270.0
  0
ARC
  5
458
100
AcDbEntity
  8
_1
100
AcDbCircle
 62
7
  6
CONTINUOUS
 10
85.6508704062
 20
91.7223404255
 40
0.65
100
AcDbArc
 50
30.0
 51
150.0
  0
ARC
  5
459
100
AcDbEntity
  8
_1
100
AcDbCircle
 62
7
  6
CONTINUOUS
 10
89.4613821828
 20
91.7223404255
 40
0.65
100
AcDbArc
 50
90.0
 51
210.0000000001
  0
ARC
  5
45A
100
AcDbEntity
  8
_1
100
AcDbCircle
 62
7
  6
CONTINUOUS
 10
95.0903586295
 20
153.9726672252
 40
0.65
100
AcDbArc
 50
270.0
 51
30.0000000001
  0
ARC
  5
45B
100
AcDbEntity
  8
_1
100
AcDbCircle
 62
7
  6
CONTINUOUS
 10
85.6508704062
 20
134.322994025
 40
0.65
100
AcDbArc
 50
210.0000000005
 51
330.0
  0
ARC
  5
45C
100
AcDbEntity
  8
_1
100
AcDbCircle
 62
7
  6
CONTINUOUS
 10
95.0903586295
 20
150.6726672252
 40
0.65
100
AcDbArc
 50
329.9999999987
 51
90.0
  0
ARC
  5
45D
100
AcDbEntity
  8
_1
100
AcDbCircle
 62
7
  6
CONTINUOUS
 10
89.4613821828
 20
134.322994025
 40
0.65
100
AcDbArc
 50
149.9999999987
 51
270.0
  0
ARC
  5
45E
100
AcDbEntity
  8
_1
100
AcDbCircle
 62
7
  6
CONTINUOUS
 10
85.6508704062
 20
131.0223404255
 40
0.65
100
AcDbArc
 50
30.0
 51
150.0
  0
ARC
  5
45F
100
AcDbEntity
  8
_1
100
AcDbCircle
 62
7
  6
CONTINUOUS
 10
89.4613821828
 20
131.0223404255
 40
0.65
100
AcDbArc
 50
90.0
 51
210.0000000001
  0
ARC
  5
460
100
AcDbEntity
  8
_1
100
AcDbCircle
 62
7
  6
CONTINUOUS
 10
98.9008704062
 20
114.6726672252
 40
0.65
100
AcDbArc
 50
210.0000000001
 51
330.0
  0
ARC
  5
461
100
AcDbEntity
  8
_1
100
AcDbCircle
 62
7
  6
CONTINUOUS
 10
108.3403586295
 20
95.022994025
 40
0.65
100
AcDbArc
 50
270.0
 51
30.0000000001
  0
ARC
  5
462
100
AcDbEntity
  8
_1
100
AcDbCircle
 62
7
  6
CONTINUOUS
 10
98.9008704062
 20
111.3726672252
 40
0.65
100
AcDbArc
 50
30.0000000008
 51
150.0
  0
ARC
  5
463
100
AcDbEntity
  8
_1
100
AcDbCircle
 62
7
  6
CONTINUOUS
 10
102.7113821828
 20
114.6726672252
 40
0.65
100
AcDbArc
 50
149.999999998
 51
270.0
  0
ARC
  5
464
100
AcDbEntity
  8
_1
100
AcDbCircle
 62
7
  6
CONTINUOUS
 10
102.7113821828
 20
111.3726672252
 40
0.65
100
AcDbArc
 50
90.0
 51
210.0000000018
  0
ARC
  5
465
100
AcDbEntity
  8
_1
100
AcDbCircle
 62
7
  6
CONTINUOUS
 10
108.3403586295
 20
91.7223404255
 40
0.65
100
AcDbArc
 50
329.9999999979
 51
90.0
  0
ARC
  5
466
100
AcDbEntity
  8
_1
100
AcDbCircle
 62
7
  6
CONTINUOUS
 10
98.9008704062
 20
153.9726672252
 40
0.65
100
AcDbArc
 50
209.9999999996
 51
330.0
  0
ARC
  5
467
100
AcDbEntity
  8
_1
100
AcDbCircle
 62
7
  6
CONTINUOUS
 10
108.3403586295
 20
134.322994025
 40
0.65
100
AcDbArc
 50
270.0
 51
30.0000000001
  0
ARC
  5
468
100
AcDbEntity
  8
_1
100
AcDbCircle
 62
7
  6
CONTINUOUS
 10
98.9008704062
 20
150.6726672252
 40
0.65
100
AcDbArc
 50
30.0000000012
 51
150.0
  0
ARC
  5
469
100
AcDbEntity
  8
_1
100
AcDbCircle
 62
7
  6
CONTINUOUS
 10
102.7113821828
 20
153.9726672252
 40
0.65
100
AcDbArc
 50
149.999999999
 51
270.0
  0
ARC
  5
46A
100
AcDbEntity
  8
_1
100
AcDbCircle
 62
7
  6
CONTINUOUS
 10
102.7113821828
 20
150.6726672252
 40
0.65
100
AcDbArc
 50
90.0
 51
210.0000000018
  0
ARC
  5
46B
100
AcDbEntity
  8
_1
100
AcDbCircle
 62
7
  6
CONTINUOUS
 10
108.3403586295
 20
131.0223404255
 40
0.65
100
AcDbArc
 50
329.9999999979
 51
90.0
  0
ARC
  5
46C
100
AcDbEntity
  8
_1
100
AcDbCircle
 62
7
  6
CONTINUOUS
 10
59.1508704062
 20
212.922994025
 40
0.65
100
AcDbArc
 50
270.0
 51
330.0000000001
  0
ARC
  5
46D
100
AcDbEntity
  8
_1
100
AcDbCircle
 62
7
  6
CONTINUOUS
 10
62.9613821828
 20
212.922994025
 40
0.65
100
AcDbArc
 50
149.9999999997
 51
270.0
  0
ARC
  5
46E
100
AcDbEntity
  8
_1
100
AcDbCircle
 62
7
  6
CONTINUOUS
 10
81.8403586295
 20
212.922994025
 40
0.65
100
AcDbArc
 50
270.0
 51
30.0000000001
  0
ARC
  5
46F
100
AcDbEntity
  8
_1
100
AcDbCircle
 62
7
  6
CONTINUOUS
 10
59.1508704062
 20
209.6223404255
 40
0.65
100
AcDbArc
 50
30.0000000001
 51
90.0
  0
ARC
  5
470
100
AcDbEntity
  8
_1
100
AcDbCircle
 62
7
  6
CONTINUOUS
 10
68.5903586295
 20
193.2726672252
 40
0.65
100
AcDbArc
 50
270.0
 51
30.0000000001
  0
ARC
  5
471
100
AcDbEntity
  8
_1
100
AcDbCircle
 62
7
  6
CONTINUOUS
 10
62.9613821828
 20
209.6223404255
 40
0.65
100
AcDbArc
 50
90.0
 51
210.0000000001
  0
ARC
  5
472
100
AcDbEntity
  8
_1
100
AcDbCircle
 62
7
  6
CONTINUOUS
 10
72.4008704062
 20
193.2726672252
 40
0.65
100
AcDbArc
 50
210.0000000001
 51
330.0
  0
ARC
  5
473
100
AcDbEntity
  8
_1
100
AcDbCircle
 62
7
  6
CONTINUOUS
 10
81.8403586295
 20
209.6223404255
 40
0.65
100
AcDbArc
 50
329.9999999997
 51
90.0
  0
ARC
  5
474
100
AcDbEntity
  8
_1
100
AcDbCircle
 62
7
  6
CONTINUOUS
 10
59.1508704062
 20
173.622994025
 40
0.65
100
AcDbArc
 50
270.0
 51
330.0000000001
  0
ARC
  5
475
100
AcDbEntity
  8
_1
100
AcDbCircle
 62
7
  6
CONTINUOUS
 10
68.5903586295
 20
189.9726672252
 40
0.65
100
AcDbArc
 50
329.9999999997
 51
90.0
  0
ARC
  5
476
100
AcDbEntity
  8
_1
100
AcDbCircle
 62
7
  6
CONTINUOUS
 10
62.9613821828
 20
173.622994025
 40
0.65
100
AcDbArc
 50
149.9999999997
 51
270.0
  0
ARC
  5
477
100
AcDbEntity
  8
_1
100
AcDbCircle
 62
7
  6
CONTINUOUS
 10
81.8403586295
 20
173.622994025
 40
0.65
100
AcDbArc
 50
270.0
 51
30.0000000001
  0
ARC
  5
478
100
AcDbEntity
  8
_1
100
AcDbCircle
 62
7
  6
CONTINUOUS
 10
72.4008704062
 20
189.9726672252
 40
0.65
100
AcDbArc
 50
30.0000000001
 51
150.0
  0
ARC
  5
479
100
AcDbEntity
  8
_1
100
AcDbCircle
 62
7
  6
CONTINUOUS
 10
76.2113821828
 20
193.2726672252
 40
0.65
100
AcDbArc
 50
149.9999999997
 51
270.0
  0
ARC
  5
47A
100
AcDbEntity
  8
_1
100
AcDbCircle
 62
7
  6
CONTINUOUS
 10
76.2113821828
 20
189.9726672252
 40
0.65
100
AcDbArc
 50
90.0
 51
210.0000000001
  0
ARC
  5
47B
100
AcDbEntity
  8
_1
100
AcDbCircle
 62
7
  6
CONTINUOUS
 10
62.9613821828
 20
170.3223404255
 40
0.65
100
AcDbArc
 50
90.0
 51
210.0000000001
  0
ARC
  5
47C
100
AcDbEntity
  8
_1
100
AcDbCircle
 62
7
  6
CONTINUOUS
 10
81.8403586295
 20
170.3223404255
 40
0.65
100
AcDbArc
 50
330.0000000007
 51
90.0
  0
ARC
  5
47D
100
AcDbEntity
  8
_1
100
AcDbCircle
 62
7
  6
CONTINUOUS
 10
59.1508704062
 20
170.3223404255
 40
0.65
100
AcDbArc
 50
29.9999999996
 51
90.0
  0
ARC
  5
47E
100
AcDbEntity
  8
_1
100
AcDbCircle
 62
7
  6
CONTINUOUS
 10
62.9613821828
 20
252.222994025
 40
0.65
100
AcDbArc
 50
150.0000000047
 51
270.0
  0
ARC
  5
47F
100
AcDbEntity
  8
_1
100
AcDbCircle
 62
7
  6
CONTINUOUS
 10
59.1508704062
 20
248.9223404255
 40
0.65
100
AcDbArc
 50
30.0000000001
 51
90.0
  0
ARC
  5
480
100
AcDbEntity
  8
_1
100
AcDbCircle
 62
7
  6
CONTINUOUS
 10
68.5903586295
 20
232.5726672252
 40
0.65
100
AcDbArc
 50
270.0
 51
30.0000000001
  0
ARC
  5
481
100
AcDbEntity
  8
_1
100
AcDbCircle
 62
7
  6
CONTINUOUS
 10
62.9613821828
 20
248.9223404255
 40
0.65
100
AcDbArc
 50
90.0
 51
210.0000000001
  0
ARC
  5
482
100
AcDbEntity
  8
_1
100
AcDbCircle
 62
7
  6
CONTINUOUS
 10
68.5903586295
 20
229.2726672252
 40
0.65
100
AcDbArc
 50
329.9999999997
 51
90.0
  0
ARC
  5
483
100
AcDbEntity
  8
_1
100
AcDbCircle
 62
7
  6
CONTINUOUS
 10
59.1508704062
 20
252.222994025
 40
0.65
100
AcDbArc
 50
270.0
 51
330.0000000001
  0
ARC
  5
484
100
AcDbEntity
  8
_1
100
AcDbCircle
 62
7
  6
CONTINUOUS
 10
68.5903586295
 20
268.5726672252
 40
0.65
100
AcDbArc
 50
329.9999999883
 51
90.0
  0
ARC
  5
485
100
AcDbEntity
  8
_1
100
AcDbCircle
 62
7
  6
CONTINUOUS
 10
68.5903586295
 20
271.8726672252
 40
0.65
100
AcDbArc
 50
270.0
 51
338.2758197888
  0
ARC
  5
486
100
AcDbEntity
  8
_1
100
AcDbCircle
 62
7
  6
CONTINUOUS
 10
59.1508704062
 20
288.2223404255
 40
0.65
100
AcDbArc
 50
29.9999999883
 51
90.0
  0
ARC
  5
487
100
AcDbEntity
  8
_1
100
AcDbCircle
 62
7
  6
CONTINUOUS
 10
62.9613821828
 20
288.2223404255
 40
0.65
100
AcDbArc
 50
90.0
 51
210.0000000001
  0
ARC
  5
488
100
AcDbEntity
  8
_1
100
AcDbCircle
 62
7
  6
CONTINUOUS
 10
81.8403586295
 20
252.222994025
 40
0.65
100
AcDbArc
 50
270.0
 51
30.0000000001
  0
ARC
  5
489
100
AcDbEntity
  8
_1
100
AcDbCircle
 62
7
  6
CONTINUOUS
 10
72.4008704062
 20
232.5726672252
 40
0.65
100
AcDbArc
 50
210.0000000001
 51
330.0
  0
ARC
  5
48A
100
AcDbEntity
  8
_1
100
AcDbCircle
 62
7
  6
CONTINUOUS
 10
81.8403586295
 20
248.9223404255
 40
0.65
100
AcDbArc
 50
329.9999999997
 51
90.0
  0
ARC
  5
48B
100
AcDbEntity
  8
_1
100
AcDbCircle
 62
7
  6
CONTINUOUS
 10
72.4008704062
 20
229.2726672252
 40
0.65
100
AcDbArc
 50
30.0000000001
 51
150.0
  0
ARC
  5
48C
100
AcDbEntity
  8
_1
100
AcDbCircle
 62
7
  6
CONTINUOUS
 10
76.2113821828
 20
232.5726672252
 40
0.65
100
AcDbArc
 50
149.9999999997
 51
270.0
  0
ARC
  5
48D
100
AcDbEntity
  8
_1
100
AcDbCircle
 62
7
  6
CONTINUOUS
 10
76.2113821828
 20
229.2726672252
 40
0.65
100
AcDbArc
 50
90.0
 51
210.0000000001
  0
ARC
  5
48E
100
AcDbEntity
  8
_1
100
AcDbCircle
 62
7
  6
CONTINUOUS
 10
71.1508704062
 20
278.8723404255
 40
7.5
100
AcDbArc
 50
15.7613049296
 51
50.7035197608
  0
ARC
  5
48F
100
AcDbEntity
  8
_1
100
AcDbCircle
 62
7
  6
CONTINUOUS
 10
71.1508704062
 20
278.8723404255
 40
7.5
100
AcDbArc
 50
162.5039198277
 51
254.8771053498
  0
ARC
  5
490
100
AcDbEntity
  8
_1
100
AcDbCircle
 62
7
  6
CONTINUOUS
 10
71.1508704062
 20
278.8723404255
 40
7.5
100
AcDbArc
 50
129.2964802392
 51
144.1403980729
  0
ARC
  5
491
100
AcDbEntity
  8
_1
100
AcDbCircle
 62
7
  6
CONTINUOUS
 10
71.1508704062
 20
278.8723404255
 40
7.5
100
AcDbArc
 50
314.6476197587
 51
345.3523802406
  0
ARC
  5
492
100
AcDbEntity
  8
_1
100
AcDbCircle
 62
7
  6
CONTINUOUS
 10
71.1508704062
 20
278.8723404255
 40
5.5
100
AcDbArc
 50
120.0
 51
60.0
  0
ARC
  5
493
100
AcDbEntity
  8
_1
100
AcDbCircle
 62
7
  6
CONTINUOUS
 10
71.1508704062
 20
284.8723404255
 40
4.75
100
AcDbArc
 50
0.0
 51
57.3631024964
  0
ARC
  5
494
100
AcDbEntity
  8
_1
100
AcDbCircle
 62
7
  6
CONTINUOUS
 10
71.1508704062
 20
284.8723404255
 40
4.75
100
AcDbArc
 50
122.6368975036
 51
180.0
  0
ARC
  5
495
100
AcDbEntity
  8
_1
100
AcDbCircle
 62
7
  6
CONTINUOUS
 10
71.1508704062
 20
284.8723404255
 40
2.75
100
AcDbArc
 50
0.0
 51
180.0
  0
CIRCLE
  5
496
100
AcDbEntity
  8
_1
100
AcDbCircle
 62
7
  6
CONTINUOUS
 10
72.1508704062
 20
271.2723404255
 40
0.9
  0
ARC
  5
497
100
AcDbEntity
  8
_1
100
AcDbCircle
 62
7
  6
CONTINUOUS
 10
81.8403586295
 20
288.2223404255
 40
0.65
100
AcDbArc
 50
330.000000016
 51
90.0
  0
ARC
  5
498
100
AcDbEntity
  8
_1
100
AcDbCircle
 62
7
  6
CONTINUOUS
 10
72.4008704062
 20
268.5726672252
 40
0.65
100
AcDbArc
 50
29.999999998
 51
150.0000000001
  0
ARC
  5
499
100
AcDbEntity
  8
_1
100
AcDbCircle
 62
7
  6
CONTINUOUS
 10
76.2113821828
 20
268.5726672252
 40
0.65
100
AcDbArc
 50
90.0
 51
210.0000000001
  0
ARC
  5
49A
100
AcDbEntity
  8
_1
100
AcDbCircle
 62
7
  6
CONTINUOUS
 10
76.2113821828
 20
271.8726672252
 40
0.65
100
AcDbArc
 50
149.9999999835
 51
270.0
  0
ARC
  5
49B
100
AcDbEntity
  8
_1
100
AcDbCircle
 62
7
  6
CONTINUOUS
 10
85.6508704062
 20
212.922994025
 40
0.65
100
AcDbArc
 50
210.0
 51
330.0
  0
ARC
  5
49C
100
AcDbEntity
  8
_1
100
AcDbCircle
 62
7
  6
CONTINUOUS
 10
89.4613821828
 20
212.922994025
 40
0.65
100
AcDbArc
 50
149.9999999997
 51
270.0
  0
ARC
  5
49D
100
AcDbEntity
  8
_1
100
AcDbCircle
 62
7
  6
CONTINUOUS
 10
108.3403586295
 20
212.922994025
 40
0.65
100
AcDbArc
 50
270.0
 51
30.0000000001
  0
ARC
  5
49E
100
AcDbEntity
  8
_1
100
AcDbCircle
 62
7
  6
CONTINUOUS
 10
95.0903586295
 20
193.2726672252
 40
0.65
100
AcDbArc
 50
270.0
 51
30.0000000001
  0
ARC
  5
49F
100
AcDbEntity
  8
_1
100
AcDbCircle
 62
7
  6
CONTINUOUS
 10
85.6508704062
 20
209.6223404255
 40
0.65
100
AcDbArc
 50
30.0000000001
 51
150.0
  0
ARC
  5
4A0
100
AcDbEntity
  8
_1
100
AcDbCircle
 62
7
  6
CONTINUOUS
 10
89.4613821828
 20
209.6223404255
 40
0.65
100
AcDbArc
 50
90.0
 51
210.0000000001
  0
ARC
  5
4A1
100
AcDbEntity
  8
_1
100
AcDbCircle
 62
7
  6
CONTINUOUS
 10
98.9008704062
 20
193.2726672252
 40
0.65
100
AcDbArc
 50
210.0000000001
 51
330.0
  0
ARC
  5
4A2
100
AcDbEntity
  8
_1
100
AcDbCircle
 62
7
  6
CONTINUOUS
 10
108.3403586295
 20
209.6223404255
 40
0.65
100
AcDbArc
 50
329.9999999979
 51
90.0
  0
ARC
  5
4A3
100
AcDbEntity
  8
_1
100
AcDbCircle
 62
7
  6
CONTINUOUS
 10
85.6508704062
 20
173.622994025
 40
0.65
100
AcDbArc
 50
210.0
 51
330.0
  0
ARC
  5
4A4
100
AcDbEntity
  8
_1
100
AcDbCircle
 62
7
  6
CONTINUOUS
 10
95.0903586295
 20
189.9726672252
 40
0.65
100
AcDbArc
 50
329.9999999997
 51
90.0
  0
ARC
  5
4A5
100
AcDbEntity
  8
_1
100
AcDbCircle
 62
7
  6
CONTINUOUS
 10
89.4613821828
 20
173.622994025
 40
0.65
100
AcDbArc
 50
149.9999999997
 51
270.0
  0
ARC
  5
4A6
100
AcDbEntity
  8
_1
100
AcDbCircle
 62
7
  6
CONTINUOUS
 10
108.3403586295
 20
173.622994025
 40
0.65
100
AcDbArc
 50
270.0
 51
30.0000000001
  0
ARC
  5
4A7
100
AcDbEntity
  8
_1
100
AcDbCircle
 62
7
  6
CONTINUOUS
 10
98.9008704062
 20
189.9726672252
 40
0.65
100
AcDbArc
 50
30.0000000008
 51
150.0
  0
ARC
  5
4A8
100
AcDbEntity
  8
_1
100
AcDbCircle
 62
7
  6
CONTINUOUS
 10
102.7113821828
 20
193.2726672252
 40
0.65
100
AcDbArc
 50
149.999999998
 51
270.0
  0
ARC
  5
4A9
100
AcDbEntity
  8
_1
100
AcDbCircle
 62
7
  6
CONTINUOUS
 10
102.7113821828
 20
189.9726672252
 40
0.65
100
AcDbArc
 50
90.0
 51
210.0000000018
  0
ARC
  5
4AA
100
AcDbEntity
  8
_1
100
AcDbCircle
 62
7
  6
CONTINUOUS
 10
85.6508704062
 20
170.3223404255
 40
0.65
100
AcDbArc
 50
29.9999999996
 51
150.0
  0
ARC
  5
4AB
100
AcDbEntity
  8
_1
100
AcDbCircle
 62
7
  6
CONTINUOUS
 10
89.4613821828
 20
170.3223404255
 40
0.65
100
AcDbArc
 50
90.0
 51
210.0000000001
  0
ARC
  5
4AC
100
AcDbEntity
  8
_1
100
AcDbCircle
 62
7
  6
CONTINUOUS
 10
108.3403586295
 20
170.3223404255
 40
0.65
100
AcDbArc
 50
329.9999999989
 51
90.0
  0
ARC
  5
4AD
100
AcDbEntity
  8
_1
100
AcDbCircle
 62
7
  6
CONTINUOUS
 10
89.4613821828
 20
288.2223404255
 40
0.65
100
AcDbArc
 50
90.0
 51
210.0000000001
  0
ARC
  5
4AE
100
AcDbEntity
  8
_1
100
AcDbCircle
 62
7
  6
CONTINUOUS
 10
98.9008704062
 20
271.8726672252
 40
0.65
100
AcDbArc
 50
210.0000000021
 51
330.0
  0
ARC
  5
4AF
100
AcDbEntity
  8
_1
100
AcDbCircle
 62
7
  6
CONTINUOUS
 10
108.3403586295
 20
288.2223404255
 40
0.65
100
AcDbArc
 50
329.9999999929
 51
90.0
  0
ARC
  5
4B0
100
AcDbEntity
  8
_1
100
AcDbCircle
 62
7
  6
CONTINUOUS
 10
85.6508704062
 20
252.222994025
 40
0.65
100
AcDbArc
 50
209.999999998
 51
330.0
  0
ARC
  5
4B1
100
AcDbEntity
  8
_1
100
AcDbCircle
 62
7
  6
CONTINUOUS
 10
95.0903586295
 20
268.5726672252
 40
0.65
100
AcDbArc
 50
330.0000000047
 51
90.0
  0
ARC
  5
4B2
100
AcDbEntity
  8
_1
100
AcDbCircle
 62
7
  6
CONTINUOUS
 10
89.4613821828
 20
252.222994025
 40
0.65
100
AcDbArc
 50
150.0000000047
 51
270.0
  0
ARC
  5
4B3
100
AcDbEntity
  8
_1
100
AcDbCircle
 62
7
  6
CONTINUOUS
 10
108.3403586295
 20
252.222994025
 40
0.65
100
AcDbArc
 50
270.0
 51
30.0000000001
  0
ARC
  5
4B4
100
AcDbEntity
  8
_1
100
AcDbCircle
 62
7
  6
CONTINUOUS
 10
98.9008704062
 20
268.5726672252
 40
0.65
100
AcDbArc
 50
29.9999999987
 51
150.0
  0
ARC
  5
4B5
100
AcDbEntity
  8
_1
100
AcDbCircle
 62
7
  6
CONTINUOUS
 10
102.7113821828
 20
271.8726672252
 40
0.65
100
AcDbArc
 50
149.999999993
 51
270.0
  0
ARC
  5
4B6
100
AcDbEntity
  8
_1
100
AcDbCircle
 62
7
  6
CONTINUOUS
 10
102.7113821828
 20
268.5726672252
 40
0.65
100
AcDbArc
 50
90.0
 51
210.0000000017
  0
ARC
  5
4B7
100
AcDbEntity
  8
_1
100
AcDbCircle
 62
7
  6
CONTINUOUS
 10
95.0903586295
 20
232.5726672252
 40
0.65
100
AcDbArc
 50
270.0
 51
30.0000000001
  0
ARC
  5
4B8
100
AcDbEntity
  8
_1
100
AcDbCircle
 62
7
  6
CONTINUOUS
 10
85.6508704062
 20
248.9223404255
 40
0.65
100
AcDbArc
 50
30.0000000001
 51
150.0
  0
ARC
  5
4B9
100
AcDbEntity
  8
_1
100
AcDbCircle
 62
7
  6
CONTINUOUS
 10
89.4613821828
 20
248.9223404255
 40
0.65
100
AcDbArc
 50
90.0
 51
210.0000000001
  0
ARC
  5
4BA
100
AcDbEntity
  8
_1
100
AcDbCircle
 62
7
  6
CONTINUOUS
 10
98.9008704062
 20
232.5726672252
 40
0.65
100
AcDbArc
 50
210.0000000001
 51
330.0
  0
ARC
  5
4BB
100
AcDbEntity
  8
_1
100
AcDbCircle
 62
7
  6
CONTINUOUS
 10
108.3403586295
 20
248.9223404255
 40
0.65
100
AcDbArc
 50
329.9999999979
 51
90.0
  0
ARC
  5
4BC
100
AcDbEntity
  8
_1
100
AcDbCircle
 62
7
  6
CONTINUOUS
 10
95.0903586295
 20
229.2726672252
 40
0.65
100
AcDbArc
 50
329.9999999997
 51
90.0
  0
ARC
  5
4BD
100
AcDbEntity
  8
_1
100
AcDbCircle
 62
7
  6
CONTINUOUS
 10
98.9008704062
 20
229.2726672252
 40
0.65
100
AcDbArc
 50
30.0000000008
 51
150.0
  0
ARC
  5
4BE
100
AcDbEntity
  8
_1
100
AcDbCircle
 62
7
  6
CONTINUOUS
 10
102.7113821828
 20
232.5726672252
 40
0.65
100
AcDbArc
 50
149.999999998
 51
270.0
  0
ARC
  5
4BF
100
AcDbEntity
  8
_1
100
AcDbCircle
 62
7
  6
CONTINUOUS
 10
102.7113821828
 20
229.2726672252
 40
0.65
100
AcDbArc
 50
90.0
 51
210.0000000018
  0
ARC
  5
4C0
100
AcDbEntity
  8
_1
100
AcDbCircle
 62
7
  6
CONTINUOUS
 10
85.6508704062
 20
288.2223404255
 40
0.65
100
AcDbArc
 50
30.0000000021
 51
150.0000000001
  0
ARC
  5
4C1
100
AcDbEntity
  8
_1
100
AcDbCircle
 62
7
  6
CONTINUOUS
 10
95.0903586295
 20
271.8726672252
 40
0.65
100
AcDbArc
 50
270.0
 51
30.0000000001
  0
ARC
  5
4C2
100
AcDbEntity
  8
_1
100
AcDbCircle
 62
7
  6
CONTINUOUS
 10
129.2113821828
 20
32.7726672252
 40
0.65
100
AcDbArc
 50
90.0
 51
209.9999999963
  0
ARC
  5
4C3
100
AcDbEntity
  8
_1
100
AcDbCircle
 62
7
  6
CONTINUOUS
 10
125.4008704062
 20
32.7726672252
 40
0.65
100
AcDbArc
 50
29.999999996
 51
150.0
  0
ARC
  5
4C4
100
AcDbEntity
  8
_1
100
AcDbCircle
 62
7
  6
CONTINUOUS
 10
121.5903586295
 20
32.7726672252
 40
0.65
100
AcDbArc
 50
330.0000000054
 51
90.0
  0
ARC
  5
4C5
100
AcDbEntity
  8
_1
100
AcDbCircle
 62
7
  6
CONTINUOUS
 10
121.5903586295
 20
75.3726672252
 40
0.65
100
AcDbArc
 50
270.0
 51
30.0000000018
  0
ARC
  5
4C6
100
AcDbEntity
  8
_1
100
AcDbCircle
 62
7
  6
CONTINUOUS
 10
125.4008704062
 20
75.3726672252
 40
0.65
100
AcDbArc
 50
210.0
 51
330.0
  0
ARC
  5
4C7
100
AcDbEntity
  8
_1
100
AcDbCircle
 62
7
  6
CONTINUOUS
 10
112.1508704062
 20
55.7229940249
 40
0.65
100
AcDbArc
 50
210.0000000042
 51
330.0
  0
ARC
  5
4C8
100
AcDbEntity
  8
_1
100
AcDbCircle
 62
7
  6
CONTINUOUS
 10
121.5903586295
 20
72.0726672252
 40
0.65
100
AcDbArc
 50
329.9999999879
 51
90.0
  0
ARC
  5
4C9
100
AcDbEntity
  8
_1
100
AcDbCircle
 62
7
  6
CONTINUOUS
 10
115.9613821828
 20
55.7229940249
 40
0.65
100
AcDbArc
 50
149.9999999878
 51
270.0
  0
ARC
  5
4CA
100
AcDbEntity
  8
_1
100
AcDbCircle
 62
7
  6
CONTINUOUS
 10
134.8403586295
 20
55.7229940249
 40
0.65
100
AcDbArc
 50
270.0
 51
30.0000000117
  0
ARC
  5
4CB
100
AcDbEntity
  8
_1
100
AcDbCircle
 62
7
  6
CONTINUOUS
 10
125.4008704062
 20
72.0726672252
 40
0.65
100
AcDbArc
 50
30.0000000001
 51
150.0
  0
ARC
  5
4CC
100
AcDbEntity
  8
_1
100
AcDbCircle
 62
7
  6
CONTINUOUS
 10
129.2113821828
 20
75.3726672252
 40
0.65
100
AcDbArc
 50
149.9999999997
 51
270.0
  0
ARC
  5
4CD
100
AcDbEntity
  8
_1
100
AcDbCircle
 62
7
  6
CONTINUOUS
 10
129.2113821828
 20
72.0726672252
 40
0.65
100
AcDbArc
 50
90.0
 51
210.0000000001
  0
ARC
  5
4CE
100
AcDbEntity
  8
_1
100
AcDbCircle
 62
7
  6
CONTINUOUS
 10
121.5903586295
 20
36.0726672252
 40
0.65
100
AcDbArc
 50
270.0
 51
30.0000000018
  0
ARC
  5
4CF
100
AcDbEntity
  8
_1
100
AcDbCircle
 62
7
  6
CONTINUOUS
 10
112.1508704062
 20
52.4223404255
 40
0.65
100
AcDbArc
 50
30.0000000021
 51
150.0
  0
ARC
  5
4D0
100
AcDbEntity
  8
_1
100
AcDbCircle
 62
7
  6
CONTINUOUS
 10
115.9613821828
 20
52.4223404255
 40
0.65
100
AcDbArc
 50
90.0
 51
210.0000000071
  0
ARC
  5
4D1
100
AcDbEntity
  8
_1
100
AcDbCircle
 62
7
  6
CONTINUOUS
 10
125.4008704062
 20
36.0726672252
 40
0.65
100
AcDbArc
 50
210.0
 51
330.0
  0
ARC
  5
4D2
100
AcDbEntity
  8
_1
100
AcDbCircle
 62
7
  6
CONTINUOUS
 10
134.8403586295
 20
52.4223404255
 40
0.65
100
AcDbArc
 50
329.9999999946
 51
90.0
  0
ARC
  5
4D3
100
AcDbEntity
  8
_1
100
AcDbCircle
 62
7
  6
CONTINUOUS
 10
129.2113821828
 20
36.0726672252
 40
0.65
100
AcDbArc
 50
149.9999999946
 51
270.0
  0
ARC
  5
4D4
100
AcDbEntity
  8
_1
100
AcDbCircle
 62
7
  6
CONTINUOUS
 10
121.5903586295
 20
114.6726672252
 40
0.65
100
AcDbArc
 50
270.0
 51
30.0000000018
  0
ARC
  5
4D5
100
AcDbEntity
  8
_1
100
AcDbCircle
 62
7
  6
CONTINUOUS
 10
112.1508704062
 20
95.022994025
 40
0.65
100
AcDbArc
 50
210.0
 51
330.0
  0
ARC
  5
4D6
100
AcDbEntity
  8
_1
100
AcDbCircle
 62
7
  6
CONTINUOUS
 10
121.5903586295
 20
111.3726672252
 40
0.65
100
AcDbArc
 50
329.999999998
 51
90.0
  0
ARC
  5
4D7
100
AcDbEntity
  8
_1
100
AcDbCircle
 62
7
  6
CONTINUOUS
 10
115.9613821828
 20
95.022994025
 40
0.65
100
AcDbArc
 50
149.9999999979
 51
270.0
  0
ARC
  5
4D8
100
AcDbEntity
  8
_1
100
AcDbCircle
 62
7
  6
CONTINUOUS
 10
112.1508704062
 20
91.7223404255
 40
0.65
100
AcDbArc
 50
30.0000000001
 51
150.0
  0
ARC
  5
4D9
100
AcDbEntity
  8
_1
100
AcDbCircle
 62
7
  6
CONTINUOUS
 10
115.9613821828
 20
91.7223404255
 40
0.65
100
AcDbArc
 50
90.0
 51
210.0000000021
  0
ARC
  5
4DA
100
AcDbEntity
  8
_1
100
AcDbCircle
 62
7
  6
CONTINUOUS
 10
121.5903586295
 20
153.9726672252
 40
0.65
100
AcDbArc
 50
270.0
 51
30.0000000018
  0
ARC
  5
4DB
100
AcDbEntity
  8
_1
100
AcDbCircle
 62
7
  6
CONTINUOUS
 10
112.1508704062
 20
134.322994025
 40
0.65
100
AcDbArc
 50
210.0000000005
 51
330.0
  0
ARC
  5
4DC
100
AcDbEntity
  8
_1
100
AcDbCircle
 62
7
  6
CONTINUOUS
 10
121.5903586295
 20
150.6726672252
 40
0.65
100
AcDbArc
 50
329.999999997
 51
90.0
  0
ARC
  5
4DD
100
AcDbEntity
  8
_1
100
AcDbCircle
 62
7
  6
CONTINUOUS
 10
115.9613821828
 20
134.322994025
 40
0.65
100
AcDbArc
 50
149.9999999969
 51
270.0
  0
ARC
  5
4DE
100
AcDbEntity
  8
_1
100
AcDbCircle
 62
7
  6
CONTINUOUS
 10
112.1508704062
 20
131.0223404255
 40
0.65
100
AcDbArc
 50
30.0000000001
 51
150.0
  0
ARC
  5
4DF
100
AcDbEntity
  8
_1
100
AcDbCircle
 62
7
  6
CONTINUOUS
 10
115.9613821828
 20
131.0223404255
 40
0.65
100
AcDbArc
 50
90.0
 51
210.0000000021
  0
ARC
  5
4E0
100
AcDbEntity
  8
_1
100
AcDbCircle
 62
7
  6
CONTINUOUS
 10
125.4008704062
 20
114.6726672252
 40
0.65
100
AcDbArc
 50
210.0
 51
330.0
  0
ARC
  5
4E1
100
AcDbEntity
  8
_1
100
AcDbCircle
 62
7
  6
CONTINUOUS
 10
134.8403586295
 20
95.022994025
 40
0.65
100
AcDbArc
 50
270.0
 51
30.0000000001
  0
ARC
  5
4E2
100
AcDbEntity
  8
_1
100
AcDbCircle
 62
7
  6
CONTINUOUS
 10
125.4008704062
 20
111.3726672252
 40
0.65
100
AcDbArc
 50
30.0000000001
 51
150.0
  0
ARC
  5
4E3
100
AcDbEntity
  8
_1
100
AcDbCircle
 62
7
  6
CONTINUOUS
 10
129.2113821828
 20
114.6726672252
 40
0.65
100
AcDbArc
 50
149.9999999997
 51
270.0
  0
ARC
  5
4E4
100
AcDbEntity
  8
_1
100
AcDbCircle
 62
7
  6
CONTINUOUS
 10
129.2113821828
 20
111.3726672252
 40
0.65
100
AcDbArc
 50
90.0
 51
210.0000000001
  0
ARC
  5
4E5
100
AcDbEntity
  8
_1
100
AcDbCircle
 62
7
  6
CONTINUOUS
 10
134.8403586295
 20
91.7223404255
 40
0.65
100
AcDbArc
 50
329.9999999997
 51
90.0
  0
ARC
  5
4E6
100
AcDbEntity
  8
_1
100
AcDbCircle
 62
7
  6
CONTINUOUS
 10
125.4008704062
 20
153.9726672252
 40
0.65
100
AcDbArc
 50
210.0
 51
330.0
  0
ARC
  5
4E7
100
AcDbEntity
  8
_1
100
AcDbCircle
 62
7
  6
CONTINUOUS
 10
134.8403586295
 20
134.322994025
 40
0.65
100
AcDbArc
 50
270.0
 51
30.0000000001
  0
ARC
  5
4E8
100
AcDbEntity
  8
_1
100
AcDbCircle
 62
7
  6
CONTINUOUS
 10
125.4008704062
 20
150.6726672252
 40
0.65
100
AcDbArc
 50
30.0000000005
 51
150.0
  0
ARC
  5
4E9
100
AcDbEntity
  8
_1
100
AcDbCircle
 62
7
  6
CONTINUOUS
 10
129.2113821828
 20
153.9726672252
 40
0.65
100
AcDbArc
 50
150.0000000007
 51
270.0
  0
ARC
  5
4EA
100
AcDbEntity
  8
_1
100
AcDbCircle
 62
7
  6
CONTINUOUS
 10
129.2113821828
 20
150.6726672252
 40
0.65
100
AcDbArc
 50
90.0
 51
210.0000000001
  0
ARC
  5
4EB
100
AcDbEntity
  8
_1
100
AcDbCircle
 62
7
  6
CONTINUOUS
 10
134.8403586295
 20
131.0223404255
 40
0.65
100
AcDbArc
 50
329.9999999997
 51
90.0
  0
ARC
  5
4EC
100
AcDbEntity
  8
_1
100
AcDbCircle
 62
7
  6
CONTINUOUS
 10
153.1508704062
 20
25.8723404255
 40
4.75
100
AcDbArc
 50
80.558438712
 51
178.4999999993
  0
ARC
  5
4ED
100
AcDbEntity
  8
_1
100
AcDbCircle
 62
7
  6
CONTINUOUS
 10
153.1508704062
 20
25.8723404255
 40
2.75
100
AcDbArc
 50
1.4999999995
 51
178.5000000005
  0
ARC
  5
4EE
100
AcDbEntity
  8
_1
100
AcDbCircle
 62
7
  6
CONTINUOUS
 10
148.0903586295
 20
32.7726672252
 40
0.65
100
AcDbArc
 50
330.0000000037
 51
90.0
  0
ARC
  5
4EF
100
AcDbEntity
  8
_1
100
AcDbCircle
 62
7
  6
CONTINUOUS
 10
151.9008704062
 20
32.7726672252
 40
0.65
100
AcDbArc
 50
29.9999999947
 51
150.000000004
  0
ARC
  5
4F0
100
AcDbEntity
  8
_1
100
AcDbCircle
 62
7
  6
CONTINUOUS
 10
155.7113821828
 20
36.0726672252
 40
0.65
100
AcDbArc
 50
149.9999999883
 51
270.0
  0
ARC
  5
4F1
100
AcDbEntity
  8
_1
100
AcDbCircle
 62
7
  6
CONTINUOUS
 10
151.9008704062
 20
36.0726672252
 40
0.65
100
AcDbArc
 50
210.0000000036
 51
330.0
  0
ARC
  5
4F2
100
AcDbEntity
  8
_1
100
AcDbCircle
 62
7
  6
CONTINUOUS
 10
161.3403586295
 20
52.4223404255
 40
0.65
100
AcDbArc
 50
330.0000000029
 51
90.0
  0
ARC
  5
4F3
100
AcDbEntity
  8
_1
100
AcDbCircle
 62
7
  6
CONTINUOUS
 10
142.4613821828
 20
52.4223404255
 40
0.65
100
AcDbArc
 50
90.0
 51
210.0000000001
  0
ARC
  5
4F4
100
AcDbEntity
  8
_1
100
AcDbCircle
 62
7
  6
CONTINUOUS
 10
148.0903586295
 20
75.3726672252
 40
0.65
100
AcDbArc
 50
270.0
 51
30.0000000001
  0
ARC
  5
4F5
100
AcDbEntity
  8
_1
100
AcDbCircle
 62
7
  6
CONTINUOUS
 10
151.9008704062
 20
75.3726672252
 40
0.65
100
AcDbArc
 50
210.0000000001
 51
330.0
  0
ARC
  5
4F6
100
AcDbEntity
  8
_1
100
AcDbCircle
 62
7
  6
CONTINUOUS
 10
155.7113821828
 20
75.3726672252
 40
0.65
100
AcDbArc
 50
149.9999999997
 51
270.0
  0
ARC
  5
4F7
100
AcDbEntity
  8
_1
100
AcDbCircle
 62
7
  6
CONTINUOUS
 10
138.6508704062
 20
55.7229940249
 40
0.65
100
AcDbArc
 50
210.0000000042
 51
330.0
  0
ARC
  5
4F8
100
AcDbEntity
  8
_1
100
AcDbCircle
 62
7
  6
CONTINUOUS
 10
148.0903586295
 20
72.0726672252
 40
0.65
100
AcDbArc
 50
329.9999999896
 51
90.0
  0
ARC
  5
4F9
100
AcDbEntity
  8
_1
100
AcDbCircle
 62
7
  6
CONTINUOUS
 10
142.4613821828
 20
55.7229940249
 40
0.65
100
AcDbArc
 50
149.9999999896
 51
270.0
  0
ARC
  5
4FA
100
AcDbEntity
  8
_1
100
AcDbCircle
 62
7
  6
CONTINUOUS
 10
161.3403586295
 20
55.7229940249
 40
0.65
100
AcDbArc
 50
270.0
 51
30.0000000117
  0
ARC
  5
4FB
100
AcDbEntity
  8
_1
100
AcDbCircle
 62
7
  6
CONTINUOUS
 10
151.9008704062
 20
72.0726672252
 40
0.65
100
AcDbArc
 50
30.0000000001
 51
150.0
  0
ARC
  5
4FC
100
AcDbEntity
  8
_1
100
AcDbCircle
 62
7
  6
CONTINUOUS
 10
155.7113821828
 20
72.0726672252
 40
0.65
100
AcDbArc
 50
90.0
 51
210.0000000001
  0
ARC
  5
4FD
100
AcDbEntity
  8
_1
100
AcDbCircle
 62
7
  6
CONTINUOUS
 10
165.1508704062
 20
55.7229940249
 40
0.65
100
AcDbArc
 50
210.0000000051
 51
270.0
  0
ARC
  5
4FE
100
AcDbEntity
  8
_1
100
AcDbCircle
 62
7
  6
CONTINUOUS
 10
148.0903586295
 20
36.0726672252
 40
0.65
100
AcDbArc
 50
270.0
 51
30.0000000001
  0
ARC
  5
4FF
100
AcDbEntity
  8
_1
100
AcDbCircle
 62
7
  6
CONTINUOUS
 10
138.6508704062
 20
52.4223404255
 40
0.65
100
AcDbArc
 50
30.0000000005
 51
150.0
  0
ARC
  5
500
100
AcDbEntity
  8
_1
100
AcDbCircle
 62
7
  6
CONTINUOUS
 10
165.1508704062
 20
52.4223404255
 40
0.65
100
AcDbArc
 50
90.0
 51
150.0000000001
  0
ARC
  5
501
100
AcDbEntity
  8
_1
100
AcDbCircle
 62
7
  6
CONTINUOUS
 10
155.7113821828
 20
32.7726672252
 40
0.65
100
AcDbArc
 50
90.0
 51
209.9999999963
  0
ARC
  5
502
100
AcDbEntity
  8
_1
100
AcDbCircle
 62
7
  6
CONTINUOUS
 10
148.0903586295
 20
114.6726672252
 40
0.65
100
AcDbArc
 50
270.0
 51
30.0000000001
  0
ARC
  5
503
100
AcDbEntity
  8
_1
100
AcDbCircle
 62
7
  6
CONTINUOUS
 10
138.6508704062
 20
95.022994025
 40
0.65
100
AcDbArc
 50
210.0
 51
330.0
  0
ARC
  5
504
100
AcDbEntity
  8
_1
100
AcDbCircle
 62
7
  6
CONTINUOUS
 10
148.0903586295
 20
111.3726672252
 40
0.65
100
AcDbArc
 50
329.9999999997
 51
90.0
  0
ARC
  5
505
100
AcDbEntity
  8
_1
100
AcDbCircle
 62
7
  6
CONTINUOUS
 10
142.4613821828
 20
95.022994025
 40
0.65
100
AcDbArc
 50
149.9999999997
 51
270.0
  0
ARC
  5
506
100
AcDbEntity
  8
_1
100
AcDbCircle
 62
7
  6
CONTINUOUS
 10
138.6508704062
 20
91.7223404255
 40
0.65
100
AcDbArc
 50
30.0
 51
150.0
  0
ARC
  5
507
100
AcDbEntity
  8
_1
100
AcDbCircle
 62
7
  6
CONTINUOUS
 10
142.4613821828
 20
91.7223404255
 40
0.65
100
AcDbArc
 50
90.0
 51
210.0000000001
  0
ARC
  5
508
100
AcDbEntity
  8
_1
100
AcDbCircle
 62
7
  6
CONTINUOUS
 10
148.0903586295
 20
153.9726672252
 40
0.65
100
AcDbArc
 50
270.0
 51
30.0000000001
  0
ARC
  5
509
100
AcDbEntity
  8
_1
100
AcDbCircle
 62
7
  6
CONTINUOUS
 10
138.6508704062
 20
134.322994025
 40
0.65
100
AcDbArc
 50
210.0000000005
 51
330.0
  0
ARC
  5
50A
100
AcDbEntity
  8
_1
100
AcDbCircle
 62
7
  6
CONTINUOUS
 10
148.0903586295
 20
150.6726672252
 40
0.65
100
AcDbArc
 50
329.9999999987
 51
90.0
  0
ARC
  5
50B
100
AcDbEntity
  8
_1
100
AcDbCircle
 62
7
  6
CONTINUOUS
 10
142.4613821828
 20
134.322994025
 40
0.65
100
AcDbArc
 50
149.9999999987
 51
270.0
  0
ARC
  5
50C
100
AcDbEntity
  8
_1
100
AcDbCircle
 62
7
  6
CONTINUOUS
 10
138.6508704062
 20
131.0223404255
 40
0.65
100
AcDbArc
 50
30.0
 51
150.0
  0
ARC
  5
50D
100
AcDbEntity
  8
_1
100
AcDbCircle
 62
7
  6
CONTINUOUS
 10
142.4613821828
 20
131.0223404255
 40
0.65
100
AcDbArc
 50
90.0
 51
210.0000000001
  0
ARC
  5
50E
100
AcDbEntity
  8
_1
100
AcDbCircle
 62
7
  6
CONTINUOUS
 10
151.9008704062
 20
114.6726672252
 40
0.65
100
AcDbArc
 50
210.0000000001
 51
330.0
  0
ARC
  5
50F
100
AcDbEntity
  8
_1
100
AcDbCircle
 62
7
  6
CONTINUOUS
 10
155.7113821828
 20
114.6726672252
 40
0.65
100
AcDbArc
 50
149.9999999997
 51
270.0
  0
ARC
  5
510
100
AcDbEntity
  8
_1
100
AcDbCircle
 62
7
  6
CONTINUOUS
 10
161.3403586295
 20
95.022994025
 40
0.65
100
AcDbArc
 50
270.0
 51
30.0000000001
  0
ARC
  5
511
100
AcDbEntity
  8
_1
100
AcDbCircle
 62
7
  6
CONTINUOUS
 10
151.9008704062
 20
111.3726672252
 40
0.65
100
AcDbArc
 50
30.0000000001
 51
150.0
  0
ARC
  5
512
100
AcDbEntity
  8
_1
100
AcDbCircle
 62
7
  6
CONTINUOUS
 10
155.7113821828
 20
111.3726672252
 40
0.65
100
AcDbArc
 50
90.0
 51
210.0000000001
  0
ARC
  5
513
100
AcDbEntity
  8
_1
100
AcDbCircle
 62
7
  6
CONTINUOUS
 10
165.1508704062
 20
95.022994025
 40
0.65
100
AcDbArc
 50
210.0000000001
 51
270.0
  0
ARC
  5
514
100
AcDbEntity
  8
_1
100
AcDbCircle
 62
7
  6
CONTINUOUS
 10
161.3403586295
 20
91.7223404255
 40
0.65
100
AcDbArc
 50
329.9999999997
 51
90.0
  0
ARC
  5
515
100
AcDbEntity
  8
_1
100
AcDbCircle
 62
7
  6
CONTINUOUS
 10
165.1508704062
 20
91.7223404255
 40
0.65
100
AcDbArc
 50
90.0
 51
150.0000000001
  0
ARC
  5
516
100
AcDbEntity
  8
_1
100
AcDbCircle
 62
7
  6
CONTINUOUS
 10
151.9008704062
 20
153.9726672252
 40
0.65
100
AcDbArc
 50
209.9999999996
 51
330.0
  0
ARC
  5
517
100
AcDbEntity
  8
_1
100
AcDbCircle
 62
7
  6
CONTINUOUS
 10
161.3403586295
 20
134.322994025
 40
0.65
100
AcDbArc
 50
270.0
 51
30.0000000001
  0
ARC
  5
518
100
AcDbEntity
  8
_1
100
AcDbCircle
 62
7
  6
CONTINUOUS
 10
151.9008704062
 20
150.6726672252
 40
0.65
100
AcDbArc
 50
30.0000000005
 51
150.0
  0
ARC
  5
519
100
AcDbEntity
  8
_1
100
AcDbCircle
 62
7
  6
CONTINUOUS
 10
161.3403586295
 20
131.0223404255
 40
0.65
100
AcDbArc
 50
329.9999999997
 51
90.0
  0
ARC
  5
51A
100
AcDbEntity
  8
_1
100
AcDbCircle
 62
7
  6
CONTINUOUS
 10
165.1508704062
 20
131.0223404255
 40
0.65
100
AcDbArc
 50
90.0
 51
150.0000000001
  0
ARC
  5
51B
100
AcDbEntity
  8
_1
100
AcDbCircle
 62
7
  6
CONTINUOUS
 10
155.7113821828
 20
153.9726672252
 40
0.65
100
AcDbArc
 50
150.0000000007
 51
270.0
  0
ARC
  5
51C
100
AcDbEntity
  8
_1
100
AcDbCircle
 62
7
  6
CONTINUOUS
 10
165.1508704062
 20
134.322994025
 40
0.65
100
AcDbArc
 50
210.0000000006
 51
270.0
  0
ARC
  5
51D
100
AcDbEntity
  8
_1
100
AcDbCircle
 62
7
  6
CONTINUOUS
 10
155.7113821828
 20
150.6726672252
 40
0.65
100
AcDbArc
 50
90.0
 51
210.0000000001
  0
ARC
  5
51E
100
AcDbEntity
  8
_1
100
AcDbCircle
 62
7
  6
CONTINUOUS
 10
112.1508704062
 20
212.922994025
 40
0.65
100
AcDbArc
 50
210.0
 51
330.0
  0
ARC
  5
51F
100
AcDbEntity
  8
_1
100
AcDbCircle
 62
7
  6
CONTINUOUS
 10
115.9613821828
 20
212.922994025
 40
0.65
100
AcDbArc
 50
149.9999999979
 51
270.0
  0
ARC
  5
520
100
AcDbEntity
  8
_1
100
AcDbCircle
 62
7
  6
CONTINUOUS
 10
134.8403586295
 20
212.922994025
 40
0.65
100
AcDbArc
 50
270.0
 51
30.0000000001
  0
ARC
  5
521
100
AcDbEntity
  8
_1
100
AcDbCircle
 62
7
  6
CONTINUOUS
 10
121.5903586295
 20
193.2726672252
 40
0.65
100
AcDbArc
 50
270.0
 51
30.0000000018
  0
ARC
  5
522
100
AcDbEntity
  8
_1
100
AcDbCircle
 62
7
  6
CONTINUOUS
 10
112.1508704062
 20
209.6223404255
 40
0.65
100
AcDbArc
 50
30.0000000001
 51
150.0
  0
ARC
  5
523
100
AcDbEntity
  8
_1
100
AcDbCircle
 62
7
  6
CONTINUOUS
 10
115.9613821828
 20
209.6223404255
 40
0.65
100
AcDbArc
 50
90.0
 51
210.0000000021
  0
ARC
  5
524
100
AcDbEntity
  8
_1
100
AcDbCircle
 62
7
  6
CONTINUOUS
 10
125.4008704062
 20
193.2726672252
 40
0.65
100
AcDbArc
 50
210.0
 51
330.0
  0
ARC
  5
525
100
AcDbEntity
  8
_1
100
AcDbCircle
 62
7
  6
CONTINUOUS
 10
134.8403586295
 20
209.6223404255
 40
0.65
100
AcDbArc
 50
329.9999999997
 51
90.0
  0
ARC
  5
526
100
AcDbEntity
  8
_1
100
AcDbCircle
 62
7
  6
CONTINUOUS
 10
112.1508704062
 20
173.622994025
 40
0.65
100
AcDbArc
 50
210.0
 51
330.0
  0
ARC
  5
527
100
AcDbEntity
  8
_1
100
AcDbCircle
 62
7
  6
CONTINUOUS
 10
121.5903586295
 20
189.9726672252
 40
0.65
100
AcDbArc
 50
329.999999998
 51
90.0
  0
ARC
  5
528
100
AcDbEntity
  8
_1
100
AcDbCircle
 62
7
  6
CONTINUOUS
 10
115.9613821828
 20
173.622994025
 40
0.65
100
AcDbArc
 50
149.9999999979
 51
270.0
  0
ARC
  5
529
100
AcDbEntity
  8
_1
100
AcDbCircle
 62
7
  6
CONTINUOUS
 10
134.8403586295
 20
173.622994025
 40
0.65
100
AcDbArc
 50
270.0
 51
30.0000000001
  0
ARC
  5
52A
100
AcDbEntity
  8
_1
100
AcDbCircle
 62
7
  6
CONTINUOUS
 10
125.4008704062
 20
189.9726672252
 40
0.65
100
AcDbArc
 50
30.0000000001
 51
150.0
  0
ARC
  5
52B
100
AcDbEntity
  8
_1
100
AcDbCircle
 62
7
  6
CONTINUOUS
 10
129.2113821828
 20
193.2726672252
 40
0.65
100
AcDbArc
 50
149.9999999997
 51
270.0
  0
ARC
  5
52C
100
AcDbEntity
  8
_1
100
AcDbCircle
 62
7
  6
CONTINUOUS
 10
129.2113821828
 20
189.9726672252
 40
0.65
100
AcDbArc
 50
90.0
 51
210.0000000001
  0
ARC
  5
52D
100
AcDbEntity
  8
_1
100
AcDbCircle
 62
7
  6
CONTINUOUS
 10
112.1508704062
 20
170.3223404255
 40
0.65
100
AcDbArc
 50
29.9999999996
 51
150.0
  0
ARC
  5
52E
100
AcDbEntity
  8
_1
100
AcDbCircle
 62
7
  6
CONTINUOUS
 10
115.9613821828
 20
170.3223404255
 40
0.65
100
AcDbArc
 50
90.0
 51
210.0000000011
  0
ARC
  5
52F
100
AcDbEntity
  8
_1
100
AcDbCircle
 62
7
  6
CONTINUOUS
 10
134.8403586295
 20
170.3223404255
 40
0.65
100
AcDbArc
 50
330.0000000007
 51
90.0
  0
ARC
  5
530
100
AcDbEntity
  8
_1
100
AcDbCircle
 62
7
  6
CONTINUOUS
 10
121.5903586295
 20
271.8726672252
 40
0.65
100
AcDbArc
 50
270.0
 51
30.0000000017
  0
ARC
  5
531
100
AcDbEntity
  8
_1
100
AcDbCircle
 62
7
  6
CONTINUOUS
 10
112.1508704062
 20
288.2223404255
 40
0.65
100
AcDbArc
 50
30.0000000021
 51
150.0
  0
ARC
  5
532
100
AcDbEntity
  8
_1
100
AcDbCircle
 62
7
  6
CONTINUOUS
 10
115.9613821828
 20
288.2223404255
 40
0.65
100
AcDbArc
 50
90.0
 51
210.0000000071
  0
ARC
  5
533
100
AcDbEntity
  8
_1
100
AcDbCircle
 62
7
  6
CONTINUOUS
 10
125.4008704062
 20
271.8726672252
 40
0.65
100
AcDbArc
 50
210.0
 51
330.0
  0
ARC
  5
534
100
AcDbEntity
  8
_1
100
AcDbCircle
 62
7
  6
CONTINUOUS
 10
134.8403586295
 20
288.2223404255
 40
0.65
100
AcDbArc
 50
329.9999999946
 51
90.0
  0
ARC
  5
535
100
AcDbEntity
  8
_1
100
AcDbCircle
 62
7
  6
CONTINUOUS
 10
112.1508704062
 20
252.222994025
 40
0.65
100
AcDbArc
 50
209.999999998
 51
330.0
  0
ARC
  5
536
100
AcDbEntity
  8
_1
100
AcDbCircle
 62
7
  6
CONTINUOUS
 10
121.5903586295
 20
268.5726672252
 40
0.65
100
AcDbArc
 50
330.000000003
 51
90.0
  0
ARC
  5
537
100
AcDbEntity
  8
_1
100
AcDbCircle
 62
7
  6
CONTINUOUS
 10
115.9613821828
 20
252.222994025
 40
0.65
100
AcDbArc
 50
150.000000003
 51
270.0
  0
ARC
  5
538
100
AcDbEntity
  8
_1
100
AcDbCircle
 62
7
  6
CONTINUOUS
 10
134.8403586295
 20
252.222994025
 40
0.65
100
AcDbArc
 50
270.0
 51
30.0000000001
  0
ARC
  5
539
100
AcDbEntity
  8
_1
100
AcDbCircle
 62
7
  6
CONTINUOUS
 10
125.4008704062
 20
268.5726672252
 40
0.65
100
AcDbArc
 50
29.999999998
 51
150.0
  0
ARC
  5
53A
100
AcDbEntity
  8
_1
100
AcDbCircle
 62
7
  6
CONTINUOUS
 10
129.2113821828
 20
268.5726672252
 40
0.65
100
AcDbArc
 50
90.0
 51
210.0000000001
  0
ARC
  5
53B
100
AcDbEntity
  8
_1
100
AcDbCircle
 62
7
  6
CONTINUOUS
 10
121.5903586295
 20
232.5726672252
 40
0.65
100
AcDbArc
 50
270.0
 51
30.0000000018
  0
ARC
  5
53C
100
AcDbEntity
  8
_1
100
AcDbCircle
 62
7
  6
CONTINUOUS
 10
112.1508704062
 20
248.9223404255
 40
0.65
100
AcDbArc
 50
30.0000000001
 51
150.0
  0
ARC
  5
53D
100
AcDbEntity
  8
_1
100
AcDbCircle
 62
7
  6
CONTINUOUS
 10
115.9613821828
 20
248.9223404255
 40
0.65
100
AcDbArc
 50
90.0
 51
210.0000000021
  0
ARC
  5
53E
100
AcDbEntity
  8
_1
100
AcDbCircle
 62
7
  6
CONTINUOUS
 10
125.4008704062
 20
232.5726672252
 40
0.65
100
AcDbArc
 50
210.0
 51
330.0
  0
ARC
  5
53F
100
AcDbEntity
  8
_1
100
AcDbCircle
 62
7
  6
CONTINUOUS
 10
134.8403586295
 20
248.9223404255
 40
0.65
100
AcDbArc
 50
329.9999999997
 51
90.0
  0
ARC
  5
540
100
AcDbEntity
  8
_1
100
AcDbCircle
 62
7
  6
CONTINUOUS
 10
121.5903586295
 20
229.2726672252
 40
0.65
100
AcDbArc
 50
329.999999998
 51
90.0
  0
ARC
  5
541
100
AcDbEntity
  8
_1
100
AcDbCircle
 62
7
  6
CONTINUOUS
 10
125.4008704062
 20
229.2726672252
 40
0.65
100
AcDbArc
 50
30.0000000001
 51
150.0
  0
ARC
  5
542
100
AcDbEntity
  8
_1
100
AcDbCircle
 62
7
  6
CONTINUOUS
 10
129.2113821828
 20
232.5726672252
 40
0.65
100
AcDbArc
 50
149.9999999997
 51
270.0
  0
ARC
  5
543
100
AcDbEntity
  8
_1
100
AcDbCircle
 62
7
  6
CONTINUOUS
 10
129.2113821828
 20
229.2726672252
 40
0.65
100
AcDbArc
 50
90.0
 51
210.0000000001
  0
ARC
  5
544
100
AcDbEntity
  8
_1
100
AcDbCircle
 62
7
  6
CONTINUOUS
 10
129.2113821828
 20
271.8726672252
 40
0.65
100
AcDbArc
 50
149.9999999946
 51
270.0
  0
ARC
  5
545
100
AcDbEntity
  8
_1
100
AcDbCircle
 62
7
  6
CONTINUOUS
 10
138.6508704062
 20
212.922994025
 40
0.65
100
AcDbArc
 50
210.0000000001
 51
330.0
  0
ARC
  5
546
100
AcDbEntity
  8
_1
100
AcDbCircle
 62
7
  6
CONTINUOUS
 10
142.4613821828
 20
212.922994025
 40
0.65
100
AcDbArc
 50
149.9999999997
 51
270.0
  0
ARC
  5
547
100
AcDbEntity
  8
_1
100
AcDbCircle
 62
7
  6
CONTINUOUS
 10
161.3403586295
 20
212.922994025
 40
0.65
100
AcDbArc
 50
270.0
 51
30.0000000001
  0
ARC
  5
548
100
AcDbEntity
  8
_1
100
AcDbCircle
 62
7
  6
CONTINUOUS
 10
165.1508704062
 20
212.922994025
 40
0.65
100
AcDbArc
 50
210.0000000001
 51
270.0
  0
ARC
  5
549
100
AcDbEntity
  8
_1
100
AcDbCircle
 62
7
  6
CONTINUOUS
 10
148.0903586295
 20
193.2726672252
 40
0.65
100
AcDbArc
 50
270.0
 51
30.0000000001
  0
ARC
  5
54A
100
AcDbEntity
  8
_1
100
AcDbCircle
 62
7
  6
CONTINUOUS
 10
138.6508704062
 20
209.6223404255
 40
0.65
100
AcDbArc
 50
30.0
 51
150.0
  0
ARC
  5
54B
100
AcDbEntity
  8
_1
100
AcDbCircle
 62
7
  6
CONTINUOUS
 10
142.4613821828
 20
209.6223404255
 40
0.65
100
AcDbArc
 50
90.0
 51
210.0000000001
  0
ARC
  5
54C
100
AcDbEntity
  8
_1
100
AcDbCircle
 62
7
  6
CONTINUOUS
 10
151.9008704062
 20
193.2726672252
 40
0.65
100
AcDbArc
 50
210.0000000001
 51
330.0
  0
ARC
  5
54D
100
AcDbEntity
  8
_1
100
AcDbCircle
 62
7
  6
CONTINUOUS
 10
161.3403586295
 20
209.6223404255
 40
0.65
100
AcDbArc
 50
329.9999999997
 51
90.0
  0
ARC
  5
54E
100
AcDbEntity
  8
_1
100
AcDbCircle
 62
7
  6
CONTINUOUS
 10
165.1508704062
 20
209.6223404255
 40
0.65
100
AcDbArc
 50
90.0
 51
150.0000000001
  0
ARC
  5
54F
100
AcDbEntity
  8
_1
100
AcDbCircle
 62
7
  6
CONTINUOUS
 10
155.7113821828
 20
193.2726672252
 40
0.65
100
AcDbArc
 50
149.9999999997
 51
270.0
  0
ARC
  5
550
100
AcDbEntity
  8
_1
100
AcDbCircle
 62
7
  6
CONTINUOUS
 10
138.6508704062
 20
173.622994025
 40
0.65
100
AcDbArc
 50
210.0
 51
330.0
  0
ARC
  5
551
100
AcDbEntity
  8
_1
100
AcDbCircle
 62
7
  6
CONTINUOUS
 10
148.0903586295
 20
189.9726672252
 40
0.65
100
AcDbArc
 50
329.9999999997
 51
90.0
  0
ARC
  5
552
100
AcDbEntity
  8
_1
100
AcDbCircle
 62
7
  6
CONTINUOUS
 10
142.4613821828
 20
173.622994025
 40
0.65
100
AcDbArc
 50
149.9999999997
 51
270.0
  0
ARC
  5
553
100
AcDbEntity
  8
_1
100
AcDbCircle
 62
7
  6
CONTINUOUS
 10
161.3403586295
 20
173.622994025
 40
0.65
100
AcDbArc
 50
270.0
 51
30.0000000001
  0
ARC
  5
554
100
AcDbEntity
  8
_1
100
AcDbCircle
 62
7
  6
CONTINUOUS
 10
151.9008704062
 20
189.9726672252
 40
0.65
100
AcDbArc
 50
30.0000000001
 51
150.0
  0
ARC
  5
555
100
AcDbEntity
  8
_1
100
AcDbCircle
 62
7
  6
CONTINUOUS
 10
155.7113821828
 20
189.9726672252
 40
0.65
100
AcDbArc
 50
90.0
 51
210.0000000001
  0
ARC
  5
556
100
AcDbEntity
  8
_1
100
AcDbCircle
 62
7
  6
CONTINUOUS
 10
165.1508704062
 20
173.622994025
 40
0.65
100
AcDbArc
 50
210.0000000001
 51
270.0
  0
ARC
  5
557
100
AcDbEntity
  8
_1
100
AcDbCircle
 62
7
  6
CONTINUOUS
 10
138.6508704062
 20
170.3223404255
 40
0.65
100
AcDbArc
 50
29.9999999996
 51
150.0
  0
ARC
  5
558
100
AcDbEntity
  8
_1
100
AcDbCircle
 62
7
  6
CONTINUOUS
 10
142.4613821828
 20
170.3223404255
 40
0.65
100
AcDbArc
 50
90.0
 51
210.0000000001
  0
ARC
  5
559
100
AcDbEntity
  8
_1
100
AcDbCircle
 62
7
  6
CONTINUOUS
 10
161.3403586295
 20
170.3223404255
 40
0.65
100
AcDbArc
 50
330.0000000007
 51
90.0
  0
ARC
  5
55A
100
AcDbEntity
  8
_1
100
AcDbCircle
 62
7
  6
CONTINUOUS
 10
165.1508704062
 20
170.3223404255
 40
0.65
100
AcDbArc
 50
90.0
 51
150.0000000001
  0
ARC
  5
55B
100
AcDbEntity
  8
_1
100
AcDbCircle
 62
7
  6
CONTINUOUS
 10
138.6508704062
 20
252.222994025
 40
0.65
100
AcDbArc
 50
209.999999998
 51
330.0
  0
ARC
  5
55C
100
AcDbEntity
  8
_1
100
AcDbCircle
 62
7
  6
CONTINUOUS
 10
142.4613821828
 20
252.222994025
 40
0.65
100
AcDbArc
 50
150.0000000047
 51
270.0
  0
ARC
  5
55D
100
AcDbEntity
  8
_1
100
AcDbCircle
 62
7
  6
CONTINUOUS
 10
148.0903586295
 20
232.5726672252
 40
0.65
100
AcDbArc
 50
270.0
 51
30.0000000001
  0
ARC
  5
55E
100
AcDbEntity
  8
_1
100
AcDbCircle
 62
7
  6
CONTINUOUS
 10
138.6508704062
 20
248.9223404255
 40
0.65
100
AcDbArc
 50
30.0000000001
 51
150.0
  0
ARC
  5
55F
100
AcDbEntity
  8
_1
100
AcDbCircle
 62
7
  6
CONTINUOUS
 10
142.4613821828
 20
248.9223404255
 40
0.65
100
AcDbArc
 50
90.0
 51
210.0000000001
  0
ARC
  5
560
100
AcDbEntity
  8
_1
100
AcDbCircle
 62
7
  6
CONTINUOUS
 10
148.0903586295
 20
229.2726672252
 40
0.65
100
AcDbArc
 50
329.9999999997
 51
90.0
  0
ARC
  5
561
100
AcDbEntity
  8
_1
100
AcDbCircle
 62
7
  6
CONTINUOUS
 10
148.0903586295
 20
268.5726672252
 40
0.65
100
AcDbArc
 50
330.0000000047
 51
90.0
  0
ARC
  5
562
100
AcDbEntity
  8
_1
100
AcDbCircle
 62
7
  6
CONTINUOUS
 10
148.0903586295
 20
271.8726672252
 40
0.65
100
AcDbArc
 50
270.0
 51
30.0000000001
  0
ARC
  5
563
100
AcDbEntity
  8
_1
100
AcDbCircle
 62
7
  6
CONTINUOUS
 10
138.6508704062
 20
288.2223404255
 40
0.65
100
AcDbArc
 50
29.999999991
 51
150.0000000001
  0
ARC
  5
564
100
AcDbEntity
  8
_1
100
AcDbCircle
 62
7
  6
CONTINUOUS
 10
142.4613821828
 20
288.2223404255
 40
0.65
100
AcDbArc
 50
90.0
 51
210.0000000001
  0
ARC
  5
565
100
AcDbEntity
  8
_1
100
AcDbCircle
 62
7
  6
CONTINUOUS
 10
161.3403586295
 20
252.222994025
 40
0.65
100
AcDbArc
 50
270.0
 51
30.0000000001
  0
ARC
  5
566
100
AcDbEntity
  8
_1
100
AcDbCircle
 62
7
  6
CONTINUOUS
 10
151.9008704062
 20
232.5726672252
 40
0.65
100
AcDbArc
 50
210.0000000001
 51
330.0
  0
ARC
  5
567
100
AcDbEntity
  8
_1
100
AcDbCircle
 62
7
  6
CONTINUOUS
 10
161.3403586295
 20
248.9223404255
 40
0.65
100
AcDbArc
 50
329.9999999997
 51
90.0
  0
ARC
  5
568
100
AcDbEntity
  8
_1
100
AcDbCircle
 62
7
  6
CONTINUOUS
 10
165.1508704062
 20
248.9223404255
 40
0.65
100
AcDbArc
 50
90.0
 51
150.0000000001
  0
ARC
  5
569
100
AcDbEntity
  8
_1
100
AcDbCircle
 62
7
  6
CONTINUOUS
 10
155.7113821828
 20
232.5726672252
 40
0.65
100
AcDbArc
 50
149.9999999997
 51
270.0
  0
ARC
  5
56A
100
AcDbEntity
  8
_1
100
AcDbCircle
 62
7
  6
CONTINUOUS
 10
151.9008704062
 20
229.2726672252
 40
0.65
100
AcDbArc
 50
30.0000000001
 51
150.0
  0
ARC
  5
56B
100
AcDbEntity
  8
_1
100
AcDbCircle
 62
7
  6
CONTINUOUS
 10
155.7113821828
 20
229.2726672252
 40
0.65
100
AcDbArc
 50
90.0
 51
210.0000000001
  0
ARC
  5
56C
100
AcDbEntity
  8
_1
100
AcDbCircle
 62
7
  6
CONTINUOUS
 10
165.1508704062
 20
252.222994025
 40
0.65
100
AcDbArc
 50
210.0000000023
 51
270.0
  0
ARC
  5
56D
100
AcDbEntity
  8
_1
100
AcDbCircle
 62
7
  6
CONTINUOUS
 10
153.1508704062
 20
278.8723404255
 40
7.5
100
AcDbArc
 50
285.1228946502
 51
17.4960801721
  0
ARC
  5
56E
100
AcDbEntity
  8
_1
100
AcDbCircle
 62
7
  6
CONTINUOUS
 10
153.1508704062
 20
278.8723404255
 40
7.5
100
AcDbArc
 50
35.8596019273
 51
50.7035197608
  0
ARC
  5
56F
100
AcDbEntity
  8
_1
100
AcDbCircle
 62
7
  6
CONTINUOUS
 10
153.1508704062
 20
278.8723404255
 40
7.5
100
AcDbArc
 50
194.6476197583
 51
225.3523802407
  0
ARC
  5
570
100
AcDbEntity
  8
_1
100
AcDbCircle
 62
7
  6
CONTINUOUS
 10
153.1508704062
 20
278.8723404255
 40
7.5
100
AcDbArc
 50
129.2964802392
 51
164.2386950705
  0
ARC
  5
571
100
AcDbEntity
  8
_1
100
AcDbCircle
 62
7
  6
CONTINUOUS
 10
153.1508704062
 20
278.8723404255
 40
5.5
100
AcDbArc
 50
120.0
 51
60.0
  0
ARC
  5
572
100
AcDbEntity
  8
_1
100
AcDbCircle
 62
7
  6
CONTINUOUS
 10
153.1508704062
 20
284.8723404255
 40
4.75
100
AcDbArc
 50
0.0
 51
57.3631024964
  0
ARC
  5
573
100
AcDbEntity
  8
_1
100
AcDbCircle
 62
7
  6
CONTINUOUS
 10
153.1508704062
 20
284.8723404255
 40
4.75
100
AcDbArc
 50
122.6368975036
 51
180.0
  0
ARC
  5
574
100
AcDbEntity
  8
_1
100
AcDbCircle
 62
7
  6
CONTINUOUS
 10
153.1508704062
 20
284.8723404255
 40
2.75
100
AcDbArc
 50
0.0
 51
180.0
  0
CIRCLE
  5
575
100
AcDbEntity
  8
_1
100
AcDbCircle
 62
7
  6
CONTINUOUS
 10
152.1508704062
 20
271.2723404255
 40
0.9
  0
ARC
  5
576
100
AcDbEntity
  8
_1
100
AcDbCircle
 62
7
  6
CONTINUOUS
 10
155.7113821828
 20
268.5726672252
 40
0.65
100
AcDbArc
 50
90.0
 51
210.0000000001
  0
ARC
  5
577
100
AcDbEntity
  8
_1
100
AcDbCircle
 62
7
  6
CONTINUOUS
 10
165.1508704062
 20
288.2223404255
 40
0.65
100
AcDbArc
 50
90.0
 51
150.0000000001
  0
ARC
  5
578
100
AcDbEntity
  8
_1
100
AcDbCircle
 62
7
  6
CONTINUOUS
 10
155.7113821828
 20
271.8726672252
 40
0.65
100
AcDbArc
 50
201.7241802114
 51
270.0
  0
ARC
  5
579
100
AcDbEntity
  8
_1
100
AcDbCircle
 62
7
  6
CONTINUOUS
 10
161.3403586295
 20
288.2223404255
 40
0.65
100
AcDbArc
 50
330.0000000175
 51
90.0
  0
ARC
  5
57A
100
AcDbEntity
  8
_1
100
AcDbCircle
 62
7
  6
CONTINUOUS
 10
151.9008704062
 20
268.5726672252
 40
0.65
100
AcDbArc
 50
29.999999998
 51
150.0000000001
  0
ENDSEC
  0
SECTION
  2
OBJECTS
  0
DICTIONARY
  5
C
100
AcDbDictionary
280
0
281
1
  3
ACAD_GROUP
350
D
  3
ACAD_MLINESTYLE
350
17
  3
ACAD_LAYOUT
350
1A
  3
ACAD_PLOTSETTINGS
350
19
  3
ACAD_PLOTSTYLENAME
350
E
  0
DICTIONARY
  5
D
102
{ACAD_REACTORS
330
C
102
}
100
AcDbDictionary
280
0
281
1
  0
ACDBDICTIONARYWDFLT
  5
E
102
{ACAD_REACTORS
330
C
102
}
100
AcDbDictionary
281
1
  3
Normal
350
F
100
AcDbDictionaryWithDefault
340
F
  0
DICTIONARY
  5
17
102
{ACAD_REACTORS
330
C
102
}
100
AcDbDictionary
280
0
281
1
  3
Standard
350
18
  0
DICTIONARY
  5
19
102
{ACAD_REACTORS
330
C
102
}
100
AcDbDictionary
281
1
  0
DICTIONARY
  5
1A
102
{ACAD_REACTORS
330
C
102
}
100
AcDbDictionary
281
1
  3
Model
350
57B
  3
Layout1
350
57C
  0
ACDBPLACEHOLDER
  5
F
102
{ACAD_REACTORS
330
E
102
}
  0
MLINESTYLE
  5
18
102
{ACAD_REACTORS
330
17
102
}
100
AcDbMlineStyle
  2
STANDARD
 70
0
  3

 62
256
 51
90.0
 52
90.0
 71
2
 49
0.5
 62
256
  6
BYLAYER
 49
-0.5
 62
256
  6
BYLAYER
  0
LAYOUT
  5
57B
102
{ACAD_REACTORS
330
1A
102
}
100
AcDbPlotSettings
  1

  2
none_device
  4

  6

 40
0.0
 41
0.0
 42
0.0
 43
0.0
 44
210.0
 45
297.0
 46
0.0
 47
0.0
 48
0.0
 49
0.0
140
0.0
141
0.0
142
1.0
143
1.0
 70
1024
 72
1
 73
0
 74
0
  7

 75
0
147
1.0
148
0.0
149
0.0
100
AcDbLayout
  1
Model
 70
0
 71
0
 10
0.0
 20
0.0
 11
210.0
 21
297.0
 12
0.0
 22
0.0
 32
0.0
 14
0.0
 24
0.0
 34
0.0
 15
0.0
 25
0.0
 35
0.0
146
0.0
 13
0.0
 23
0.0
 33
0.0
 16
1.0
 26
0.0
 36
0.0
 17
0.0
 27
1.0
 37
0.0
 76
0
330
213
345
0
346
0
  0
LAYOUT
  5
57C
102
{ACAD_REACTORS
330
1A
102
}
100
AcDbPlotSettings
  1

  2
none_device
  4

  6

 40
0.0
 41
0.0
 42
0.0
 43
0.0
 44
210.0
 45
297.0
 46
0.0
 47
0.0
 48
0.0
 49
0.0
140
0.0
141
0.0
142
1.0
143
1.0
 70
0
 72
1
 73
0
 74
0
  7

 75
0
147
1.0
148
0.0
149
0.0
100
AcDbLayout
  1
Layout1
 70
0
 71
1
 10
0.0
 20
0.0
 11
210.0
 21
297.0
 12
0.0
 22
0.0
 32
0.0
 14
0.0
 24
0.0
 34
0.0
 15
0.0
 25
0.0
 35
0.0
146
0.0
 13
0.0
 23
0.0
 33
0.0
 16
1.0
 26
0.0
 36
0.0
 17
0.0
 27
1.0
 37
0.0
 76
0
330
214
345
0
346
0
  0
ENDSEC
  0
EOF
