999
DXF file: C:\Users\sesa63760\Dev\_Creo\CAD\MCADID0000885_3D-CAD\drw0001_5.dxf
999
Pro/ENGINEER 2019471 by Parametric Technology Corporation
  0
SECTION
  2
HEADER
  9
$ACADVER
  1
AC1024
  9
$DWGCODEPAGE
  3
ANSI_1252
  9
$EXTMAX
 10
704.7908276666
 20
996.7755991285
 30
0.0
  9
$EXTMIN
 10
0.0
 20
0.0
 30
0.0
  9
$LIMMIN
 10
0.0
 20
0.0
  9
$LIMMAX
 10
704.7908276666
 20
996.7755991285
  9
$VIEWCTR
 10
352.3954138333
 20
498.3877995643
  9
$VIEWSIZE
 40
996.7755991285
  9
$CLAYER
  8
0
  9
$LTSCALE
 40
64.9750020173
  9
$CELTYPE
  6
BYLAYER
  9
$DIMSCALE
 40
1.0
  9
$DIMASZ
 40
8.390366996
  9
$DIMEXO
 40
1.0
  9
$DIMDLI
 40
44.8918195756
  9
$DIMEXE
 40
1.0
  9
$DIMCEN
 40
10.6322730574
  9
$DIMLFAC
 40
1.0
  9
$DIMBLK
  1
_FILLED
  9
$DIMALT
 70
0
  9
$DIMALTF
 40
0.0393700787
  9
$DIMTXT
 40
11.7465137944
  9
$DIMTOL
 70
1
  9
$DIMLIM
 70
0
  9
$DIMTFAC
 40
1.0
  9
$DIMTP
 40
0.01
  9
$DIMTM
 40
0.01
  9
$DIMGAP
 40
0.625
  9
$DIMDSEP
 70
46
  9
$AUNITS
 70
0
  9
$PDMODE
 70
3
  9
$PDSIZE
 40
0.3125
  9
$HANDSEED
  5
39D
  9
$TILEMODE
 70
1
  9
$MEASUREMENT
 70
1
  9
$INSUNITS
 70
4
  0
ENDSEC
  0
SECTION
  2
CLASSES
  0
CLASS
  1
ACDBDICTIONARYWDFLT
  2
AcDbDictionaryWithDefault
  3
AutoCAD 2000
 90
0
 91
1
280
0
281
0
  0
CLASS
  1
ACDBPLACEHOLDER
  2
AcDbPlaceHolder
  3
AutoCAD 2000
 90
0
 91
1
280
0
281
0
  0
CLASS
  1
LAYOUT
  2
AcDbLayout
  3
AutoCAD 2000
 90
0
 91
0
280
0
281
0
  0
ENDSEC
  0
SECTION
  2
TABLES
  0
TABLE
  2
VPORT
  5
8
100
AcDbSymbolTable
 70
2
  0
VPORT
  5
1F4
100
AcDbSymbolTableRecord
100
AcDbViewportTableRecord
  2
*ACTIVE
 70
0
 10
0.0
 20
0.0
 11
1.0
 21
1.0
 12
352.3954138333
 22
498.3877995643
 13
0.0
 23
0.0
 14
1.0
 24
1.0
 15
0.0
 25
0.0
 16
0.0
 26
0.0
 36
1.0
 17
0.0
 27
0.0
 37
0.0
 40
996.7755991285
 41
0.7070707071
 42
50.0
 43
0.0
 44
0.0
 50
0.0
 51
0.0
 71
0
 72
100
 73
1
 74
1
 75
0
 76
0
 77
0
 78
0
  0
ENDTAB
  0
TABLE
  2
LTYPE
  5
5
100
AcDbSymbolTable
 70
6
  0
LTYPE
  5
14
100
AcDbSymbolTableRecord
100
AcDbLinetypeTableRecord
  2
BYBLOCK
 70
0
  3

 72
65
 73
0
 40
0.0
  0
LTYPE
  5
15
100
AcDbSymbolTableRecord
100
AcDbLinetypeTableRecord
  2
BYLAYER
 70
0
  3

 72
65
 73
0
 40
0.0
  0
LTYPE
  5
16
100
AcDbSymbolTableRecord
100
AcDbLinetypeTableRecord
  2
CONTINUOUS
 70
64
  3
Solid line
 72
65
 73
0
 40
0.0
  0
LTYPE
  5
1F5
100
AcDbSymbolTableRecord
100
AcDbLinetypeTableRecord
  2
CENTER
 70
64
  3
____ _ ____ _ ____ _ ____ _ ____ _ ____ _ ____
 72
65
 73
4
 40
0.6
 49
0.375
 74
0
 49
-0.075
 74
0
 49
0.075
 74
0
 49
-0.075
 74
0
  0
LTYPE
  5
1F6
100
AcDbSymbolTableRecord
100
AcDbLinetypeTableRecord
  2
HIDDEN
 70
64
  3
- - - - - - - - - - - - - - - - - - - -
 72
65
 73
2
 40
0.2
 49
0.1
 74
0
 49
-0.1
 74
0
  0
LTYPE
  5
1F7
100
AcDbSymbolTableRecord
100
AcDbLinetypeTableRecord
  2
PHANTOM
 70
64
  3
_____ _ _ _____ _ _ _____ _ _ _____
 72
65
 73
6
 40
0.8
 49
0.45
 74
0
 49
-0.05
 74
0
 49
0.1
 74
0
 49
-0.05
 74
0
 49
0.1
 74
0
 49
-0.05
 74
0
  0
LTYPE
  5
1F8
100
AcDbSymbolTableRecord
100
AcDbLinetypeTableRecord
  2
DOT
 70
64
  3
. . . . . . . . . . . . . . . . . . . .
 72
65
 73
2
 40
0.2
 49
0.1
 74
0
 49
-0.1
 74
0
  0
LTYPE
  5
1F9
100
AcDbSymbolTableRecord
100
AcDbLinetypeTableRecord
  2
DASHED
 70
64
  3
- - - - - - - - - - - - - - - - - - - -
 72
65
 73
2
 40
0.2
 49
0.1
 74
0
 49
-0.1
 74
0
  0
ENDTAB
  0
TABLE
  2
LAYER
  5
2
100
AcDbSymbolTable
 70
36
  0
LAYER
  5
10
100
AcDbSymbolTableRecord
100
AcDbLayerTableRecord
  2
0
 70
0
 62
7
  6
CONTINUOUS
370
-3
390
F
  0
LAYER
  5
1FA
100
AcDbSymbolTableRecord
100
AcDbLayerTableRecord
  2
DEFAULT_1
 70
0
 62
7
  6
CENTER
370
-3
390
F
  0
LAYER
  5
1FB
100
AcDbSymbolTableRecord
100
AcDbLayerTableRecord
  2
DEFAULT_2
 70
0
 62
8
  6
HIDDEN
370
-3
390
F
  0
LAYER
  5
1FC
100
AcDbSymbolTableRecord
100
AcDbLayerTableRecord
  2
DEFAULT_3
 70
0
 62
7
  6
PHANTOM
370
-3
390
F
  0
LAYER
  5
1FD
100
AcDbSymbolTableRecord
100
AcDbLayerTableRecord
  2
00_COMPONENTS
 70
0
 62
7
  6
CONTINUOUS
370
-3
390
F
  0
LAYER
  5
1FE
100
AcDbSymbolTableRecord
100
AcDbLayerTableRecord
  2
01_1_DEFAULT_DATUMS
 70
0
 62
7
  6
CONTINUOUS
370
-3
390
F
  0
LAYER
  5
1FF
100
AcDbSymbolTableRecord
100
AcDbLayerTableRecord
  2
01_PLANES
 70
0
 62
7
  6
CONTINUOUS
370
-3
390
F
  0
LAYER
  5
200
100
AcDbSymbolTableRecord
100
AcDbLayerTableRecord
  2
02_COORD_SYS
 70
0
 62
7
  6
CONTINUOUS
370
-3
390
F
  0
LAYER
  5
201
100
AcDbSymbolTableRecord
100
AcDbLayerTableRecord
  2
03_AXES
 70
0
 62
7
  6
CONTINUOUS
370
-3
390
F
  0
LAYER
  5
202
100
AcDbSymbolTableRecord
100
AcDbLayerTableRecord
  2
04_POINTS
 70
0
 62
7
  6
CONTINUOUS
370
-3
390
F
  0
LAYER
  5
203
100
AcDbSymbolTableRecord
100
AcDbLayerTableRecord
  2
05_CURVES
 70
0
 62
7
  6
CONTINUOUS
370
-3
390
F
  0
LAYER
  5
204
100
AcDbSymbolTableRecord
100
AcDbLayerTableRecord
  2
06_SURFS
 70
0
 62
7
  6
CONTINUOUS
370
-3
390
F
  0
LAYER
  5
205
100
AcDbSymbolTableRecord
100
AcDbLayerTableRecord
  2
07_COSMETICS
 70
0
 62
7
  6
CONTINUOUS
370
-3
390
F
  0
LAYER
  5
206
100
AcDbSymbolTableRecord
100
AcDbLayerTableRecord
  2
10_NOTES
 70
0
 62
7
  6
CONTINUOUS
370
-3
390
F
  0
LAYER
  5
207
100
AcDbSymbolTableRecord
100
AcDbLayerTableRecord
  2
11_NOTES_PUB
 70
0
 62
7
  6
CONTINUOUS
370
-3
390
F
  0
LAYER
  5
208
100
AcDbSymbolTableRecord
100
AcDbLayerTableRecord
  2
13_REF_GTOL
 70
0
 62
7
  6
CONTINUOUS
370
-3
390
F
  0
LAYER
  5
209
100
AcDbSymbolTableRecord
100
AcDbLayerTableRecord
  2
16_MISC
 70
0
 62
7
  6
CONTINUOUS
370
-3
390
F
  0
LAYER
  5
20A
100
AcDbSymbolTableRecord
100
AcDbLayerTableRecord
  2
17_NO_PRINT
 70
0
 62
7
  6
CONTINUOUS
370
-3
390
F
  0
LAYER
  5
20B
100
AcDbSymbolTableRecord
100
AcDbLayerTableRecord
  2
18_DATUM_CAMS_JOINTS
 70
0
 62
7
  6
CONTINUOUS
370
-3
390
F
  0
LAYER
  5
20C
100
AcDbSymbolTableRecord
100
AcDbLayerTableRecord
  2
19_DATUM_FUNCTIONAL
 70
0
 62
7
  6
CONTINUOUS
370
-3
390
F
  0
LAYER
  5
20D
100
AcDbSymbolTableRecord
100
AcDbLayerTableRecord
  2
20_DATUM_KINEMATIC_SCHEME
 70
0
 62
7
  6
CONTINUOUS
370
-3
390
F
  0
ENDTAB
  0
TABLE
  2
STYLE
  5
3
100
AcDbSymbolTable
 70
1
  0
STYLE
  5
11
100
AcDbSymbolTableRecord
100
AcDbTextStyleTableRecord
  2
STANDARD
 70
0
 40
0.0
 41
0.8
 50
0.0
 71
0
 42
0.2
  3
txt
  4

  0
STYLE
  5
20E
100
AcDbSymbolTableRecord
100
AcDbTextStyleTableRecord
  2
TEXTSTYLE_1
 70
0
 40
0.0
 41
0.8
 50
0.0
 71
0
 42
0.2
  3
gdt
  4

  0
ENDTAB
  0
TABLE
  2
VIEW
  5
6
100
AcDbSymbolTable
 70
0
  0
ENDTAB
  0
TABLE
  2
UCS
  5
7
100
AcDbSymbolTable
 70
0
  0
ENDTAB
  0
TABLE
  2
APPID
  5
9
100
AcDbSymbolTable
 70
1
  0
APPID
  5
20F
100
AcDbSymbolTableRecord
100
AcDbRegAppTableRecord
  2
ACAD
 70
0
  0
ENDTAB
  0
TABLE
  2
BLOCK_RECORD
  5
1
100
AcDbSymbolTable
 70
0
  0
BLOCK_RECORD
  5
210
100
AcDbSymbolTableRecord
100
AcDbBlockTableRecord
  2
*Model_Space
  0
BLOCK_RECORD
  5
211
100
AcDbSymbolTableRecord
100
AcDbBlockTableRecord
  2
*Paper_Space
  0
BLOCK_RECORD
  5
212
100
AcDbSymbolTableRecord
100
AcDbBlockTableRecord
  2
_FILLED
  0
ENDTAB
  0
TABLE
  2
DIMSTYLE
  5
A
100
AcDbSymbolTable
 70
1
100
AcDbDimStyleTable
 71
0
  0
DIMSTYLE
105
213
100
AcDbSymbolTableRecord
100
AcDbDimStyleTableRecord
  2
STANDARD
 70
0
  3

  4

 40
1.0
 41
8.390366996
 42
1.0
 43
0.38
 44
1.0
 45
0.0
 46
0.0
 47
0.01
 48
0.01
140
11.7465137944
141
0.09
142
0.0
143
25.4
144
1.0
145
0.0
146
1.0
147
0.625
 71
1
 72
0
 73
0
 74
0
 75
0
 76
0
 77
1
 78
8
 79
2
170
0
171
1
172
0
173
0
174
0
175
0
176
0
177
0
178
0
270
2
179
2
271
2
272
2
273
2
274
2
275
0
280
0
281
0
282
0
283
1
284
8
285
0
286
0
287
3
288
0
340
11
278
46
341
212
342
212
343
212
344
212
  0
ENDTAB
  0
ENDSEC
  0
SECTION
  2
BLOCKS
  0
BLOCK
  5
20
100
AcDbEntity
  8
0
100
AcDbBlockBegin
  2
*Model_Space
 70
0
 10
0.0
 20
0.0
 30
0.0
  3
*Model_Space
  1

  0
ENDBLK
  5
21
100
AcDbEntity
  8
0
100
AcDbBlockEnd
  0
BLOCK
  5
1C
100
AcDbEntity
  8
0
100
AcDbBlockBegin
  2
*Paper_Space
 70
0
 10
0.0
 20
0.0
 30
0.0
  3
*Paper_Space
  1

  0
ENDBLK
  5
1D
100
AcDbEntity
  8
0
100
AcDbBlockEnd
  0
BLOCK
  5
214
100
AcDbEntity
  8
0
100
AcDbBlockBegin
  2
_FILLED
 70
64
 10
0.0
 20
0.0
  3
_FILLED
  1

  0
SOLID
  5
215
100
AcDbEntity
  8
0
  6
BYBLOCK
 62
0
100
AcDbTrace
 10
0.0
 20
0.0
 11
-1.0
 21
0.25
 12
-1.0
 22
-0.25
 13
-1.0
 23
-0.25
  0
ENDBLK
  5
216
100
AcDbEntity
  8
0
  6
BYBLOCK
 62
0
100
AcDbBlockEnd
  0
ENDSEC
  0
SECTION
  2
ENTITIES
  0
LINE
  5
217
100
AcDbEntity
  8
0
100
AcDbLine
 62
7
  6
CONTINUOUS
 10
82.1557624172
 20
350.3256754007
 11
82.1557624172
 21
374.418721547
  0
LINE
  5
218
100
AcDbEntity
  8
0
100
AcDbLine
 62
7
  6
CONTINUOUS
 10
90.5557624172
 20
620.8029220935
 11
90.5557624172
 21
626.648428708
  0
LINE
  5
219
100
AcDbEntity
  8
0
100
AcDbLine
 62
7
  6
CONTINUOUS
 10
90.8489562171
 20
620.5004647631
 11
90.8489562171
 21
626.9508860383
  0
LINE
  5
21A
100
AcDbEntity
  8
0
100
AcDbLine
 62
7
  6
CONTINUOUS
 10
91.3557624172
 20
620.4642574305
 11
91.3557624172
 21
620.4888759207
  0
LINE
  5
21B
100
AcDbEntity
  8
0
100
AcDbLine
 62
7
  6
CONTINUOUS
 10
91.3557624172
 20
626.9624748808
 11
91.3557624172
 21
626.987093371
  0
LINE
  5
21C
100
AcDbEntity
  8
0
100
AcDbLine
 62
7
  6
CONTINUOUS
 10
93.0557624172
 20
627.0256717653
 11
93.0557624172
 21
620.4256790361
  0
LINE
  5
21D
100
AcDbEntity
  8
0
100
AcDbLine
 62
7
  6
CONTINUOUS
 10
93.8557624172
 20
620.2257216496
 11
93.8557624172
 21
627.2256291518
  0
LINE
  5
21E
100
AcDbEntity
  8
0
100
AcDbLine
 62
7
  6
CONTINUOUS
 10
94.6557624172
 20
627.2256291518
 11
94.6557624172
 21
620.2257216496
  0
LINE
  5
21F
100
AcDbEntity
  8
0
100
AcDbLine
 62
7
  6
CONTINUOUS
 10
95.8557624172
 20
620.5556754007
 11
95.8557624172
 21
626.8956754007
  0
LINE
  5
220
100
AcDbEntity
  8
0
100
AcDbLine
 62
7
  6
CONTINUOUS
 10
96.0557624172
 20
598.2256754007
 11
96.0557624172
 21
641.4256752495
  0
LINE
  5
221
100
AcDbEntity
  8
0
100
AcDbLine
 62
7
  6
CONTINUOUS
 10
97.5557624172
 20
598.2256754007
 11
97.5557624172
 21
641.4256752495
  0
LINE
  5
222
100
AcDbEntity
  8
0
100
AcDbLine
 62
7
  6
CONTINUOUS
 10
98.3441870747
 20
620.4372507432
 11
98.3441870747
 21
627.0141000583
  0
LINE
  5
223
100
AcDbEntity
  8
0
100
AcDbLine
 62
7
  6
CONTINUOUS
 10
99.5557624172
 20
618.7256754007
 11
99.5557624172
 21
627.2256754007
  0
LINE
  5
224
100
AcDbEntity
  8
0
100
AcDbLine
 62
7
  6
CONTINUOUS
 10
101.0557624172
 20
618.7256754007
 11
101.0557624172
 21
627.2256754007
  0
LINE
  5
225
100
AcDbEntity
  8
0
100
AcDbLine
 62
7
  6
CONTINUOUS
 10
101.8557624172
 20
627.2256754007
 11
101.8557624172
 21
619.0757152832
  0
LINE
  5
226
100
AcDbEntity
  8
0
100
AcDbLine
 62
7
  6
CONTINUOUS
 10
102.6557624172
 20
625.7256754007
 11
102.6557624172
 21
621.7256754007
  0
LINE
  5
227
100
AcDbEntity
  8
0
100
AcDbLine
 62
7
  6
CONTINUOUS
 10
103.0557624172
 20
625.3256337042
 11
103.0557624172
 21
622.1257170973
  0
LINE
  5
228
100
AcDbEntity
  8
0
100
AcDbLine
 62
7
  6
CONTINUOUS
 10
114.2307386216
 20
616.0783643676
 11
114.2711028012
 21
616.2256754007
  0
LINE
  5
229
100
AcDbEntity
  8
0
100
AcDbLine
 62
7
  6
CONTINUOUS
 10
103.0557624172
 20
622.1256754007
 11
102.6557624172
 21
621.7256754007
  0
LINE
  5
22A
100
AcDbEntity
  8
0
100
AcDbLine
 62
7
  6
CONTINUOUS
 10
114.230012329
 20
615.3756754007
 11
114.1891844036
 21
615.3354830219
  0
LINE
  5
22B
100
AcDbEntity
  8
0
100
AcDbLine
 62
7
  6
CONTINUOUS
 10
115.0078497833
 20
613.6256754007
 11
115.0078497833
 21
610.6802208553
  0
LINE
  5
22C
100
AcDbEntity
  8
0
100
AcDbLine
 62
7
  6
CONTINUOUS
 10
115.0078497833
 20
475.9256754007
 11
115.0078497833
 21
472.9802208553
  0
LINE
  5
22D
100
AcDbEntity
  8
0
100
AcDbLine
 62
7
  6
CONTINUOUS
 10
115.0078497833
 20
456.9256754007
 11
115.0078497833
 21
453.9802208553
  0
LINE
  5
22E
100
AcDbEntity
  8
0
100
AcDbLine
 62
7
  6
CONTINUOUS
 10
115.0078497833
 20
458.1256754007
 11
115.0078497833
 21
461.0711299462
  0
LINE
  5
22F
100
AcDbEntity
  8
0
100
AcDbLine
 62
7
  6
CONTINUOUS
 10
115.0078497833
 20
477.1256754007
 11
115.0078497833
 21
480.0711299462
  0
LINE
  5
230
100
AcDbEntity
  8
0
100
AcDbLine
 62
7
  6
CONTINUOUS
 10
115.0078497833
 20
614.8256754007
 11
115.0078497833
 21
617.7711299462
  0
LINE
  5
231
100
AcDbEntity
  8
0
100
AcDbLine
 62
7
  6
CONTINUOUS
 10
115.0557624172
 20
456.9256754007
 11
115.0557624172
 21
458.1256754007
  0
LINE
  5
232
100
AcDbEntity
  8
0
100
AcDbLine
 62
7
  6
CONTINUOUS
 10
115.0557624172
 20
475.9256754007
 11
115.0557624172
 21
477.1256754007
  0
LINE
  5
233
100
AcDbEntity
  8
0
100
AcDbLine
 62
7
  6
CONTINUOUS
 10
115.0557624172
 20
613.6256754007
 11
115.0557624172
 21
614.8256754007
  0
LINE
  5
234
100
AcDbEntity
  8
0
100
AcDbLine
 62
7
  6
CONTINUOUS
 10
115.8459901886
 20
453.5256754007
 11
115.8459901886
 21
461.5256754007
  0
LINE
  5
235
100
AcDbEntity
  8
0
100
AcDbLine
 62
7
  6
CONTINUOUS
 10
115.8459901886
 20
472.5256754007
 11
115.8459901886
 21
480.5256754007
  0
LINE
  5
236
100
AcDbEntity
  8
0
100
AcDbLine
 62
7
  6
CONTINUOUS
 10
115.8459901886
 20
610.2256754007
 11
115.8459901886
 21
618.2256754007
  0
LINE
  5
237
100
AcDbEntity
  8
0
100
AcDbLine
 62
7
  6
CONTINUOUS
 10
116.0557624172
 20
643.4256754007
 11
116.0557624172
 21
643.2256754007
  0
LINE
  5
238
100
AcDbEntity
  8
0
100
AcDbLine
 62
7
  6
CONTINUOUS
 10
117.0557624172
 20
643.5256754007
 11
117.0557624172
 21
643.4256754007
  0
LINE
  5
239
100
AcDbEntity
  8
0
100
AcDbLine
 62
7
  6
CONTINUOUS
 10
117.0557624172
 20
627.2256754007
 11
117.0557624172
 21
384.6908982702
  0
LINE
  5
23A
100
AcDbEntity
  8
0
100
AcDbLine
 62
7
  6
CONTINUOUS
 10
118.5557624172
 20
387.5256754007
 11
118.5557624172
 21
384.9553887413
  0
LINE
  5
23B
100
AcDbEntity
  8
0
100
AcDbLine
 62
7
  6
CONTINUOUS
 10
118.8557624172
 20
387.5256754007
 11
118.8557624172
 21
627.2256754007
  0
LINE
  5
23C
100
AcDbEntity
  8
0
100
AcDbLine
 62
7
  6
CONTINUOUS
 10
120.6557624172
 20
385.3256754007
 11
120.6557624172
 21
387.5256754007
  0
LINE
  5
23D
100
AcDbEntity
  8
0
100
AcDbLine
 62
7
  6
CONTINUOUS
 10
125.0557624172
 20
643.5256754007
 11
125.0557624172
 21
643.4256754007
  0
LINE
  5
23E
100
AcDbEntity
  8
0
100
AcDbLine
 62
7
  6
CONTINUOUS
 10
126.0557624172
 20
643.4256754007
 11
126.0557624172
 21
643.2256754007
  0
LINE
  5
23F
100
AcDbEntity
  8
0
100
AcDbLine
 62
7
  6
CONTINUOUS
 10
127.0557624172
 20
390.5256754007
 11
127.0557624172
 21
627.2256754007
  0
LINE
  5
240
100
AcDbEntity
  8
0
100
AcDbLine
 62
7
  6
CONTINUOUS
 10
114.2306951916
 20
478.3782032945
 11
114.2711028012
 21
478.5256754007
  0
LINE
  5
241
100
AcDbEntity
  8
0
100
AcDbLine
 62
7
  6
CONTINUOUS
 10
114.2711028012
 20
455.5256754007
 11
114.2306951916
 21
455.6731475069
  0
LINE
  5
242
100
AcDbEntity
  8
0
100
AcDbLine
 62
7
  6
CONTINUOUS
 10
114.2711028012
 20
474.5256754007
 11
114.2306951916
 21
474.6731475069
  0
LINE
  5
243
100
AcDbEntity
  8
0
100
AcDbLine
 62
7
  6
CONTINUOUS
 10
132.4057624172
 20
643.2256754007
 11
132.4057624172
 21
644.6256754007
  0
LINE
  5
244
100
AcDbEntity
  8
0
100
AcDbLine
 62
7
  6
CONTINUOUS
 10
133.4057624172
 20
645.2256754007
 11
133.4057624172
 21
646.9208659291
  0
LINE
  5
245
100
AcDbEntity
  8
0
100
AcDbLine
 62
7
  6
CONTINUOUS
 10
134.0057624172
 20
645.2256754007
 11
134.0057624172
 21
644.6256754007
  0
LINE
  5
246
100
AcDbEntity
  8
0
100
AcDbLine
 62
7
  6
CONTINUOUS
 10
135.8057624172
 20
648.5943650879
 11
135.8057624172
 21
648.5793540184
  0
LINE
  5
247
100
AcDbEntity
  8
0
100
AcDbLine
 62
7
  6
CONTINUOUS
 10
137.5557624172
 20
647.8256754007
 11
137.5557624172
 21
648.8900108738
  0
LINE
  5
248
100
AcDbEntity
  8
0
100
AcDbLine
 62
7
  6
CONTINUOUS
 10
138.7557624172
 20
647.8256754007
 11
138.7557624172
 21
648.8900108738
  0
LINE
  5
249
100
AcDbEntity
  8
0
100
AcDbLine
 62
7
  6
CONTINUOUS
 10
140.5057624172
 20
648.5793540184
 11
140.5057624172
 21
648.5943650878
  0
LINE
  5
24A
100
AcDbEntity
  8
0
100
AcDbLine
 62
7
  6
CONTINUOUS
 10
142.3057624172
 20
644.6256754007
 11
142.3057624172
 21
645.2256754007
  0
LINE
  5
24B
100
AcDbEntity
  8
0
100
AcDbLine
 62
7
  6
CONTINUOUS
 10
142.9057624172
 20
645.2256754007
 11
142.9057624172
 21
646.9208659291
  0
LINE
  5
24C
100
AcDbEntity
  8
0
100
AcDbLine
 62
7
  6
CONTINUOUS
 10
143.9057624172
 20
643.2256754007
 11
143.9057624172
 21
644.6256754007
  0
LINE
  5
24D
100
AcDbEntity
  8
0
100
AcDbLine
 62
7
  6
CONTINUOUS
 10
114.2307386216
 20
459.3783643676
 11
114.2711028012
 21
459.5256754007
  0
LINE
  5
24E
100
AcDbEntity
  8
0
100
AcDbLine
 62
7
  6
CONTINUOUS
 10
114.2711028012
 20
612.2256754007
 11
114.2306951916
 21
612.3731475069
  0
LINE
  5
24F
100
AcDbEntity
  8
0
100
AcDbLine
 62
7
  6
CONTINUOUS
 10
114.1891844036
 20
456.4158677796
 11
114.2300098508
 21
456.3756754007
  0
LINE
  5
250
100
AcDbEntity
  8
0
100
AcDbLine
 62
7
  6
CONTINUOUS
 10
114.1891844036
 20
475.4158677796
 11
114.2300098508
 21
475.3756754007
  0
LINE
  5
251
100
AcDbEntity
  8
0
100
AcDbLine
 62
7
  6
CONTINUOUS
 10
114.230012329
 20
477.6756754007
 11
114.1891844036
 21
477.6354830219
  0
LINE
  5
252
100
AcDbEntity
  8
0
100
AcDbLine
 62
7
  6
CONTINUOUS
 10
82.1557624172
 20
350.3256754007
 11
642.1557624172
 21
350.3256754007
  0
LINE
  5
253
100
AcDbEntity
  8
0
100
AcDbLine
 62
7
  6
CONTINUOUS
 10
642.1557624172
 20
352.6256754007
 11
82.1557624172
 21
352.6256754007
  0
LINE
  5
254
100
AcDbEntity
  8
0
100
AcDbLine
 62
7
  6
CONTINUOUS
 10
114.230012329
 20
458.6756754007
 11
114.1891844036
 21
458.6354830219
  0
LINE
  5
255
100
AcDbEntity
  8
0
100
AcDbLine
 62
7
  6
CONTINUOUS
 10
87.1557624172
 20
379.418721547
 11
82.1557624172
 21
374.418721547
  0
LINE
  5
256
100
AcDbEntity
  8
0
100
AcDbLine
 62
7
  6
CONTINUOUS
 10
124.0557624172
 20
387.5256754007
 11
117.0557624172
 21
387.5256754007
  0
LINE
  5
257
100
AcDbEntity
  8
0
100
AcDbLine
 62
7
  6
CONTINUOUS
 10
276.0557624172
 20
643.4256754007
 11
276.0557624172
 21
643.2256754007
  0
LINE
  5
258
100
AcDbEntity
  8
0
100
AcDbLine
 62
7
  6
CONTINUOUS
 10
124.0557624172
 20
387.5256754007
 11
127.0557624172
 21
390.5256754007
  0
LINE
  5
259
100
AcDbEntity
  8
0
100
AcDbLine
 62
7
  6
CONTINUOUS
 10
114.1891844036
 20
613.1158677796
 11
114.2300098508
 21
613.0756754007
  0
LINE
  5
25A
100
AcDbEntity
  8
0
100
AcDbLine
 62
7
  6
CONTINUOUS
 10
103.0557624172
 20
625.3256754007
 11
102.6557624172
 21
625.7256754007
  0
LINE
  5
25B
100
AcDbEntity
  8
0
100
AcDbLine
 62
7
  6
CONTINUOUS
 10
294.0557624172
 20
643.4256754007
 11
294.0557624172
 21
643.2256754007
  0
LINE
  5
25C
100
AcDbEntity
  8
0
100
AcDbLine
 62
7
  6
CONTINUOUS
 10
120.6557624172
 20
385.3256754007
 11
87.1557624172
 21
379.418721547
  0
LINE
  5
25D
100
AcDbEntity
  8
0
100
AcDbLine
 62
7
  6
CONTINUOUS
 10
637.1557624172
 20
380.3003564506
 11
608.6557624172
 21
385.3256754007
  0
LINE
  5
25E
100
AcDbEntity
  8
0
100
AcDbLine
 62
7
  6
CONTINUOUS
 10
127.0557624172
 20
444.2256754007
 11
608.6557624172
 21
444.2256754007
  0
LINE
  5
25F
100
AcDbEntity
  8
0
100
AcDbLine
 62
7
  6
CONTINUOUS
 10
608.6557624172
 20
446.5256754007
 11
127.0557624172
 21
446.5256754007
  0
LINE
  5
260
100
AcDbEntity
  8
0
100
AcDbLine
 62
7
  6
CONTINUOUS
 10
610.1557624172
 20
447.0256754007
 11
611.7557624172
 21
447.0256754007
  0
LINE
  5
261
100
AcDbEntity
  8
0
100
AcDbLine
 62
7
  6
CONTINUOUS
 10
611.7557624172
 20
447.5256754007
 11
614.1557624172
 21
447.5256754007
  0
LINE
  5
262
100
AcDbEntity
  8
0
100
AcDbLine
 62
7
  6
CONTINUOUS
 10
614.1557624172
 20
452.5256754007
 11
615.1557624172
 21
452.5256754007
  0
LINE
  5
263
100
AcDbEntity
  8
0
100
AcDbLine
 62
7
  6
CONTINUOUS
 10
616.9557624172
 20
453.2756754007
 11
620.4557624172
 21
453.2756754007
  0
LINE
  5
264
100
AcDbEntity
  8
0
100
AcDbLine
 62
7
  6
CONTINUOUS
 10
615.1557624172
 20
453.3832123653
 11
616.9557624172
 21
453.3832123653
  0
LINE
  5
265
100
AcDbEntity
  8
0
100
AcDbLine
 62
7
  6
CONTINUOUS
 10
117.0557624172
 20
453.5256754007
 11
115.8459901886
 21
453.5256754007
  0
LINE
  5
266
100
AcDbEntity
  8
0
100
AcDbLine
 62
7
  6
CONTINUOUS
 10
611.7557624172
 20
455.0256754007
 11
610.1557624172
 21
455.0256754007
  0
LINE
  5
267
100
AcDbEntity
  8
0
100
AcDbLine
 62
7
  6
CONTINUOUS
 10
614.1557624172
 20
455.5256754007
 11
611.1557624172
 21
455.5256754007
  0
LINE
  5
268
100
AcDbEntity
  8
0
100
AcDbLine
 62
7
  6
CONTINUOUS
 10
610.1557624172
 20
456.0256754007
 11
127.0557624172
 21
456.0256754007
  0
LINE
  5
269
100
AcDbEntity
  8
0
100
AcDbLine
 62
7
  6
CONTINUOUS
 10
114.1891844036
 20
456.4158677796
 11
114.2596467534
 21
456.4158677796
  0
LINE
  5
26A
100
AcDbEntity
  8
0
100
AcDbLine
 62
7
  6
CONTINUOUS
 10
114.1115283878
 20
456.5071708584
 11
114.2692688716
 21
456.5071708584
  0
LINE
  5
26B
100
AcDbEntity
  8
0
100
AcDbLine
 62
7
  6
CONTINUOUS
 10
114.1942360717
 20
456.9256754007
 11
115.0557624172
 21
456.9256754007
  0
LINE
  5
26C
100
AcDbEntity
  8
0
100
AcDbLine
 62
7
  6
CONTINUOUS
 10
115.0557624172
 20
458.1256754007
 11
114.1942360717
 21
458.1256754007
  0
LINE
  5
26D
100
AcDbEntity
  8
0
100
AcDbLine
 62
7
  6
CONTINUOUS
 10
114.2692656444
 20
458.5441799431
 11
114.1115276199
 21
458.5441799431
  0
LINE
  5
26E
100
AcDbEntity
  8
0
100
AcDbLine
 62
7
  6
CONTINUOUS
 10
114.1891844036
 20
458.6354830219
 11
114.2596978365
 21
458.6354830219
  0
LINE
  5
26F
100
AcDbEntity
  8
0
100
AcDbLine
 62
7
  6
CONTINUOUS
 10
117.0557624172
 20
461.5256754007
 11
115.8459901886
 21
461.5256754007
  0
LINE
  5
270
100
AcDbEntity
  8
0
100
AcDbLine
 62
7
  6
CONTINUOUS
 10
615.1557624172
 20
461.6756754007
 11
616.9557624172
 21
461.6756754007
  0
LINE
  5
271
100
AcDbEntity
  8
0
100
AcDbLine
 62
7
  6
CONTINUOUS
 10
616.9557624172
 20
461.7756754007
 11
620.4557624172
 21
461.7756754007
  0
LINE
  5
272
100
AcDbEntity
  8
0
100
AcDbLine
 62
7
  6
CONTINUOUS
 10
614.1557624172
 20
462.5256754007
 11
615.1557624172
 21
462.5256754007
  0
LINE
  5
273
100
AcDbEntity
  8
0
100
AcDbLine
 62
7
  6
CONTINUOUS
 10
117.0557624172
 20
472.5256754007
 11
115.8459901886
 21
472.5256754007
  0
LINE
  5
274
100
AcDbEntity
  8
0
100
AcDbLine
 62
7
  6
CONTINUOUS
 10
114.1891844036
 20
475.4158677796
 11
114.2596467534
 21
475.4158677796
  0
LINE
  5
275
100
AcDbEntity
  8
0
100
AcDbLine
 62
7
  6
CONTINUOUS
 10
114.1115283878
 20
475.5071708584
 11
114.2692688716
 21
475.5071708584
  0
LINE
  5
276
100
AcDbEntity
  8
0
100
AcDbLine
 62
7
  6
CONTINUOUS
 10
114.1942360717
 20
475.9256754007
 11
115.0557624172
 21
475.9256754007
  0
LINE
  5
277
100
AcDbEntity
  8
0
100
AcDbLine
 62
7
  6
CONTINUOUS
 10
614.1557624172
 20
476.5256754007
 11
615.1557624172
 21
476.5256754007
  0
LINE
  5
278
100
AcDbEntity
  8
0
100
AcDbLine
 62
7
  6
CONTINUOUS
 10
115.0557624172
 20
477.1256754007
 11
114.1942360717
 21
477.1256754007
  0
LINE
  5
279
100
AcDbEntity
  8
0
100
AcDbLine
 62
7
  6
CONTINUOUS
 10
616.9557624172
 20
477.2756754007
 11
620.4557624172
 21
477.2756754007
  0
LINE
  5
27A
100
AcDbEntity
  8
0
100
AcDbLine
 62
7
  6
CONTINUOUS
 10
615.1557624172
 20
477.3832123653
 11
616.9557624172
 21
477.3832123653
  0
LINE
  5
27B
100
AcDbEntity
  8
0
100
AcDbLine
 62
7
  6
CONTINUOUS
 10
114.2692656444
 20
477.5441799431
 11
114.1115276199
 21
477.5441799431
  0
LINE
  5
27C
100
AcDbEntity
  8
0
100
AcDbLine
 62
7
  6
CONTINUOUS
 10
114.1891844036
 20
477.6354830219
 11
114.2596978365
 21
477.6354830219
  0
LINE
  5
27D
100
AcDbEntity
  8
0
100
AcDbLine
 62
7
  6
CONTINUOUS
 10
117.0557624172
 20
480.5256754007
 11
115.8459901886
 21
480.5256754007
  0
LINE
  5
27E
100
AcDbEntity
  8
0
100
AcDbLine
 62
7
  6
CONTINUOUS
 10
360.9057624172
 20
643.2256754007
 11
360.9057624172
 21
644.6256754007
  0
LINE
  5
27F
100
AcDbEntity
  8
0
100
AcDbLine
 62
7
  6
CONTINUOUS
 10
361.9057624172
 20
645.2256754007
 11
361.9057624172
 21
646.9208659291
  0
LINE
  5
280
100
AcDbEntity
  8
0
100
AcDbLine
 62
7
  6
CONTINUOUS
 10
362.5057624172
 20
645.2256754007
 11
362.5057624172
 21
644.6256754007
  0
LINE
  5
281
100
AcDbEntity
  8
0
100
AcDbLine
 62
7
  6
CONTINUOUS
 10
364.3057624172
 20
648.5943650879
 11
364.3057624172
 21
648.5793540184
  0
LINE
  5
282
100
AcDbEntity
  8
0
100
AcDbLine
 62
7
  6
CONTINUOUS
 10
629.1557624172
 20
620.9556754007
 11
628.1557624172
 21
620.5556754007
  0
LINE
  5
283
100
AcDbEntity
  8
0
100
AcDbLine
 62
7
  6
CONTINUOUS
 10
615.1557624172
 20
485.6756754007
 11
616.9557624172
 21
485.6756754007
  0
LINE
  5
284
100
AcDbEntity
  8
0
100
AcDbLine
 62
7
  6
CONTINUOUS
 10
616.9557624172
 20
485.7756754007
 11
620.4557624172
 21
485.7756754007
  0
LINE
  5
285
100
AcDbEntity
  8
0
100
AcDbLine
 62
7
  6
CONTINUOUS
 10
614.1557624172
 20
486.5256754007
 11
615.1557624172
 21
486.5256754007
  0
LINE
  5
286
100
AcDbEntity
  8
0
100
AcDbLine
 62
7
  6
CONTINUOUS
 10
366.0557624172
 20
647.8256754007
 11
366.0557624172
 21
648.8900108738
  0
LINE
  5
287
100
AcDbEntity
  8
0
100
AcDbLine
 62
7
  6
CONTINUOUS
 10
367.2557624172
 20
647.8256754007
 11
367.2557624172
 21
648.8900108738
  0
LINE
  5
288
100
AcDbEntity
  8
0
100
AcDbLine
 62
7
  6
CONTINUOUS
 10
369.0057624172
 20
648.5793540184
 11
369.0057624172
 21
648.5943650878
  0
LINE
  5
289
100
AcDbEntity
  8
0
100
AcDbLine
 62
7
  6
CONTINUOUS
 10
370.8057624172
 20
644.6256754007
 11
370.8057624172
 21
645.2256754007
  0
LINE
  5
28A
100
AcDbEntity
  8
0
100
AcDbLine
 62
7
  6
CONTINUOUS
 10
371.4057624172
 20
645.2256754007
 11
371.4057624172
 21
646.9208659291
  0
LINE
  5
28B
100
AcDbEntity
  8
0
100
AcDbLine
 62
7
  6
CONTINUOUS
 10
372.4057624172
 20
643.2256754007
 11
372.4057624172
 21
644.6256754007
  0
LINE
  5
28C
100
AcDbEntity
  8
0
100
AcDbLine
 62
7
  6
CONTINUOUS
 10
379.3557624172
 20
643.2256754007
 11
379.3557624172
 21
643.4256754007
  0
LINE
  5
28D
100
AcDbEntity
  8
0
100
AcDbLine
 62
7
  6
CONTINUOUS
 10
615.4460831507
 20
592.7256754007
 11
616.6557624172
 21
593.3156754007
  0
LINE
  5
28E
100
AcDbEntity
  8
0
100
AcDbLine
 62
7
  6
CONTINUOUS
 10
615.3557624172
 20
564.5256754007
 11
614.1557624172
 21
564.5256754007
  0
LINE
  5
28F
100
AcDbEntity
  8
0
100
AcDbLine
 62
7
  6
CONTINUOUS
 10
619.3557624172
 20
565.1217106097
 11
615.3557624172
 21
565.1217106097
  0
LINE
  5
290
100
AcDbEntity
  8
0
100
AcDbLine
 62
7
  6
CONTINUOUS
 10
94.6557624172
 20
620.8556754007
 11
95.8557624172
 21
620.5556754007
  0
LINE
  5
291
100
AcDbEntity
  8
0
100
AcDbLine
 62
7
  6
CONTINUOUS
 10
432.3557624172
 20
643.2256754007
 11
432.3557624172
 21
643.4256754007
  0
LINE
  5
292
100
AcDbEntity
  8
0
100
AcDbLine
 62
7
  6
CONTINUOUS
 10
619.3557624172
 20
569.4751575199
 11
615.3557624172
 21
569.4751575199
  0
LINE
  5
293
100
AcDbEntity
  8
0
100
AcDbLine
 62
7
  6
CONTINUOUS
 10
619.3557624172
 20
571.1722284905
 11
615.3557624172
 21
571.1722284905
  0
LINE
  5
294
100
AcDbEntity
  8
0
100
AcDbLine
 62
7
  6
CONTINUOUS
 10
619.3557624172
 20
579.8791223109
 11
615.3557624172
 21
579.8791223109
  0
LINE
  5
295
100
AcDbEntity
  8
0
100
AcDbLine
 62
7
  6
CONTINUOUS
 10
619.3557624172
 20
581.5761932816
 11
615.3557624172
 21
581.5761932816
  0
LINE
  5
296
100
AcDbEntity
  8
0
100
AcDbLine
 62
7
  6
CONTINUOUS
 10
619.3557624172
 20
585.9296401918
 11
615.3557624172
 21
585.9296401918
  0
LINE
  5
297
100
AcDbEntity
  8
0
100
AcDbLine
 62
7
  6
CONTINUOUS
 10
615.3557624172
 20
586.5256754007
 11
614.1557624172
 21
586.5256754007
  0
LINE
  5
298
100
AcDbEntity
  8
0
100
AcDbLine
 62
7
  6
CONTINUOUS
 10
614.1557624172
 20
592.7256754007
 11
615.4460831507
 21
592.7256754007
  0
LINE
  5
299
100
AcDbEntity
  8
0
100
AcDbLine
 62
7
  6
CONTINUOUS
 10
615.4460831507
 20
596.7256754007
 11
614.1557624172
 21
596.7256754007
  0
LINE
  5
29A
100
AcDbEntity
  8
0
100
AcDbLine
 62
7
  6
CONTINUOUS
 10
96.0557624172
 20
598.2256754007
 11
97.5557624172
 21
598.2256754007
  0
LINE
  5
29B
100
AcDbEntity
  8
0
100
AcDbLine
 62
7
  6
CONTINUOUS
 10
624.2557624172
 20
598.2256754007
 11
625.7557624172
 21
598.2256754007
  0
LINE
  5
29C
100
AcDbEntity
  8
0
100
AcDbLine
 62
7
  6
CONTINUOUS
 10
624.2557624172
 20
601.2256754007
 11
625.7557624172
 21
601.2256754007
  0
LINE
  5
29D
100
AcDbEntity
  8
0
100
AcDbLine
 62
7
  6
CONTINUOUS
 10
96.0557624172
 20
603.2256754007
 11
97.5557624172
 21
603.2256754007
  0
LINE
  5
29E
100
AcDbEntity
  8
0
100
AcDbLine
 62
7
  6
CONTINUOUS
 10
614.1557624172
 20
604.7256754007
 11
615.1557624172
 21
604.7256754007
  0
LINE
  5
29F
100
AcDbEntity
  8
0
100
AcDbLine
 62
7
  6
CONTINUOUS
 10
616.9557624172
 20
605.4756754007
 11
620.4557624172
 21
605.4756754007
  0
LINE
  5
2A0
100
AcDbEntity
  8
0
100
AcDbLine
 62
7
  6
CONTINUOUS
 10
615.1557624172
 20
605.5832123653
 11
616.9557624172
 21
605.5832123653
  0
LINE
  5
2A1
100
AcDbEntity
  8
0
100
AcDbLine
 62
7
  6
CONTINUOUS
 10
117.0557624172
 20
610.2256754007
 11
115.8459901886
 21
610.2256754007
  0
LINE
  5
2A2
100
AcDbEntity
  8
0
100
AcDbLine
 62
7
  6
CONTINUOUS
 10
114.1891844036
 20
613.1158677796
 11
114.2596467534
 21
613.1158677796
  0
LINE
  5
2A3
100
AcDbEntity
  8
0
100
AcDbLine
 62
7
  6
CONTINUOUS
 10
114.1115283878
 20
613.2071708584
 11
114.2692688716
 21
613.2071708584
  0
LINE
  5
2A4
100
AcDbEntity
  8
0
100
AcDbLine
 62
7
  6
CONTINUOUS
 10
114.1942360717
 20
613.6256754007
 11
115.0557624172
 21
613.6256754007
  0
LINE
  5
2A5
100
AcDbEntity
  8
0
100
AcDbLine
 62
7
  6
CONTINUOUS
 10
615.1557624172
 20
613.8756754007
 11
616.9557624172
 21
613.8756754007
  0
LINE
  5
2A6
100
AcDbEntity
  8
0
100
AcDbLine
 62
7
  6
CONTINUOUS
 10
616.9557624172
 20
613.9756754007
 11
620.4557624172
 21
613.9756754007
  0
LINE
  5
2A7
100
AcDbEntity
  8
0
100
AcDbLine
 62
7
  6
CONTINUOUS
 10
614.1557624172
 20
614.7256754007
 11
615.1557624172
 21
614.7256754007
  0
LINE
  5
2A8
100
AcDbEntity
  8
0
100
AcDbLine
 62
7
  6
CONTINUOUS
 10
115.0557624172
 20
614.8256754007
 11
114.1942360717
 21
614.8256754007
  0
LINE
  5
2A9
100
AcDbEntity
  8
0
100
AcDbLine
 62
7
  6
CONTINUOUS
 10
114.2692656444
 20
615.2441799431
 11
114.1115276199
 21
615.2441799431
  0
LINE
  5
2AA
100
AcDbEntity
  8
0
100
AcDbLine
 62
7
  6
CONTINUOUS
 10
114.1891844036
 20
615.3354830219
 11
114.2596978365
 21
615.3354830219
  0
LINE
  5
2AB
100
AcDbEntity
  8
0
100
AcDbLine
 62
7
  6
CONTINUOUS
 10
624.2557624172
 20
615.9256754007
 11
625.7557624172
 21
615.9256754007
  0
LINE
  5
2AC
100
AcDbEntity
  8
0
100
AcDbLine
 62
7
  6
CONTINUOUS
 10
611.1557624172
 20
617.9756754007
 11
614.1557624172
 21
617.9756754007
  0
LINE
  5
2AD
100
AcDbEntity
  8
0
100
AcDbLine
 62
7
  6
CONTINUOUS
 10
117.0557624172
 20
618.2256754007
 11
115.8459901886
 21
618.2256754007
  0
LINE
  5
2AE
100
AcDbEntity
  8
0
100
AcDbLine
 62
7
  6
CONTINUOUS
 10
101.0557624172
 20
618.7256754007
 11
99.5557624172
 21
618.7256754007
  0
LINE
  5
2AF
100
AcDbEntity
  8
0
100
AcDbLine
 62
7
  6
CONTINUOUS
 10
101.0557624172
 20
619.0756754007
 11
101.8557624172
 21
619.0756754007
  0
LINE
  5
2B0
100
AcDbEntity
  8
0
100
AcDbLine
 62
7
  6
CONTINUOUS
 10
611.7557624172
 20
619.9756754007
 11
614.1557624172
 21
619.9756754007
  0
LINE
  5
2B1
100
AcDbEntity
  8
0
100
AcDbLine
 62
7
  6
CONTINUOUS
 10
93.8557624172
 20
620.2256754007
 11
94.6557624172
 21
620.2256754007
  0
LINE
  5
2B2
100
AcDbEntity
  8
0
100
AcDbLine
 62
7
  6
CONTINUOUS
 10
628.1557624172
 20
620.5556754007
 11
625.7557624172
 21
620.5556754007
  0
LINE
  5
2B3
100
AcDbEntity
  8
0
100
AcDbLine
 62
7
  6
CONTINUOUS
 10
624.2557624172
 20
620.5556754007
 11
611.7557624172
 21
620.5556754007
  0
LINE
  5
2B4
100
AcDbEntity
  8
0
100
AcDbLine
 62
7
  6
CONTINUOUS
 10
95.8557624172
 20
620.5556754007
 11
96.0557624172
 21
620.5556754007
  0
LINE
  5
2B5
100
AcDbEntity
  8
0
100
AcDbLine
 62
7
  6
CONTINUOUS
 10
97.5557624172
 20
620.5556754007
 11
98.3441870747
 21
620.5556754007
  0
LINE
  5
2B6
100
AcDbEntity
  8
0
100
AcDbLine
 62
7
  6
CONTINUOUS
 10
93.0557624172
 20
620.6256754007
 11
93.8557624172
 21
620.6256754007
  0
LINE
  5
2B7
100
AcDbEntity
  8
0
100
AcDbLine
 62
7
  6
CONTINUOUS
 10
102.6557624172
 20
621.7256754007
 11
101.8557624172
 21
621.7256754007
  0
LINE
  5
2B8
100
AcDbEntity
  8
0
100
AcDbLine
 62
7
  6
CONTINUOUS
 10
101.0557624172
 20
621.7256754007
 11
99.5557624172
 21
621.7256754007
  0
LINE
  5
2B9
100
AcDbEntity
  8
0
100
AcDbLine
 62
7
  6
CONTINUOUS
 10
102.6557624172
 20
625.7256754007
 11
101.8557624172
 21
625.7256754007
  0
LINE
  5
2BA
100
AcDbEntity
  8
0
100
AcDbLine
 62
7
  6
CONTINUOUS
 10
93.0557624172
 20
626.8256754007
 11
93.8557624172
 21
626.8256754007
  0
LINE
  5
2BB
100
AcDbEntity
  8
0
100
AcDbLine
 62
7
  6
CONTINUOUS
 10
628.1557624172
 20
626.8956754007
 11
625.7557624172
 21
626.8956754007
  0
LINE
  5
2BC
100
AcDbEntity
  8
0
100
AcDbLine
 62
7
  6
CONTINUOUS
 10
624.2557624172
 20
626.8956754007
 11
611.7557624172
 21
626.8956754007
  0
LINE
  5
2BD
100
AcDbEntity
  8
0
100
AcDbLine
 62
7
  6
CONTINUOUS
 10
95.8557624172
 20
626.8956754007
 11
96.0557624172
 21
626.8956754007
  0
LINE
  5
2BE
100
AcDbEntity
  8
0
100
AcDbLine
 62
7
  6
CONTINUOUS
 10
97.5557624172
 20
626.8956754007
 11
98.3441870747
 21
626.8956754007
  0
LINE
  5
2BF
100
AcDbEntity
  8
0
100
AcDbLine
 62
7
  6
CONTINUOUS
 10
93.8557624172
 20
627.2256754007
 11
94.6557624172
 21
627.2256754007
  0
LINE
  5
2C0
100
AcDbEntity
  8
0
100
AcDbLine
 62
7
  6
CONTINUOUS
 10
97.5557624172
 20
627.2256754007
 11
625.7557624172
 21
627.2256754007
  0
LINE
  5
2C1
100
AcDbEntity
  8
0
100
AcDbLine
 62
7
  6
CONTINUOUS
 10
91.3557624172
 20
620.4642537975
 11
93.0557624172
 21
620.4256754007
  0
LINE
  5
2C2
100
AcDbEntity
  8
0
100
AcDbLine
 62
7
  6
CONTINUOUS
 10
91.3557624172
 20
620.4888759207
 11
90.8489562171
 21
620.5004647631
  0
LINE
  5
2C3
100
AcDbEntity
  8
0
100
AcDbLine
 62
7
  6
CONTINUOUS
 10
642.1557624172
 20
375.3003564505
 11
637.1557624172
 21
380.3003564506
  0
LINE
  5
2C4
100
AcDbEntity
  8
0
100
AcDbLine
 62
7
  6
CONTINUOUS
 10
90.8489562171
 20
626.9508860383
 11
91.3557624172
 21
626.9624748808
  0
LINE
  5
2C5
100
AcDbEntity
  8
0
100
AcDbLine
 62
7
  6
CONTINUOUS
 10
91.3557624172
 20
626.9870970039
 11
93.0557624172
 21
627.0256754007
  0
LINE
  5
2C6
100
AcDbEntity
  8
0
100
AcDbLine
 62
7
  6
CONTINUOUS
 10
96.0557624172
 20
641.4256752495
 11
625.7557624172
 21
641.4256752496
  0
LINE
  5
2C7
100
AcDbEntity
  8
0
100
AcDbLine
 62
7
  6
CONTINUOUS
 10
623.9557624172
 20
643.2256754007
 11
97.8557624172
 21
643.2256754007
  0
LINE
  5
2C8
100
AcDbEntity
  8
0
100
AcDbLine
 62
7
  6
CONTINUOUS
 10
432.3557624172
 20
643.4256754007
 11
379.3557624172
 21
643.4256754007
  0
LINE
  5
2C9
100
AcDbEntity
  8
0
100
AcDbLine
 62
7
  6
CONTINUOUS
 10
294.0557624172
 20
643.4256754007
 11
276.0557624172
 21
643.4256754007
  0
LINE
  5
2CA
100
AcDbEntity
  8
0
100
AcDbLine
 62
7
  6
CONTINUOUS
 10
126.0557624172
 20
643.4256754007
 11
116.0557624172
 21
643.4256754007
  0
LINE
  5
2CB
100
AcDbEntity
  8
0
100
AcDbLine
 62
7
  6
CONTINUOUS
 10
117.0557624172
 20
643.5256754007
 11
125.0557624172
 21
643.5256754007
  0
LINE
  5
2CC
100
AcDbEntity
  8
0
100
AcDbLine
 62
7
  6
CONTINUOUS
 10
132.4058099846
 20
644.6256754007
 11
143.9057148498
 21
644.6256754007
  0
LINE
  5
2CD
100
AcDbEntity
  8
0
100
AcDbLine
 62
7
  6
CONTINUOUS
 10
360.9058099846
 20
644.6256754007
 11
372.4057148498
 21
644.6256754007
  0
LINE
  5
2CE
100
AcDbEntity
  8
0
100
AcDbLine
 62
7
  6
CONTINUOUS
 10
589.4058099846
 20
644.6256754007
 11
600.9057148498
 21
644.6256754007
  0
LINE
  5
2CF
100
AcDbEntity
  8
0
100
AcDbLine
 62
7
  6
CONTINUOUS
 10
599.9057572772
 20
645.2256754007
 11
590.4057675572
 21
645.2256754007
  0
LINE
  5
2D0
100
AcDbEntity
  8
0
100
AcDbLine
 62
7
  6
CONTINUOUS
 10
371.4057572772
 20
645.2256754007
 11
361.9057675572
 21
645.2256754007
  0
LINE
  5
2D1
100
AcDbEntity
  8
0
100
AcDbLine
 62
7
  6
CONTINUOUS
 10
142.9057572772
 20
645.2256754007
 11
133.4057675572
 21
645.2256754007
  0
LINE
  5
2D2
100
AcDbEntity
  8
0
100
AcDbLine
 62
7
  6
CONTINUOUS
 10
133.4057624172
 20
646.920865955
 11
142.9057624172
 21
646.920865955
  0
LINE
  5
2D3
100
AcDbEntity
  8
0
100
AcDbLine
 62
7
  6
CONTINUOUS
 10
361.9057624172
 20
646.920865955
 11
371.4057624172
 21
646.920865955
  0
LINE
  5
2D4
100
AcDbEntity
  8
0
100
AcDbLine
 62
7
  6
CONTINUOUS
 10
590.4057624172
 20
646.920865955
 11
599.9057624172
 21
646.920865955
  0
LINE
  5
2D5
100
AcDbEntity
  8
0
100
AcDbLine
 62
7
  6
CONTINUOUS
 10
595.1557624172
 20
647.7868913804
 11
599.4056687914
 21
647.7869453712
  0
LINE
  5
2D6
100
AcDbEntity
  8
0
100
AcDbLine
 62
7
  6
CONTINUOUS
 10
370.9056687914
 20
647.7869453712
 11
362.4057624994
 21
647.7868913804
  0
LINE
  5
2D7
100
AcDbEntity
  8
0
100
AcDbLine
 62
7
  6
CONTINUOUS
 10
142.4057601955
 20
647.7868891942
 11
133.9057624994
 21
647.7868913804
  0
LINE
  5
2D8
100
AcDbEntity
  8
0
100
AcDbLine
 62
7
  6
CONTINUOUS
 10
590.9057624994
 20
647.7868913804
 11
599.4057601955
 21
647.7868891942
  0
LINE
  5
2D9
100
AcDbEntity
  8
0
100
AcDbLine
 62
7
  6
CONTINUOUS
 10
138.1557624172
 20
647.7868913804
 11
142.4056687914
 21
647.7869453712
  0
LINE
  5
2DA
100
AcDbEntity
  8
0
100
AcDbLine
 62
7
  6
CONTINUOUS
 10
137.5557624172
 20
647.8256754007
 11
138.7557624172
 21
647.8256754007
  0
LINE
  5
2DB
100
AcDbEntity
  8
0
100
AcDbLine
 62
7
  6
CONTINUOUS
 10
366.0557624172
 20
647.8256754007
 11
367.2557624172
 21
647.8256754007
  0
LINE
  5
2DC
100
AcDbEntity
  8
0
100
AcDbLine
 62
7
  6
CONTINUOUS
 10
594.5557624172
 20
647.8256754007
 11
595.7557624172
 21
647.8256754007
  0
LINE
  5
2DD
100
AcDbEntity
  8
0
100
AcDbLine
 62
7
  6
CONTINUOUS
 10
94.6557624172
 20
626.5956754007
 11
95.8557624172
 21
626.8956754007
  0
LINE
  5
2DE
100
AcDbEntity
  8
0
100
AcDbLine
 62
7
  6
CONTINUOUS
 10
616.6557624172
 20
596.1356754007
 11
615.4460831507
 21
596.7256754007
  0
LINE
  5
2DF
100
AcDbEntity
  8
0
100
AcDbLine
 62
7
  6
CONTINUOUS
 10
589.4057624172
 20
643.2256754007
 11
589.4057624172
 21
644.6256754007
  0
LINE
  5
2E0
100
AcDbEntity
  8
0
100
AcDbLine
 62
7
  6
CONTINUOUS
 10
590.4057624172
 20
645.2256754007
 11
590.4057624172
 21
646.9208659291
  0
LINE
  5
2E1
100
AcDbEntity
  8
0
100
AcDbLine
 62
7
  6
CONTINUOUS
 10
591.0057624172
 20
645.2256754007
 11
591.0057624172
 21
644.6256754007
  0
LINE
  5
2E2
100
AcDbEntity
  8
0
100
AcDbLine
 62
7
  6
CONTINUOUS
 10
592.8057624172
 20
648.5943650879
 11
592.8057624172
 21
648.5793540184
  0
LINE
  5
2E3
100
AcDbEntity
  8
0
100
AcDbLine
 62
7
  6
CONTINUOUS
 10
594.5557624172
 20
647.8256754007
 11
594.5557624172
 21
648.8900108738
  0
LINE
  5
2E4
100
AcDbEntity
  8
0
100
AcDbLine
 62
7
  6
CONTINUOUS
 10
595.7557624172
 20
647.8256754007
 11
595.7557624172
 21
648.8900108738
  0
LINE
  5
2E5
100
AcDbEntity
  8
0
100
AcDbLine
 62
7
  6
CONTINUOUS
 10
597.5057624172
 20
648.5793540184
 11
597.5057624172
 21
648.5943650878
  0
LINE
  5
2E6
100
AcDbEntity
  8
0
100
AcDbLine
 62
7
  6
CONTINUOUS
 10
629.1557624172
 20
626.4956754007
 11
628.1557624172
 21
626.8956754007
  0
LINE
  5
2E7
100
AcDbEntity
  8
0
100
AcDbLine
 62
7
  6
CONTINUOUS
 10
599.3057624172
 20
644.6256754007
 11
599.3057624172
 21
645.2256754007
  0
LINE
  5
2E8
100
AcDbEntity
  8
0
100
AcDbLine
 62
7
  6
CONTINUOUS
 10
599.9057624172
 20
645.2256754007
 11
599.9057624172
 21
646.9208659291
  0
LINE
  5
2E9
100
AcDbEntity
  8
0
100
AcDbLine
 62
7
  6
CONTINUOUS
 10
600.9057624172
 20
643.2256754007
 11
600.9057624172
 21
644.6256754007
  0
LINE
  5
2EA
100
AcDbEntity
  8
0
100
AcDbLine
 62
7
  6
CONTINUOUS
 10
608.3557624172
 20
627.2256754007
 11
608.3557624172
 21
446.5256754007
  0
LINE
  5
2EB
100
AcDbEntity
  8
0
100
AcDbLine
 62
7
  6
CONTINUOUS
 10
608.6557624172
 20
446.5256754007
 11
608.6557624172
 21
385.3256754007
  0
LINE
  5
2EC
100
AcDbEntity
  8
0
100
AcDbLine
 62
7
  6
CONTINUOUS
 10
610.1557624172
 20
447.0256754007
 11
610.1557624172
 21
627.2256754007
  0
LINE
  5
2ED
100
AcDbEntity
  8
0
100
AcDbLine
 62
7
  6
CONTINUOUS
 10
611.1557624172
 20
617.9756754007
 11
611.1557624172
 21
455.5256754007
  0
LINE
  5
2EE
100
AcDbEntity
  8
0
100
AcDbLine
 62
7
  6
CONTINUOUS
 10
611.7557624172
 20
447.0256754007
 11
611.7557624172
 21
627.2256754007
  0
LINE
  5
2EF
100
AcDbEntity
  8
0
100
AcDbLine
 62
7
  6
CONTINUOUS
 10
614.1557624172
 20
627.2256754007
 11
614.1557624172
 21
626.8956754007
  0
LINE
  5
2F0
100
AcDbEntity
  8
0
100
AcDbLine
 62
7
  6
CONTINUOUS
 10
614.1557624172
 20
620.5556754007
 11
614.1557624172
 21
447.5256754007
  0
LINE
  5
2F1
100
AcDbEntity
  8
0
100
AcDbLine
 62
7
  6
CONTINUOUS
 10
615.1557624172
 20
614.7256698871
 11
615.1557624172
 21
604.7256809144
  0
LINE
  5
2F2
100
AcDbEntity
  8
0
100
AcDbLine
 62
7
  6
CONTINUOUS
 10
615.1557624172
 20
486.5256698871
 11
615.1557624172
 21
476.5256809144
  0
LINE
  5
2F3
100
AcDbEntity
  8
0
100
AcDbLine
 62
7
  6
CONTINUOUS
 10
615.1557624172
 20
462.5256698871
 11
615.1557624172
 21
452.5256809144
  0
LINE
  5
2F4
100
AcDbEntity
  8
0
100
AcDbLine
 62
7
  6
CONTINUOUS
 10
615.3557624172
 20
586.5255845331
 11
615.3557624172
 21
564.5257662684
  0
LINE
  5
2F5
100
AcDbEntity
  8
0
100
AcDbLine
 62
7
  6
CONTINUOUS
 10
615.4460831507
 20
596.7256754007
 11
615.4460831507
 21
592.7256754007
  0
LINE
  5
2F6
100
AcDbEntity
  8
0
100
AcDbLine
 62
7
  6
CONTINUOUS
 10
616.6557624172
 20
596.1356754007
 11
616.6557624172
 21
593.3156754007
  0
LINE
  5
2F7
100
AcDbEntity
  8
0
100
AcDbLine
 62
7
  6
CONTINUOUS
 10
616.9557624172
 20
453.275679847
 11
616.9557624172
 21
461.7756709544
  0
LINE
  5
2F8
100
AcDbEntity
  8
0
100
AcDbLine
 62
7
  6
CONTINUOUS
 10
616.9557624172
 20
477.275679847
 11
616.9557624172
 21
485.7756709544
  0
LINE
  5
2F9
100
AcDbEntity
  8
0
100
AcDbLine
 62
7
  6
CONTINUOUS
 10
616.9557624172
 20
605.475679847
 11
616.9557624172
 21
613.9756709544
  0
LINE
  5
2FA
100
AcDbEntity
  8
0
100
AcDbLine
 62
7
  6
CONTINUOUS
 10
619.3557624172
 20
565.1217106097
 11
619.3557624172
 21
585.9296401918
  0
LINE
  5
2FB
100
AcDbEntity
  8
0
100
AcDbLine
 62
7
  6
CONTINUOUS
 10
620.4557624172
 20
613.9756709544
 11
620.4557624172
 21
605.475679847
  0
LINE
  5
2FC
100
AcDbEntity
  8
0
100
AcDbLine
 62
7
  6
CONTINUOUS
 10
620.4557624172
 20
485.7756709544
 11
620.4557624172
 21
477.275679847
  0
LINE
  5
2FD
100
AcDbEntity
  8
0
100
AcDbLine
 62
7
  6
CONTINUOUS
 10
620.4557624172
 20
461.7756709544
 11
620.4557624172
 21
453.275679847
  0
LINE
  5
2FE
100
AcDbEntity
  8
0
100
AcDbLine
 62
7
  6
CONTINUOUS
 10
624.2557624172
 20
598.2256754007
 11
624.2557624121
 21
641.4256752496
  0
LINE
  5
2FF
100
AcDbEntity
  8
0
100
AcDbLine
 62
7
  6
CONTINUOUS
 10
625.7557624172
 20
598.2256754007
 11
625.7557624172
 21
641.4256752496
  0
LINE
  5
300
100
AcDbEntity
  8
0
100
AcDbLine
 62
7
  6
CONTINUOUS
 10
628.1557624172
 20
626.8956754007
 11
628.1557624172
 21
620.5556754007
  0
LINE
  5
301
100
AcDbEntity
  8
0
100
AcDbLine
 62
7
  6
CONTINUOUS
 10
629.1557624172
 20
626.4956716554
 11
629.1557624172
 21
620.9556791461
  0
LINE
  5
302
100
AcDbEntity
  8
0
100
AcDbLine
 62
7
  6
CONTINUOUS
 10
642.1557624172
 20
375.3003564505
 11
642.1557624172
 21
350.3256754007
  0
CIRCLE
  5
303
100
AcDbEntity
  8
0
100
AcDbCircle
 62
7
  6
CONTINUOUS
 10
97.1557624172
 20
366.3256754007
 40
8.0
  0
ARC
  5
304
100
AcDbEntity
  8
0
100
AcDbCircle
 62
7
  6
CONTINUOUS
 10
116.9853932147
 20
458.3715190035
 40
2.9193647983
100
AcDbArc
 50
169.8711084105
 51
170.0565182954
  0
ARC
  5
305
100
AcDbEntity
  8
0
100
AcDbCircle
 62
7
  6
CONTINUOUS
 10
115.3003028898
 20
458.6026387607
 40
1.2179649809
100
AcDbArc
 50
174.7715676944
 51
175.4068729434
  0
ARC
  5
306
100
AcDbEntity
  8
0
100
AcDbCircle
 62
7
  6
CONTINUOUS
 10
115.2992033513
 20
456.4486784264
 40
1.2168675831
100
AcDbArc
 50
184.5956214301
 51
185.2311947416
  0
ARC
  5
307
100
AcDbEntity
  8
0
100
AcDbCircle
 62
7
  6
CONTINUOUS
 10
115.8459901886
 20
454.5256754007
 40
1.0
100
AcDbArc
 50
213.0557311509
 51
270.0
  0
ARC
  5
308
100
AcDbEntity
  8
0
100
AcDbCircle
 62
7
  6
CONTINUOUS
 10
115.8459901886
 20
460.5256754007
 40
1.0
100
AcDbArc
 50
90.0
 51
146.9442688491
  0
ARC
  5
309
100
AcDbEntity
  8
0
100
AcDbCircle
 62
7
  6
CONTINUOUS
 10
113.5169120892
 20
456.5254089207
 40
0.7541908571
100
AcDbArc
 50
358.3688292029
 51
0.0202444526
  0
ARC
  5
30A
100
AcDbEntity
  8
0
100
AcDbCircle
 62
7
  6
CONTINUOUS
 10
113.5170515333
 20
458.5259414938
 40
0.7540514009
100
AcDbArc
 50
359.9797812033
 51
1.6319934209
  0
ARC
  5
30B
100
AcDbEntity
  8
0
100
AcDbCircle
 62
7
  6
CONTINUOUS
 10
114.2942477518
 20
456.4337723528
 40
0.2102138246
100
AcDbArc
 50
171.1247655932
 51
173.6900592591
  0
ARC
  5
30C
100
AcDbEntity
  8
0
100
AcDbCircle
 62
7
  6
CONTINUOUS
 10
114.2938901011
 20
458.6175323055
 40
0.2098530743
100
AcDbArc
 50
186.3081330522
 51
188.8775117422
  0
ARC
  5
30D
100
AcDbEntity
  8
0
100
AcDbCircle
 62
7
  6
CONTINUOUS
 10
116.9853931523
 20
477.3715190145
 40
2.9193647349
100
AcDbArc
 50
169.8711084086
 51
170.0565182976
  0
ARC
  5
30E
100
AcDbEntity
  8
0
100
AcDbCircle
 62
7
  6
CONTINUOUS
 10
115.3003028902
 20
477.6026387607
 40
1.2179649813
100
AcDbArc
 50
174.7715676941
 51
175.406872943
  0
ARC
  5
30F
100
AcDbEntity
  8
0
100
AcDbCircle
 62
7
  6
CONTINUOUS
 10
115.2992033522
 20
475.4486784265
 40
1.216867584
100
AcDbArc
 50
184.5956214302
 51
185.2311947413
  0
ARC
  5
310
100
AcDbEntity
  8
0
100
AcDbCircle
 62
7
  6
CONTINUOUS
 10
115.8459901886
 20
473.5256754007
 40
1.0
100
AcDbArc
 50
213.0557311509
 51
270.0
  0
ARC
  5
311
100
AcDbEntity
  8
0
100
AcDbCircle
 62
7
  6
CONTINUOUS
 10
115.8459901886
 20
479.5256754007
 40
1.0
100
AcDbArc
 50
90.0
 51
146.9442688491
  0
ARC
  5
312
100
AcDbEntity
  8
0
100
AcDbCircle
 62
7
  6
CONTINUOUS
 10
113.5169120889
 20
475.5254089207
 40
0.7541908574
100
AcDbArc
 50
358.3688292035
 51
0.0202444524
  0
ARC
  5
313
100
AcDbEntity
  8
0
100
AcDbCircle
 62
7
  6
CONTINUOUS
 10
113.5170515336
 20
477.5259414938
 40
0.7540514006
100
AcDbArc
 50
359.9797812031
 51
1.6319934214
  0
ARC
  5
314
100
AcDbEntity
  8
0
100
AcDbCircle
 62
7
  6
CONTINUOUS
 10
114.2942477519
 20
475.4337723528
 40
0.2102138247
100
AcDbArc
 50
171.124765594
 51
173.6900592589
  0
ARC
  5
315
100
AcDbEntity
  8
0
100
AcDbCircle
 62
7
  6
CONTINUOUS
 10
114.2938901008
 20
477.6175323055
 40
0.209853074
100
AcDbArc
 50
186.3081330506
 51
188.8775117444
  0
ARC
  5
316
100
AcDbEntity
  8
0
100
AcDbCircle
 62
7
  6
CONTINUOUS
 10
120.4557624172
 20
457.5256754007
 40
6.5
100
AcDbArc
 50
146.9442688491
 51
162.0797868606
  0
ARC
  5
317
100
AcDbEntity
  8
0
100
AcDbCircle
 62
7
  6
CONTINUOUS
 10
120.4557624172
 20
457.5256754007
 40
6.5
100
AcDbArc
 50
197.9202131394
 51
213.0557311509
  0
ARC
  5
318
100
AcDbEntity
  8
0
100
AcDbCircle
 62
7
  6
CONTINUOUS
 10
118.540247778
 20
458.0446805118
 40
4.5084921443
100
AcDbArc
 50
164.8142611854
 51
166.5839125102
  0
ARC
  5
319
100
AcDbEntity
  8
0
100
AcDbCircle
 62
7
  6
CONTINUOUS
 10
118.5182375383
 20
457.0010903042
 40
4.4857888089
100
AcDbArc
 50
193.4120080824
 51
195.1905977873
  0
ARC
  5
31A
100
AcDbEntity
  8
0
100
AcDbCircle
 62
7
  6
CONTINUOUS
 10
118.2564753037
 20
458.1125885824
 40
4.2167075073
100
AcDbArc
 50
166.5868166291
 51
167.2384895679
  0
ARC
  5
31B
100
AcDbEntity
  8
0
100
AcDbCircle
 62
7
  6
CONTINUOUS
 10
118.2515748305
 20
456.9372230856
 40
4.2115846108
100
AcDbArc
 50
192.7558481226
 51
193.4083009263
  0
ARC
  5
31C
100
AcDbEntity
  8
0
100
AcDbCircle
 62
7
  6
CONTINUOUS
 10
117.9033802635
 20
456.8592078841
 40
3.8547581189
100
AcDbArc
 50
191.6960381803
 51
192.7675984493
  0
ARC
  5
31D
100
AcDbEntity
  8
0
100
AcDbCircle
 62
7
  6
CONTINUOUS
 10
117.864701624
 20
458.2004453338
 40
3.8152045567
100
AcDbArc
 50
167.2256689402
 51
168.3085174428
  0
ARC
  5
31E
100
AcDbEntity
  8
0
100
AcDbCircle
 62
7
  6
CONTINUOUS
 10
117.4817617537
 20
458.2791934054
 40
3.4242519501
100
AcDbArc
 50
168.30039699
 51
169.2614992306
  0
ARC
  5
31F
100
AcDbEntity
  8
0
100
AcDbCircle
 62
7
  6
CONTINUOUS
 10
117.4744346265
 20
456.7709701448
 40
3.4168312793
100
AcDbArc
 50
190.7418237547
 51
191.7052615841
  0
ARC
  5
320
100
AcDbEntity
  8
0
100
AcDbCircle
 62
7
  6
CONTINUOUS
 10
117.1726709141
 20
458.3378327326
 40
3.1096478856
100
AcDbArc
 50
169.261876952
 51
169.866944082
  0
ARC
  5
321
100
AcDbEntity
  8
0
100
AcDbCircle
 62
7
  6
CONTINUOUS
 10
117.116317592
 20
456.7031672976
 40
3.0523521758
100
AcDbArc
 50
189.9507060943
 51
190.7443106974
  0
ARC
  5
322
100
AcDbEntity
  8
0
100
AcDbCircle
 62
7
  6
CONTINUOUS
 10
120.4557624172
 20
476.5256754007
 40
6.5
100
AcDbArc
 50
146.9442688491
 51
162.0797868606
  0
ARC
  5
323
100
AcDbEntity
  8
0
100
AcDbCircle
 62
7
  6
CONTINUOUS
 10
120.4557624172
 20
476.5256754007
 40
6.5
100
AcDbArc
 50
197.9202131394
 51
213.0557311509
  0
ARC
  5
324
100
AcDbEntity
  8
0
100
AcDbCircle
 62
7
  6
CONTINUOUS
 10
118.5402477774
 20
477.0446805119
 40
4.5084921437
100
AcDbArc
 50
164.8142611853
 51
166.5839125103
  0
ARC
  5
325
100
AcDbEntity
  8
0
100
AcDbCircle
 62
7
  6
CONTINUOUS
 10
118.5182375385
 20
476.0010903042
 40
4.4857888091
100
AcDbArc
 50
193.4120080826
 51
195.1905977873
  0
ARC
  5
326
100
AcDbEntity
  8
0
100
AcDbCircle
 62
7
  6
CONTINUOUS
 10
118.2564753044
 20
477.1125885822
 40
4.216707508
100
AcDbArc
 50
166.5868166289
 51
167.2384895677
  0
ARC
  5
327
100
AcDbEntity
  8
0
100
AcDbCircle
 62
7
  6
CONTINUOUS
 10
118.2515748301
 20
475.9372230855
 40
4.2115846103
100
AcDbArc
 50
192.7558481221
 51
193.4083009261
  0
ARC
  5
328
100
AcDbEntity
  8
0
100
AcDbCircle
 62
7
  6
CONTINUOUS
 10
117.9033802618
 20
475.8592078837
 40
3.8547581171
100
AcDbArc
 50
191.6960381802
 51
192.7675984496
  0
ARC
  5
329
100
AcDbEntity
  8
0
100
AcDbCircle
 62
7
  6
CONTINUOUS
 10
117.8647016216
 20
477.2004453343
 40
3.8152045543
100
AcDbArc
 50
167.2256689399
 51
168.3085174432
  0
ARC
  5
32A
100
AcDbEntity
  8
0
100
AcDbCircle
 62
7
  6
CONTINUOUS
 10
117.4817617516
 20
477.2791934058
 40
3.424251948
100
AcDbArc
 50
168.3003969897
 51
169.2614992308
  0
ARC
  5
32B
100
AcDbEntity
  8
0
100
AcDbCircle
 62
7
  6
CONTINUOUS
 10
117.4744346256
 20
475.7709701446
 40
3.4168312784
100
AcDbArc
 50
190.7418237546
 51
191.7052615843
  0
ARC
  5
32C
100
AcDbEntity
  8
0
100
AcDbCircle
 62
7
  6
CONTINUOUS
 10
117.1726709116
 20
477.337832733
 40
3.1096478831
100
AcDbArc
 50
169.2618769517
 51
169.8669440822
  0
ARC
  5
32D
100
AcDbEntity
  8
0
100
AcDbCircle
 62
7
  6
CONTINUOUS
 10
117.1163175922
 20
475.7031672976
 40
3.052352176
100
AcDbArc
 50
189.9507060942
 51
190.7443106973
  0
ARC
  5
32E
100
AcDbEntity
  8
0
100
AcDbCircle
 62
7
  6
CONTINUOUS
 10
118.5402477767
 20
614.7446805121
 40
4.5084921429
100
AcDbArc
 50
164.8142611851
 51
166.5839125105
  0
ARC
  5
32F
100
AcDbEntity
  8
0
100
AcDbCircle
 62
7
  6
CONTINUOUS
 10
118.5182375385
 20
613.7010903042
 40
4.4857888091
100
AcDbArc
 50
193.4120080825
 51
195.1905977872
  0
ARC
  5
330
100
AcDbEntity
  8
0
100
AcDbCircle
 62
7
  6
CONTINUOUS
 10
118.2564753039
 20
614.8125885824
 40
4.2167075076
100
AcDbArc
 50
166.586816629
 51
167.2384895678
  0
ARC
  5
331
100
AcDbEntity
  8
0
100
AcDbCircle
 62
7
  6
CONTINUOUS
 10
118.2515748315
 20
613.6372230858
 40
4.2115846118
100
AcDbArc
 50
192.7558481225
 51
193.4083009262
  0
ARC
  5
332
100
AcDbEntity
  8
0
100
AcDbCircle
 62
7
  6
CONTINUOUS
 10
117.903380264
 20
613.5592078842
 40
3.8547581194
100
AcDbArc
 50
191.6960381804
 51
192.7675984493
  0
ARC
  5
333
100
AcDbEntity
  8
0
100
AcDbCircle
 62
7
  6
CONTINUOUS
 10
117.8647016227
 20
614.9004453341
 40
3.8152045553
100
AcDbArc
 50
167.22566894
 51
168.308517443
  0
ARC
  5
334
100
AcDbEntity
  8
0
100
AcDbCircle
 62
7
  6
CONTINUOUS
 10
117.4817617557
 20
614.979193405
 40
3.4242519521
100
AcDbArc
 50
168.3003969903
 51
169.2614992303
  0
ARC
  5
335
100
AcDbEntity
  8
0
100
AcDbCircle
 62
7
  6
CONTINUOUS
 10
117.4744346297
 20
613.4709701454
 40
3.4168312826
100
AcDbArc
 50
190.7418237551
 51
191.7052615836
  0
ARC
  5
336
100
AcDbEntity
  8
0
100
AcDbCircle
 62
7
  6
CONTINUOUS
 10
117.1726709068
 20
615.0378327339
 40
3.1096478782
100
AcDbArc
 50
169.2618769511
 51
169.8669440827
  0
ARC
  5
337
100
AcDbEntity
  8
0
100
AcDbCircle
 62
7
  6
CONTINUOUS
 10
117.1163175888
 20
613.403167297
 40
3.0523521726
100
AcDbArc
 50
189.9507060939
 51
190.7443106979
  0
ARC
  5
338
100
AcDbEntity
  8
0
100
AcDbCircle
 62
7
  6
CONTINUOUS
 10
116.9853931681
 20
615.0715190117
 40
2.919364751
100
AcDbArc
 50
169.8711084091
 51
170.056518297
  0
ARC
  5
339
100
AcDbEntity
  8
0
100
AcDbCircle
 62
7
  6
CONTINUOUS
 10
115.3003028886
 20
615.3026387608
 40
1.2179649797
100
AcDbArc
 50
174.771567694
 51
175.4068729437
  0
ARC
  5
33A
100
AcDbEntity
  8
0
100
AcDbCircle
 62
7
  6
CONTINUOUS
 10
115.2992033518
 20
613.1486784264
 40
1.2168675836
100
AcDbArc
 50
184.5956214301
 51
185.2311947415
  0
ARC
  5
33B
100
AcDbEntity
  8
0
100
AcDbCircle
 62
7
  6
CONTINUOUS
 10
115.8459901886
 20
611.2256754007
 40
1.0
100
AcDbArc
 50
213.0557311509
 51
270.0
  0
ARC
  5
33C
100
AcDbEntity
  8
0
100
AcDbCircle
 62
7
  6
CONTINUOUS
 10
115.8459901886
 20
617.2256754007
 40
1.0
100
AcDbArc
 50
90.0
 51
146.9442688491
  0
ARC
  5
33D
100
AcDbEntity
  8
0
100
AcDbCircle
 62
7
  6
CONTINUOUS
 10
113.5169120892
 20
613.2254089207
 40
0.7541908571
100
AcDbArc
 50
358.3688292029
 51
0.0202444526
  0
ARC
  5
33E
100
AcDbEntity
  8
0
100
AcDbCircle
 62
7
  6
CONTINUOUS
 10
113.5170515336
 20
615.2259414938
 40
0.7540514006
100
AcDbArc
 50
359.9797812031
 51
1.6319934214
  0
ARC
  5
33F
100
AcDbEntity
  8
0
100
AcDbCircle
 62
7
  6
CONTINUOUS
 10
98.9557624172
 20
627.0141000583
 40
0.6115753425
100
AcDbArc
 50
159.2814416361
 51
180.0
  0
ARC
  5
340
100
AcDbEntity
  8
0
100
AcDbCircle
 62
7
  6
CONTINUOUS
 10
98.9557624172
 20
620.4372507432
 40
0.6115753425
100
AcDbArc
 50
180.0
 51
351.1582518337
  0
ARC
  5
341
100
AcDbEntity
  8
0
100
AcDbCircle
 62
7
  6
CONTINUOUS
 10
114.2942477522
 20
613.1337723527
 40
0.210213825
100
AcDbArc
 50
171.1247655964
 51
173.6900592573
  0
ARC
  5
342
100
AcDbEntity
  8
0
100
AcDbCircle
 62
7
  6
CONTINUOUS
 10
114.2938901012
 20
615.3175323055
 40
0.2098530744
100
AcDbArc
 50
186.3081330515
 51
188.8775117414
  0
ARC
  5
343
100
AcDbEntity
  8
0
100
AcDbCircle
 62
7
  6
CONTINUOUS
 10
113.2958518231
 20
641.2589257152
 40
15.7409726448
100
AcDbArc
 50
178.1613935388
 51
179.3930342087
  0
ARC
  5
344
100
AcDbEntity
  8
0
100
AcDbCircle
 62
7
  6
CONTINUOUS
 10
97.8557624172
 20
641.4256754007
 40
1.8
100
AcDbArc
 50
90.0
 51
180.0
  0
ARC
  5
345
100
AcDbEntity
  8
0
100
AcDbCircle
 62
7
  6
CONTINUOUS
 10
120.4557624172
 20
614.2256754007
 40
6.5
100
AcDbArc
 50
146.9442688491
 51
162.0797868606
  0
ARC
  5
346
100
AcDbEntity
  8
0
100
AcDbCircle
 62
7
  6
CONTINUOUS
 10
120.4557624172
 20
614.2256754007
 40
6.5
100
AcDbArc
 50
197.9202131394
 51
213.0557311509
  0
ARC
  5
347
100
AcDbEntity
  8
0
100
AcDbCircle
 62
7
  6
CONTINUOUS
 10
138.1557624172
 20
640.4256754007
 40
8.5
100
AcDbArc
 50
106.0496708042
 51
119.9999993603
  0
ARC
  5
348
100
AcDbEntity
  8
0
100
AcDbCircle
 62
7
  6
CONTINUOUS
 10
138.1557624172
 20
640.4256754007
 40
8.5
100
AcDbArc
 50
60.0007286771
 51
73.9503291957
  0
ARC
  5
349
100
AcDbEntity
  8
0
100
AcDbCircle
 62
7
  6
CONTINUOUS
 10
138.1557624172
 20
640.4256754007
 40
8.4855745239
100
AcDbArc
 50
94.054666913
 51
106.0776939924
  0
ARC
  5
34A
100
AcDbEntity
  8
0
100
AcDbCircle
 62
7
  6
CONTINUOUS
 10
138.1557624172
 20
640.4256754007
 40
8.4855745239
100
AcDbArc
 50
73.9223060076
 51
85.945333087
  0
ARC
  5
34B
100
AcDbEntity
  8
0
100
AcDbCircle
 62
7
  6
CONTINUOUS
 10
134.4057624172
 20
646.9208659291
 40
1.0
100
AcDbArc
 50
120.0
 51
180.0
  0
ARC
  5
34C
100
AcDbEntity
  8
0
100
AcDbCircle
 62
7
  6
CONTINUOUS
 10
141.9057624172
 20
646.9208659291
 40
1.0
100
AcDbArc
 50
0.0
 51
59.9997429962
  0
CIRCLE
  5
34D
100
AcDbEntity
  8
0
100
AcDbCircle
 62
7
  6
CONTINUOUS
 10
627.1557624172
 20
366.3256754007
 40
8.0
  0
ARC
  5
34E
100
AcDbEntity
  8
0
100
AcDbCircle
 62
7
  6
CONTINUOUS
 10
608.3557624172
 20
448.3256754007
 40
1.8
100
AcDbArc
 50
279.3853864736
 51
360.0
  0
ARC
  5
34F
100
AcDbEntity
  8
0
100
AcDbCircle
 62
7
  6
CONTINUOUS
 10
608.5038786329
 20
641.2588061102
 40
15.7527676284
100
AcDbArc
 50
0.6069463551
 51
1.8390843098
  0
ARC
  5
350
100
AcDbEntity
  8
0
100
AcDbCircle
 62
7
  6
CONTINUOUS
 10
595.1557624172
 20
640.4256754007
 40
8.5
100
AcDbArc
 50
106.0496708042
 51
119.9999993603
  0
ARC
  5
351
100
AcDbEntity
  8
0
100
AcDbCircle
 62
7
  6
CONTINUOUS
 10
595.1557624172
 20
640.4256754007
 40
8.5
100
AcDbArc
 50
60.0007286771
 51
73.9503291957
  0
ARC
  5
352
100
AcDbEntity
  8
0
100
AcDbCircle
 62
7
  6
CONTINUOUS
 10
366.6557624172
 20
640.4256754007
 40
8.5
100
AcDbArc
 50
106.0496708042
 51
119.9999993603
  0
ARC
  5
353
100
AcDbEntity
  8
0
100
AcDbCircle
 62
7
  6
CONTINUOUS
 10
366.6557624172
 20
640.4256754007
 40
8.5
100
AcDbArc
 50
60.0007286771
 51
73.9503291957
  0
ARC
  5
354
100
AcDbEntity
  8
0
100
AcDbCircle
 62
7
  6
CONTINUOUS
 10
595.1557624172
 20
640.4256754007
 40
8.4855745239
100
AcDbArc
 50
94.054666913
 51
106.0776939924
  0
ARC
  5
355
100
AcDbEntity
  8
0
100
AcDbCircle
 62
7
  6
CONTINUOUS
 10
595.1557624172
 20
640.4256754007
 40
8.4855745239
100
AcDbArc
 50
73.9223060076
 51
85.945333087
  0
ARC
  5
356
100
AcDbEntity
  8
0
100
AcDbCircle
 62
7
  6
CONTINUOUS
 10
366.6557624172
 20
640.4256754007
 40
8.4855745239
100
AcDbArc
 50
94.054666913
 51
106.0776939924
  0
ARC
  5
357
100
AcDbEntity
  8
0
100
AcDbCircle
 62
7
  6
CONTINUOUS
 10
366.6557624172
 20
640.4256754007
 40
8.4855745239
100
AcDbArc
 50
73.9223060076
 51
85.945333087
  0
ARC
  5
358
100
AcDbEntity
  8
0
100
AcDbCircle
 62
7
  6
CONTINUOUS
 10
623.9557624172
 20
641.4256754007
 40
1.8
100
AcDbArc
 50
0.0
 51
90.0
  0
ARC
  5
359
100
AcDbEntity
  8
0
100
AcDbCircle
 62
7
  6
CONTINUOUS
 10
591.4057624172
 20
646.9208659291
 40
1.0
100
AcDbArc
 50
120.0
 51
180.0
  0
ARC
  5
35A
100
AcDbEntity
  8
0
100
AcDbCircle
 62
7
  6
CONTINUOUS
 10
598.9057624172
 20
646.9208659291
 40
1.0
100
AcDbArc
 50
0.0
 51
59.9997429962
  0
ARC
  5
35B
100
AcDbEntity
  8
0
100
AcDbCircle
 62
7
  6
CONTINUOUS
 10
362.9057624172
 20
646.9208659291
 40
1.0
100
AcDbArc
 50
120.0
 51
180.0
  0
ARC
  5
35C
100
AcDbEntity
  8
0
100
AcDbCircle
 62
7
  6
CONTINUOUS
 10
370.4057624172
 20
646.9208659291
 40
1.0
100
AcDbArc
 50
0.0
 51
59.9997429962
  0
SPLINE
  5
35D
100
AcDbEntity
  8
0
100
AcDbSpline
 62
7
  6
CONTINUOUS
 70
0
 71
3
 72
8
 73
4
 74
0
 42
0.0000001
 43
0.0000001
 44
0.0000000001
 40
0.0
 40
0.0
 40
0.0
 40
0.0
 40
1.0
 40
1.0
 40
1.0
 40
1.0
 10
90.8489562171
 20
626.9508860383
 30
0.0
 10
90.7979730942
 20
626.9497202053
 30
0.0
 10
90.7457269095
 20
626.9345377161
 30
0.0
 10
90.7020279323
 20
626.9082501262
 30
0.0
  0
SPLINE
  5
35E
100
AcDbEntity
  8
0
100
AcDbSpline
 62
7
  6
CONTINUOUS
 70
0
 71
3
 72
9
 73
5
 74
0
 42
0.0000001
 43
0.0000001
 44
0.0000000001
 40
0.0
 40
0.0
 40
0.0
 40
0.0
 40
0.2510158436
 40
1.0
 40
1.0
 40
1.0
 40
1.0
 10
90.7020279323
 20
626.9082501262
 30
0.0
 10
90.6909698188
 20
626.9015979991
 30
0.0
 10
90.6486435573
 20
626.8723061131
 30
0.0
 10
90.6141256509
 20
626.8318876091
 30
0.0
 10
90.5951666345
 20
626.7983731547
 30
0.0
  0
SPLINE
  5
35F
100
AcDbEntity
  8
0
100
AcDbSpline
 62
7
  6
CONTINUOUS
 70
0
 71
3
 72
8
 73
4
 74
0
 42
0.0000001
 43
0.0000001
 44
0.0000000001
 40
0.0
 40
0.0
 40
0.0
 40
0.0
 40
1.0
 40
1.0
 40
1.0
 40
1.0
 10
90.5951666345
 20
626.7983731547
 30
0.0
 10
90.5697215035
 20
626.7533929897
 30
0.0
 10
90.5557624172
 20
626.7001072329
 30
0.0
 10
90.5557624172
 20
626.648428708
 30
0.0
  0
SPLINE
  5
360
100
AcDbEntity
  8
0
100
AcDbSpline
 62
7
  6
CONTINUOUS
 70
0
 71
3
 72
8
 73
4
 74
0
 42
0.0000001
 43
0.0000001
 44
0.0000000001
 40
0.0
 40
0.0
 40
0.0
 40
0.0
 40
1.0
 40
1.0
 40
1.0
 40
1.0
 10
90.8489562171
 20
620.5004647631
 30
0.0
 10
90.7979735693
 20
620.5016305853
 30
0.0
 10
90.7457330112
 20
620.5168241369
 30
0.0
 10
90.7020307923
 20
620.5431054151
 30
0.0
  0
SPLINE
  5
361
100
AcDbEntity
  8
0
100
AcDbSpline
 62
7
  6
CONTINUOUS
 70
0
 71
3
 72
9
 73
5
 74
0
 42
0.0000001
 43
0.0000001
 44
0.0000000001
 40
0.0
 40
0.0
 40
0.0
 40
0.0
 40
0.2510232529
 40
1.0
 40
1.0
 40
1.0
 40
1.0
 10
90.7020307923
 20
620.5431054151
 30
0.0
 10
90.6909714823
 20
620.5497561713
 30
0.0
 10
90.6486358861
 20
620.5790345802
 30
0.0
 10
90.6141255145
 20
620.6194637912
 30
0.0
 10
90.5951717296
 20
620.652980554
 30
0.0
  0
SPLINE
  5
362
100
AcDbEntity
  8
0
100
AcDbSpline
 62
7
  6
CONTINUOUS
 70
0
 71
3
 72
8
 73
4
 74
0
 42
0.0000001
 43
0.0000001
 44
0.0000000001
 40
0.0
 40
0.0
 40
0.0
 40
0.0
 40
1.0
 40
1.0
 40
1.0
 40
1.0
 10
90.5951717296
 20
620.652980554
 30
0.0
 10
90.5697334944
 20
620.6979640385
 30
0.0
 10
90.5557624172
 20
620.7512440741
 30
0.0
 10
90.5557624172
 20
620.8029220935
 30
0.0
  0
LINE
  5
363
100
AcDbEntity
  8
0
100
AcDbLine
 62
7
  6
CONTINUOUS
 10
114.1891844036
 20
459.2256754007
 11
114.2307386216
 21
459.3783643676
  0
SPLINE
  5
364
100
AcDbEntity
  8
0
100
AcDbSpline
 62
7
  6
CONTINUOUS
 70
0
 71
3
 72
9
 73
5
 74
0
 42
0.0000001
 43
0.0000001
 44
0.0000000001
 40
0.0
 40
0.0
 40
0.0
 40
0.0
 40
0.4534043577
 40
1.0
 40
1.0
 40
1.0
 40
1.0
 10
114.1115283878
 20
456.5071708584
 30
0.0
 10
114.1084328839
 20
456.5071708584
 30
0.0
 10
114.101469035
 20
456.5048136105
 30
0.0
 10
114.0972654195
 20
456.4990600545
 30
0.0
 10
114.095423913
 20
456.4958143241
 30
0.0
  0
SPLINE
  5
365
100
AcDbEntity
  8
0
100
AcDbSpline
 62
7
  6
CONTINUOUS
 70
0
 71
3
 72
9
 73
5
 74
0
 42
0.0000001
 43
0.0000001
 44
0.0000000001
 40
0.0
 40
0.0
 40
0.0
 40
0.0
 40
0.2272965169
 40
1.0
 40
1.0
 40
1.0
 40
1.0
 10
114.095423913
 20
456.4958143241
 30
0.0
 10
114.0949749858
 20
456.4950230715
 30
0.0
 10
114.0931182446
 20
456.4914746847
 30
0.0
 10
114.0916942453
 20
456.4877123867
 30
0.0
 10
114.0907534337
 20
456.4847662833
 30
0.0
  0
SPLINE
  5
366
100
AcDbEntity
  8
0
100
AcDbSpline
 62
7
  6
CONTINUOUS
 70
0
 71
3
 72
9
 73
5
 74
0
 42
0.0000001
 43
0.0000001
 44
0.0000000001
 40
0.0
 40
0.0
 40
0.0
 40
0.0
 40
0.2258648086
 40
1.0
 40
1.0
 40
1.0
 40
1.0
 10
114.0907534337
 20
456.4847662833
 30
0.0
 10
114.0903173089
 20
456.4834005811
 30
0.0
 10
114.0885418575
 20
456.4773043278
 30
0.0
 10
114.0873140717
 20
456.4710589391
 30
0.0
 10
114.0865508918
 20
456.4662048427
 30
0.0
  0
SPLINE
  5
367
100
AcDbEntity
  8
0
100
AcDbSpline
 62
7
  6
CONTINUOUS
 70
0
 71
3
 72
9
 73
5
 74
0
 42
0.0000001
 43
0.0000001
 44
0.0000000001
 40
0.0
 40
0.0
 40
0.0
 40
0.0
 40
0.4363155745
 40
1.0
 40
1.0
 40
1.0
 40
1.0
 10
114.0853074232
 20
456.4568762732
 30
0.0
 10
114.0836002261
 20
456.4415827907
 30
0.0
 10
114.082708812
 20
456.4062223871
 30
0.0
 10
114.0846571019
 20
456.3709965575
 30
0.0
 10
114.0862479922
 20
456.3511796495
 30
0.0
  0
SPLINE
  5
368
100
AcDbEntity
  8
0
100
AcDbSpline
 62
7
  6
CONTINUOUS
 70
0
 71
3
 72
9
 73
5
 74
0
 42
0.0000001
 43
0.0000001
 44
0.0000000001
 40
0.0
 40
0.0
 40
0.0
 40
0.0
 40
0.2247535828
 40
1.0
 40
1.0
 40
1.0
 40
1.0
 10
114.0874041361
 20
456.3377307959
 30
0.0
 10
114.0885203324
 20
456.32552583
 30
0.0
 10
114.0942655905
 20
456.2712934659
 30
0.0
 10
114.1025831789
 20
456.2173578012
 30
0.0
 10
114.1098826057
 20
456.1757182683
 30
0.0
  0
SPLINE
  5
369
100
AcDbEntity
  8
0
100
AcDbSpline
 62
7
  6
CONTINUOUS
 70
0
 71
3
 72
11
 73
7
 74
0
 42
0.0000001
 43
0.0000001
 44
0.0000000001
 40
0.0
 40
0.0
 40
0.0
 40
0.0
 40
0.2640341272
 40
0.5429673174
 40
0.7985635341
 40
1.0
 40
1.0
 40
1.0
 40
1.0
 10
114.2711028992
 20
456.5256754007
 30
0.0
 10
114.2711028992
 20
456.5617375458
 30
0.0
 10
114.2664783837
 20
456.6359000696
 30
0.0
 10
114.2504628734
 20
456.7439254797
 30
0.0
 10
114.2271367086
 20
456.841766021
 30
0.0
 10
114.2063462481
 20
456.9009715621
 30
0.0
 10
114.1942360717
 20
456.9256754007
 30
0.0
  0
SPLINE
  5
36A
100
AcDbEntity
  8
0
100
AcDbSpline
 62
7
  6
CONTINUOUS
 70
0
 71
3
 72
10
 73
6
 74
0
 42
0.0000001
 43
0.0000001
 44
0.0000000001
 40
0.0
 40
0.0
 40
0.0
 40
0.0
 40
0.3131827598
 40
0.6110018254
 40
1.0
 40
1.0
 40
1.0
 40
1.0
 10
114.2300052102
 20
456.3756752056
 30
0.0
 10
114.2445712613
 20
456.3756809796
 30
0.0
 10
114.2608247638
 20
456.4107155683
 30
0.0
 10
114.26773162
 20
456.4529289407
 30
0.0
 10
114.2702759107
 20
456.4858558413
 30
0.0
 10
114.2707973307
 20
456.5039405344
 30
0.0
  0
LINE
  5
36B
100
AcDbEntity
  8
0
100
AcDbLine
 62
7
  6
CONTINUOUS
 10
114.2307000424
 20
455.6731292417
 11
114.1891844036
 21
455.8256754007
  0
SPLINE
  5
36C
100
AcDbEntity
  8
0
100
AcDbSpline
 62
7
  6
CONTINUOUS
 70
0
 71
3
 72
11
 73
7
 74
0
 42
0.0000001
 43
0.0000001
 44
0.0000000001
 40
0.0
 40
0.0
 40
0.0
 40
0.0
 40
0.2014238408
 40
0.4570280339
 40
0.7359743677
 40
1.0
 40
1.0
 40
1.0
 40
1.0
 10
114.1942360717
 20
458.1256754007
 30
0.0
 10
114.2063454884
 20
458.1503776896
 30
0.0
 10
114.2271357395
 20
458.2095825923
 30
0.0
 10
114.2504628735
 20
458.3074240994
 30
0.0
 10
114.2664783608
 20
458.4154512786
 30
0.0
 10
114.2711028872
 20
458.4896144181
 30
0.0
 10
114.2711028872
 20
458.5256754007
 30
0.0
  0
SPLINE
  5
36D
100
AcDbEntity
  8
0
100
AcDbSpline
 62
7
  6
CONTINUOUS
 70
0
 71
3
 72
10
 73
6
 74
0
 42
0.0000001
 43
0.0000001
 44
0.0000000001
 40
0.0
 40
0.0
 40
0.0
 40
0.0
 40
0.3890225872
 40
0.6868295751
 40
1.0
 40
1.0
 40
1.0
 40
1.0
 10
114.2707970668
 20
458.5474167323
 30
0.0
 10
114.2702753863
 20
458.5655017261
 30
0.0
 10
114.2677312133
 20
458.5984278446
 30
0.0
 10
114.2608232768
 20
458.6406388992
 30
0.0
 10
114.2445704316
 20
458.67567064
 30
0.0
 10
114.2300056199
 20
458.6756757035
 30
0.0
  0
SPLINE
  5
36E
100
AcDbEntity
  8
0
100
AcDbSpline
 62
7
  6
CONTINUOUS
 70
0
 71
3
 72
9
 73
5
 74
0
 42
0.0000001
 43
0.0000001
 44
0.0000000001
 40
0.0
 40
0.0
 40
0.0
 40
0.0
 40
0.2735830278
 40
1.0
 40
1.0
 40
1.0
 40
1.0
 10
114.109881463
 20
458.8756251343
 30
0.0
 10
114.1073057764
 20
458.8609323241
 30
0.0
 10
114.0983188942
 20
458.8071573414
 30
0.0
 10
114.0910107847
 20
458.7530707595
 30
0.0
 10
114.0874054949
 20
458.7136279682
 30
0.0
  0
SPLINE
  5
36F
100
AcDbEntity
  8
0
100
AcDbSpline
 62
7
  6
CONTINUOUS
 70
0
 71
3
 72
9
 73
5
 74
0
 42
0.0000001
 43
0.0000001
 44
0.0000000001
 40
0.0
 40
0.0
 40
0.0
 40
0.0
 40
0.5636966434
 40
1.0
 40
1.0
 40
1.0
 40
1.0
 10
114.0862494137
 20
458.7001726104
 30
0.0
 10
114.0846593318
 20
458.6803549274
 30
0.0
 10
114.0827069488
 20
458.6451287685
 30
0.0
 10
114.0836008603
 20
458.6097679293
 30
0.0
 10
114.0853076097
 20
458.5944746148
 30
0.0
  0
SPLINE
  5
370
100
AcDbEntity
  8
0
100
AcDbSpline
 62
7
  6
CONTINUOUS
 70
0
 71
3
 72
9
 73
5
 74
0
 42
0.0000001
 43
0.0000001
 44
0.0000000001
 40
0.0
 40
0.0
 40
0.0
 40
0.0
 40
0.2745370927
 40
1.0
 40
1.0
 40
1.0
 40
1.0
 10
114.086550959
 20
458.5851472322
 30
0.0
 10
114.0868216837
 20
458.5834258164
 30
0.0
 10
114.0878987182
 20
458.5771717788
 30
0.0
 10
114.0893534742
 20
458.5709713248
 30
0.0
 10
114.090753795
 20
458.5665846674
 30
0.0
  0
SPLINE
  5
371
100
AcDbEntity
  8
0
100
AcDbSpline
 62
7
  6
CONTINUOUS
 70
0
 71
3
 72
9
 73
5
 74
0
 42
0.0000001
 43
0.0000001
 44
0.0000000001
 40
0.0
 40
0.0
 40
0.0
 40
0.0
 40
0.2736458321
 40
1.0
 40
1.0
 40
1.0
 40
1.0
 10
114.090753795
 20
458.5665846674
 30
0.0
 10
114.0910868985
 20
458.5655411846
 30
0.0
 10
114.0923786882
 20
458.5617538915
 30
0.0
 10
114.0939890845
 20
458.5580622442
 30
0.0
 10
114.095424401
 20
458.5555337464
 30
0.0
  0
SPLINE
  5
372
100
AcDbEntity
  8
0
100
AcDbSpline
 62
7
  6
CONTINUOUS
 70
0
 71
3
 72
9
 73
5
 74
0
 42
0.0000001
 43
0.0000001
 44
0.0000000001
 40
0.0
 40
0.0
 40
0.0
 40
0.0
 40
0.5465843139
 40
1.0
 40
1.0
 40
1.0
 40
1.0
 10
114.095424401
 20
458.5555337464
 30
0.0
 10
114.0972662468
 20
458.5522890942
 30
0.0
 10
114.1014715312
 20
458.5465399304
 30
0.0
 10
114.1084328824
 20
458.5441795155
 30
0.0
 10
114.1115278886
 20
458.5441802694
 30
0.0
  0
SPLINE
  5
373
100
AcDbEntity
  8
0
100
AcDbSpline
 62
7
  6
CONTINUOUS
 70
0
 71
3
 72
10
 73
6
 74
0
 42
0.0000001
 43
0.0000001
 44
0.0000000001
 40
0.0
 40
0.0
 40
0.0
 40
0.0
 40
0.1352261486
 40
0.3421683636
 40
1.0
 40
1.0
 40
1.0
 40
1.0
 10
114.1115283891
 20
456.5071708584
 30
0.0
 10
114.1170599376
 20
456.5071708584
 30
0.0
 10
114.1304251469
 20
456.5003147192
 30
0.0
 10
114.1582592288
 20
456.4705523859
 30
0.0
 10
114.1763516556
 20
456.439519961
 30
0.0
 10
114.1891844036
 20
456.4158677796
 30
0.0
  0
SPLINE
  5
374
100
AcDbEntity
  8
0
100
AcDbSpline
 62
7
  6
CONTINUOUS
 70
0
 71
3
 72
10
 73
6
 74
0
 42
0.0000001
 43
0.0000001
 44
0.0000000001
 40
0.0
 40
0.0
 40
0.0
 40
0.0
 40
0.1351666651
 40
0.3420319074
 40
1.0
 40
1.0
 40
1.0
 40
1.0
 10
114.1115278886
 20
458.5441802694
 30
0.0
 10
114.1170570431
 20
458.5441816163
 30
0.0
 10
114.1304194625
 20
458.5510263466
 30
0.0
 10
114.1582515573
 20
458.5807963827
 30
0.0
 10
114.1763489024
 20
458.611825766
 30
0.0
 10
114.1891844036
 20
458.6354830219
 30
0.0
  0
LINE
  5
375
100
AcDbEntity
  8
0
100
AcDbLine
 62
7
  6
CONTINUOUS
 10
114.1891844036
 20
478.2256754007
 11
114.2307386216
 21
478.3783643676
  0
SPLINE
  5
376
100
AcDbEntity
  8
0
100
AcDbSpline
 62
7
  6
CONTINUOUS
 70
0
 71
3
 72
9
 73
5
 74
0
 42
0.0000001
 43
0.0000001
 44
0.0000000001
 40
0.0
 40
0.0
 40
0.0
 40
0.0
 40
0.4534043577
 40
1.0
 40
1.0
 40
1.0
 40
1.0
 10
114.1115283878
 20
475.5071708584
 30
0.0
 10
114.1084328839
 20
475.5071708584
 30
0.0
 10
114.101469035
 20
475.5048136105
 30
0.0
 10
114.0972654195
 20
475.4990600545
 30
0.0
 10
114.095423913
 20
475.4958143241
 30
0.0
  0
SPLINE
  5
377
100
AcDbEntity
  8
0
100
AcDbSpline
 62
7
  6
CONTINUOUS
 70
0
 71
3
 72
9
 73
5
 74
0
 42
0.0000001
 43
0.0000001
 44
0.0000000001
 40
0.0
 40
0.0
 40
0.0
 40
0.0
 40
0.2272965169
 40
1.0
 40
1.0
 40
1.0
 40
1.0
 10
114.095423913
 20
475.4958143241
 30
0.0
 10
114.0949749858
 20
475.4950230715
 30
0.0
 10
114.0931182446
 20
475.4914746847
 30
0.0
 10
114.0916942453
 20
475.4877123867
 30
0.0
 10
114.0907534337
 20
475.4847662833
 30
0.0
  0
SPLINE
  5
378
100
AcDbEntity
  8
0
100
AcDbSpline
 62
7
  6
CONTINUOUS
 70
0
 71
3
 72
9
 73
5
 74
0
 42
0.0000001
 43
0.0000001
 44
0.0000000001
 40
0.0
 40
0.0
 40
0.0
 40
0.0
 40
0.2258648086
 40
1.0
 40
1.0
 40
1.0
 40
1.0
 10
114.0907534337
 20
475.4847662833
 30
0.0
 10
114.0903173089
 20
475.4834005811
 30
0.0
 10
114.0885418575
 20
475.4773043278
 30
0.0
 10
114.0873140717
 20
475.4710589391
 30
0.0
 10
114.0865508918
 20
475.4662048427
 30
0.0
  0
SPLINE
  5
379
100
AcDbEntity
  8
0
100
AcDbSpline
 62
7
  6
CONTINUOUS
 70
0
 71
3
 72
9
 73
5
 74
0
 42
0.0000001
 43
0.0000001
 44
0.0000000001
 40
0.0
 40
0.0
 40
0.0
 40
0.0
 40
0.4363155745
 40
1.0
 40
1.0
 40
1.0
 40
1.0
 10
114.0853074232
 20
475.4568762732
 30
0.0
 10
114.0836002261
 20
475.4415827907
 30
0.0
 10
114.082708812
 20
475.4062223871
 30
0.0
 10
114.0846571019
 20
475.3709965575
 30
0.0
 10
114.0862479922
 20
475.3511796495
 30
0.0
  0
SPLINE
  5
37A
100
AcDbEntity
  8
0
100
AcDbSpline
 62
7
  6
CONTINUOUS
 70
0
 71
3
 72
9
 73
5
 74
0
 42
0.0000001
 43
0.0000001
 44
0.0000000001
 40
0.0
 40
0.0
 40
0.0
 40
0.0
 40
0.2247535828
 40
1.0
 40
1.0
 40
1.0
 40
1.0
 10
114.0874041361
 20
475.3377307959
 30
0.0
 10
114.0885203324
 20
475.32552583
 30
0.0
 10
114.0942655905
 20
475.2712934659
 30
0.0
 10
114.1025831789
 20
475.2173578012
 30
0.0
 10
114.1098826057
 20
475.1757182683
 30
0.0
  0
SPLINE
  5
37B
100
AcDbEntity
  8
0
100
AcDbSpline
 62
7
  6
CONTINUOUS
 70
0
 71
3
 72
11
 73
7
 74
0
 42
0.0000001
 43
0.0000001
 44
0.0000000001
 40
0.0
 40
0.0
 40
0.0
 40
0.0
 40
0.2640341272
 40
0.5429673174
 40
0.7985635341
 40
1.0
 40
1.0
 40
1.0
 40
1.0
 10
114.2711028992
 20
475.5256754007
 30
0.0
 10
114.2711028992
 20
475.5617375458
 30
0.0
 10
114.2664783837
 20
475.6359000696
 30
0.0
 10
114.2504628734
 20
475.7439254797
 30
0.0
 10
114.2271367086
 20
475.841766021
 30
0.0
 10
114.2063462481
 20
475.9009715621
 30
0.0
 10
114.1942360717
 20
475.9256754007
 30
0.0
  0
SPLINE
  5
37C
100
AcDbEntity
  8
0
100
AcDbSpline
 62
7
  6
CONTINUOUS
 70
0
 71
3
 72
10
 73
6
 74
0
 42
0.0000001
 43
0.0000001
 44
0.0000000001
 40
0.0
 40
0.0
 40
0.0
 40
0.0
 40
0.3131827598
 40
0.6110018254
 40
1.0
 40
1.0
 40
1.0
 40
1.0
 10
114.2300052102
 20
475.3756752056
 30
0.0
 10
114.2445712613
 20
475.3756809796
 30
0.0
 10
114.2608247638
 20
475.4107155683
 30
0.0
 10
114.26773162
 20
475.4529289407
 30
0.0
 10
114.2702759107
 20
475.4858558413
 30
0.0
 10
114.2707973307
 20
475.5039405344
 30
0.0
  0
LINE
  5
37D
100
AcDbEntity
  8
0
100
AcDbLine
 62
7
  6
CONTINUOUS
 10
114.2307000424
 20
474.6731292417
 11
114.1891844036
 21
474.8256754007
  0
SPLINE
  5
37E
100
AcDbEntity
  8
0
100
AcDbSpline
 62
7
  6
CONTINUOUS
 70
0
 71
3
 72
11
 73
7
 74
0
 42
0.0000001
 43
0.0000001
 44
0.0000000001
 40
0.0
 40
0.0
 40
0.0
 40
0.0
 40
0.2014238408
 40
0.4570280339
 40
0.7359743677
 40
1.0
 40
1.0
 40
1.0
 40
1.0
 10
114.1942360717
 20
477.1256754007
 30
0.0
 10
114.2063454884
 20
477.1503776896
 30
0.0
 10
114.2271357395
 20
477.2095825923
 30
0.0
 10
114.2504628735
 20
477.3074240994
 30
0.0
 10
114.2664783608
 20
477.4154512786
 30
0.0
 10
114.2711028872
 20
477.4896144181
 30
0.0
 10
114.2711028872
 20
477.5256754007
 30
0.0
  0
SPLINE
  5
37F
100
AcDbEntity
  8
0
100
AcDbSpline
 62
7
  6
CONTINUOUS
 70
0
 71
3
 72
10
 73
6
 74
0
 42
0.0000001
 43
0.0000001
 44
0.0000000001
 40
0.0
 40
0.0
 40
0.0
 40
0.0
 40
0.3890225872
 40
0.6868295751
 40
1.0
 40
1.0
 40
1.0
 40
1.0
 10
114.2707970668
 20
477.5474167323
 30
0.0
 10
114.2702753863
 20
477.5655017261
 30
0.0
 10
114.2677312133
 20
477.5984278446
 30
0.0
 10
114.2608232768
 20
477.6406388992
 30
0.0
 10
114.2445704316
 20
477.67567064
 30
0.0
 10
114.2300056199
 20
477.6756757035
 30
0.0
  0
SPLINE
  5
380
100
AcDbEntity
  8
0
100
AcDbSpline
 62
7
  6
CONTINUOUS
 70
0
 71
3
 72
9
 73
5
 74
0
 42
0.0000001
 43
0.0000001
 44
0.0000000001
 40
0.0
 40
0.0
 40
0.0
 40
0.0
 40
0.2735830278
 40
1.0
 40
1.0
 40
1.0
 40
1.0
 10
114.109881463
 20
477.8756251343
 30
0.0
 10
114.1073057764
 20
477.8609323241
 30
0.0
 10
114.0983188942
 20
477.8071573414
 30
0.0
 10
114.0910107847
 20
477.7530707595
 30
0.0
 10
114.0874054949
 20
477.7136279682
 30
0.0
  0
SPLINE
  5
381
100
AcDbEntity
  8
0
100
AcDbSpline
 62
7
  6
CONTINUOUS
 70
0
 71
3
 72
9
 73
5
 74
0
 42
0.0000001
 43
0.0000001
 44
0.0000000001
 40
0.0
 40
0.0
 40
0.0
 40
0.0
 40
0.5636966434
 40
1.0
 40
1.0
 40
1.0
 40
1.0
 10
114.0862494137
 20
477.7001726104
 30
0.0
 10
114.0846593318
 20
477.6803549274
 30
0.0
 10
114.0827069488
 20
477.6451287685
 30
0.0
 10
114.0836008603
 20
477.6097679293
 30
0.0
 10
114.0853076097
 20
477.5944746148
 30
0.0
  0
SPLINE
  5
382
100
AcDbEntity
  8
0
100
AcDbSpline
 62
7
  6
CONTINUOUS
 70
0
 71
3
 72
9
 73
5
 74
0
 42
0.0000001
 43
0.0000001
 44
0.0000000001
 40
0.0
 40
0.0
 40
0.0
 40
0.0
 40
0.2745370927
 40
1.0
 40
1.0
 40
1.0
 40
1.0
 10
114.086550959
 20
477.5851472322
 30
0.0
 10
114.0868216837
 20
477.5834258164
 30
0.0
 10
114.0878987182
 20
477.5771717788
 30
0.0
 10
114.0893534742
 20
477.5709713248
 30
0.0
 10
114.090753795
 20
477.5665846674
 30
0.0
  0
SPLINE
  5
383
100
AcDbEntity
  8
0
100
AcDbSpline
 62
7
  6
CONTINUOUS
 70
0
 71
3
 72
9
 73
5
 74
0
 42
0.0000001
 43
0.0000001
 44
0.0000000001
 40
0.0
 40
0.0
 40
0.0
 40
0.0
 40
0.2736458321
 40
1.0
 40
1.0
 40
1.0
 40
1.0
 10
114.090753795
 20
477.5665846674
 30
0.0
 10
114.0910868985
 20
477.5655411846
 30
0.0
 10
114.0923786882
 20
477.5617538915
 30
0.0
 10
114.0939890845
 20
477.5580622442
 30
0.0
 10
114.095424401
 20
477.5555337464
 30
0.0
  0
SPLINE
  5
384
100
AcDbEntity
  8
0
100
AcDbSpline
 62
7
  6
CONTINUOUS
 70
0
 71
3
 72
9
 73
5
 74
0
 42
0.0000001
 43
0.0000001
 44
0.0000000001
 40
0.0
 40
0.0
 40
0.0
 40
0.0
 40
0.5465843139
 40
1.0
 40
1.0
 40
1.0
 40
1.0
 10
114.095424401
 20
477.5555337464
 30
0.0
 10
114.0972662468
 20
477.5522890942
 30
0.0
 10
114.1014715312
 20
477.5465399304
 30
0.0
 10
114.1084328824
 20
477.5441795155
 30
0.0
 10
114.1115278886
 20
477.5441802694
 30
0.0
  0
SPLINE
  5
385
100
AcDbEntity
  8
0
100
AcDbSpline
 62
7
  6
CONTINUOUS
 70
0
 71
3
 72
10
 73
6
 74
0
 42
0.0000001
 43
0.0000001
 44
0.0000000001
 40
0.0
 40
0.0
 40
0.0
 40
0.0
 40
0.1352261486
 40
0.3421683636
 40
1.0
 40
1.0
 40
1.0
 40
1.0
 10
114.1115283891
 20
475.5071708584
 30
0.0
 10
114.1170599376
 20
475.5071708584
 30
0.0
 10
114.1304251469
 20
475.5003147192
 30
0.0
 10
114.1582592288
 20
475.4705523859
 30
0.0
 10
114.1763516556
 20
475.439519961
 30
0.0
 10
114.1891844036
 20
475.4158677796
 30
0.0
  0
SPLINE
  5
386
100
AcDbEntity
  8
0
100
AcDbSpline
 62
7
  6
CONTINUOUS
 70
0
 71
3
 72
10
 73
6
 74
0
 42
0.0000001
 43
0.0000001
 44
0.0000000001
 40
0.0
 40
0.0
 40
0.0
 40
0.0
 40
0.1351666651
 40
0.3420319074
 40
1.0
 40
1.0
 40
1.0
 40
1.0
 10
114.1115278886
 20
477.5441802694
 30
0.0
 10
114.1170570431
 20
477.5441816163
 30
0.0
 10
114.1304194625
 20
477.5510263466
 30
0.0
 10
114.1582515573
 20
477.5807963827
 30
0.0
 10
114.1763489024
 20
477.611825766
 30
0.0
 10
114.1891844036
 20
477.6354830219
 30
0.0
  0
LINE
  5
387
100
AcDbEntity
  8
0
100
AcDbLine
 62
7
  6
CONTINUOUS
 10
114.1891844036
 20
615.9256754007
 11
114.2307386216
 21
616.0783643676
  0
SPLINE
  5
388
100
AcDbEntity
  8
0
100
AcDbSpline
 62
7
  6
CONTINUOUS
 70
0
 71
3
 72
9
 73
5
 74
0
 42
0.0000001
 43
0.0000001
 44
0.0000000001
 40
0.0
 40
0.0
 40
0.0
 40
0.0
 40
0.4534043577
 40
1.0
 40
1.0
 40
1.0
 40
1.0
 10
114.1115283878
 20
613.2071708584
 30
0.0
 10
114.1084328839
 20
613.2071708584
 30
0.0
 10
114.101469035
 20
613.2048136105
 30
0.0
 10
114.0972654195
 20
613.1990600545
 30
0.0
 10
114.095423913
 20
613.1958143241
 30
0.0
  0
SPLINE
  5
389
100
AcDbEntity
  8
0
100
AcDbSpline
 62
7
  6
CONTINUOUS
 70
0
 71
3
 72
9
 73
5
 74
0
 42
0.0000001
 43
0.0000001
 44
0.0000000001
 40
0.0
 40
0.0
 40
0.0
 40
0.0
 40
0.2272965169
 40
1.0
 40
1.0
 40
1.0
 40
1.0
 10
114.095423913
 20
613.1958143241
 30
0.0
 10
114.0949749858
 20
613.1950230715
 30
0.0
 10
114.0931182446
 20
613.1914746847
 30
0.0
 10
114.0916942453
 20
613.1877123867
 30
0.0
 10
114.0907534337
 20
613.1847662833
 30
0.0
  0
SPLINE
  5
38A
100
AcDbEntity
  8
0
100
AcDbSpline
 62
7
  6
CONTINUOUS
 70
0
 71
3
 72
9
 73
5
 74
0
 42
0.0000001
 43
0.0000001
 44
0.0000000001
 40
0.0
 40
0.0
 40
0.0
 40
0.0
 40
0.2258648087
 40
1.0
 40
1.0
 40
1.0
 40
1.0
 10
114.0907534337
 20
613.1847662833
 30
0.0
 10
114.0903173089
 20
613.1834005811
 30
0.0
 10
114.0885418575
 20
613.1773043278
 30
0.0
 10
114.0873140717
 20
613.1710589391
 30
0.0
 10
114.0865508918
 20
613.1662048427
 30
0.0
  0
SPLINE
  5
38B
100
AcDbEntity
  8
0
100
AcDbSpline
 62
7
  6
CONTINUOUS
 70
0
 71
3
 72
9
 73
5
 74
0
 42
0.0000001
 43
0.0000001
 44
0.0000000001
 40
0.0
 40
0.0
 40
0.0
 40
0.0
 40
0.4363155745
 40
1.0
 40
1.0
 40
1.0
 40
1.0
 10
114.0853074232
 20
613.1568762732
 30
0.0
 10
114.0836002261
 20
613.1415827907
 30
0.0
 10
114.082708812
 20
613.1062223871
 30
0.0
 10
114.0846571019
 20
613.0709965575
 30
0.0
 10
114.0862479922
 20
613.0511796495
 30
0.0
  0
SPLINE
  5
38C
100
AcDbEntity
  8
0
100
AcDbSpline
 62
7
  6
CONTINUOUS
 70
0
 71
3
 72
9
 73
5
 74
0
 42
0.0000001
 43
0.0000001
 44
0.0000000001
 40
0.0
 40
0.0
 40
0.0
 40
0.0
 40
0.2247535828
 40
1.0
 40
1.0
 40
1.0
 40
1.0
 10
114.0874041361
 20
613.0377307959
 30
0.0
 10
114.0885203324
 20
613.02552583
 30
0.0
 10
114.0942655905
 20
612.9712934659
 30
0.0
 10
114.1025831789
 20
612.9173578012
 30
0.0
 10
114.1098826057
 20
612.8757182683
 30
0.0
  0
SPLINE
  5
38D
100
AcDbEntity
  8
0
100
AcDbSpline
 62
7
  6
CONTINUOUS
 70
0
 71
3
 72
11
 73
7
 74
0
 42
0.0000001
 43
0.0000001
 44
0.0000000001
 40
0.0
 40
0.0
 40
0.0
 40
0.0
 40
0.2640341272
 40
0.5429673174
 40
0.7985635341
 40
1.0
 40
1.0
 40
1.0
 40
1.0
 10
114.2711028992
 20
613.2256754007
 30
0.0
 10
114.2711028992
 20
613.2617375458
 30
0.0
 10
114.2664783837
 20
613.3359000696
 30
0.0
 10
114.2504628734
 20
613.4439254797
 30
0.0
 10
114.2271367086
 20
613.541766021
 30
0.0
 10
114.2063462481
 20
613.6009715621
 30
0.0
 10
114.1942360717
 20
613.6256754007
 30
0.0
  0
SPLINE
  5
38E
100
AcDbEntity
  8
0
100
AcDbSpline
 62
7
  6
CONTINUOUS
 70
0
 71
3
 72
10
 73
6
 74
0
 42
0.0000001
 43
0.0000001
 44
0.0000000001
 40
0.0
 40
0.0
 40
0.0
 40
0.0
 40
0.3131827598
 40
0.6110018254
 40
1.0
 40
1.0
 40
1.0
 40
1.0
 10
114.2300052102
 20
613.0756752056
 30
0.0
 10
114.2445712613
 20
613.0756809796
 30
0.0
 10
114.2608247638
 20
613.1107155683
 30
0.0
 10
114.26773162
 20
613.1529289407
 30
0.0
 10
114.2702759107
 20
613.1858558413
 30
0.0
 10
114.2707973307
 20
613.2039405344
 30
0.0
  0
LINE
  5
38F
100
AcDbEntity
  8
0
100
AcDbLine
 62
7
  6
CONTINUOUS
 10
114.2307000424
 20
612.3731292417
 11
114.1891844036
 21
612.5256754007
  0
SPLINE
  5
390
100
AcDbEntity
  8
0
100
AcDbSpline
 62
7
  6
CONTINUOUS
 70
0
 71
3
 72
11
 73
7
 74
0
 42
0.0000001
 43
0.0000001
 44
0.0000000001
 40
0.0
 40
0.0
 40
0.0
 40
0.0
 40
0.2014238408
 40
0.4570280339
 40
0.7359743677
 40
1.0
 40
1.0
 40
1.0
 40
1.0
 10
114.1942360717
 20
614.8256754007
 30
0.0
 10
114.2063454884
 20
614.8503776896
 30
0.0
 10
114.2271357395
 20
614.9095825923
 30
0.0
 10
114.2504628735
 20
615.0074240994
 30
0.0
 10
114.2664783608
 20
615.1154512786
 30
0.0
 10
114.2711028872
 20
615.1896144181
 30
0.0
 10
114.2711028872
 20
615.2256754007
 30
0.0
  0
SPLINE
  5
391
100
AcDbEntity
  8
0
100
AcDbSpline
 62
7
  6
CONTINUOUS
 70
0
 71
3
 72
10
 73
6
 74
0
 42
0.0000001
 43
0.0000001
 44
0.0000000001
 40
0.0
 40
0.0
 40
0.0
 40
0.0
 40
0.3890225872
 40
0.6868295751
 40
1.0
 40
1.0
 40
1.0
 40
1.0
 10
114.2707970668
 20
615.2474167323
 30
0.0
 10
114.2702753863
 20
615.2655017261
 30
0.0
 10
114.2677312133
 20
615.2984278446
 30
0.0
 10
114.2608232768
 20
615.3406388992
 30
0.0
 10
114.2445704316
 20
615.37567064
 30
0.0
 10
114.2300056199
 20
615.3756757035
 30
0.0
  0
SPLINE
  5
392
100
AcDbEntity
  8
0
100
AcDbSpline
 62
7
  6
CONTINUOUS
 70
0
 71
3
 72
9
 73
5
 74
0
 42
0.0000001
 43
0.0000001
 44
0.0000000001
 40
0.0
 40
0.0
 40
0.0
 40
0.0
 40
0.2735830278
 40
1.0
 40
1.0
 40
1.0
 40
1.0
 10
114.109881463
 20
615.5756251343
 30
0.0
 10
114.1073057764
 20
615.5609323241
 30
0.0
 10
114.0983188942
 20
615.5071573414
 30
0.0
 10
114.0910107847
 20
615.4530707595
 30
0.0
 10
114.0874054949
 20
615.4136279682
 30
0.0
  0
SPLINE
  5
393
100
AcDbEntity
  8
0
100
AcDbSpline
 62
7
  6
CONTINUOUS
 70
0
 71
3
 72
9
 73
5
 74
0
 42
0.0000001
 43
0.0000001
 44
0.0000000001
 40
0.0
 40
0.0
 40
0.0
 40
0.0
 40
0.5636966434
 40
1.0
 40
1.0
 40
1.0
 40
1.0
 10
114.0862494137
 20
615.4001726104
 30
0.0
 10
114.0846593318
 20
615.3803549274
 30
0.0
 10
114.0827069488
 20
615.3451287685
 30
0.0
 10
114.0836008603
 20
615.3097679293
 30
0.0
 10
114.0853076097
 20
615.2944746148
 30
0.0
  0
SPLINE
  5
394
100
AcDbEntity
  8
0
100
AcDbSpline
 62
7
  6
CONTINUOUS
 70
0
 71
3
 72
9
 73
5
 74
0
 42
0.0000001
 43
0.0000001
 44
0.0000000001
 40
0.0
 40
0.0
 40
0.0
 40
0.0
 40
0.2745370927
 40
1.0
 40
1.0
 40
1.0
 40
1.0
 10
114.086550959
 20
615.2851472322
 30
0.0
 10
114.0868216837
 20
615.2834258164
 30
0.0
 10
114.0878987182
 20
615.2771717788
 30
0.0
 10
114.0893534742
 20
615.2709713248
 30
0.0
 10
114.090753795
 20
615.2665846674
 30
0.0
  0
SPLINE
  5
395
100
AcDbEntity
  8
0
100
AcDbSpline
 62
7
  6
CONTINUOUS
 70
0
 71
3
 72
9
 73
5
 74
0
 42
0.0000001
 43
0.0000001
 44
0.0000000001
 40
0.0
 40
0.0
 40
0.0
 40
0.0
 40
0.2736458321
 40
1.0
 40
1.0
 40
1.0
 40
1.0
 10
114.090753795
 20
615.2665846674
 30
0.0
 10
114.0910868985
 20
615.2655411846
 30
0.0
 10
114.0923786882
 20
615.2617538915
 30
0.0
 10
114.0939890845
 20
615.2580622442
 30
0.0
 10
114.095424401
 20
615.2555337464
 30
0.0
  0
SPLINE
  5
396
100
AcDbEntity
  8
0
100
AcDbSpline
 62
7
  6
CONTINUOUS
 70
0
 71
3
 72
9
 73
5
 74
0
 42
0.0000001
 43
0.0000001
 44
0.0000000001
 40
0.0
 40
0.0
 40
0.0
 40
0.0
 40
0.5465843139
 40
1.0
 40
1.0
 40
1.0
 40
1.0
 10
114.095424401
 20
615.2555337464
 30
0.0
 10
114.0972662468
 20
615.2522890942
 30
0.0
 10
114.1014715312
 20
615.2465399304
 30
0.0
 10
114.1084328824
 20
615.2441795155
 30
0.0
 10
114.1115278886
 20
615.2441802694
 30
0.0
  0
SPLINE
  5
397
100
AcDbEntity
  8
0
100
AcDbSpline
 62
7
  6
CONTINUOUS
 70
0
 71
3
 72
10
 73
6
 74
0
 42
0.0000001
 43
0.0000001
 44
0.0000000001
 40
0.0
 40
0.0
 40
0.0
 40
0.0
 40
0.1352261486
 40
0.3421683636
 40
1.0
 40
1.0
 40
1.0
 40
1.0
 10
114.1115283891
 20
613.2071708584
 30
0.0
 10
114.1170599376
 20
613.2071708584
 30
0.0
 10
114.1304251469
 20
613.2003147192
 30
0.0
 10
114.1582592288
 20
613.1705523859
 30
0.0
 10
114.1763516556
 20
613.139519961
 30
0.0
 10
114.1891844036
 20
613.1158677796
 30
0.0
  0
SPLINE
  5
398
100
AcDbEntity
  8
0
100
AcDbSpline
 62
7
  6
CONTINUOUS
 70
0
 71
3
 72
10
 73
6
 74
0
 42
0.0000001
 43
0.0000001
 44
0.0000000001
 40
0.0
 40
0.0
 40
0.0
 40
0.0
 40
0.1351666651
 40
0.3420319074
 40
1.0
 40
1.0
 40
1.0
 40
1.0
 10
114.1115278886
 20
615.2441802694
 30
0.0
 10
114.1170570431
 20
615.2441816163
 30
0.0
 10
114.1304194625
 20
615.2510263466
 30
0.0
 10
114.1582515573
 20
615.2807963827
 30
0.0
 10
114.1763489024
 20
615.311825766
 30
0.0
 10
114.1891844036
 20
615.3354830219
 30
0.0
  0
SPLINE
  5
399
100
AcDbEntity
  8
0
100
AcDbSpline
 62
7
  6
CONTINUOUS
 70
0
 71
3
 72
11
 73
7
 74
0
 42
0.0000001
 43
0.0000001
 44
0.0000000001
 40
0.0
 40
0.0
 40
0.0
 40
0.0
 40
0.3834781732
 40
0.6953893785
 40
0.9037378879
 40
1.0
 40
1.0
 40
1.0
 40
1.0
 10
97.5629831255
 20
641.7639626905
 30
0.0
 10
97.5693408282
 20
641.9583502879
 30
0.0
 10
97.586267585
 20
642.3071192455
 30
0.0
 10
97.6531754413
 20
642.7746618991
 30
0.0
 10
97.712457758
 20
643.0541226149
 30
0.0
 10
97.8069404306
 20
643.2256754007
 30
0.0
 10
97.8557624172
 20
643.2256754007
 30
0.0
  0
SPLINE
  5
39A
100
AcDbEntity
  8
0
100
AcDbSpline
 62
7
  6
CONTINUOUS
 70
0
 71
3
 72
11
 73
7
 74
0
 42
0.0000001
 43
0.0000001
 44
0.0000000001
 40
0.0
 40
0.0
 40
0.0
 40
0.0
 40
0.38358149
 40
0.695430258
 40
0.9037254386
 40
1.0
 40
1.0
 40
1.0
 40
1.0
 10
624.248532026
 20
641.7643528294
 30
0.0
 10
624.2421725224
 20
641.9587434934
 30
0.0
 10
624.2252604801
 20
642.3074533103
 30
0.0
 10
624.1582247636
 20
642.7748311028
 30
0.0
 10
624.0990714994
 20
643.0542253927
 30
0.0
 10
624.0045783501
 20
643.2256754007
 30
0.0
 10
623.9557624172
 20
643.2256754007
 30
0.0
  0
ENDSEC
  0
SECTION
  2
OBJECTS
  0
DICTIONARY
  5
C
100
AcDbDictionary
280
0
281
1
  3
ACAD_GROUP
350
D
  3
ACAD_MLINESTYLE
350
17
  3
ACAD_LAYOUT
350
1A
  3
ACAD_PLOTSETTINGS
350
19
  3
ACAD_PLOTSTYLENAME
350
E
  0
DICTIONARY
  5
D
102
{ACAD_REACTORS
330
C
102
}
100
AcDbDictionary
280
0
281
1
  0
ACDBDICTIONARYWDFLT
  5
E
102
{ACAD_REACTORS
330
C
102
}
100
AcDbDictionary
281
1
  3
Normal
350
F
100
AcDbDictionaryWithDefault
340
F
  0
DICTIONARY
  5
17
102
{ACAD_REACTORS
330
C
102
}
100
AcDbDictionary
280
0
281
1
  3
Standard
350
18
  0
DICTIONARY
  5
19
102
{ACAD_REACTORS
330
C
102
}
100
AcDbDictionary
281
1
  0
DICTIONARY
  5
1A
102
{ACAD_REACTORS
330
C
102
}
100
AcDbDictionary
281
1
  3
Model
350
39B
  3
Layout1
350
39C
  0
ACDBPLACEHOLDER
  5
F
102
{ACAD_REACTORS
330
E
102
}
  0
MLINESTYLE
  5
18
102
{ACAD_REACTORS
330
17
102
}
100
AcDbMlineStyle
  2
STANDARD
 70
0
  3

 62
256
 51
90.0
 52
90.0
 71
2
 49
0.5
 62
256
  6
BYLAYER
 49
-0.5
 62
256
  6
BYLAYER
  0
LAYOUT
  5
39B
102
{ACAD_REACTORS
330
1A
102
}
100
AcDbPlotSettings
  1

  2
none_device
  4

  6

 40
0.0
 41
0.0
 42
0.0
 43
0.0
 44
210.0
 45
297.0
 46
0.0
 47
0.0
 48
0.0
 49
0.0
140
0.0
141
0.0
142
1.0
143
1.0
 70
1024
 72
1
 73
0
 74
0
  7

 75
0
147
1.0
148
0.0
149
0.0
100
AcDbLayout
  1
Model
 70
0
 71
0
 10
0.0
 20
0.0
 11
210.0
 21
297.0
 12
0.0
 22
0.0
 32
0.0
 14
0.0
 24
0.0
 34
0.0
 15
0.0
 25
0.0
 35
0.0
146
0.0
 13
0.0
 23
0.0
 33
0.0
 16
1.0
 26
0.0
 36
0.0
 17
0.0
 27
1.0
 37
0.0
 76
0
330
210
345
0
346
0
  0
LAYOUT
  5
39C
102
{ACAD_REACTORS
330
1A
102
}
100
AcDbPlotSettings
  1

  2
none_device
  4

  6

 40
0.0
 41
0.0
 42
0.0
 43
0.0
 44
210.0
 45
297.0
 46
0.0
 47
0.0
 48
0.0
 49
0.0
140
0.0
141
0.0
142
1.0
143
1.0
 70
0
 72
1
 73
0
 74
0
  7

 75
0
147
1.0
148
0.0
149
0.0
100
AcDbLayout
  1
Layout1
 70
0
 71
1
 10
0.0
 20
0.0
 11
210.0
 21
297.0
 12
0.0
 22
0.0
 32
0.0
 14
0.0
 24
0.0
 34
0.0
 15
0.0
 25
0.0
 35
0.0
146
0.0
 13
0.0
 23
0.0
 33
0.0
 16
1.0
 26
0.0
 36
0.0
 17
0.0
 27
1.0
 37
0.0
 76
0
330
211
345
0
346
0
  0
ENDSEC
  0
EOF
