999
DXF file: C:\Users\sesa63760\Dev\_Creo\CAD\MCADID0001227_3D-CAD\drw0001_7.dxf
999
Pro/ENGINEER 2019471 by Parametric Technology Corporation
  0
SECTION
  2
HEADER
  9
$ACADVER
  1
AC1024
  9
$DWGCODEPAGE
  3
ANSI_1252
  9
$EXTMAX
 10
46.1382976372
 20
65.2527352298
 30
0.0
  9
$EXTMIN
 10
0.0
 20
0.0
 30
0.0
  9
$LIMMIN
 10
0.0
 20
0.0
  9
$LIMMAX
 10
46.1382976372
 20
65.2527352298
  9
$VIEWCTR
 10
23.0691488186
 20
32.6263676149
  9
$VIEWSIZE
 40
65.2527352298
  9
$CLAYER
  8
0
  9
$LTSCALE
 40
4.2535116298
  9
$CELTYPE
  6
BYLAYER
  9
$DIMSCALE
 40
1.0
  9
$DIMASZ
 40
0.5492654481
  9
$DIMEXO
 40
1.0
  9
$DIMDLI
 40
2.9387898533
  9
$DIMEXE
 40
1.0
  9
$DIMCEN
 40
0.6960291758
  9
$DIMLFAC
 40
1.0
  9
$DIMBLK
  1
_FILLED
  9
$DIMALT
 70
0
  9
$DIMALTF
 40
0.0393700787
  9
$DIMTXT
 40
0.7689716273
  9
$DIMTOL
 70
1
  9
$DIMLIM
 70
0
  9
$DIMTFAC
 40
1.0
  9
$DIMTP
 40
0.01
  9
$DIMTM
 40
0.01
  9
$DIMGAP
 40
0.625
  9
$DIMDSEP
 70
46
  9
$AUNITS
 70
0
  9
$PDMODE
 70
3
  9
$PDSIZE
 40
0.3125
  9
$HANDSEED
  5
386
  9
$TILEMODE
 70
1
  9
$MEASUREMENT
 70
1
  9
$INSUNITS
 70
4
  0
ENDSEC
  0
SECTION
  2
CLASSES
  0
CLASS
  1
ACDBDICTIONARYWDFLT
  2
AcDbDictionaryWithDefault
  3
AutoCAD 2000
 90
0
 91
1
280
0
281
0
  0
CLASS
  1
ACDBPLACEHOLDER
  2
AcDbPlaceHolder
  3
AutoCAD 2000
 90
0
 91
1
280
0
281
0
  0
CLASS
  1
LAYOUT
  2
AcDbLayout
  3
AutoCAD 2000
 90
0
 91
0
280
0
281
0
  0
ENDSEC
  0
SECTION
  2
TABLES
  0
TABLE
  2
VPORT
  5
8
100
AcDbSymbolTable
 70
2
  0
VPORT
  5
1F4
100
AcDbSymbolTableRecord
100
AcDbViewportTableRecord
  2
*ACTIVE
 70
0
 10
0.0
 20
0.0
 11
1.0
 21
1.0
 12
23.0691488186
 22
32.6263676149
 13
0.0
 23
0.0
 14
1.0
 24
1.0
 15
0.0
 25
0.0
 16
0.0
 26
0.0
 36
1.0
 17
0.0
 27
0.0
 37
0.0
 40
65.2527352298
 41
0.7070707071
 42
50.0
 43
0.0
 44
0.0
 50
0.0
 51
0.0
 71
0
 72
100
 73
1
 74
1
 75
0
 76
0
 77
0
 78
0
  0
ENDTAB
  0
TABLE
  2
LTYPE
  5
5
100
AcDbSymbolTable
 70
6
  0
LTYPE
  5
14
100
AcDbSymbolTableRecord
100
AcDbLinetypeTableRecord
  2
BYBLOCK
 70
0
  3

 72
65
 73
0
 40
0.0
  0
LTYPE
  5
15
100
AcDbSymbolTableRecord
100
AcDbLinetypeTableRecord
  2
BYLAYER
 70
0
  3

 72
65
 73
0
 40
0.0
  0
LTYPE
  5
16
100
AcDbSymbolTableRecord
100
AcDbLinetypeTableRecord
  2
CONTINUOUS
 70
64
  3
Solid line
 72
65
 73
0
 40
0.0
  0
LTYPE
  5
1F5
100
AcDbSymbolTableRecord
100
AcDbLinetypeTableRecord
  2
CENTER
 70
64
  3
____ _ ____ _ ____ _ ____ _ ____ _ ____ _ ____
 72
65
 73
4
 40
0.6
 49
0.375
 74
0
 49
-0.075
 74
0
 49
0.075
 74
0
 49
-0.075
 74
0
  0
LTYPE
  5
1F6
100
AcDbSymbolTableRecord
100
AcDbLinetypeTableRecord
  2
HIDDEN
 70
64
  3
- - - - - - - - - - - - - - - - - - - -
 72
65
 73
2
 40
0.2
 49
0.1
 74
0
 49
-0.1
 74
0
  0
LTYPE
  5
1F7
100
AcDbSymbolTableRecord
100
AcDbLinetypeTableRecord
  2
PHANTOM
 70
64
  3
_____ _ _ _____ _ _ _____ _ _ _____
 72
65
 73
6
 40
0.8
 49
0.45
 74
0
 49
-0.05
 74
0
 49
0.1
 74
0
 49
-0.05
 74
0
 49
0.1
 74
0
 49
-0.05
 74
0
  0
LTYPE
  5
1F8
100
AcDbSymbolTableRecord
100
AcDbLinetypeTableRecord
  2
DOT
 70
64
  3
. . . . . . . . . . . . . . . . . . . .
 72
65
 73
2
 40
0.2
 49
0.1
 74
0
 49
-0.1
 74
0
  0
LTYPE
  5
1F9
100
AcDbSymbolTableRecord
100
AcDbLinetypeTableRecord
  2
DASHED
 70
64
  3
- - - - - - - - - - - - - - - - - - - -
 72
65
 73
2
 40
0.2
 49
0.1
 74
0
 49
-0.1
 74
0
  0
ENDTAB
  0
TABLE
  2
LAYER
  5
2
100
AcDbSymbolTable
 70
36
  0
LAYER
  5
10
100
AcDbSymbolTableRecord
100
AcDbLayerTableRecord
  2
0
 70
0
 62
7
  6
CONTINUOUS
370
-3
390
F
  0
LAYER
  5
1FA
100
AcDbSymbolTableRecord
100
AcDbLayerTableRecord
  2
DEFAULT_1
 70
0
 62
7
  6
CENTER
370
-3
390
F
  0
LAYER
  5
1FB
100
AcDbSymbolTableRecord
100
AcDbLayerTableRecord
  2
DEFAULT_2
 70
0
 62
8
  6
HIDDEN
370
-3
390
F
  0
LAYER
  5
1FC
100
AcDbSymbolTableRecord
100
AcDbLayerTableRecord
  2
DEFAULT_3
 70
0
 62
7
  6
PHANTOM
370
-3
390
F
  0
LAYER
  5
1FD
100
AcDbSymbolTableRecord
100
AcDbLayerTableRecord
  2
00_COMPONENTS
 70
0
 62
7
  6
CONTINUOUS
370
-3
390
F
  0
LAYER
  5
1FE
100
AcDbSymbolTableRecord
100
AcDbLayerTableRecord
  2
01_1_DEFAULT_DATUMS
 70
0
 62
7
  6
CONTINUOUS
370
-3
390
F
  0
LAYER
  5
1FF
100
AcDbSymbolTableRecord
100
AcDbLayerTableRecord
  2
01_PLANES
 70
0
 62
7
  6
CONTINUOUS
370
-3
390
F
  0
LAYER
  5
200
100
AcDbSymbolTableRecord
100
AcDbLayerTableRecord
  2
02_COORD_SYS
 70
0
 62
7
  6
CONTINUOUS
370
-3
390
F
  0
LAYER
  5
201
100
AcDbSymbolTableRecord
100
AcDbLayerTableRecord
  2
03_AXES
 70
0
 62
7
  6
CONTINUOUS
370
-3
390
F
  0
LAYER
  5
202
100
AcDbSymbolTableRecord
100
AcDbLayerTableRecord
  2
04_POINTS
 70
0
 62
7
  6
CONTINUOUS
370
-3
390
F
  0
LAYER
  5
203
100
AcDbSymbolTableRecord
100
AcDbLayerTableRecord
  2
05_CURVES
 70
0
 62
7
  6
CONTINUOUS
370
-3
390
F
  0
LAYER
  5
204
100
AcDbSymbolTableRecord
100
AcDbLayerTableRecord
  2
06_SURFS
 70
0
 62
7
  6
CONTINUOUS
370
-3
390
F
  0
LAYER
  5
205
100
AcDbSymbolTableRecord
100
AcDbLayerTableRecord
  2
07_COSMETICS
 70
0
 62
7
  6
CONTINUOUS
370
-3
390
F
  0
LAYER
  5
206
100
AcDbSymbolTableRecord
100
AcDbLayerTableRecord
  2
10_NOTES
 70
0
 62
7
  6
CONTINUOUS
370
-3
390
F
  0
LAYER
  5
207
100
AcDbSymbolTableRecord
100
AcDbLayerTableRecord
  2
11_NOTES_PUB
 70
0
 62
7
  6
CONTINUOUS
370
-3
390
F
  0
LAYER
  5
208
100
AcDbSymbolTableRecord
100
AcDbLayerTableRecord
  2
13_REF_GTOL
 70
0
 62
7
  6
CONTINUOUS
370
-3
390
F
  0
LAYER
  5
209
100
AcDbSymbolTableRecord
100
AcDbLayerTableRecord
  2
16_MISC
 70
0
 62
7
  6
CONTINUOUS
370
-3
390
F
  0
LAYER
  5
20A
100
AcDbSymbolTableRecord
100
AcDbLayerTableRecord
  2
17_NO_PRINT
 70
0
 62
7
  6
CONTINUOUS
370
-3
390
F
  0
LAYER
  5
20B
100
AcDbSymbolTableRecord
100
AcDbLayerTableRecord
  2
18_DATUM_CAMS_JOINTS
 70
0
 62
7
  6
CONTINUOUS
370
-3
390
F
  0
LAYER
  5
20C
100
AcDbSymbolTableRecord
100
AcDbLayerTableRecord
  2
19_DATUM_FUNCTIONAL
 70
0
 62
7
  6
CONTINUOUS
370
-3
390
F
  0
LAYER
  5
20D
100
AcDbSymbolTableRecord
100
AcDbLayerTableRecord
  2
20_DATUM_KINEMATIC_SCHEME
 70
0
 62
7
  6
CONTINUOUS
370
-3
390
F
  0
ENDTAB
  0
TABLE
  2
STYLE
  5
3
100
AcDbSymbolTable
 70
1
  0
STYLE
  5
11
100
AcDbSymbolTableRecord
100
AcDbTextStyleTableRecord
  2
STANDARD
 70
0
 40
0.0
 41
0.8
 50
0.0
 71
0
 42
0.2
  3
txt
  4

  0
STYLE
  5
20E
100
AcDbSymbolTableRecord
100
AcDbTextStyleTableRecord
  2
TEXTSTYLE_1
 70
0
 40
0.0
 41
0.8
 50
0.0
 71
0
 42
0.2
  3
gdt
  4

  0
ENDTAB
  0
TABLE
  2
VIEW
  5
6
100
AcDbSymbolTable
 70
0
  0
ENDTAB
  0
TABLE
  2
UCS
  5
7
100
AcDbSymbolTable
 70
0
  0
ENDTAB
  0
TABLE
  2
APPID
  5
9
100
AcDbSymbolTable
 70
1
  0
APPID
  5
20F
100
AcDbSymbolTableRecord
100
AcDbRegAppTableRecord
  2
ACAD
 70
0
  0
ENDTAB
  0
TABLE
  2
BLOCK_RECORD
  5
1
100
AcDbSymbolTable
 70
0
  0
BLOCK_RECORD
  5
210
100
AcDbSymbolTableRecord
100
AcDbBlockTableRecord
  2
*Model_Space
  0
BLOCK_RECORD
  5
211
100
AcDbSymbolTableRecord
100
AcDbBlockTableRecord
  2
*Paper_Space
  0
BLOCK_RECORD
  5
212
100
AcDbSymbolTableRecord
100
AcDbBlockTableRecord
  2
_FILLED
  0
ENDTAB
  0
TABLE
  2
DIMSTYLE
  5
A
100
AcDbSymbolTable
 70
1
100
AcDbDimStyleTable
 71
0
  0
DIMSTYLE
105
213
100
AcDbSymbolTableRecord
100
AcDbDimStyleTableRecord
  2
STANDARD
 70
0
  3

  4

 40
1.0
 41
0.5492654481
 42
1.0
 43
0.38
 44
1.0
 45
0.0
 46
0.0
 47
0.01
 48
0.01
140
0.7689716273
141
0.09
142
0.0
143
25.4
144
1.0
145
0.0
146
1.0
147
0.625
 71
1
 72
0
 73
0
 74
0
 75
0
 76
0
 77
1
 78
8
 79
2
170
0
171
1
172
0
173
0
174
0
175
0
176
0
177
0
178
0
270
2
179
2
271
2
272
2
273
2
274
2
275
0
280
0
281
0
282
0
283
1
284
8
285
0
286
0
287
3
288
0
340
11
278
46
341
212
342
212
343
212
344
212
  0
ENDTAB
  0
ENDSEC
  0
SECTION
  2
BLOCKS
  0
BLOCK
  5
20
100
AcDbEntity
  8
0
100
AcDbBlockBegin
  2
*Model_Space
 70
0
 10
0.0
 20
0.0
 30
0.0
  3
*Model_Space
  1

  0
ENDBLK
  5
21
100
AcDbEntity
  8
0
100
AcDbBlockEnd
  0
BLOCK
  5
1C
100
AcDbEntity
  8
0
100
AcDbBlockBegin
  2
*Paper_Space
 70
0
 10
0.0
 20
0.0
 30
0.0
  3
*Paper_Space
  1

  0
ENDBLK
  5
1D
100
AcDbEntity
  8
0
100
AcDbBlockEnd
  0
BLOCK
  5
214
100
AcDbEntity
  8
0
100
AcDbBlockBegin
  2
_FILLED
 70
64
 10
0.0
 20
0.0
  3
_FILLED
  1

  0
SOLID
  5
215
100
AcDbEntity
  8
0
  6
BYBLOCK
 62
0
100
AcDbTrace
 10
0.0
 20
0.0
 11
-1.0
 21
0.25
 12
-1.0
 22
-0.25
 13
-1.0
 23
-0.25
  0
ENDBLK
  5
216
100
AcDbEntity
  8
0
  6
BYBLOCK
 62
0
100
AcDbBlockEnd
  0
ENDSEC
  0
SECTION
  2
ENTITIES
  0
LINE
  5
217
100
AcDbEntity
  8
0
100
AcDbLine
 62
7
  6
CONTINUOUS
 10
4.8990175276
 20
41.6054409703
 11
4.8990175276
 21
38.1054409703
  0
LINE
  5
218
100
AcDbEntity
  8
0
100
AcDbLine
 62
7
  6
CONTINUOUS
 10
4.9990175276
 20
38.1054409703
 11
4.9990175276
 21
41.5054409703
  0
LINE
  5
219
100
AcDbEntity
  8
0
100
AcDbLine
 62
7
  6
CONTINUOUS
 10
5.3990175276
 20
37.6054409703
 11
5.3990175276
 21
37.7054409703
  0
LINE
  5
21A
100
AcDbEntity
  8
0
100
AcDbLine
 62
7
  6
CONTINUOUS
 10
5.7990175276
 20
40.2054409703
 11
5.7990175276
 21
39.1054409703
  0
LINE
  5
21B
100
AcDbEntity
  8
0
100
AcDbLine
 62
7
  6
CONTINUOUS
 10
5.8990175276
 20
39.1054409703
 11
5.8990175276
 21
40.1054409703
  0
LINE
  5
21C
100
AcDbEntity
  8
0
100
AcDbLine
 62
7
  6
CONTINUOUS
 10
6.3990175276
 20
38.5054409703
 11
6.3990175276
 21
38.6054409703
  0
LINE
  5
21D
100
AcDbEntity
  8
0
100
AcDbLine
 62
7
  6
CONTINUOUS
 10
8.2990175276
 20
38.6054409703
 11
8.2990175276
 21
37.6054409703
  0
LINE
  5
21E
100
AcDbEntity
  8
0
100
AcDbLine
 62
7
  6
CONTINUOUS
 10
8.3990175276
 20
38.6054409703
 11
8.3990175276
 21
37.6054409703
  0
LINE
  5
21F
100
AcDbEntity
  8
0
100
AcDbLine
 62
7
  6
CONTINUOUS
 10
8.4990175276
 20
37.7054409703
 11
8.4990175276
 21
38.5640196141
  0
LINE
  5
220
100
AcDbEntity
  8
0
100
AcDbLine
 62
7
  6
CONTINUOUS
 10
8.8990175276
 20
39.1054409703
 11
8.3990175276
 21
38.6054409703
  0
LINE
  5
221
100
AcDbEntity
  8
0
100
AcDbLine
 62
7
  6
CONTINUOUS
 10
8.9404388838
 20
39.0054409703
 11
8.4990175276
 21
38.5640196141
  0
LINE
  5
222
100
AcDbEntity
  8
0
100
AcDbLine
 62
7
  6
CONTINUOUS
 10
12.2990175276
 20
39.1054409703
 11
12.2990175276
 21
37.6054409703
  0
LINE
  5
223
100
AcDbEntity
  8
0
100
AcDbLine
 62
7
  6
CONTINUOUS
 10
12.3990175276
 20
42.9361050328
 11
12.3990175276
 21
33.1361050328
  0
LINE
  5
224
100
AcDbEntity
  8
0
100
AcDbLine
 62
7
  6
CONTINUOUS
 10
12.4990175276
 20
33.0361050328
 11
12.4990175276
 21
43.0361050328
  0
LINE
  5
225
100
AcDbEntity
  8
0
100
AcDbLine
 62
7
  6
CONTINUOUS
 10
13.3990175276
 20
32.9361050328
 11
13.3990175276
 21
29.6361050328
  0
LINE
  5
226
100
AcDbEntity
  8
0
100
AcDbLine
 62
7
  6
CONTINUOUS
 10
13.4990175276
 20
29.5361050328
 11
13.4990175276
 21
32.9361050328
  0
LINE
  5
227
100
AcDbEntity
  8
0
100
AcDbLine
 62
7
  6
CONTINUOUS
 10
14.4990175276
 20
22.5361050328
 11
32.2990175276
 21
22.5361050328
  0
LINE
  5
228
100
AcDbEntity
  8
0
100
AcDbLine
 62
7
  6
CONTINUOUS
 10
6.2121658184
 20
40.2054409703
 11
5.3454991517
 21
41.5054409703
  0
LINE
  5
229
100
AcDbEntity
  8
0
100
AcDbLine
 62
7
  6
CONTINUOUS
 10
6.3990175276
 20
40.1054409703
 11
5.3990175276
 21
41.6054409703
  0
LINE
  5
22A
100
AcDbEntity
  8
0
100
AcDbLine
 62
7
  6
CONTINUOUS
 10
14.2990175276
 20
43.0361050328
 11
14.2990175276
 21
40.1361050328
  0
LINE
  5
22B
100
AcDbEntity
  8
0
100
AcDbLine
 62
7
  6
CONTINUOUS
 10
14.3579880674
 20
39.0361050328
 11
14.3579880674
 21
35.3361050332
  0
LINE
  5
22C
100
AcDbEntity
  8
0
100
AcDbLine
 62
7
  6
CONTINUOUS
 10
14.3579880674
 20
33.0361050328
 11
14.3579880674
 21
35.1361050332
  0
LINE
  5
22D
100
AcDbEntity
  8
0
100
AcDbLine
 62
7
  6
CONTINUOUS
 10
14.3990175276
 20
22.6361050328
 11
14.3990175276
 21
29.5361050328
  0
LINE
  5
22E
100
AcDbEntity
  8
0
100
AcDbLine
 62
7
  6
CONTINUOUS
 10
14.3990175276
 20
40.1361050328
 11
14.3990175276
 21
42.9361050328
  0
LINE
  5
22F
100
AcDbEntity
  8
0
100
AcDbLine
 62
7
  6
CONTINUOUS
 10
14.4579880674
 20
35.3361046789
 11
14.4579880674
 21
39.0361050328
  0
LINE
  5
230
100
AcDbEntity
  8
0
100
AcDbLine
 62
7
  6
CONTINUOUS
 10
14.4990175276
 20
22.5361050328
 11
14.4990175276
 21
29.6361050328
  0
LINE
  5
231
100
AcDbEntity
  8
0
100
AcDbLine
 62
7
  6
CONTINUOUS
 10
14.4990175276
 20
39.9361050328
 11
14.4990175276
 21
40.0361050328
  0
LINE
  5
232
100
AcDbEntity
  8
0
100
AcDbLine
 62
7
  6
CONTINUOUS
 10
14.5579880674
 20
35.1361050332
 11
14.5579880674
 21
35.2361050332
  0
LINE
  5
233
100
AcDbEntity
  8
0
100
AcDbLine
 62
7
  6
CONTINUOUS
 10
14.5579880674
 20
39.1361050328
 11
14.5579880674
 21
39.2361050328
  0
LINE
  5
234
100
AcDbEntity
  8
0
100
AcDbLine
 62
7
  6
CONTINUOUS
 10
14.4990175276
 20
23.2361050328
 11
32.2990175276
 21
23.2361050328
  0
LINE
  5
235
100
AcDbEntity
  8
0
100
AcDbLine
 62
7
  6
CONTINUOUS
 10
15.4990175276
 20
35.0361050332
 11
15.4990175276
 21
33.6961388314
  0
LINE
  5
236
100
AcDbEntity
  8
0
100
AcDbLine
 62
7
  6
CONTINUOUS
 10
15.5990175276
 20
33.6961388314
 11
15.5990175276
 21
35.0361050332
  0
LINE
  5
237
100
AcDbEntity
  8
0
100
AcDbLine
 62
7
  6
CONTINUOUS
 10
15.9990175276
 20
35.0361050332
 11
15.9990175276
 21
33.6961388314
  0
LINE
  5
238
100
AcDbEntity
  8
0
100
AcDbLine
 62
7
  6
CONTINUOUS
 10
16.0990175276
 20
33.6961388314
 11
16.0990175276
 21
35.0361050332
  0
LINE
  5
239
100
AcDbEntity
  8
0
100
AcDbLine
 62
7
  6
CONTINUOUS
 10
17.0400469877
 20
39.2361050328
 11
17.0400469877
 21
39.1361050328
  0
LINE
  5
23A
100
AcDbEntity
  8
0
100
AcDbLine
 62
7
  6
CONTINUOUS
 10
17.0400469877
 20
35.2361050332
 11
17.0400469877
 21
35.1361050332
  0
LINE
  5
23B
100
AcDbEntity
  8
0
100
AcDbLine
 62
7
  6
CONTINUOUS
 10
17.1400469877
 20
39.0361050328
 11
17.1400469877
 21
35.3361050332
  0
LINE
  5
23C
100
AcDbEntity
  8
0
100
AcDbLine
 62
7
  6
CONTINUOUS
 10
17.2400469877
 20
35.3361050332
 11
17.2400469877
 21
39.0361050328
  0
LINE
  5
23D
100
AcDbEntity
  8
0
100
AcDbLine
 62
7
  6
CONTINUOUS
 10
18.1579880674
 20
39.0361050328
 11
18.1579880674
 21
35.3361050332
  0
LINE
  5
23E
100
AcDbEntity
  8
0
100
AcDbLine
 62
7
  6
CONTINUOUS
 10
18.2579880674
 20
35.3361046789
 11
18.2579880674
 21
39.0361050328
  0
LINE
  5
23F
100
AcDbEntity
  8
0
100
AcDbLine
 62
7
  6
CONTINUOUS
 10
18.3579880674
 20
35.1361050332
 11
18.3579880674
 21
35.2361050332
  0
LINE
  5
240
100
AcDbEntity
  8
0
100
AcDbLine
 62
7
  6
CONTINUOUS
 10
18.3579880674
 20
39.1361050328
 11
18.3579880674
 21
39.2361050328
  0
LINE
  5
241
100
AcDbEntity
  8
0
100
AcDbLine
 62
7
  6
CONTINUOUS
 10
19.2990175276
 20
35.0361050332
 11
19.2990175276
 21
33.6961388314
  0
LINE
  5
242
100
AcDbEntity
  8
0
100
AcDbLine
 62
7
  6
CONTINUOUS
 10
19.3990175276
 20
33.6961388314
 11
19.3990175276
 21
35.0361050332
  0
LINE
  5
243
100
AcDbEntity
  8
0
100
AcDbLine
 62
7
  6
CONTINUOUS
 10
19.7990175276
 20
35.0361050332
 11
19.7990175276
 21
33.6961388314
  0
LINE
  5
244
100
AcDbEntity
  8
0
100
AcDbLine
 62
7
  6
CONTINUOUS
 10
19.8990175276
 20
33.6961388314
 11
19.8990175276
 21
35.0361050332
  0
LINE
  5
245
100
AcDbEntity
  8
0
100
AcDbLine
 62
7
  6
CONTINUOUS
 10
13.4990175276
 20
29.5361050328
 11
14.3990175276
 21
29.5361050328
  0
LINE
  5
246
100
AcDbEntity
  8
0
100
AcDbLine
 62
7
  6
CONTINUOUS
 10
32.3990175276
 20
29.5361050328
 11
33.2990175276
 21
29.5361050328
  0
LINE
  5
247
100
AcDbEntity
  8
0
100
AcDbLine
 62
7
  6
CONTINUOUS
 10
33.3990175276
 20
29.6361050328
 11
32.2990175276
 21
29.6361050328
  0
LINE
  5
248
100
AcDbEntity
  8
0
100
AcDbLine
 62
7
  6
CONTINUOUS
 10
14.4990175276
 20
29.6361050328
 11
13.3990175276
 21
29.6361050328
  0
LINE
  5
249
100
AcDbEntity
  8
0
100
AcDbLine
 62
7
  6
CONTINUOUS
 10
20.8400469877
 20
39.2361050328
 11
20.8400469877
 21
39.1361050328
  0
LINE
  5
24A
100
AcDbEntity
  8
0
100
AcDbLine
 62
7
  6
CONTINUOUS
 10
20.8400469877
 20
35.2361050332
 11
20.8400469877
 21
35.1361050332
  0
LINE
  5
24B
100
AcDbEntity
  8
0
100
AcDbLine
 62
7
  6
CONTINUOUS
 10
20.9400469877
 20
39.0361050328
 11
20.9400469877
 21
35.3361050332
  0
LINE
  5
24C
100
AcDbEntity
  8
0
100
AcDbLine
 62
7
  6
CONTINUOUS
 10
21.0400469877
 20
35.3361050332
 11
21.0400469877
 21
39.0361050328
  0
LINE
  5
24D
100
AcDbEntity
  8
0
100
AcDbLine
 62
7
  6
CONTINUOUS
 10
21.9579880674
 20
39.0361050328
 11
21.9579880674
 21
35.3361050332
  0
LINE
  5
24E
100
AcDbEntity
  8
0
100
AcDbLine
 62
7
  6
CONTINUOUS
 10
22.0579880674
 20
35.3361046789
 11
22.0579880674
 21
39.0361050328
  0
LINE
  5
24F
100
AcDbEntity
  8
0
100
AcDbLine
 62
7
  6
CONTINUOUS
 10
22.1579880674
 20
35.1361050332
 11
22.1579880674
 21
35.2361050332
  0
LINE
  5
250
100
AcDbEntity
  8
0
100
AcDbLine
 62
7
  6
CONTINUOUS
 10
22.1579880674
 20
39.1361050328
 11
22.1579880674
 21
39.2361050328
  0
LINE
  5
251
100
AcDbEntity
  8
0
100
AcDbLine
 62
7
  6
CONTINUOUS
 10
23.0990175276
 20
35.0361050332
 11
23.0990175276
 21
33.6961388314
  0
LINE
  5
252
100
AcDbEntity
  8
0
100
AcDbLine
 62
7
  6
CONTINUOUS
 10
23.1990175276
 20
33.6961388314
 11
23.1990175276
 21
35.0361050332
  0
LINE
  5
253
100
AcDbEntity
  8
0
100
AcDbLine
 62
7
  6
CONTINUOUS
 10
13.3990175276
 20
32.9361050328
 11
13.4990175276
 21
32.9361050328
  0
LINE
  5
254
100
AcDbEntity
  8
0
100
AcDbLine
 62
7
  6
CONTINUOUS
 10
33.2990175276
 20
32.9361050328
 11
33.3990175276
 21
32.9361050328
  0
LINE
  5
255
100
AcDbEntity
  8
0
100
AcDbLine
 62
7
  6
CONTINUOUS
 10
23.5990175276
 20
35.0361050332
 11
23.5990175276
 21
33.6961388314
  0
LINE
  5
256
100
AcDbEntity
  8
0
100
AcDbLine
 62
7
  6
CONTINUOUS
 10
23.6990175276
 20
33.6961388314
 11
23.6990175276
 21
35.0361050332
  0
LINE
  5
257
100
AcDbEntity
  8
0
100
AcDbLine
 62
7
  6
CONTINUOUS
 10
24.6400469877
 20
39.2361050328
 11
24.6400469877
 21
39.1361050328
  0
LINE
  5
258
100
AcDbEntity
  8
0
100
AcDbLine
 62
7
  6
CONTINUOUS
 10
24.6400469877
 20
35.2361050332
 11
24.6400469877
 21
35.1361050332
  0
LINE
  5
259
100
AcDbEntity
  8
0
100
AcDbLine
 62
7
  6
CONTINUOUS
 10
12.4990175276
 20
33.0361050328
 11
34.2990175276
 21
33.0361050328
  0
LINE
  5
25A
100
AcDbEntity
  8
0
100
AcDbLine
 62
7
  6
CONTINUOUS
 10
15.4990175276
 20
33.6961388314
 11
16.0990175276
 21
33.6961388314
  0
LINE
  5
25B
100
AcDbEntity
  8
0
100
AcDbLine
 62
7
  6
CONTINUOUS
 10
19.2990175276
 20
33.6961388314
 11
19.8990175276
 21
33.6961388314
  0
LINE
  5
25C
100
AcDbEntity
  8
0
100
AcDbLine
 62
7
  6
CONTINUOUS
 10
23.0990175276
 20
33.6961388314
 11
23.6990175276
 21
33.6961388314
  0
LINE
  5
25D
100
AcDbEntity
  8
0
100
AcDbLine
 62
7
  6
CONTINUOUS
 10
26.8990175276
 20
33.6961388314
 11
27.4990175276
 21
33.6961388314
  0
LINE
  5
25E
100
AcDbEntity
  8
0
100
AcDbLine
 62
7
  6
CONTINUOUS
 10
30.6990175276
 20
33.6961388314
 11
31.2990175276
 21
33.6961388314
  0
LINE
  5
25F
100
AcDbEntity
  8
0
100
AcDbLine
 62
7
  6
CONTINUOUS
 10
31.2990175276
 20
33.7961388314
 11
30.6990175276
 21
33.7961388314
  0
LINE
  5
260
100
AcDbEntity
  8
0
100
AcDbLine
 62
7
  6
CONTINUOUS
 10
27.4990175276
 20
33.7961388314
 11
26.8990175276
 21
33.7961388314
  0
LINE
  5
261
100
AcDbEntity
  8
0
100
AcDbLine
 62
7
  6
CONTINUOUS
 10
23.6990175276
 20
33.7961388314
 11
23.0990175276
 21
33.7961388314
  0
LINE
  5
262
100
AcDbEntity
  8
0
100
AcDbLine
 62
7
  6
CONTINUOUS
 10
19.8990175276
 20
33.7961388314
 11
19.2990175276
 21
33.7961388314
  0
LINE
  5
263
100
AcDbEntity
  8
0
100
AcDbLine
 62
7
  6
CONTINUOUS
 10
16.0990175276
 20
33.7961388314
 11
15.4990175276
 21
33.7961388314
  0
LINE
  5
264
100
AcDbEntity
  8
0
100
AcDbLine
 62
7
  6
CONTINUOUS
 10
24.7400469877
 20
39.0361050328
 11
24.7400469877
 21
35.3361050332
  0
LINE
  5
265
100
AcDbEntity
  8
0
100
AcDbLine
 62
7
  6
CONTINUOUS
 10
24.8400469877
 20
35.3361050332
 11
24.8400469877
 21
39.0361050328
  0
LINE
  5
266
100
AcDbEntity
  8
0
100
AcDbLine
 62
7
  6
CONTINUOUS
 10
25.7579880674
 20
39.0361050328
 11
25.7579880674
 21
35.3361050332
  0
LINE
  5
267
100
AcDbEntity
  8
0
100
AcDbLine
 62
7
  6
CONTINUOUS
 10
25.8579880674
 20
35.3361046789
 11
25.8579880674
 21
39.0361050328
  0
LINE
  5
268
100
AcDbEntity
  8
0
100
AcDbLine
 62
7
  6
CONTINUOUS
 10
25.9579880674
 20
35.1361050332
 11
25.9579880674
 21
35.2361050332
  0
LINE
  5
269
100
AcDbEntity
  8
0
100
AcDbLine
 62
7
  6
CONTINUOUS
 10
25.9579880674
 20
39.1361050328
 11
25.9579880674
 21
39.2361050328
  0
LINE
  5
26A
100
AcDbEntity
  8
0
100
AcDbLine
 62
7
  6
CONTINUOUS
 10
15.4990175276
 20
35.0361050332
 11
15.5990175276
 21
35.0361050332
  0
LINE
  5
26B
100
AcDbEntity
  8
0
100
AcDbLine
 62
7
  6
CONTINUOUS
 10
15.9990175276
 20
35.0361050332
 11
16.0990175276
 21
35.0361050332
  0
LINE
  5
26C
100
AcDbEntity
  8
0
100
AcDbLine
 62
7
  6
CONTINUOUS
 10
19.2990175276
 20
35.0361050332
 11
19.3990175276
 21
35.0361050332
  0
LINE
  5
26D
100
AcDbEntity
  8
0
100
AcDbLine
 62
7
  6
CONTINUOUS
 10
19.7990175276
 20
35.0361050332
 11
19.8990175276
 21
35.0361050332
  0
LINE
  5
26E
100
AcDbEntity
  8
0
100
AcDbLine
 62
7
  6
CONTINUOUS
 10
23.0990175276
 20
35.0361050332
 11
23.1990175276
 21
35.0361050332
  0
LINE
  5
26F
100
AcDbEntity
  8
0
100
AcDbLine
 62
7
  6
CONTINUOUS
 10
23.5990175276
 20
35.0361050332
 11
23.6990175276
 21
35.0361050332
  0
LINE
  5
270
100
AcDbEntity
  8
0
100
AcDbLine
 62
7
  6
CONTINUOUS
 10
26.8990175276
 20
35.0361050332
 11
26.9990175276
 21
35.0361050332
  0
LINE
  5
271
100
AcDbEntity
  8
0
100
AcDbLine
 62
7
  6
CONTINUOUS
 10
27.3990175276
 20
35.0361050332
 11
27.4990175276
 21
35.0361050332
  0
LINE
  5
272
100
AcDbEntity
  8
0
100
AcDbLine
 62
7
  6
CONTINUOUS
 10
30.6990175276
 20
35.0361050332
 11
30.7990175276
 21
35.0361050332
  0
LINE
  5
273
100
AcDbEntity
  8
0
100
AcDbLine
 62
7
  6
CONTINUOUS
 10
31.1990175276
 20
35.0361050332
 11
31.2990175276
 21
35.0361050332
  0
LINE
  5
274
100
AcDbEntity
  8
0
100
AcDbLine
 62
7
  6
CONTINUOUS
 10
14.3579880674
 20
35.1361050332
 11
32.4400469877
 21
35.1361050332
  0
LINE
  5
275
100
AcDbEntity
  8
0
100
AcDbLine
 62
7
  6
CONTINUOUS
 10
32.240047342
 20
35.2361050332
 11
29.7579880674
 21
35.2361050332
  0
LINE
  5
276
100
AcDbEntity
  8
0
100
AcDbLine
 62
7
  6
CONTINUOUS
 10
28.440047342
 20
35.2361050332
 11
25.9579880674
 21
35.2361050332
  0
LINE
  5
277
100
AcDbEntity
  8
0
100
AcDbLine
 62
7
  6
CONTINUOUS
 10
24.640047342
 20
35.2361050332
 11
22.1579880674
 21
35.2361050332
  0
LINE
  5
278
100
AcDbEntity
  8
0
100
AcDbLine
 62
7
  6
CONTINUOUS
 10
20.840047342
 20
35.2361050332
 11
18.3579880674
 21
35.2361050332
  0
LINE
  5
279
100
AcDbEntity
  8
0
100
AcDbLine
 62
7
  6
CONTINUOUS
 10
17.040047342
 20
35.2361050332
 11
14.5579880674
 21
35.2361050332
  0
LINE
  5
27A
100
AcDbEntity
  8
0
100
AcDbLine
 62
7
  6
CONTINUOUS
 10
32.4400469877
 20
35.3361050332
 11
32.3400469877
 21
35.3361050332
  0
LINE
  5
27B
100
AcDbEntity
  8
0
100
AcDbLine
 62
7
  6
CONTINUOUS
 10
29.6579880674
 20
35.3361050332
 11
29.5579880674
 21
35.3361050332
  0
LINE
  5
27C
100
AcDbEntity
  8
0
100
AcDbLine
 62
7
  6
CONTINUOUS
 10
28.6400469877
 20
35.3361050332
 11
28.5400469877
 21
35.3361050332
  0
LINE
  5
27D
100
AcDbEntity
  8
0
100
AcDbLine
 62
7
  6
CONTINUOUS
 10
25.8579880674
 20
35.3361050332
 11
25.7579880674
 21
35.3361050332
  0
LINE
  5
27E
100
AcDbEntity
  8
0
100
AcDbLine
 62
7
  6
CONTINUOUS
 10
24.8400469877
 20
35.3361050332
 11
24.7400469877
 21
35.3361050332
  0
LINE
  5
27F
100
AcDbEntity
  8
0
100
AcDbLine
 62
7
  6
CONTINUOUS
 10
22.0579880674
 20
35.3361050332
 11
21.9579880674
 21
35.3361050332
  0
LINE
  5
280
100
AcDbEntity
  8
0
100
AcDbLine
 62
7
  6
CONTINUOUS
 10
21.0400469877
 20
35.3361050332
 11
20.9400469877
 21
35.3361050332
  0
LINE
  5
281
100
AcDbEntity
  8
0
100
AcDbLine
 62
7
  6
CONTINUOUS
 10
18.2579880674
 20
35.3361050332
 11
18.1579880674
 21
35.3361050332
  0
LINE
  5
282
100
AcDbEntity
  8
0
100
AcDbLine
 62
7
  6
CONTINUOUS
 10
17.2400469877
 20
35.3361050332
 11
17.1400469877
 21
35.3361050332
  0
LINE
  5
283
100
AcDbEntity
  8
0
100
AcDbLine
 62
7
  6
CONTINUOUS
 10
14.4579880674
 20
35.3361050332
 11
14.3579880674
 21
35.3361050332
  0
LINE
  5
284
100
AcDbEntity
  8
0
100
AcDbLine
 62
7
  6
CONTINUOUS
 10
26.8990175276
 20
35.0361050332
 11
26.8990175276
 21
33.6961388314
  0
LINE
  5
285
100
AcDbEntity
  8
0
100
AcDbLine
 62
7
  6
CONTINUOUS
 10
26.9990175276
 20
33.6961388314
 11
26.9990175276
 21
35.0361050332
  0
LINE
  5
286
100
AcDbEntity
  8
0
100
AcDbLine
 62
7
  6
CONTINUOUS
 10
27.3990175276
 20
35.0361050332
 11
27.3990175276
 21
33.6961388314
  0
LINE
  5
287
100
AcDbEntity
  8
0
100
AcDbLine
 62
7
  6
CONTINUOUS
 10
27.4990175276
 20
33.6961388314
 11
27.4990175276
 21
35.0361050332
  0
LINE
  5
288
100
AcDbEntity
  8
0
100
AcDbLine
 62
7
  6
CONTINUOUS
 10
34.3990175276
 20
36.0361050328
 11
40.8990175276
 21
36.0361050328
  0
LINE
  5
289
100
AcDbEntity
  8
0
100
AcDbLine
 62
7
  6
CONTINUOUS
 10
40.8990175276
 20
36.1361050328
 11
34.3990175276
 21
36.1361050328
  0
LINE
  5
28A
100
AcDbEntity
  8
0
100
AcDbLine
 62
7
  6
CONTINUOUS
 10
41.3990175276
 20
36.5361050328
 11
41.2990175276
 21
36.5361050328
  0
LINE
  5
28B
100
AcDbEntity
  8
0
100
AcDbLine
 62
7
  6
CONTINUOUS
 10
38.3575961714
 20
36.9361050328
 11
39.8990175276
 21
36.9361050328
  0
LINE
  5
28C
100
AcDbEntity
  8
0
100
AcDbLine
 62
7
  6
CONTINUOUS
 10
39.8990175276
 20
37.0361050328
 11
38.3990175276
 21
37.0361050328
  0
LINE
  5
28D
100
AcDbEntity
  8
0
100
AcDbLine
 62
7
  6
CONTINUOUS
 10
28.4400469877
 20
39.2361050328
 11
28.4400469877
 21
39.1361050328
  0
LINE
  5
28E
100
AcDbEntity
  8
0
100
AcDbLine
 62
7
  6
CONTINUOUS
 10
28.4400469877
 20
35.2361050332
 11
28.4400469877
 21
35.1361050332
  0
LINE
  5
28F
100
AcDbEntity
  8
0
100
AcDbLine
 62
7
  6
CONTINUOUS
 10
28.5400469877
 20
39.0361050328
 11
28.5400469877
 21
35.3361050332
  0
LINE
  5
290
100
AcDbEntity
  8
0
100
AcDbLine
 62
7
  6
CONTINUOUS
 10
28.6400469877
 20
35.3361050332
 11
28.6400469877
 21
39.0361050328
  0
LINE
  5
291
100
AcDbEntity
  8
0
100
AcDbLine
 62
7
  6
CONTINUOUS
 10
34.3990175276
 20
37.4361050328
 11
37.8575961714
 21
37.4361050328
  0
LINE
  5
292
100
AcDbEntity
  8
0
100
AcDbLine
 62
7
  6
CONTINUOUS
 10
40.4990175276
 20
37.5361050328
 11
40.3990175276
 21
37.5361050328
  0
LINE
  5
293
100
AcDbEntity
  8
0
100
AcDbLine
 62
7
  6
CONTINUOUS
 10
37.8990175276
 20
37.5361050328
 11
34.3990175276
 21
37.5361050328
  0
LINE
  5
294
100
AcDbEntity
  8
0
100
AcDbLine
 62
7
  6
CONTINUOUS
 10
5.3990175276
 20
37.6054409703
 11
12.3990175276
 21
37.6054409703
  0
LINE
  5
295
100
AcDbEntity
  8
0
100
AcDbLine
 62
7
  6
CONTINUOUS
 10
12.3990175276
 20
37.7054409703
 11
8.4990175276
 21
37.7054409703
  0
LINE
  5
296
100
AcDbEntity
  8
0
100
AcDbLine
 62
7
  6
CONTINUOUS
 10
8.3990175276
 20
37.7054409703
 11
5.3990177338
 21
37.7054409703
  0
LINE
  5
297
100
AcDbEntity
  8
0
100
AcDbLine
 62
7
  6
CONTINUOUS
 10
4.9990175276
 20
38.1054409703
 11
4.8990175276
 21
38.1054409703
  0
LINE
  5
298
100
AcDbEntity
  8
0
100
AcDbLine
 62
7
  6
CONTINUOUS
 10
6.3990175276
 20
38.5054409703
 11
8.3990175276
 21
38.5054409703
  0
LINE
  5
299
100
AcDbEntity
  8
0
100
AcDbLine
 62
7
  6
CONTINUOUS
 10
29.5579880674
 20
39.0361050328
 11
29.5579880674
 21
35.3361050332
  0
LINE
  5
29A
100
AcDbEntity
  8
0
100
AcDbLine
 62
7
  6
CONTINUOUS
 10
29.6579880674
 20
35.3361046789
 11
29.6579880674
 21
39.0361050328
  0
LINE
  5
29B
100
AcDbEntity
  8
0
100
AcDbLine
 62
7
  6
CONTINUOUS
 10
29.7579880674
 20
35.1361050332
 11
29.7579880674
 21
35.2361050332
  0
LINE
  5
29C
100
AcDbEntity
  8
0
100
AcDbLine
 62
7
  6
CONTINUOUS
 10
29.7579880674
 20
39.1361050328
 11
29.7579880674
 21
39.2361050328
  0
LINE
  5
29D
100
AcDbEntity
  8
0
100
AcDbLine
 62
7
  6
CONTINUOUS
 10
39.8990175276
 20
38.6001557073
 11
40.3990175276
 21
38.6001557073
  0
LINE
  5
29E
100
AcDbEntity
  8
0
100
AcDbLine
 62
7
  6
CONTINUOUS
 10
8.3990175276
 20
38.6054409703
 11
6.3990175276
 21
38.6054409703
  0
LINE
  5
29F
100
AcDbEntity
  8
0
100
AcDbLine
 62
7
  6
CONTINUOUS
 10
40.4990175276
 20
38.7001557073
 11
40.0905175293
 21
38.7001557073
  0
LINE
  5
2A0
100
AcDbEntity
  8
0
100
AcDbLine
 62
7
  6
CONTINUOUS
 10
8.9404388838
 20
39.0054409703
 11
12.3990175276
 21
39.0054409703
  0
LINE
  5
2A1
100
AcDbEntity
  8
0
100
AcDbLine
 62
7
  6
CONTINUOUS
 10
14.3579880674
 20
39.0361050328
 11
14.4579880674
 21
39.0361050328
  0
LINE
  5
2A2
100
AcDbEntity
  8
0
100
AcDbLine
 62
7
  6
CONTINUOUS
 10
17.1400469877
 20
39.0361050328
 11
17.2400469877
 21
39.0361050328
  0
LINE
  5
2A3
100
AcDbEntity
  8
0
100
AcDbLine
 62
7
  6
CONTINUOUS
 10
18.1579880674
 20
39.0361050328
 11
18.2579880674
 21
39.0361050328
  0
LINE
  5
2A4
100
AcDbEntity
  8
0
100
AcDbLine
 62
7
  6
CONTINUOUS
 10
20.9400469877
 20
39.0361050328
 11
21.0400469877
 21
39.0361050328
  0
LINE
  5
2A5
100
AcDbEntity
  8
0
100
AcDbLine
 62
7
  6
CONTINUOUS
 10
21.9579880674
 20
39.0361050328
 11
22.0579880674
 21
39.0361050328
  0
LINE
  5
2A6
100
AcDbEntity
  8
0
100
AcDbLine
 62
7
  6
CONTINUOUS
 10
24.7400469877
 20
39.0361050328
 11
24.8400469877
 21
39.0361050328
  0
LINE
  5
2A7
100
AcDbEntity
  8
0
100
AcDbLine
 62
7
  6
CONTINUOUS
 10
25.7579880674
 20
39.0361050328
 11
25.8579880674
 21
39.0361050328
  0
LINE
  5
2A8
100
AcDbEntity
  8
0
100
AcDbLine
 62
7
  6
CONTINUOUS
 10
28.5400469877
 20
39.0361050328
 11
28.6400469877
 21
39.0361050328
  0
LINE
  5
2A9
100
AcDbEntity
  8
0
100
AcDbLine
 62
7
  6
CONTINUOUS
 10
29.5579880674
 20
39.0361050328
 11
29.6579880674
 21
39.0361050328
  0
LINE
  5
2AA
100
AcDbEntity
  8
0
100
AcDbLine
 62
7
  6
CONTINUOUS
 10
32.3400469877
 20
39.0361050328
 11
32.4400469877
 21
39.0361050328
  0
LINE
  5
2AB
100
AcDbEntity
  8
0
100
AcDbLine
 62
7
  6
CONTINUOUS
 10
5.8990175276
 20
39.1054409703
 11
5.7990175276
 21
39.1054409703
  0
LINE
  5
2AC
100
AcDbEntity
  8
0
100
AcDbLine
 62
7
  6
CONTINUOUS
 10
8.8990175276
 20
39.1054409703
 11
12.3990175276
 21
39.1054409703
  0
LINE
  5
2AD
100
AcDbEntity
  8
0
100
AcDbLine
 62
7
  6
CONTINUOUS
 10
14.5579877131
 20
39.1361050328
 11
14.7997457929
 21
39.1361050328
  0
LINE
  5
2AE
100
AcDbEntity
  8
0
100
AcDbLine
 62
7
  6
CONTINUOUS
 10
16.7982892625
 20
39.1361050328
 11
17.0400468142
 21
39.1361050328
  0
LINE
  5
2AF
100
AcDbEntity
  8
0
100
AcDbLine
 62
7
  6
CONTINUOUS
 10
18.3579877131
 20
39.1361050328
 11
18.5997457929
 21
39.1361050328
  0
LINE
  5
2B0
100
AcDbEntity
  8
0
100
AcDbLine
 62
7
  6
CONTINUOUS
 10
20.5982892625
 20
39.1361050328
 11
20.8400468142
 21
39.1361050328
  0
LINE
  5
2B1
100
AcDbEntity
  8
0
100
AcDbLine
 62
7
  6
CONTINUOUS
 10
22.1579877131
 20
39.1361050328
 11
22.3997457929
 21
39.1361050328
  0
LINE
  5
2B2
100
AcDbEntity
  8
0
100
AcDbLine
 62
7
  6
CONTINUOUS
 10
24.3982892625
 20
39.1361050328
 11
24.6400468142
 21
39.1361050328
  0
LINE
  5
2B3
100
AcDbEntity
  8
0
100
AcDbLine
 62
7
  6
CONTINUOUS
 10
25.9579877131
 20
39.1361050328
 11
26.1997457929
 21
39.1361050328
  0
LINE
  5
2B4
100
AcDbEntity
  8
0
100
AcDbLine
 62
7
  6
CONTINUOUS
 10
28.1982892625
 20
39.1361050328
 11
28.4400468142
 21
39.1361050328
  0
LINE
  5
2B5
100
AcDbEntity
  8
0
100
AcDbLine
 62
7
  6
CONTINUOUS
 10
29.7579877131
 20
39.1361050328
 11
29.9997457929
 21
39.1361050328
  0
LINE
  5
2B6
100
AcDbEntity
  8
0
100
AcDbLine
 62
7
  6
CONTINUOUS
 10
31.9982892625
 20
39.1361050328
 11
32.2400468142
 21
39.1361050328
  0
LINE
  5
2B7
100
AcDbEntity
  8
0
100
AcDbLine
 62
7
  6
CONTINUOUS
 10
32.2400469877
 20
39.2361050328
 11
31.9694524817
 21
39.2361050328
  0
LINE
  5
2B8
100
AcDbEntity
  8
0
100
AcDbLine
 62
7
  6
CONTINUOUS
 10
30.0285825736
 20
39.2361050328
 11
29.7579880674
 21
39.2361050328
  0
LINE
  5
2B9
100
AcDbEntity
  8
0
100
AcDbLine
 62
7
  6
CONTINUOUS
 10
28.4400469877
 20
39.2361050328
 11
28.1694524817
 21
39.2361050328
  0
LINE
  5
2BA
100
AcDbEntity
  8
0
100
AcDbLine
 62
7
  6
CONTINUOUS
 10
26.2285825736
 20
39.2361050328
 11
25.9579880674
 21
39.2361050328
  0
LINE
  5
2BB
100
AcDbEntity
  8
0
100
AcDbLine
 62
7
  6
CONTINUOUS
 10
24.6400469877
 20
39.2361050328
 11
24.3694524817
 21
39.2361050328
  0
LINE
  5
2BC
100
AcDbEntity
  8
0
100
AcDbLine
 62
7
  6
CONTINUOUS
 10
22.4285825736
 20
39.2361050328
 11
22.1579880674
 21
39.2361050328
  0
LINE
  5
2BD
100
AcDbEntity
  8
0
100
AcDbLine
 62
7
  6
CONTINUOUS
 10
20.8400469877
 20
39.2361050328
 11
20.5694524817
 21
39.2361050328
  0
LINE
  5
2BE
100
AcDbEntity
  8
0
100
AcDbLine
 62
7
  6
CONTINUOUS
 10
18.6285825736
 20
39.2361050328
 11
18.3579880674
 21
39.2361050328
  0
LINE
  5
2BF
100
AcDbEntity
  8
0
100
AcDbLine
 62
7
  6
CONTINUOUS
 10
17.0400469877
 20
39.2361050328
 11
16.7694524817
 21
39.2361050328
  0
LINE
  5
2C0
100
AcDbEntity
  8
0
100
AcDbLine
 62
7
  6
CONTINUOUS
 10
14.8285825736
 20
39.2361050328
 11
14.5579880674
 21
39.2361050328
  0
LINE
  5
2C1
100
AcDbEntity
  8
0
100
AcDbLine
 62
7
  6
CONTINUOUS
 10
14.4990172558
 20
39.9361050328
 11
32.2990175276
 21
39.9361050328
  0
LINE
  5
2C2
100
AcDbEntity
  8
0
100
AcDbLine
 62
7
  6
CONTINUOUS
 10
40.9512368482
 20
39.9361050328
 11
41.2990175276
 21
39.9361050328
  0
LINE
  5
2C3
100
AcDbEntity
  8
0
100
AcDbLine
 62
7
  6
CONTINUOUS
 10
30.6990175276
 20
35.0361050332
 11
30.6990175276
 21
33.6961388314
  0
LINE
  5
2C4
100
AcDbEntity
  8
0
100
AcDbLine
 62
7
  6
CONTINUOUS
 10
30.7990175276
 20
33.6961388314
 11
30.7990175276
 21
35.0361050332
  0
LINE
  5
2C5
100
AcDbEntity
  8
0
100
AcDbLine
 62
7
  6
CONTINUOUS
 10
31.1990175276
 20
35.0361050332
 11
31.1990175276
 21
33.6961388314
  0
LINE
  5
2C6
100
AcDbEntity
  8
0
100
AcDbLine
 62
7
  6
CONTINUOUS
 10
31.2990175276
 20
33.6961388314
 11
31.2990175276
 21
35.0361050332
  0
LINE
  5
2C7
100
AcDbEntity
  8
0
100
AcDbLine
 62
7
  6
CONTINUOUS
 10
41.3990175276
 20
40.0361050328
 11
40.8990175276
 21
40.0361050328
  0
LINE
  5
2C8
100
AcDbEntity
  8
0
100
AcDbLine
 62
7
  6
CONTINUOUS
 10
32.2990175276
 20
40.0361050328
 11
14.4990175276
 21
40.0361050328
  0
LINE
  5
2C9
100
AcDbEntity
  8
0
100
AcDbLine
 62
7
  6
CONTINUOUS
 10
5.8990175276
 20
40.1054409703
 11
6.3990175276
 21
40.1054409703
  0
LINE
  5
2CA
100
AcDbEntity
  8
0
100
AcDbLine
 62
7
  6
CONTINUOUS
 10
32.4990175276
 20
40.1361048497
 11
32.3990175276
 21
40.1361048497
  0
LINE
  5
2CB
100
AcDbEntity
  8
0
100
AcDbLine
 62
7
  6
CONTINUOUS
 10
14.3990175276
 20
40.1361050328
 11
14.2990175276
 21
40.1361050328
  0
LINE
  5
2CC
100
AcDbEntity
  8
0
100
AcDbLine
 62
7
  6
CONTINUOUS
 10
6.2121658184
 20
40.2054409703
 11
5.7990175276
 21
40.2054409703
  0
LINE
  5
2CD
100
AcDbEntity
  8
0
100
AcDbLine
 62
7
  6
CONTINUOUS
 10
32.2400469877
 20
39.2361050328
 11
32.2400469877
 21
39.1361050328
  0
LINE
  5
2CE
100
AcDbEntity
  8
0
100
AcDbLine
 62
7
  6
CONTINUOUS
 10
32.2400469877
 20
35.2361050332
 11
32.2400469877
 21
35.1361050332
  0
LINE
  5
2CF
100
AcDbEntity
  8
0
100
AcDbLine
 62
7
  6
CONTINUOUS
 10
32.2990175276
 20
40.0361050328
 11
32.2990175276
 21
39.9361050328
  0
LINE
  5
2D0
100
AcDbEntity
  8
0
100
AcDbLine
 62
7
  6
CONTINUOUS
 10
32.2990175276
 20
29.6361050328
 11
32.2990175276
 21
22.5361050328
  0
LINE
  5
2D1
100
AcDbEntity
  8
0
100
AcDbLine
 62
7
  6
CONTINUOUS
 10
32.3400469877
 20
39.0361050328
 11
32.3400469877
 21
35.3361050332
  0
LINE
  5
2D2
100
AcDbEntity
  8
0
100
AcDbLine
 62
7
  6
CONTINUOUS
 10
32.3990175276
 20
42.9361050328
 11
32.3990175276
 21
40.1361050328
  0
LINE
  5
2D3
100
AcDbEntity
  8
0
100
AcDbLine
 62
7
  6
CONTINUOUS
 10
32.3990175276
 20
22.6361050328
 11
32.3990175276
 21
29.5361050328
  0
LINE
  5
2D4
100
AcDbEntity
  8
0
100
AcDbLine
 62
7
  6
CONTINUOUS
 10
32.4400469877
 20
33.0361050328
 11
32.4400469877
 21
35.1361050332
  0
LINE
  5
2D5
100
AcDbEntity
  8
0
100
AcDbLine
 62
7
  6
CONTINUOUS
 10
32.4400469877
 20
35.3361050332
 11
32.4400469877
 21
39.0361050328
  0
LINE
  5
2D6
100
AcDbEntity
  8
0
100
AcDbLine
 62
7
  6
CONTINUOUS
 10
32.4990175276
 20
40.1361050328
 11
32.4990175276
 21
43.0361050328
  0
LINE
  5
2D7
100
AcDbEntity
  8
0
100
AcDbLine
 62
7
  6
CONTINUOUS
 10
4.9990175276
 20
41.5054409703
 11
5.3454991517
 21
41.5054409703
  0
LINE
  5
2D8
100
AcDbEntity
  8
0
100
AcDbLine
 62
7
  6
CONTINUOUS
 10
5.3990175276
 20
41.6054409703
 11
4.8990175276
 21
41.6054409703
  0
LINE
  5
2D9
100
AcDbEntity
  8
0
100
AcDbLine
 62
7
  6
CONTINUOUS
 10
33.2990175276
 20
32.9361050328
 11
33.2990175276
 21
29.5361050328
  0
LINE
  5
2DA
100
AcDbEntity
  8
0
100
AcDbLine
 62
7
  6
CONTINUOUS
 10
33.3990175276
 20
29.6361050328
 11
33.3990175276
 21
32.9361050328
  0
LINE
  5
2DB
100
AcDbEntity
  8
0
100
AcDbLine
 62
7
  6
CONTINUOUS
 10
34.2990175276
 20
43.0361050328
 11
34.2990175276
 21
33.0361050328
  0
LINE
  5
2DC
100
AcDbEntity
  8
0
100
AcDbLine
 62
7
  6
CONTINUOUS
 10
34.3990175276
 20
33.1361050328
 11
34.3990175276
 21
42.9361050328
  0
LINE
  5
2DD
100
AcDbEntity
  8
0
100
AcDbLine
 62
7
  6
CONTINUOUS
 10
40.8990175276
 20
40.0361050328
 11
39.8990175276
 21
38.6001557073
  0
LINE
  5
2DE
100
AcDbEntity
  8
0
100
AcDbLine
 62
7
  6
CONTINUOUS
 10
40.9512368482
 20
39.9361050328
 11
40.0905175293
 21
38.7001557073
  0
LINE
  5
2DF
100
AcDbEntity
  8
0
100
AcDbLine
 62
7
  6
CONTINUOUS
 10
12.3990175276
 20
42.9361050328
 11
14.3990175276
 21
42.9361050328
  0
LINE
  5
2E0
100
AcDbEntity
  8
0
100
AcDbLine
 62
7
  6
CONTINUOUS
 10
32.3990175276
 20
42.9361050328
 11
34.3990175276
 21
42.9361050328
  0
LINE
  5
2E1
100
AcDbEntity
  8
0
100
AcDbLine
 62
7
  6
CONTINUOUS
 10
34.2990175276
 20
43.0361050328
 11
32.4990175276
 21
43.0361050328
  0
LINE
  5
2E2
100
AcDbEntity
  8
0
100
AcDbLine
 62
7
  6
CONTINUOUS
 10
14.2990175276
 20
43.0361050328
 11
12.4990175276
 21
43.0361050328
  0
LINE
  5
2E3
100
AcDbEntity
  8
0
100
AcDbLine
 62
7
  6
CONTINUOUS
 10
38.3575961714
 20
36.9361050328
 11
37.8575961714
 21
37.4361050328
  0
LINE
  5
2E4
100
AcDbEntity
  8
0
100
AcDbLine
 62
7
  6
CONTINUOUS
 10
38.3990175276
 20
37.0361050328
 11
37.8990175276
 21
37.5361050328
  0
LINE
  5
2E5
100
AcDbEntity
  8
0
100
AcDbLine
 62
7
  6
CONTINUOUS
 10
39.8990175276
 20
37.0361050328
 11
39.8990175276
 21
36.9361050328
  0
LINE
  5
2E6
100
AcDbEntity
  8
0
100
AcDbLine
 62
7
  6
CONTINUOUS
 10
40.3990175276
 20
38.6001557073
 11
40.3990175276
 21
37.5361050328
  0
LINE
  5
2E7
100
AcDbEntity
  8
0
100
AcDbLine
 62
7
  6
CONTINUOUS
 10
40.4990175276
 20
37.5361050328
 11
40.4990175276
 21
38.7001557073
  0
LINE
  5
2E8
100
AcDbEntity
  8
0
100
AcDbLine
 62
7
  6
CONTINUOUS
 10
40.8990175276
 20
36.1361050328
 11
40.8990175276
 21
36.0361050328
  0
LINE
  5
2E9
100
AcDbEntity
  8
0
100
AcDbLine
 62
7
  6
CONTINUOUS
 10
41.2990175276
 20
39.9361050328
 11
41.2990175276
 21
36.5361050328
  0
LINE
  5
2EA
100
AcDbEntity
  8
0
100
AcDbLine
 62
7
  6
CONTINUOUS
 10
41.3990175276
 20
36.5361050328
 11
41.3990175276
 21
40.0361050328
  0
ARC
  5
2EB
100
AcDbEntity
  8
0
100
AcDbCircle
 62
7
  6
CONTINUOUS
 10
13.4990175276
 20
29.6361050328
 40
0.1
100
AcDbArc
 50
180.0
 51
270.0
  0
ARC
  5
2EC
100
AcDbEntity
  8
0
100
AcDbCircle
 62
7
  6
CONTINUOUS
 10
14.4990175276
 20
22.6361050328
 40
0.1
100
AcDbArc
 50
180.0
 51
270.0
  0
ARC
  5
2ED
100
AcDbEntity
  8
0
100
AcDbCircle
 62
7
  6
CONTINUOUS
 10
14.5579880674
 20
35.3361050332
 40
0.2
100
AcDbArc
 50
180.0
 51
270.0
  0
ARC
  5
2EE
100
AcDbEntity
  8
0
100
AcDbCircle
 62
7
  6
CONTINUOUS
 10
13.2990175276
 20
32.9361050328
 40
0.2
100
AcDbArc
 50
0.0000000031
 51
29.9999999997
  0
ARC
  5
2EF
100
AcDbEntity
  8
0
100
AcDbCircle
 62
7
  6
CONTINUOUS
 10
12.4990175276
 20
33.1361050328
 40
0.1
100
AcDbArc
 50
180.0
 51
270.0
  0
ARC
  5
2F0
100
AcDbEntity
  8
0
100
AcDbCircle
 62
7
  6
CONTINUOUS
 10
13.2990175276
 20
32.9361050328
 40
0.1
100
AcDbArc
 50
0.0
 51
90.0
  0
ARC
  5
2F1
100
AcDbEntity
  8
0
100
AcDbCircle
 62
7
  6
CONTINUOUS
 10
14.5579880674
 20
35.3361050332
 40
0.1
100
AcDbArc
 50
180.00020298
 51
270.0
  0
ARC
  5
2F2
100
AcDbEntity
  8
0
100
AcDbCircle
 62
7
  6
CONTINUOUS
 10
6.3990175276
 20
39.1054409703
 40
0.6
100
AcDbArc
 50
180.0
 51
270.0
  0
ARC
  5
2F3
100
AcDbEntity
  8
0
100
AcDbCircle
 62
7
  6
CONTINUOUS
 10
6.3990175276
 20
39.1054409703
 40
0.5
100
AcDbArc
 50
180.0
 51
270.0
  0
ARC
  5
2F4
100
AcDbEntity
  8
0
100
AcDbCircle
 62
7
  6
CONTINUOUS
 10
5.3990175276
 20
38.1054409703
 40
0.5
100
AcDbArc
 50
180.0
 51
270.0
  0
ARC
  5
2F5
100
AcDbEntity
  8
0
100
AcDbCircle
 62
7
  6
CONTINUOUS
 10
5.3990175276
 20
38.1054409703
 40
0.4
100
AcDbArc
 50
180.0
 51
270.000029536
  0
ARC
  5
2F6
100
AcDbEntity
  8
0
100
AcDbCircle
 62
7
  6
CONTINUOUS
 10
14.5579880674
 20
39.0361050328
 40
0.2
100
AcDbArc
 50
90.0
 51
180.0
  0
ARC
  5
2F7
100
AcDbEntity
  8
0
100
AcDbCircle
 62
7
  6
CONTINUOUS
 10
14.4990175276
 20
40.1361050328
 40
0.2
100
AcDbArc
 50
180.0
 51
269.9999221525
  0
ARC
  5
2F8
100
AcDbEntity
  8
0
100
AcDbCircle
 62
7
  6
CONTINUOUS
 10
12.4990175276
 20
42.9361050328
 40
0.1
100
AcDbArc
 50
90.0
 51
180.0
  0
ARC
  5
2F9
100
AcDbEntity
  8
0
100
AcDbCircle
 62
7
  6
CONTINUOUS
 10
14.4990175276
 20
40.1361050328
 40
0.1
100
AcDbArc
 50
180.0
 51
270.0
  0
ARC
  5
2FA
100
AcDbEntity
  8
0
100
AcDbCircle
 62
7
  6
CONTINUOUS
 10
14.2990175276
 20
42.9361050328
 40
0.1
100
AcDbArc
 50
0.0
 51
90.0
  0
ARC
  5
2FB
100
AcDbEntity
  8
0
100
AcDbCircle
 62
7
  6
CONTINUOUS
 10
14.5579880674
 20
39.0361050328
 40
0.1
100
AcDbArc
 50
90.00020298
 51
180.0
  0
ARC
  5
2FC
100
AcDbEntity
  8
0
100
AcDbCircle
 62
7
  6
CONTINUOUS
 10
17.0400469877
 20
35.3361050332
 40
0.2
100
AcDbArc
 50
270.0
 51
360.0
  0
ARC
  5
2FD
100
AcDbEntity
  8
0
100
AcDbCircle
 62
7
  6
CONTINUOUS
 10
18.3579880674
 20
35.3361050332
 40
0.2
100
AcDbArc
 50
180.0
 51
270.0
  0
ARC
  5
2FE
100
AcDbEntity
  8
0
100
AcDbCircle
 62
7
  6
CONTINUOUS
 10
19.1990175276
 20
35.0361050332
 40
0.2
100
AcDbArc
 50
0.0
 51
30.0
  0
ARC
  5
2FF
100
AcDbEntity
  8
0
100
AcDbCircle
 62
7
  6
CONTINUOUS
 10
16.1990175276
 20
35.0361050332
 40
0.2
100
AcDbArc
 50
150.0
 51
180.0
  0
ARC
  5
300
100
AcDbEntity
  8
0
100
AcDbCircle
 62
7
  6
CONTINUOUS
 10
15.3990175276
 20
35.0361050332
 40
0.2
100
AcDbArc
 50
0.0
 51
30.0
  0
ARC
  5
301
100
AcDbEntity
  8
0
100
AcDbCircle
 62
7
  6
CONTINUOUS
 10
16.1990175276
 20
35.0361050332
 40
0.1
100
AcDbArc
 50
90.0
 51
180.0
  0
ARC
  5
302
100
AcDbEntity
  8
0
100
AcDbCircle
 62
7
  6
CONTINUOUS
 10
15.3990175276
 20
35.0361050332
 40
0.1
100
AcDbArc
 50
0.0
 51
90.0
  0
ARC
  5
303
100
AcDbEntity
  8
0
100
AcDbCircle
 62
7
  6
CONTINUOUS
 10
15.9990175276
 20
33.7961388314
 40
0.1
100
AcDbArc
 50
270.0
 51
360.0
  0
ARC
  5
304
100
AcDbEntity
  8
0
100
AcDbCircle
 62
7
  6
CONTINUOUS
 10
15.5990175276
 20
33.7961388314
 40
0.1
100
AcDbArc
 50
180.0
 51
270.0
  0
ARC
  5
305
100
AcDbEntity
  8
0
100
AcDbCircle
 62
7
  6
CONTINUOUS
 10
19.1990175276
 20
35.0361050332
 40
0.1
100
AcDbArc
 50
0.0
 51
90.0
  0
ARC
  5
306
100
AcDbEntity
  8
0
100
AcDbCircle
 62
7
  6
CONTINUOUS
 10
19.3990175276
 20
33.7961388314
 40
0.1
100
AcDbArc
 50
180.0
 51
270.0
  0
ARC
  5
307
100
AcDbEntity
  8
0
100
AcDbCircle
 62
7
  6
CONTINUOUS
 10
18.3579880674
 20
35.3361050332
 40
0.1
100
AcDbArc
 50
180.00020298
 51
270.0
  0
ARC
  5
308
100
AcDbEntity
  8
0
100
AcDbCircle
 62
7
  6
CONTINUOUS
 10
17.0400469877
 20
35.3361050332
 40
0.1
100
AcDbArc
 50
270.00020298
 51
360.0
  0
CIRCLE
  5
309
100
AcDbEntity
  8
0
100
AcDbCircle
 62
7
  6
CONTINUOUS
 10
15.7990175276
 20
37.186105033
 40
1.225
  0
CIRCLE
  5
30A
100
AcDbEntity
  8
0
100
AcDbCircle
 62
7
  6
CONTINUOUS
 10
15.7990175276
 20
37.186105033
 40
1.125
  0
CIRCLE
  5
30B
100
AcDbEntity
  8
0
100
AcDbCircle
 62
7
  6
CONTINUOUS
 10
15.7990175276
 20
37.186105033
 40
0.9759738373
  0
CIRCLE
  5
30C
100
AcDbEntity
  8
0
100
AcDbCircle
 62
7
  6
CONTINUOUS
 10
15.7990175276
 20
37.186105033
 40
0.7759738373
  0
ARC
  5
30D
100
AcDbEntity
  8
0
100
AcDbCircle
 62
7
  6
CONTINUOUS
 10
20.8400469877
 20
35.3361050332
 40
0.2
100
AcDbArc
 50
270.0
 51
360.0
  0
ARC
  5
30E
100
AcDbEntity
  8
0
100
AcDbCircle
 62
7
  6
CONTINUOUS
 10
22.1579880674
 20
35.3361050332
 40
0.2
100
AcDbArc
 50
180.0
 51
270.0
  0
ARC
  5
30F
100
AcDbEntity
  8
0
100
AcDbCircle
 62
7
  6
CONTINUOUS
 10
19.9990175276
 20
35.0361050332
 40
0.2
100
AcDbArc
 50
150.0
 51
180.0
  0
ARC
  5
310
100
AcDbEntity
  8
0
100
AcDbCircle
 62
7
  6
CONTINUOUS
 10
23.7990175276
 20
35.0361050332
 40
0.2
100
AcDbArc
 50
150.0
 51
180.0
  0
ARC
  5
311
100
AcDbEntity
  8
0
100
AcDbCircle
 62
7
  6
CONTINUOUS
 10
22.9990175276
 20
35.0361050332
 40
0.2
100
AcDbArc
 50
0.0
 51
30.0
  0
ARC
  5
312
100
AcDbEntity
  8
0
100
AcDbCircle
 62
7
  6
CONTINUOUS
 10
19.9990175276
 20
35.0361050332
 40
0.1
100
AcDbArc
 50
90.0
 51
180.0
  0
ARC
  5
313
100
AcDbEntity
  8
0
100
AcDbCircle
 62
7
  6
CONTINUOUS
 10
19.7990175276
 20
33.7961388314
 40
0.1
100
AcDbArc
 50
270.0
 51
360.0
  0
ARC
  5
314
100
AcDbEntity
  8
0
100
AcDbCircle
 62
7
  6
CONTINUOUS
 10
23.7990175276
 20
35.0361050332
 40
0.1
100
AcDbArc
 50
90.0
 51
180.0
  0
ARC
  5
315
100
AcDbEntity
  8
0
100
AcDbCircle
 62
7
  6
CONTINUOUS
 10
22.9990175276
 20
35.0361050332
 40
0.1
100
AcDbArc
 50
0.0
 51
90.0
  0
ARC
  5
316
100
AcDbEntity
  8
0
100
AcDbCircle
 62
7
  6
CONTINUOUS
 10
23.5990175276
 20
33.7961388314
 40
0.1
100
AcDbArc
 50
270.0
 51
360.0
  0
ARC
  5
317
100
AcDbEntity
  8
0
100
AcDbCircle
 62
7
  6
CONTINUOUS
 10
23.1990175276
 20
33.7961388314
 40
0.1
100
AcDbArc
 50
180.0
 51
270.0
  0
ARC
  5
318
100
AcDbEntity
  8
0
100
AcDbCircle
 62
7
  6
CONTINUOUS
 10
20.8400469877
 20
35.3361050332
 40
0.1
100
AcDbArc
 50
270.00020298
 51
360.0
  0
ARC
  5
319
100
AcDbEntity
  8
0
100
AcDbCircle
 62
7
  6
CONTINUOUS
 10
22.1579880674
 20
35.3361050332
 40
0.1
100
AcDbArc
 50
180.00020298
 51
270.0
  0
CIRCLE
  5
31A
100
AcDbEntity
  8
0
100
AcDbCircle
 62
7
  6
CONTINUOUS
 10
19.5990175276
 20
37.186105033
 40
1.225
  0
CIRCLE
  5
31B
100
AcDbEntity
  8
0
100
AcDbCircle
 62
7
  6
CONTINUOUS
 10
23.3990175276
 20
37.186105033
 40
1.225
  0
CIRCLE
  5
31C
100
AcDbEntity
  8
0
100
AcDbCircle
 62
7
  6
CONTINUOUS
 10
19.5990175276
 20
37.186105033
 40
1.125
  0
CIRCLE
  5
31D
100
AcDbEntity
  8
0
100
AcDbCircle
 62
7
  6
CONTINUOUS
 10
23.3990175276
 20
37.186105033
 40
1.125
  0
CIRCLE
  5
31E
100
AcDbEntity
  8
0
100
AcDbCircle
 62
7
  6
CONTINUOUS
 10
19.5990175276
 20
37.186105033
 40
0.9759738373
  0
CIRCLE
  5
31F
100
AcDbEntity
  8
0
100
AcDbCircle
 62
7
  6
CONTINUOUS
 10
23.3990175276
 20
37.186105033
 40
0.9759738373
  0
CIRCLE
  5
320
100
AcDbEntity
  8
0
100
AcDbCircle
 62
7
  6
CONTINUOUS
 10
19.5990175276
 20
37.186105033
 40
0.7759738373
  0
CIRCLE
  5
321
100
AcDbEntity
  8
0
100
AcDbCircle
 62
7
  6
CONTINUOUS
 10
23.3990175276
 20
37.186105033
 40
0.7759738373
  0
ARC
  5
322
100
AcDbEntity
  8
0
100
AcDbCircle
 62
7
  6
CONTINUOUS
 10
19.5990175277
 20
40.7521050328
 40
1.9
100
AcDbArc
 50
238.2689606076
 51
301.7310393924
  0
ARC
  5
323
100
AcDbEntity
  8
0
100
AcDbCircle
 62
7
  6
CONTINUOUS
 10
23.3990175277
 20
40.7521050328
 40
1.9
100
AcDbArc
 50
238.2689606076
 51
301.7310393924
  0
ARC
  5
324
100
AcDbEntity
  8
0
100
AcDbCircle
 62
7
  6
CONTINUOUS
 10
15.7990175277
 20
40.7521050328
 40
1.9
100
AcDbArc
 50
238.2689606076
 51
301.7310393924
  0
ARC
  5
325
100
AcDbEntity
  8
0
100
AcDbCircle
 62
7
  6
CONTINUOUS
 10
15.7990175277
 20
40.7521050328
 40
1.8
100
AcDbArc
 50
237.3755301466
 51
302.6244698533
  0
ARC
  5
326
100
AcDbEntity
  8
0
100
AcDbCircle
 62
7
  6
CONTINUOUS
 10
19.5990175277
 20
40.7521050328
 40
1.8
100
AcDbArc
 50
237.3755301466
 51
302.6244698533
  0
ARC
  5
327
100
AcDbEntity
  8
0
100
AcDbCircle
 62
7
  6
CONTINUOUS
 10
23.3990175277
 20
40.7521050328
 40
1.8
100
AcDbArc
 50
237.3755301466
 51
302.6244698534
  0
ARC
  5
328
100
AcDbEntity
  8
0
100
AcDbCircle
 62
7
  6
CONTINUOUS
 10
17.0400469877
 20
39.0361050328
 40
0.2
100
AcDbArc
 50
0.0
 51
90.0
  0
ARC
  5
329
100
AcDbEntity
  8
0
100
AcDbCircle
 62
7
  6
CONTINUOUS
 10
18.3579880674
 20
39.0361050328
 40
0.2
100
AcDbArc
 50
90.0
 51
180.0
  0
ARC
  5
32A
100
AcDbEntity
  8
0
100
AcDbCircle
 62
7
  6
CONTINUOUS
 10
20.8400469877
 20
39.0361050328
 40
0.2
100
AcDbArc
 50
0.0
 51
90.0
  0
ARC
  5
32B
100
AcDbEntity
  8
0
100
AcDbCircle
 62
7
  6
CONTINUOUS
 10
22.1579880674
 20
39.0361050328
 40
0.2
100
AcDbArc
 50
90.0
 51
180.0
  0
ARC
  5
32C
100
AcDbEntity
  8
0
100
AcDbCircle
 62
7
  6
CONTINUOUS
 10
20.8400469877
 20
39.0361050328
 40
0.1
100
AcDbArc
 50
0.0
 51
90.0000994315
  0
ARC
  5
32D
100
AcDbEntity
  8
0
100
AcDbCircle
 62
7
  6
CONTINUOUS
 10
18.3579880674
 20
39.0361050328
 40
0.1
100
AcDbArc
 50
90.00020298
 51
180.0
  0
ARC
  5
32E
100
AcDbEntity
  8
0
100
AcDbCircle
 62
7
  6
CONTINUOUS
 10
22.1579880674
 20
39.0361050328
 40
0.1
100
AcDbArc
 50
90.00020298
 51
180.0
  0
ARC
  5
32F
100
AcDbEntity
  8
0
100
AcDbCircle
 62
7
  6
CONTINUOUS
 10
17.0400469877
 20
39.0361050328
 40
0.1
100
AcDbArc
 50
0.0
 51
90.0000994315
  0
ARC
  5
330
100
AcDbEntity
  8
0
100
AcDbCircle
 62
7
  6
CONTINUOUS
 10
33.2990175276
 20
29.6361050328
 40
0.1
100
AcDbArc
 50
270.0
 51
360.0
  0
ARC
  5
331
100
AcDbEntity
  8
0
100
AcDbCircle
 62
7
  6
CONTINUOUS
 10
32.2990175276
 20
22.6361050328
 40
0.1
100
AcDbArc
 50
270.0
 51
360.0
  0
ARC
  5
332
100
AcDbEntity
  8
0
100
AcDbCircle
 62
7
  6
CONTINUOUS
 10
27.5990175276
 20
35.0361050332
 40
0.2
100
AcDbArc
 50
150.0
 51
180.0
  0
ARC
  5
333
100
AcDbEntity
  8
0
100
AcDbCircle
 62
7
  6
CONTINUOUS
 10
26.7990175276
 20
35.0361050332
 40
0.2
100
AcDbArc
 50
0.0
 51
30.0
  0
ARC
  5
334
100
AcDbEntity
  8
0
100
AcDbCircle
 62
7
  6
CONTINUOUS
 10
27.5990175276
 20
35.0361050332
 40
0.1
100
AcDbArc
 50
90.0
 51
180.0
  0
ARC
  5
335
100
AcDbEntity
  8
0
100
AcDbCircle
 62
7
  6
CONTINUOUS
 10
26.7990175276
 20
35.0361050332
 40
0.1
100
AcDbArc
 50
0.0
 51
90.0
  0
ARC
  5
336
100
AcDbEntity
  8
0
100
AcDbCircle
 62
7
  6
CONTINUOUS
 10
27.3990175276
 20
33.7961388314
 40
0.1
100
AcDbArc
 50
270.0
 51
360.0
  0
ARC
  5
337
100
AcDbEntity
  8
0
100
AcDbCircle
 62
7
  6
CONTINUOUS
 10
26.9990175276
 20
33.7961388314
 40
0.1
100
AcDbArc
 50
180.0
 51
270.0
  0
ARC
  5
338
100
AcDbEntity
  8
0
100
AcDbCircle
 62
7
  6
CONTINUOUS
 10
27.2228018865
 20
35.6078533793
 40
12.9143672875
100
AcDbArc
 50
163.683272302
 51
164.1450108972
  0
CIRCLE
  5
339
100
AcDbEntity
  8
0
100
AcDbCircle
 62
7
  6
CONTINUOUS
 10
27.1990175276
 20
37.186105033
 40
1.225
  0
CIRCLE
  5
33A
100
AcDbEntity
  8
0
100
AcDbCircle
 62
7
  6
CONTINUOUS
 10
27.1990175276
 20
37.186105033
 40
1.125
  0
CIRCLE
  5
33B
100
AcDbEntity
  8
0
100
AcDbCircle
 62
7
  6
CONTINUOUS
 10
27.1990175276
 20
37.186105033
 40
0.9759738373
  0
CIRCLE
  5
33C
100
AcDbEntity
  8
0
100
AcDbCircle
 62
7
  6
CONTINUOUS
 10
27.1990175276
 20
37.186105033
 40
0.7759738373
  0
ARC
  5
33D
100
AcDbEntity
  8
0
100
AcDbCircle
 62
7
  6
CONTINUOUS
 10
24.6400469877
 20
35.3361050332
 40
0.2
100
AcDbArc
 50
270.0
 51
360.0
  0
ARC
  5
33E
100
AcDbEntity
  8
0
100
AcDbCircle
 62
7
  6
CONTINUOUS
 10
25.9579880674
 20
35.3361050332
 40
0.2
100
AcDbArc
 50
180.0
 51
270.0
  0
ARC
  5
33F
100
AcDbEntity
  8
0
100
AcDbCircle
 62
7
  6
CONTINUOUS
 10
28.4400469877
 20
35.3361050332
 40
0.2
100
AcDbArc
 50
270.0
 51
360.0
  0
ARC
  5
340
100
AcDbEntity
  8
0
100
AcDbCircle
 62
7
  6
CONTINUOUS
 10
25.9579880674
 20
35.3361050332
 40
0.1
100
AcDbArc
 50
180.00020298
 51
270.0
  0
ARC
  5
341
100
AcDbEntity
  8
0
100
AcDbCircle
 62
7
  6
CONTINUOUS
 10
24.6400469877
 20
35.3361050332
 40
0.1
100
AcDbArc
 50
270.00020298
 51
360.0
  0
ARC
  5
342
100
AcDbEntity
  8
0
100
AcDbCircle
 62
7
  6
CONTINUOUS
 10
28.4400469877
 20
35.3361050332
 40
0.1
100
AcDbArc
 50
270.00020298
 51
360.0
  0
ARC
  5
343
100
AcDbEntity
  8
0
100
AcDbCircle
 62
7
  6
CONTINUOUS
 10
31.3990175276
 20
35.0361050332
 40
0.2
100
AcDbArc
 50
150.0
 51
180.0
  0
ARC
  5
344
100
AcDbEntity
  8
0
100
AcDbCircle
 62
7
  6
CONTINUOUS
 10
30.5990175276
 20
35.0361050332
 40
0.2
100
AcDbArc
 50
0.0
 51
30.0
  0
ARC
  5
345
100
AcDbEntity
  8
0
100
AcDbCircle
 62
7
  6
CONTINUOUS
 10
33.4990175276
 20
32.9361050328
 40
0.2
100
AcDbArc
 50
150.0
 51
180.0
  0
ARC
  5
346
100
AcDbEntity
  8
0
100
AcDbCircle
 62
7
  6
CONTINUOUS
 10
30.5990175276
 20
35.0361050332
 40
0.1
100
AcDbArc
 50
0.0
 51
90.0
  0
ARC
  5
347
100
AcDbEntity
  8
0
100
AcDbCircle
 62
7
  6
CONTINUOUS
 10
31.3990175276
 20
35.0361050332
 40
0.1
100
AcDbArc
 50
90.0
 51
180.0
  0
ARC
  5
348
100
AcDbEntity
  8
0
100
AcDbCircle
 62
7
  6
CONTINUOUS
 10
31.1990175276
 20
33.7961388314
 40
0.1
100
AcDbArc
 50
270.0
 51
360.0
  0
ARC
  5
349
100
AcDbEntity
  8
0
100
AcDbCircle
 62
7
  6
CONTINUOUS
 10
30.7990175276
 20
33.7961388314
 40
0.1
100
AcDbArc
 50
180.0
 51
270.0
  0
ARC
  5
34A
100
AcDbEntity
  8
0
100
AcDbCircle
 62
7
  6
CONTINUOUS
 10
33.4990175276
 20
32.9361050328
 40
0.1
100
AcDbArc
 50
90.0
 51
180.0
  0
ARC
  5
34B
100
AcDbEntity
  8
0
100
AcDbCircle
 62
7
  6
CONTINUOUS
 10
31.022801887
 20
35.6078533792
 40
12.9143672881
100
AcDbArc
 50
163.683272302
 51
164.1450108972
  0
CIRCLE
  5
34C
100
AcDbEntity
  8
0
100
AcDbCircle
 62
7
  6
CONTINUOUS
 10
30.9990175276
 20
37.186105033
 40
1.225
  0
CIRCLE
  5
34D
100
AcDbEntity
  8
0
100
AcDbCircle
 62
7
  6
CONTINUOUS
 10
30.9990175276
 20
37.186105033
 40
1.125
  0
CIRCLE
  5
34E
100
AcDbEntity
  8
0
100
AcDbCircle
 62
7
  6
CONTINUOUS
 10
30.9990175276
 20
37.186105033
 40
0.9759738373
  0
CIRCLE
  5
34F
100
AcDbEntity
  8
0
100
AcDbCircle
 62
7
  6
CONTINUOUS
 10
30.9990175276
 20
37.186105033
 40
0.7759738373
  0
ARC
  5
350
100
AcDbEntity
  8
0
100
AcDbCircle
 62
7
  6
CONTINUOUS
 10
29.7579880674
 20
35.3361050332
 40
0.2
100
AcDbArc
 50
180.0
 51
270.0
  0
ARC
  5
351
100
AcDbEntity
  8
0
100
AcDbCircle
 62
7
  6
CONTINUOUS
 10
32.2400469877
 20
35.3361050332
 40
0.2
100
AcDbArc
 50
270.0
 51
360.0
  0
ARC
  5
352
100
AcDbEntity
  8
0
100
AcDbCircle
 62
7
  6
CONTINUOUS
 10
32.2400469877
 20
35.3361050332
 40
0.1
100
AcDbArc
 50
270.00020298
 51
360.0
  0
ARC
  5
353
100
AcDbEntity
  8
0
100
AcDbCircle
 62
7
  6
CONTINUOUS
 10
29.7579880674
 20
35.3361050332
 40
0.1
100
AcDbArc
 50
180.00020298
 51
270.0
  0
ARC
  5
354
100
AcDbEntity
  8
0
100
AcDbCircle
 62
7
  6
CONTINUOUS
 10
30.9990175277
 20
40.7521050328
 40
1.9
100
AcDbArc
 50
238.2689606076
 51
301.7310393924
  0
ARC
  5
355
100
AcDbEntity
  8
0
100
AcDbCircle
 62
7
  6
CONTINUOUS
 10
27.1990175277
 20
40.7521050328
 40
1.9
100
AcDbArc
 50
238.2689606076
 51
301.7310393924
  0
ARC
  5
356
100
AcDbEntity
  8
0
100
AcDbCircle
 62
7
  6
CONTINUOUS
 10
27.1990175277
 20
40.7521050328
 40
1.8
100
AcDbArc
 50
237.3755301466
 51
302.6244698533
  0
ARC
  5
357
100
AcDbEntity
  8
0
100
AcDbCircle
 62
7
  6
CONTINUOUS
 10
30.9990175277
 20
40.7521050328
 40
1.8
100
AcDbArc
 50
237.3755301466
 51
302.6244698533
  0
ARC
  5
358
100
AcDbEntity
  8
0
100
AcDbCircle
 62
7
  6
CONTINUOUS
 10
29.7579880674
 20
39.0361050328
 40
0.2
100
AcDbArc
 50
90.0
 51
180.0
  0
ARC
  5
359
100
AcDbEntity
  8
0
100
AcDbCircle
 62
7
  6
CONTINUOUS
 10
32.2400469877
 20
39.0361050328
 40
0.2
100
AcDbArc
 50
0.0
 51
90.0
  0
ARC
  5
35A
100
AcDbEntity
  8
0
100
AcDbCircle
 62
7
  6
CONTINUOUS
 10
24.6400469877
 20
39.0361050328
 40
0.2
100
AcDbArc
 50
0.0
 51
90.0
  0
ARC
  5
35B
100
AcDbEntity
  8
0
100
AcDbCircle
 62
7
  6
CONTINUOUS
 10
25.9579880674
 20
39.0361050328
 40
0.2
100
AcDbArc
 50
90.0
 51
180.0
  0
ARC
  5
35C
100
AcDbEntity
  8
0
100
AcDbCircle
 62
7
  6
CONTINUOUS
 10
28.4400469877
 20
39.0361050328
 40
0.2
100
AcDbArc
 50
0.0
 51
90.0
  0
ARC
  5
35D
100
AcDbEntity
  8
0
100
AcDbCircle
 62
7
  6
CONTINUOUS
 10
32.2990175276
 20
40.1361050328
 40
0.2
100
AcDbArc
 50
270.0
 51
360.0
  0
ARC
  5
35E
100
AcDbEntity
  8
0
100
AcDbCircle
 62
7
  6
CONTINUOUS
 10
32.2990175276
 20
40.1361050328
 40
0.1
100
AcDbArc
 50
270.0
 51
360.0
  0
ARC
  5
35F
100
AcDbEntity
  8
0
100
AcDbCircle
 62
7
  6
CONTINUOUS
 10
32.4990175276
 20
42.9361050328
 40
0.1
100
AcDbArc
 50
90.0
 51
180.0
  0
ARC
  5
360
100
AcDbEntity
  8
0
100
AcDbCircle
 62
7
  6
CONTINUOUS
 10
25.9579880674
 20
39.0361050328
 40
0.1
100
AcDbArc
 50
90.00020298
 51
180.0
  0
ARC
  5
361
100
AcDbEntity
  8
0
100
AcDbCircle
 62
7
  6
CONTINUOUS
 10
32.2400469877
 20
39.0361050328
 40
0.1
100
AcDbArc
 50
0.0
 51
90.0000994315
  0
ARC
  5
362
100
AcDbEntity
  8
0
100
AcDbCircle
 62
7
  6
CONTINUOUS
 10
29.7579880674
 20
39.0361050328
 40
0.1
100
AcDbArc
 50
90.00020298
 51
180.0
  0
ARC
  5
363
100
AcDbEntity
  8
0
100
AcDbCircle
 62
7
  6
CONTINUOUS
 10
24.6400469877
 20
39.0361050328
 40
0.1
100
AcDbArc
 50
0.0
 51
90.0000994315
  0
ARC
  5
364
100
AcDbEntity
  8
0
100
AcDbCircle
 62
7
  6
CONTINUOUS
 10
28.4400469877
 20
39.0361050328
 40
0.1
100
AcDbArc
 50
0.0
 51
90.0000994315
  0
ARC
  5
365
100
AcDbEntity
  8
0
100
AcDbCircle
 62
7
  6
CONTINUOUS
 10
38.6228018864
 20
35.6078533794
 40
12.9143672874
100
AcDbArc
 50
163.683272302
 51
164.1450108972
  0
ARC
  5
366
100
AcDbEntity
  8
0
100
AcDbCircle
 62
7
  6
CONTINUOUS
 10
34.8228017322
 20
35.6078534242
 40
12.9143671268
100
AcDbArc
 50
163.6832723007
 51
164.1450109017
  0
ARC
  5
367
100
AcDbEntity
  8
0
100
AcDbCircle
 62
7
  6
CONTINUOUS
 10
42.4228016603
 20
35.6078534445
 40
12.9143670521
100
AcDbArc
 50
163.6832722978
 51
164.1450109014
  0
ARC
  5
368
100
AcDbEntity
  8
0
100
AcDbCircle
 62
7
  6
CONTINUOUS
 10
39.8990175276
 20
37.5361050328
 40
0.6
100
AcDbArc
 50
270.0
 51
360.0
  0
ARC
  5
369
100
AcDbEntity
  8
0
100
AcDbCircle
 62
7
  6
CONTINUOUS
 10
39.8990175276
 20
37.5361050328
 40
0.5
100
AcDbArc
 50
270.0
 51
360.0
  0
ARC
  5
36A
100
AcDbEntity
  8
0
100
AcDbCircle
 62
7
  6
CONTINUOUS
 10
40.8990175276
 20
36.5361050328
 40
0.5
100
AcDbArc
 50
270.0
 51
360.0
  0
ARC
  5
36B
100
AcDbEntity
  8
0
100
AcDbCircle
 62
7
  6
CONTINUOUS
 10
40.8990175276
 20
36.5361050328
 40
0.4
100
AcDbArc
 50
270.0
 51
360.0
  0
ARC
  5
36C
100
AcDbEntity
  8
0
100
AcDbCircle
 62
7
  6
CONTINUOUS
 10
34.2990175276
 20
33.1361050328
 40
0.1
100
AcDbArc
 50
270.0
 51
360.0
  0
ARC
  5
36D
100
AcDbEntity
  8
0
100
AcDbCircle
 62
7
  6
CONTINUOUS
 10
34.2990175276
 20
42.9361050328
 40
0.1
100
AcDbArc
 50
0.0
 51
90.0
  0
LINE
  5
36E
100
AcDbEntity
  8
0
100
AcDbLine
 62
7
  6
CONTINUOUS
 10
8.8990175276
 20
39.1054409703
 11
8.9404388838
 21
39.0054409703
  0
SPLINE
  5
36F
100
AcDbEntity
  8
0
100
AcDbSpline
 62
7
  6
CONTINUOUS
 70
0
 71
3
 72
11
 73
7
 74
0
 42
0.0000001
 43
0.0000001
 44
0.0000000001
 40
0.0
 40
0.0
 40
0.0
 40
0.0
 40
0.0791043126
 40
0.23355919
 40
0.4521366791
 40
1.0
 40
1.0
 40
1.0
 40
1.0
 10
20.5694524817
 20
39.2361050328
 30
0.0
 10
20.5702493446
 20
39.2334789157
 30
0.0
 10
20.5725582158
 20
39.2257122916
 30
0.0
 10
20.5768736646
 20
39.2106319635
 30
0.0
 10
20.585776164
 20
39.1799500488
 30
0.0
 10
20.5930933048
 20
39.1543873345
 30
0.0
 10
20.5982892625
 20
39.1361050328
 30
0.0
  0
LINE
  5
370
100
AcDbEntity
  8
0
100
AcDbLine
 62
7
  6
CONTINUOUS
 10
8.3990175276
 20
38.6054409703
 11
8.4990175276
 21
38.5640196141
  0
SPLINE
  5
371
100
AcDbEntity
  8
0
100
AcDbSpline
 62
7
  6
CONTINUOUS
 70
0
 71
3
 72
12
 73
8
 74
0
 42
0.0000001
 43
0.0000001
 44
0.0000000001
 40
0.0
 40
0.0
 40
0.0
 40
0.0
 40
0.0290982442
 40
0.106753449
 40
0.2853990786
 40
0.5064831472
 40
1.0
 40
1.0
 40
1.0
 40
1.0
 10
8.3990175276
 20
37.6054409703
 30
0.0
 10
8.3999564136
 20
37.6064411344
 30
0.0
 10
8.4034261067
 20
37.6100863156
 30
0.0
 10
8.4128972757
 20
37.6196434463
 30
0.0
 10
8.4289680838
 20
37.6353971307
 30
0.0
 10
8.4588796383
 20
37.6650363803
 30
0.0
 10
8.48256668
 20
37.6889901227
 30
0.0
 10
8.4990175276
 20
37.7054409703
 30
0.0
  0
SPLINE
  5
372
100
AcDbEntity
  8
0
100
AcDbSpline
 62
7
  6
CONTINUOUS
 70
0
 71
3
 72
11
 73
7
 74
0
 42
0.0000001
 43
0.0000001
 44
0.0000000001
 40
0.0
 40
0.0
 40
0.0
 40
0.0
 40
0.0791043126
 40
0.23355919
 40
0.4521366791
 40
1.0
 40
1.0
 40
1.0
 40
1.0
 10
31.9694524817
 20
39.2361050328
 30
0.0
 10
31.9702493446
 20
39.2334789157
 30
0.0
 10
31.9725582158
 20
39.2257122916
 30
0.0
 10
31.9768736646
 20
39.2106319635
 30
0.0
 10
31.985776164
 20
39.1799500488
 30
0.0
 10
31.9930933048
 20
39.1543873345
 30
0.0
 10
31.9982892625
 20
39.1361050328
 30
0.0
  0
SPLINE
  5
373
100
AcDbEntity
  8
0
100
AcDbSpline
 62
7
  6
CONTINUOUS
 70
0
 71
3
 72
12
 73
8
 74
0
 42
0.0000001
 43
0.0000001
 44
0.0000000001
 40
0.0
 40
0.0
 40
0.0
 40
0.0
 40
0.0290982442
 40
0.106753449
 40
0.2853990786
 40
0.5064831472
 40
1.0
 40
1.0
 40
1.0
 40
1.0
 10
4.8990175276
 20
41.6054409703
 30
0.0
 10
4.9000176916
 20
41.6045020843
 30
0.0
 10
4.9036628729
 20
41.6010323912
 30
0.0
 10
4.9132200035
 20
41.5915612222
 30
0.0
 10
4.928973688
 20
41.5754904141
 30
0.0
 10
4.9586129376
 20
41.5455788596
 30
0.0
 10
4.98256668
 20
41.521891818
 30
0.0
 10
4.9990175276
 20
41.5054409703
 30
0.0
  0
SPLINE
  5
374
100
AcDbEntity
  8
0
100
AcDbSpline
 62
7
  6
CONTINUOUS
 70
0
 71
3
 72
11
 73
7
 74
0
 42
0.0000001
 43
0.0000001
 44
0.0000000001
 40
0.0
 40
0.0
 40
0.0
 40
0.0
 40
0.0859343046
 40
0.2476148485
 40
0.4681726137
 40
1.0
 40
1.0
 40
1.0
 40
1.0
 10
5.3990175276
 20
41.6054409703
 30
0.0
 10
5.3975448194
 20
41.6025445255
 30
0.0
 10
5.3932058445
 20
41.5942493004
 30
0.0
 10
5.3846981227
 20
41.5787266577
 30
0.0
 10
5.3683971209
 20
41.5482547695
 30
0.0
 10
5.3549867319
 20
41.523168676
 30
0.0
 10
5.3454991518
 20
41.5054409703
 30
0.0
  0
SPLINE
  5
375
100
AcDbEntity
  8
0
100
AcDbSpline
 62
7
  6
CONTINUOUS
 70
0
 71
3
 72
11
 73
7
 74
0
 42
0.0000001
 43
0.0000001
 44
0.0000000001
 40
0.0
 40
0.0
 40
0.0
 40
0.0
 40
0.0791043126
 40
0.23355919
 40
0.4521366791
 40
1.0
 40
1.0
 40
1.0
 40
1.0
 10
24.3694524817
 20
39.2361050328
 30
0.0
 10
24.3702493446
 20
39.2334789157
 30
0.0
 10
24.3725582158
 20
39.2257122916
 30
0.0
 10
24.3768736646
 20
39.2106319635
 30
0.0
 10
24.385776164
 20
39.1799500488
 30
0.0
 10
24.3930933048
 20
39.1543873345
 30
0.0
 10
24.3982892625
 20
39.1361050328
 30
0.0
  0
SPLINE
  5
376
100
AcDbEntity
  8
0
100
AcDbSpline
 62
7
  6
CONTINUOUS
 70
0
 71
3
 72
13
 73
9
 74
0
 42
0.0000001
 43
0.0000001
 44
0.0000000001
 40
0.0
 40
0.0
 40
0.0
 40
0.0
 40
0.1496685446
 40
0.2761773076
 40
0.4138412959
 40
0.5570738716
 40
0.7033175026
 40
1.0
 40
1.0
 40
1.0
 40
1.0
 10
6.3990175276
 20
40.1054409703
 30
0.0
 10
6.3896221233
 20
40.1102935783
 30
0.0
 10
6.372439316
 20
40.1195337523
 30
0.0
 10
6.3468007222
 20
40.1335827454
 30
0.0
 10
6.321411332
 20
40.1471367675
 30
0.0
 10
6.2947276887
 20
40.1612251059
 30
0.0
 10
6.2581823894
 20
40.1806951066
 30
0.0
 10
6.2306444565
 20
40.1955515033
 30
0.0
 10
6.2121658184
 20
40.2054409703
 30
0.0
  0
SPLINE
  5
377
100
AcDbEntity
  8
0
100
AcDbSpline
 62
7
  6
CONTINUOUS
 70
0
 71
3
 72
12
 73
8
 74
0
 42
0.0000001
 43
0.0000001
 44
0.0000000001
 40
0.0
 40
0.0
 40
0.0
 40
0.0
 40
0.3332151538
 40
0.5704127714
 40
0.7804440778
 40
0.9372426396
 40
1.0
 40
1.0
 40
1.0
 40
1.0
 10
5.7990175276
 20
40.2054409703
 30
0.0
 10
5.8101248822
 20
40.1943336158
 30
0.0
 10
5.8292308753
 20
40.1754118705
 30
0.0
 10
5.8552215273
 20
40.1493713053
 30
0.0
 10
5.8752356439
 20
40.1291183104
 30
0.0
 10
5.8894163535
 20
40.1146573574
 30
0.0
 10
5.8968649171
 20
40.1074711036
 30
0.0
 10
5.8990175276
 20
40.1054409703
 30
0.0
  0
LINE
  5
378
100
AcDbEntity
  8
0
100
AcDbLine
 62
7
  6
CONTINUOUS
 10
38.3990175276
 20
37.0361050328
 11
38.3575961714
 21
36.9361050328
  0
SPLINE
  5
379
100
AcDbEntity
  8
0
100
AcDbSpline
 62
7
  6
CONTINUOUS
 70
0
 71
3
 72
14
 73
10
 74
0
 42
0.0000001
 43
0.0000001
 44
0.0000000001
 40
0.0
 40
0.0
 40
0.0
 40
0.0
 40
0.2953590056
 40
0.4410461386
 40
0.5838777226
 40
0.7214168407
 40
0.8482559722
 40
0.9529497962
 40
1.0
 40
1.0
 40
1.0
 40
1.0
 10
40.0905175293
 20
38.7001557073
 30
0.0
 10
40.0716636789
 20
38.6903103547
 30
0.0
 10
40.0435586452
 20
38.675515903
 30
0.0
 10
40.0062522944
 20
38.656120599
 30
0.0
 10
39.9789792435
 20
38.64206572
 30
0.0
 10
39.9529614292
 20
38.6285371707
 30
0.0
 10
39.9295409855
 20
38.6159714274
 30
0.0
 10
39.9117451078
 20
38.6067093237
 30
0.0
 10
39.9020307127
 20
38.6017050844
 30
0.0
 10
39.8990175276
 20
38.6001557073
 30
0.0
  0
SPLINE
  5
37A
100
AcDbEntity
  8
0
100
AcDbSpline
 62
7
  6
CONTINUOUS
 70
0
 71
3
 72
12
 73
8
 74
0
 42
0.0000001
 43
0.0000001
 44
0.0000000001
 40
0.0
 40
0.0
 40
0.0
 40
0.0
 40
0.0290986671
 40
0.1067545855
 40
0.2854006504
 40
0.5064840974
 40
1.0
 40
1.0
 40
1.0
 40
1.0
 10
40.3990175276
 20
38.6001557073
 30
0.0
 10
40.4000177203
 20
38.6010945918
 30
0.0
 10
40.4036629954
 20
38.6045642641
 30
0.0
 10
40.413220345
 20
38.6140353175
 30
0.0
 10
40.4289742719
 20
38.6301059234
 30
0.0
 10
40.4586134542
 20
38.6600174667
 30
0.0
 10
40.4825667116
 20
38.6837048913
 30
0.0
 10
40.4990175276
 20
38.7001557073
 30
0.0
  0
SPLINE
  5
37B
100
AcDbEntity
  8
0
100
AcDbSpline
 62
7
  6
CONTINUOUS
 70
0
 71
3
 72
12
 73
8
 74
0
 42
0.0000001
 43
0.0000001
 44
0.0000000001
 40
0.0
 40
0.0
 40
0.0
 40
0.0
 40
0.3636273636
 40
0.6115061413
 40
0.8147467205
 40
0.9511490171
 40
1.0
 40
1.0
 40
1.0
 40
1.0
 10
40.9512368482
 20
39.9361050329
 30
0.0
 10
40.9449073413
 20
39.9482260388
 30
0.0
 10
40.9342664557
 20
39.9686113984
 30
0.0
 10
40.9201005775
 20
39.9957784782
 30
0.0
 10
40.9098325016
 20
40.0153404781
 30
0.0
 10
40.9029563219
 20
40.0282317984
 30
0.0
 10
40.8998277639
 20
40.0344561231
 30
0.0
 10
40.8990175276
 20
40.0361050328
 30
0.0
  0
SPLINE
  5
37C
100
AcDbEntity
  8
0
100
AcDbSpline
 62
7
  6
CONTINUOUS
 70
0
 71
3
 72
11
 73
7
 74
0
 42
0.0000001
 43
0.0000001
 44
0.0000000001
 40
0.0
 40
0.0
 40
0.0
 40
0.0
 40
0.0791043126
 40
0.23355919
 40
0.4521366791
 40
1.0
 40
1.0
 40
1.0
 40
1.0
 10
28.1694524817
 20
39.2361050328
 30
0.0
 10
28.1702493446
 20
39.2334789157
 30
0.0
 10
28.1725582158
 20
39.2257122916
 30
0.0
 10
28.1768736646
 20
39.2106319635
 30
0.0
 10
28.185776164
 20
39.1799500488
 30
0.0
 10
28.1930933048
 20
39.1543873345
 30
0.0
 10
28.1982892625
 20
39.1361050328
 30
0.0
  0
SPLINE
  5
37D
100
AcDbEntity
  8
0
100
AcDbSpline
 62
7
  6
CONTINUOUS
 70
0
 71
3
 72
12
 73
8
 74
0
 42
0.0000001
 43
0.0000001
 44
0.0000000001
 40
0.0
 40
0.0
 40
0.0
 40
0.0
 40
0.3332156165
 40
0.5704139971
 40
0.7804456265
 40
0.937243434
 40
1.0
 40
1.0
 40
1.0
 40
1.0
 10
41.2990175276
 20
39.9361050328
 30
0.0
 10
41.3101248975
 20
39.9472124028
 30
0.0
 10
41.3292311876
 20
39.966133931
 30
0.0
 10
41.3552221102
 20
39.9921743297
 30
0.0
 10
41.3752361655
 20
40.0124274081
 30
0.0
 10
41.3894165828
 20
40.0268885664
 30
0.0
 10
41.3968649753
 20
40.0340748923
 30
0.0
 10
41.3990175276
 20
40.0361050328
 30
0.0
  0
SPLINE
  5
37E
100
AcDbEntity
  8
0
100
AcDbSpline
 62
7
  6
CONTINUOUS
 70
0
 71
3
 72
12
 73
8
 74
0
 42
0.0000001
 43
0.0000001
 44
0.0000000001
 40
0.0
 40
0.0
 40
0.0
 40
0.0
 40
0.3332151538
 40
0.5704127715
 40
0.7804440778
 40
0.9372426396
 40
1.0
 40
1.0
 40
1.0
 40
1.0
 10
32.2990175276
 20
29.6361050328
 30
0.0
 10
32.3101248822
 20
29.6249976782
 30
0.0
 10
32.3292308753
 20
29.606075933
 30
0.0
 10
32.3552215274
 20
29.5800353678
 30
0.0
 10
32.3752356439
 20
29.5597823729
 30
0.0
 10
32.3894163535
 20
29.5453214199
 30
0.0
 10
32.3968649171
 20
29.5381351661
 30
0.0
 10
32.3990175276
 20
29.5361050328
 30
0.0
  0
SPLINE
  5
37F
100
AcDbEntity
  8
0
100
AcDbSpline
 62
7
  6
CONTINUOUS
 70
0
 71
3
 72
11
 73
7
 74
0
 42
0.0000001
 43
0.0000001
 44
0.0000000001
 40
0.0
 40
0.0
 40
0.0
 40
0.0
 40
0.0791043126
 40
0.23355919
 40
0.4521366791
 40
1.0
 40
1.0
 40
1.0
 40
1.0
 10
16.7694524817
 20
39.2361050328
 30
0.0
 10
16.7702493446
 20
39.2334789157
 30
0.0
 10
16.7725582158
 20
39.2257122916
 30
0.0
 10
16.7768736646
 20
39.2106319635
 30
0.0
 10
16.785776164
 20
39.1799500488
 30
0.0
 10
16.7930933048
 20
39.1543873345
 30
0.0
 10
16.7982892625
 20
39.1361050328
 30
0.0
  0
LINE
  5
380
100
AcDbEntity
  8
0
100
AcDbLine
 62
7
  6
CONTINUOUS
 10
37.8575961714
 20
37.4361050328
 11
37.8990175276
 21
37.5361050328
  0
SPLINE
  5
381
100
AcDbEntity
  8
0
100
AcDbSpline
 62
7
  6
CONTINUOUS
 70
0
 71
3
 72
12
 73
8
 74
0
 42
0.0000001
 43
0.0000001
 44
0.0000000001
 40
0.0
 40
0.0
 40
0.0
 40
0.0
 40
0.3520315929
 40
0.49189621
 40
0.6498262377
 40
0.8216716243
 40
1.0
 40
1.0
 40
1.0
 40
1.0
 10
14.3990175276
 20
23.2775263891
 30
0.0
 10
14.3990175276
 20
23.2641888949
 30
0.0
 10
14.4198844691
 20
23.2506256252
 30
0.0
 10
14.4423424927
 20
23.2431728037
 30
0.0
 10
14.4599205335
 20
23.2391736632
 30
0.0
 10
14.4789742817
 20
23.2367178643
 30
0.0
 10
14.4922611633
 20
23.2361050328
 30
0.0
 10
14.4990175276
 20
23.2361050328
 30
0.0
  0
SPLINE
  5
382
100
AcDbEntity
  8
0
100
AcDbSpline
 62
7
  6
CONTINUOUS
 70
0
 71
3
 72
12
 73
8
 74
0
 42
0.0000001
 43
0.0000001
 44
0.0000000001
 40
0.0
 40
0.0
 40
0.0
 40
0.0
 40
0.3332151538
 40
0.5704127715
 40
0.7804440778
 40
0.9372426396
 40
1.0
 40
1.0
 40
1.0
 40
1.0
 10
14.4990175276
 20
29.6361050328
 30
0.0
 10
14.487910173
 20
29.6249976782
 30
0.0
 10
14.4689884278
 20
29.6058916851
 30
0.0
 10
14.4429478626
 20
29.579901033
 30
0.0
 10
14.4226948676
 20
29.5598869165
 30
0.0
 10
14.4082339146
 20
29.5457062069
 30
0.0
 10
14.4010476609
 20
29.5382576433
 30
0.0
 10
14.3990175276
 20
29.5361050328
 30
0.0
  0
SPLINE
  5
383
100
AcDbEntity
  8
0
100
AcDbSpline
 62
7
  6
CONTINUOUS
 70
0
 71
3
 72
12
 73
8
 74
0
 42
0.0000001
 43
0.0000001
 44
0.0000000001
 40
0.0
 40
0.0
 40
0.0
 40
0.0
 40
0.3519799691
 40
0.4920212434
 40
0.6500167006
 40
0.8217430218
 40
1.0
 40
1.0
 40
1.0
 40
1.0
 10
32.3990175276
 20
23.2775263891
 30
0.0
 10
32.3990175276
 20
23.2641874069
 30
0.0
 10
32.378124292
 20
23.2506658767
 30
0.0
 10
32.3557009736
 20
23.2430898268
 30
0.0
 10
32.3381260086
 20
23.2390141069
 30
0.0
 10
32.3190560554
 20
23.2366513108
 30
0.0
 10
32.3057729309
 20
23.2361050328
 30
0.0
 10
32.2990175276
 20
23.2361050328
 30
0.0
  0
ENDSEC
  0
SECTION
  2
OBJECTS
  0
DICTIONARY
  5
C
100
AcDbDictionary
280
0
281
1
  3
ACAD_GROUP
350
D
  3
ACAD_MLINESTYLE
350
17
  3
ACAD_LAYOUT
350
1A
  3
ACAD_PLOTSETTINGS
350
19
  3
ACAD_PLOTSTYLENAME
350
E
  0
DICTIONARY
  5
D
102
{ACAD_REACTORS
330
C
102
}
100
AcDbDictionary
280
0
281
1
  0
ACDBDICTIONARYWDFLT
  5
E
102
{ACAD_REACTORS
330
C
102
}
100
AcDbDictionary
281
1
  3
Normal
350
F
100
AcDbDictionaryWithDefault
340
F
  0
DICTIONARY
  5
17
102
{ACAD_REACTORS
330
C
102
}
100
AcDbDictionary
280
0
281
1
  3
Standard
350
18
  0
DICTIONARY
  5
19
102
{ACAD_REACTORS
330
C
102
}
100
AcDbDictionary
281
1
  0
DICTIONARY
  5
1A
102
{ACAD_REACTORS
330
C
102
}
100
AcDbDictionary
281
1
  3
Model
350
384
  3
Layout1
350
385
  0
ACDBPLACEHOLDER
  5
F
102
{ACAD_REACTORS
330
E
102
}
  0
MLINESTYLE
  5
18
102
{ACAD_REACTORS
330
17
102
}
100
AcDbMlineStyle
  2
STANDARD
 70
0
  3

 62
256
 51
90.0
 52
90.0
 71
2
 49
0.5
 62
256
  6
BYLAYER
 49
-0.5
 62
256
  6
BYLAYER
  0
LAYOUT
  5
384
102
{ACAD_REACTORS
330
1A
102
}
100
AcDbPlotSettings
  1

  2
none_device
  4

  6

 40
0.0
 41
0.0
 42
0.0
 43
0.0
 44
210.0
 45
297.0
 46
0.0
 47
0.0
 48
0.0
 49
0.0
140
0.0
141
0.0
142
1.0
143
1.0
 70
1024
 72
1
 73
0
 74
0
  7

 75
0
147
1.0
148
0.0
149
0.0
100
AcDbLayout
  1
Model
 70
0
 71
0
 10
0.0
 20
0.0
 11
210.0
 21
297.0
 12
0.0
 22
0.0
 32
0.0
 14
0.0
 24
0.0
 34
0.0
 15
0.0
 25
0.0
 35
0.0
146
0.0
 13
0.0
 23
0.0
 33
0.0
 16
1.0
 26
0.0
 36
0.0
 17
0.0
 27
1.0
 37
0.0
 76
0
330
210
345
0
346
0
  0
LAYOUT
  5
385
102
{ACAD_REACTORS
330
1A
102
}
100
AcDbPlotSettings
  1

  2
none_device
  4

  6

 40
0.0
 41
0.0
 42
0.0
 43
0.0
 44
210.0
 45
297.0
 46
0.0
 47
0.0
 48
0.0
 49
0.0
140
0.0
141
0.0
142
1.0
143
1.0
 70
0
 72
1
 73
0
 74
0
  7

 75
0
147
1.0
148
0.0
149
0.0
100
AcDbLayout
  1
Layout1
 70
0
 71
1
 10
0.0
 20
0.0
 11
210.0
 21
297.0
 12
0.0
 22
0.0
 32
0.0
 14
0.0
 24
0.0
 34
0.0
 15
0.0
 25
0.0
 35
0.0
146
0.0
 13
0.0
 23
0.0
 33
0.0
 16
1.0
 26
0.0
 36
0.0
 17
0.0
 27
1.0
 37
0.0
 76
0
330
211
345
0
346
0
  0
ENDSEC
  0
EOF
