999
DXF file: C:\Users\sesa63760\Dev\_Creo\CAD\MCADID0005318_3D-CAD\drw0001_5.dxf
999
Pro/ENGINEER 2019471 by Parametric Technology Corporation
  0
SECTION
  2
HEADER
  9
$ACADVER
  1
AC1024
  9
$DWGCODEPAGE
  3
ANSI_1252
  9
$EXTMAX
 10
80.3358070501
 20
113.6177842566
 30
0.0
  9
$EXTMIN
 10
0.0
 20
0.0
 30
0.0
  9
$LIMMIN
 10
0.0
 20
0.0
  9
$LIMMAX
 10
80.3358070501
 20
113.6177842566
  9
$VIEWCTR
 10
40.167903525
 20
56.8088921283
  9
$VIEWSIZE
 40
113.6177842566
  9
$CLAYER
  8
0
  9
$LTSCALE
 40
7.4061963071
  9
$CELTYPE
  6
BYLAYER
  9
$DIMSCALE
 40
1.0
  9
$DIMASZ
 40
0.9563786554
  9
$DIMEXO
 40
1.0
  9
$DIMDLI
 40
5.1170083576
  9
$DIMEXE
 40
1.0
  9
$DIMCEN
 40
1.2119230321
  9
$DIMLFAC
 40
1.0
  9
$DIMBLK
  1
_FILLED
  9
$DIMALT
 70
0
  9
$DIMALTF
 40
0.0393700787
  9
$DIMTXT
 40
1.3389301175
  9
$DIMTOL
 70
1
  9
$DIMLIM
 70
0
  9
$DIMTFAC
 40
1.0
  9
$DIMTP
 40
0.01
  9
$DIMTM
 40
0.01
  9
$DIMGAP
 40
0.625
  9
$DIMDSEP
 70
46
  9
$AUNITS
 70
0
  9
$PDMODE
 70
3
  9
$PDSIZE
 40
0.3125
  9
$HANDSEED
  5
2ED
  9
$TILEMODE
 70
1
  9
$MEASUREMENT
 70
1
  9
$INSUNITS
 70
4
  0
ENDSEC
  0
SECTION
  2
CLASSES
  0
CLASS
  1
ACDBDICTIONARYWDFLT
  2
AcDbDictionaryWithDefault
  3
AutoCAD 2000
 90
0
 91
1
280
0
281
0
  0
CLASS
  1
ACDBPLACEHOLDER
  2
AcDbPlaceHolder
  3
AutoCAD 2000
 90
0
 91
1
280
0
281
0
  0
CLASS
  1
LAYOUT
  2
AcDbLayout
  3
AutoCAD 2000
 90
0
 91
0
280
0
281
0
  0
ENDSEC
  0
SECTION
  2
TABLES
  0
TABLE
  2
VPORT
  5
8
100
AcDbSymbolTable
 70
2
  0
VPORT
  5
1F4
100
AcDbSymbolTableRecord
100
AcDbViewportTableRecord
  2
*ACTIVE
 70
0
 10
0.0
 20
0.0
 11
1.0
 21
1.0
 12
40.167903525
 22
56.8088921283
 13
0.0
 23
0.0
 14
1.0
 24
1.0
 15
0.0
 25
0.0
 16
0.0
 26
0.0
 36
1.0
 17
0.0
 27
0.0
 37
0.0
 40
113.6177842566
 41
0.7070707071
 42
50.0
 43
0.0
 44
0.0
 50
0.0
 51
0.0
 71
0
 72
100
 73
1
 74
1
 75
0
 76
0
 77
0
 78
0
  0
ENDTAB
  0
TABLE
  2
LTYPE
  5
5
100
AcDbSymbolTable
 70
6
  0
LTYPE
  5
14
100
AcDbSymbolTableRecord
100
AcDbLinetypeTableRecord
  2
BYBLOCK
 70
0
  3

 72
65
 73
0
 40
0.0
  0
LTYPE
  5
15
100
AcDbSymbolTableRecord
100
AcDbLinetypeTableRecord
  2
BYLAYER
 70
0
  3

 72
65
 73
0
 40
0.0
  0
LTYPE
  5
16
100
AcDbSymbolTableRecord
100
AcDbLinetypeTableRecord
  2
CONTINUOUS
 70
64
  3
Solid line
 72
65
 73
0
 40
0.0
  0
LTYPE
  5
1F5
100
AcDbSymbolTableRecord
100
AcDbLinetypeTableRecord
  2
CENTER
 70
64
  3
____ _ ____ _ ____ _ ____ _ ____ _ ____ _ ____
 72
65
 73
4
 40
0.6
 49
0.375
 74
0
 49
-0.075
 74
0
 49
0.075
 74
0
 49
-0.075
 74
0
  0
LTYPE
  5
1F6
100
AcDbSymbolTableRecord
100
AcDbLinetypeTableRecord
  2
HIDDEN
 70
64
  3
- - - - - - - - - - - - - - - - - - - -
 72
65
 73
2
 40
0.2
 49
0.1
 74
0
 49
-0.1
 74
0
  0
LTYPE
  5
1F7
100
AcDbSymbolTableRecord
100
AcDbLinetypeTableRecord
  2
PHANTOM
 70
64
  3
_____ _ _ _____ _ _ _____ _ _ _____
 72
65
 73
6
 40
0.8
 49
0.45
 74
0
 49
-0.05
 74
0
 49
0.1
 74
0
 49
-0.05
 74
0
 49
0.1
 74
0
 49
-0.05
 74
0
  0
LTYPE
  5
1F8
100
AcDbSymbolTableRecord
100
AcDbLinetypeTableRecord
  2
DOT
 70
64
  3
. . . . . . . . . . . . . . . . . . . .
 72
65
 73
2
 40
0.2
 49
0.1
 74
0
 49
-0.1
 74
0
  0
LTYPE
  5
1F9
100
AcDbSymbolTableRecord
100
AcDbLinetypeTableRecord
  2
DASHED
 70
64
  3
- - - - - - - - - - - - - - - - - - - -
 72
65
 73
2
 40
0.2
 49
0.1
 74
0
 49
-0.1
 74
0
  0
ENDTAB
  0
TABLE
  2
LAYER
  5
2
100
AcDbSymbolTable
 70
36
  0
LAYER
  5
10
100
AcDbSymbolTableRecord
100
AcDbLayerTableRecord
  2
0
 70
0
 62
7
  6
CONTINUOUS
370
-3
390
F
  0
LAYER
  5
1FA
100
AcDbSymbolTableRecord
100
AcDbLayerTableRecord
  2
DEFAULT_1
 70
0
 62
7
  6
CENTER
370
-3
390
F
  0
LAYER
  5
1FB
100
AcDbSymbolTableRecord
100
AcDbLayerTableRecord
  2
DEFAULT_2
 70
0
 62
7
  6
HIDDEN
370
-3
390
F
  0
LAYER
  5
1FC
100
AcDbSymbolTableRecord
100
AcDbLayerTableRecord
  2
DEFAULT_3
 70
0
 62
7
  6
PHANTOM
370
-3
390
F
  0
LAYER
  5
1FD
100
AcDbSymbolTableRecord
100
AcDbLayerTableRecord
  2
00_COMPONENTS
 70
0
 62
7
  6
CONTINUOUS
370
-3
390
F
  0
LAYER
  5
1FE
100
AcDbSymbolTableRecord
100
AcDbLayerTableRecord
  2
01_1_DEFAULT_DATUMS
 70
0
 62
7
  6
CONTINUOUS
370
-3
390
F
  0
LAYER
  5
1FF
100
AcDbSymbolTableRecord
100
AcDbLayerTableRecord
  2
01_PLANES
 70
0
 62
7
  6
CONTINUOUS
370
-3
390
F
  0
LAYER
  5
200
100
AcDbSymbolTableRecord
100
AcDbLayerTableRecord
  2
02_COORD_SYS
 70
0
 62
7
  6
CONTINUOUS
370
-3
390
F
  0
LAYER
  5
201
100
AcDbSymbolTableRecord
100
AcDbLayerTableRecord
  2
03_AXES
 70
0
 62
7
  6
CONTINUOUS
370
-3
390
F
  0
LAYER
  5
202
100
AcDbSymbolTableRecord
100
AcDbLayerTableRecord
  2
04_POINTS
 70
0
 62
7
  6
CONTINUOUS
370
-3
390
F
  0
LAYER
  5
203
100
AcDbSymbolTableRecord
100
AcDbLayerTableRecord
  2
05_CURVES
 70
0
 62
7
  6
CONTINUOUS
370
-3
390
F
  0
LAYER
  5
204
100
AcDbSymbolTableRecord
100
AcDbLayerTableRecord
  2
06_SURFS
 70
0
 62
7
  6
CONTINUOUS
370
-3
390
F
  0
LAYER
  5
205
100
AcDbSymbolTableRecord
100
AcDbLayerTableRecord
  2
07_COSMETICS
 70
0
 62
7
  6
CONTINUOUS
370
-3
390
F
  0
LAYER
  5
206
100
AcDbSymbolTableRecord
100
AcDbLayerTableRecord
  2
10_NOTES
 70
0
 62
7
  6
CONTINUOUS
370
-3
390
F
  0
LAYER
  5
207
100
AcDbSymbolTableRecord
100
AcDbLayerTableRecord
  2
11_NOTES_PUB
 70
0
 62
7
  6
CONTINUOUS
370
-3
390
F
  0
LAYER
  5
208
100
AcDbSymbolTableRecord
100
AcDbLayerTableRecord
  2
13_REF_GTOL
 70
0
 62
7
  6
CONTINUOUS
370
-3
390
F
  0
LAYER
  5
209
100
AcDbSymbolTableRecord
100
AcDbLayerTableRecord
  2
16_MISC
 70
0
 62
7
  6
CONTINUOUS
370
-3
390
F
  0
LAYER
  5
20A
100
AcDbSymbolTableRecord
100
AcDbLayerTableRecord
  2
17_NO_PRINT
 70
0
 62
7
  6
CONTINUOUS
370
-3
390
F
  0
LAYER
  5
20B
100
AcDbSymbolTableRecord
100
AcDbLayerTableRecord
  2
18_DATUM_CAMS_JOINTS
 70
0
 62
7
  6
CONTINUOUS
370
-3
390
F
  0
LAYER
  5
20C
100
AcDbSymbolTableRecord
100
AcDbLayerTableRecord
  2
19_DATUM_FUNCTIONAL
 70
0
 62
7
  6
CONTINUOUS
370
-3
390
F
  0
LAYER
  5
20D
100
AcDbSymbolTableRecord
100
AcDbLayerTableRecord
  2
20_DATUM_KINEMATIC_SCHEME
 70
0
 62
7
  6
CONTINUOUS
370
-3
390
F
  0
ENDTAB
  0
TABLE
  2
STYLE
  5
3
100
AcDbSymbolTable
 70
1
  0
STYLE
  5
11
100
AcDbSymbolTableRecord
100
AcDbTextStyleTableRecord
  2
STANDARD
 70
0
 40
0.0
 41
1.0
 50
0.0
 71
0
 42
0.2
  3
ARIAL.TTF
  4

  0
STYLE
  5
20E
100
AcDbSymbolTableRecord
100
AcDbTextStyleTableRecord
  2
TEXTSTYLE_1
 70
0
 40
0.0
 41
0.8
 50
0.0
 71
0
 42
0.2
  3
gdt
  4

  0
ENDTAB
  0
TABLE
  2
VIEW
  5
6
100
AcDbSymbolTable
 70
0
  0
ENDTAB
  0
TABLE
  2
UCS
  5
7
100
AcDbSymbolTable
 70
0
  0
ENDTAB
  0
TABLE
  2
APPID
  5
9
100
AcDbSymbolTable
 70
1
  0
APPID
  5
20F
100
AcDbSymbolTableRecord
100
AcDbRegAppTableRecord
  2
ACAD
 70
0
  0
ENDTAB
  0
TABLE
  2
BLOCK_RECORD
  5
1
100
AcDbSymbolTable
 70
0
  0
BLOCK_RECORD
  5
210
100
AcDbSymbolTableRecord
100
AcDbBlockTableRecord
  2
*Model_Space
  0
BLOCK_RECORD
  5
211
100
AcDbSymbolTableRecord
100
AcDbBlockTableRecord
  2
*Paper_Space
  0
BLOCK_RECORD
  5
212
100
AcDbSymbolTableRecord
100
AcDbBlockTableRecord
  2
_FILLED
  0
ENDTAB
  0
TABLE
  2
DIMSTYLE
  5
A
100
AcDbSymbolTable
 70
1
100
AcDbDimStyleTable
 71
0
  0
DIMSTYLE
105
213
100
AcDbSymbolTableRecord
100
AcDbDimStyleTableRecord
  2
STANDARD
 70
0
  3

  4

 40
1.0
 41
0.9563786554
 42
1.0
 43
0.38
 44
1.0
 45
0.0
 46
0.0
 47
0.01
 48
0.01
140
1.3389301175
141
0.09
142
0.0
143
25.4
144
1.0
145
0.0
146
1.0
147
0.625
 71
1
 72
0
 73
0
 74
0
 75
0
 76
0
 77
1
 78
8
 79
2
170
0
171
1
172
0
173
0
174
0
175
0
176
0
177
0
178
0
270
2
179
2
271
2
272
2
273
2
274
2
275
0
280
0
281
0
282
0
283
1
284
8
285
0
286
0
287
3
288
0
340
11
278
46
341
212
342
212
343
212
344
212
  0
ENDTAB
  0
ENDSEC
  0
SECTION
  2
BLOCKS
  0
BLOCK
  5
20
100
AcDbEntity
  8
0
100
AcDbBlockBegin
  2
*Model_Space
 70
0
 10
0.0
 20
0.0
 30
0.0
  3
*Model_Space
  1

  0
ENDBLK
  5
21
100
AcDbEntity
  8
0
100
AcDbBlockEnd
  0
BLOCK
  5
1C
100
AcDbEntity
  8
0
100
AcDbBlockBegin
  2
*Paper_Space
 70
0
 10
0.0
 20
0.0
 30
0.0
  3
*Paper_Space
  1

  0
ENDBLK
  5
1D
100
AcDbEntity
  8
0
100
AcDbBlockEnd
  0
BLOCK
  5
214
100
AcDbEntity
  8
0
100
AcDbBlockBegin
  2
_FILLED
 70
64
 10
0.0
 20
0.0
  3
_FILLED
  1

  0
SOLID
  5
215
100
AcDbEntity
  8
0
  6
BYBLOCK
 62
0
100
AcDbTrace
 10
0.0
 20
0.0
 11
-1.0
 21
0.25
 12
-1.0
 22
-0.25
 13
-1.0
 23
-0.25
  0
ENDBLK
  5
216
100
AcDbEntity
  8
0
  6
BYBLOCK
 62
0
100
AcDbBlockEnd
  0
ENDSEC
  0
SECTION
  2
ENTITIES
  0
LINE
  5
217
100
AcDbEntity
  8
0
100
AcDbLine
 62
7
  6
BYLAYER
 10
43.8026550671
 20
9.2479591837
 11
42.8026550671
 21
9.2479591837
  0
LINE
  5
218
100
AcDbEntity
  8
0
100
AcDbLine
 62
7
  6
BYLAYER
 10
42.8026550671
 20
11.7479591837
 11
43.8026550671
 21
11.7479591837
  0
LINE
  5
219
100
AcDbEntity
  8
0
100
AcDbLine
 62
7
  6
BYLAYER
 10
39.6026550671
 20
14.6479591837
 11
45.4026550671
 21
14.6479591837
  0
LINE
  5
21A
100
AcDbEntity
  8
0
100
AcDbLine
 62
7
  6
BYLAYER
 10
44.3485231563
 20
14.7944057931
 11
45.4026550671
 21
14.7944057931
  0
LINE
  5
21B
100
AcDbEntity
  8
0
100
AcDbLine
 62
7
  6
BYLAYER
 10
39.6026550671
 20
16.2479591837
 11
43.8026550671
 21
16.2479591837
  0
LINE
  5
21C
100
AcDbEntity
  8
0
100
AcDbLine
 62
7
  6
BYLAYER
 10
42.8026550671
 20
20.7479591837
 11
41.3026550671
 21
20.7479591837
  0
LINE
  5
21D
100
AcDbEntity
  8
0
100
AcDbLine
 62
7
  6
BYLAYER
 10
43.8026550671
 20
23.2479591837
 11
42.8026550671
 21
23.2479591837
  0
LINE
  5
21E
100
AcDbEntity
  8
0
100
AcDbLine
 62
7
  6
BYLAYER
 10
42.8026550671
 20
23.7479591837
 11
43.8026550671
 21
23.7479591837
  0
LINE
  5
21F
100
AcDbEntity
  8
0
100
AcDbLine
 62
7
  6
BYLAYER
 10
42.8026550671
 20
24.2479591837
 11
43.8026550671
 21
24.2479591837
  0
LWPOLYLINE
  5
220
100
AcDbEntity
  8
0
100
AcDbPolyline
 62
7
  6
BYLAYER
 90
11
 70
0
 10
40.8026550671
 20
27.3154173662
 10
40.4035547175
 20
27.267954922
 10
39.9687160387
 20
27.2139611767
 10
39.5979835552
 20
27.1632018191
 10
39.3008927566
 20
27.1157828146
 10
39.0683950319
 20
27.0700438375
 10
38.8873452139
 20
27.0225066123
 10
38.7404821981
 20
26.9637094853
 10
38.604906565
 20
26.8629880807
 10
38.5098058903
 20
26.6809343868
 10
38.501240893
 20
26.6024557982
  0
LINE
  5
221
100
AcDbEntity
  8
0
100
AcDbLine
 62
7
  6
BYLAYER
 10
40.3083898918
 20
26.5561194742
 11
40.8026550671
 21
26.6154340738
  0
LWPOLYLINE
  5
222
100
AcDbEntity
  8
0
100
AcDbPolyline
 62
7
  6
BYLAYER
 90
12
 70
0
 10
40.2114204999
 20
26.075232882
 10
39.85502245
 20
26.0531332868
 10
39.5514738143
 20
26.0322882486
 10
39.303946716
 20
26.0126383163
 10
39.110179368
 20
25.9940374784
 10
39.0319059012
 20
25.9850413063
 10
38.9067025447
 20
25.9671034309
 10
38.8084485925
 20
25.9464651274
 10
38.7063813141
 20
25.9090410721
 10
38.5868155642
 20
25.8167439173
 10
38.5083064456
 20
25.6566403519
 10
38.500653077
 20
25.5844200013
  0
LINE
  5
223
100
AcDbEntity
  8
0
100
AcDbLine
 62
7
  6
BYLAYER
 10
40.2545138401
 20
25.3777066225
 11
40.8005792567
 21
25.4093742437
  0
LINE
  5
224
100
AcDbEntity
  8
0
100
AcDbLine
 62
7
  6
BYLAYER
 10
40.8006340052
 20
26.1093773715
 11
40.2114204999
 21
26.075232882
  0
LINE
  5
225
100
AcDbEntity
  8
0
100
AcDbLine
 62
7
  6
BYLAYER
 10
43.8026550671
 20
25.7479591837
 11
42.8026550671
 21
25.7479591837
  0
LINE
  5
226
100
AcDbEntity
  8
0
100
AcDbLine
 62
7
  6
BYLAYER
 10
43.8026550671
 20
26.2479591837
 11
42.8026550671
 21
26.2479591837
  0
LINE
  5
227
100
AcDbEntity
  8
0
100
AcDbLine
 62
7
  6
BYLAYER
 10
42.8026550671
 20
26.7479591837
 11
43.8026550671
 21
26.7479591837
  0
LINE
  5
228
100
AcDbEntity
  8
0
100
AcDbLine
 62
7
  6
BYLAYER
 10
40.8026550671
 20
26.6031810561
 11
40.7476552219
 21
26.6089191447
  0
LINE
  5
229
100
AcDbEntity
  8
0
100
AcDbLine
 62
7
  6
BYLAYER
 10
40.8026550671
 20
28.0399459052
 11
40.6952075625
 21
28.0526761553
  0
LWPOLYLINE
  5
22A
100
AcDbEntity
  8
0
100
AcDbPolyline
 62
7
  6
BYLAYER
 90
3
 70
0
 10
39.1707934063
 20
26.1137287402
 10
39.4211295936
 20
26.0698602107
 10
39.639655646
 20
26.0383437977
  0
LINE
  5
22B
100
AcDbEntity
  8
0
100
AcDbLine
 62
7
  6
BYLAYER
 10
39.1710487551
 20
26.1137343867
 11
39.1708038694
 21
26.1137830336
  0
LWPOLYLINE
  5
22C
100
AcDbEntity
  8
0
100
AcDbPolyline
 62
7
  6
BYLAYER
 90
10
 70
0
 10
40.2575574462
 20
28.7002380749
 10
39.8701516367
 20
28.6510327341
 10
39.5352202425
 20
28.6038497502
 10
39.2601586005
 20
28.5585309855
 10
39.1450767644
 20
28.5364044886
 10
38.9546525581
 20
28.4920791743
 10
38.8033538344
 20
28.4425561438
 10
38.6670057903
 20
28.3685877689
 10
38.5472733325
 20
28.2322549848
 10
38.5012395986
 20
28.0527323351
  0
LWPOLYLINE
  5
22D
100
AcDbEntity
  8
0
100
AcDbPolyline
 62
7
  6
BYLAYER
 90
10
 70
0
 10
40.2839630457
 20
30.153458144
 10
39.9246425418
 20
30.1082391611
 10
39.6091191914
 20
30.0648275867
 10
39.3422144595
 20
30.0229214145
 10
39.1233841394
 20
29.9819436896
 10
38.9473016915
 20
29.9401608384
 10
38.8014643886
 20
29.8917052071
 10
38.6687920081
 20
29.8196356641
 10
38.5460124353
 20
29.6797160506
 10
38.5011188971
 20
29.502345108
  0
LINE
  5
22E
100
AcDbEntity
  8
0
100
AcDbLine
 62
7
  6
BYLAYER
 10
40.8026550671
 20
28.7655256967
 11
40.2575574462
 21
28.7002380749
  0
LINE
  5
22F
100
AcDbEntity
  8
0
100
AcDbLine
 62
7
  6
BYLAYER
 10
40.3576709568
 20
29.4621596827
 11
40.8026550671
 21
29.5154407819
  0
LINE
  5
230
100
AcDbEntity
  8
0
100
AcDbLine
 62
7
  6
BYLAYER
 10
40.8026550671
 20
30.215443518
 11
40.2839630457
 21
30.153458144
  0
LINE
  5
231
100
AcDbEntity
  8
0
100
AcDbLine
 62
7
  6
BYLAYER
 10
41.0026550671
 20
31.2479591837
 11
43.8026550671
 21
31.2479591837
  0
LINE
  5
232
100
AcDbEntity
  8
0
100
AcDbLine
 62
7
  6
BYLAYER
 10
40.8026550671
 20
29.4899225287
 11
40.6955832784
 21
29.5026272102
  0
LWPOLYLINE
  5
233
100
AcDbEntity
  8
0
100
AcDbPolyline
 62
7
  6
BYLAYER
 90
10
 70
0
 10
40.8026550671
 20
31.6654116002
 10
40.4809608528
 20
31.6272367729
 10
40.0830263982
 20
31.5785802411
 10
39.6917210961
 20
31.5266560021
 10
39.3303404182
 20
31.4708955741
 10
39.0394008736
 20
31.4134868287
 10
38.8319698111
 20
31.3534481296
 10
38.6805601176
 20
31.2779769765
 10
38.5473493417
 20
31.1328867147
 10
38.5006918927
 20
30.9523522479
  0
LWPOLYLINE
  5
234
100
AcDbEntity
  8
0
100
AcDbPolyline
 62
7
  6
BYLAYER
 90
11
 70
0
 10
40.8026550671
 20
34.5654251508
 10
40.4798305802
 20
34.5271058822
 10
40.0275988857
 20
34.4715538885
 10
39.6428716629
 20
34.419678164
 10
39.4768868618
 20
34.3948340723
 10
39.1957980785
 20
34.3465233505
 10
38.9790988842
 20
34.2986077194
 10
38.8126374782
 20
34.2460450948
 10
38.6690913291
 20
34.1699847182
 10
38.5430718506
 20
34.0250403947
 10
38.500612911
 20
33.8525406906
  0
LWPOLYLINE
  5
235
100
AcDbEntity
  8
0
100
AcDbPolyline
 62
7
  6
BYLAYER
 90
6
 70
0
 10
40.8026550671
 20
33.1154666752
 10
40.5642475235
 20
33.0871786518
 10
40.0382890118
 20
33.022908747
 10
39.5252571843
 20
32.9522952839
 10
39.0873123177
 20
32.8742800286
 10
38.7722877734
 20
32.7790594105
  0
LINE
  5
236
100
AcDbEntity
  8
0
100
AcDbLine
 62
7
  6
BYLAYER
 10
40.8026550671
 20
32.3899312431
 11
40.695771987
 21
32.4026187395
  0
LINE
  5
237
100
AcDbEntity
  8
0
100
AcDbLine
 62
7
  6
BYLAYER
 10
40.8026550671
 20
33.839959504
 11
40.695604626
 21
33.8526951541
  0
LINE
  5
238
100
AcDbEntity
  8
0
100
AcDbLine
 62
7
  6
BYLAYER
 10
38.3026550671
 20
96.6479591837
 11
42.3026550671
 21
104.6479591837
  0
LINE
  5
239
100
AcDbEntity
  8
0
100
AcDbLine
 62
7
  6
BYLAYER
 10
40.3413155519
 20
36.7101744614
 11
41.0026550671
 21
36.789198702
  0
LINE
  5
23A
100
AcDbEntity
  8
0
100
AcDbLine
 62
7
  6
BYLAYER
 10
40.5203593083
 20
35.281861119
 11
41.0026550671
 21
35.3391571617
  0
LWPOLYLINE
  5
23B
100
AcDbEntity
  8
0
100
AcDbPolyline
 62
7
  6
BYLAYER
 90
12
 70
0
 10
41.0026550671
 20
36.0393404243
 10
40.5328502092
 20
35.983447478
 10
40.1402474441
 20
35.935757119
 10
39.7990790291
 20
35.8914868457
 10
39.5015825839
 20
35.8486885498
 10
39.2481938015
 20
35.8063920464
 10
39.0427308793
 20
35.7641733153
 10
38.8792302219
 20
35.7197555051
 10
38.740195357
 20
35.6636213948
 10
38.6056881917
 20
35.5644844112
 10
38.5093736363
 20
35.3810700416
 10
38.5008795233
 20
35.3029612051
  0
LWPOLYLINE
  5
23C
100
AcDbEntity
  8
0
100
AcDbPolyline
 62
7
  6
BYLAYER
 90
11
 70
0
 10
41.2468103505
 20
37.5185946244
 10
40.5265580207
 20
37.4327016315
 10
40.130819074
 20
37.3845565958
 10
39.7588177208
 20
37.335998589
 10
39.4346498995
 20
37.2882227746
 10
39.1715079342
 20
37.2417149782
 10
38.9688886072
 20
37.1958827041
 10
38.8119368746
 20
37.1459805109
 10
38.6724681573
 20
37.0725534321
 10
38.5469663727
 20
36.9316979988
 10
38.501229613
 20
36.7527275961
  0
LINE
  5
23D
100
AcDbEntity
  8
0
100
AcDbLine
 62
7
  6
BYLAYER
 10
43.8026550671
 20
37.2479591837
 11
41.0026550671
 21
37.2479591837
  0
LINE
  5
23E
100
AcDbEntity
  8
0
100
AcDbLine
 62
7
  6
BYLAYER
 10
40.8006066754
 20
37.9488389219
 11
41.8006066754
 21
37.9488389219
  0
LINE
  5
23F
100
AcDbEntity
  8
0
100
AcDbLine
 62
7
  6
BYLAYER
 10
41.0026550671
 20
35.2661248774
 11
40.6952569137
 21
35.3027024725
  0
LINE
  5
240
100
AcDbEntity
  8
0
100
AcDbLine
 62
7
  6
BYLAYER
 10
40.2212845642
 20
36.1095944956
 11
40.9053982576
 21
36.027737222
  0
LINE
  5
241
100
AcDbEntity
  8
0
100
AcDbLine
 62
7
  6
BYLAYER
 10
41.0026550671
 20
36.7160751912
 11
40.6959906623
 21
36.7527677444
  0
LWPOLYLINE
  5
242
100
AcDbEntity
  8
0
100
AcDbPolyline
 62
7
  6
BYLAYER
 90
7
 70
0
 10
42.6145504865
 20
39.9426716868
 10
42.6126927685
 20
39.9423117633
 10
42.5648376639
 20
39.9335541222
 10
42.4711783308
 20
39.9209200114
 10
42.3353071387
 20
39.9065075354
 10
42.1556606392
 20
39.8907641548
 10
41.9328821632
 20
39.8739519404
  0
LINE
  5
243
100
AcDbEntity
  8
0
100
AcDbLine
 62
7
  6
BYLAYER
 10
39.9463726858
 20
38.1099771084
 11
39.9462246302
 21
38.1099571891
  0
LWPOLYLINE
  5
244
100
AcDbEntity
  8
0
100
AcDbPolyline
 62
7
  6
BYLAYER
 90
10
 70
0
 10
39.9291528395
 20
38.8088215371
 10
39.7692781169
 20
38.7874343325
 10
39.4424727099
 20
38.7394667686
 10
39.1759936956
 20
38.6926379905
 10
38.9699845199
 20
38.6461335714
 10
38.8860078076
 20
38.6219412833
 10
38.7406864464
 20
38.5639299768
 10
38.6040781785
 20
38.4626485579
 10
38.5093979105
 20
38.2805152742
 10
38.5010224253
 20
38.2029360729
  0
LWPOLYLINE
  5
245
100
AcDbEntity
  8
0
100
AcDbPolyline
 62
7
  6
BYLAYER
 90
3
 70
0
 10
41.9746608788
 20
39.0475311528
 10
41.7260124825
 20
39.0165877806
 10
41.4369331362
 20
38.983014981
  0
LWPOLYLINE
  5
246
100
AcDbEntity
  8
0
100
AcDbPolyline
 62
7
  6
BYLAYER
 90
5
 70
0
 10
39.9462246302
 20
38.1099571891
 10
40.4294319436
 20
38.1698525195
 10
40.9034090086
 20
38.2235461731
 10
41.3269013916
 20
38.2703102134
 10
41.6951058429
 20
38.3119373668
  0
LWPOLYLINE
  5
247
100
AcDbEntity
  8
0
100
AcDbPolyline
 62
7
  6
BYLAYER
 90
7
 70
0
 10
41.6951058429
 20
38.3119373668
 10
42.0086907631
 20
38.3498487218
 10
42.2716785974
 20
38.3852921902
 10
42.3838778102
 20
38.4021976802
 10
42.5693916229
 20
38.4344892566
 10
42.7107717045
 20
38.4662477034
 10
42.8026550671
 20
38.4956435031
  0
LWPOLYLINE
  5
248
100
AcDbEntity
  8
0
100
AcDbPolyline
 62
7
  6
BYLAYER
 90
4
 70
0
 10
41.4369331362
 20
38.983014981
 10
40.7376200349
 20
38.9050801007
 10
40.3329143781
 20
38.8587272387
 10
39.9289797525
 20
38.8088175969
  0
LWPOLYLINE
  5
249
100
AcDbEntity
  8
0
100
AcDbPolyline
 62
7
  6
BYLAYER
 90
3
 70
0
 10
41.9328821632
 20
39.8739519404
 10
41.6697359066
 20
39.856246627
 10
41.369646467
 20
39.837688103
  0
LWPOLYLINE
  5
24A
100
AcDbEntity
  8
0
100
AcDbPolyline
 62
7
  6
BYLAYER
 90
8
 70
0
 10
41.5542949788
 20
39.1487621412
 10
41.861022645
 20
39.1684786567
 10
42.1271833917
 20
39.1875462402
 10
42.3498327653
 20
39.2060428977
 10
42.5292670324
 20
39.2242408716
 10
42.6677684157
 20
39.2425529647
 10
42.7749979321
 20
39.2630509031
 10
42.8026550671
 20
39.2722745724
  0
LINE
  5
24B
100
AcDbEntity
  8
0
100
AcDbLine
 62
7
  6
BYLAYER
 10
41.2205588941
 20
39.1288027695
 11
41.5542949788
 21
39.1487621412
  0
LWPOLYLINE
  5
24C
100
AcDbEntity
  8
0
100
AcDbPolyline
 62
7
  6
BYLAYER
 90
12
 70
0
 10
40.4817581308
 20
39.7863596056
 10
40.1198007133
 20
39.7649849827
 10
39.8015903238
 20
39.7449054186
 10
39.5340044085
 20
39.7262683504
 10
39.3111770604
 20
39.7085341815
 10
39.1275675109
 20
39.6911534307
 10
38.982177168
 20
39.6738600554
 10
38.869871092
 20
39.6556593808
 10
38.7731076603
 20
39.6313532623
 10
38.6579389016
 20
39.575855961
 10
38.5420792183
 20
39.4455982106
 10
38.5006124696
 20
39.2796549137
  0
LWPOLYLINE
  5
24D
100
AcDbEntity
  8
0
100
AcDbPolyline
 62
7
  6
BYLAYER
 90
3
 70
0
 10
40.1396596791
 20
39.0660481514
 10
40.5666724985
 20
39.0912377759
 10
41.2205588941
 20
39.1288027695
  0
LINE
  5
24E
100
AcDbEntity
  8
0
100
AcDbLine
 62
7
  6
BYLAYER
 10
41.369646467
 20
39.837688103
 11
40.4817581308
 21
39.7863596056
  0
LINE
  5
24F
100
AcDbEntity
  8
0
100
AcDbLine
 62
7
  6
BYLAYER
 10
45.4026550671
 20
38.4479591837
 11
43.8026550671
 21
38.4479591837
  0
LINE
  5
250
100
AcDbEntity
  8
0
100
AcDbLine
 62
7
  6
BYLAYER
 10
43.8026550671
 20
38.9479591837
 11
45.4026550671
 21
38.9479591837
  0
LINE
  5
251
100
AcDbEntity
  8
0
100
AcDbLine
 62
7
  6
BYLAYER
 10
43.8026550671
 20
39.4479591837
 11
45.4026550671
 21
39.4479591837
  0
LINE
  5
252
100
AcDbEntity
  8
0
100
AcDbLine
 62
7
  6
BYLAYER
 10
43.8026550671
 20
39.7479591837
 11
42.8026550671
 21
39.7479591837
  0
LINE
  5
253
100
AcDbEntity
  8
0
100
AcDbLine
 62
7
  6
BYLAYER
 10
42.8026550671
 20
40.2479591837
 11
43.8026550671
 21
40.2479591837
  0
LINE
  5
254
100
AcDbEntity
  8
0
100
AcDbLine
 62
7
  6
BYLAYER
 10
41.8006066754
 20
40.2488389219
 11
40.8006066754
 21
40.2488389219
  0
LINE
  5
255
100
AcDbEntity
  8
0
100
AcDbLine
 62
7
  6
BYLAYER
 10
42.8026550671
 20
40.7479591837
 11
43.8026550671
 21
40.7479591837
  0
LWPOLYLINE
  5
256
100
AcDbEntity
  8
0
100
AcDbPolyline
 62
7
  6
BYLAYER
 90
3
 70
0
 10
40.8006066754
 20
40.1546347798
 10
40.2773372283
 20
40.1849550073
 10
39.8855783823
 20
40.2092184546
  0
LINE
  5
257
100
AcDbEntity
  8
0
100
AcDbLine
 62
7
  6
BYLAYER
 10
40.8006066754
 20
38.1902084709
 11
40.707070201
 21
38.2013042785
  0
LWPOLYLINE
  5
258
100
AcDbEntity
  8
0
100
AcDbPolyline
 62
7
  6
BYLAYER
 90
7
 70
0
 10
42.8026550671
 20
39.9879501551
 10
42.725541371
 20
40.0067820755
 10
42.6108731388
 20
40.0249538139
 10
42.4618989686
 20
40.0423892833
 10
42.2720094006
 20
40.0600760132
 10
42.0398950088
 20
40.0782743114
 10
41.8006066754
 20
40.0947286957
  0
LWPOLYLINE
  5
259
100
AcDbEntity
  8
0
100
AcDbPolyline
 62
7
  6
BYLAYER
 90
3
 70
0
 10
42.8026550671
 20
39.2361584892
 10
42.7521186642
 20
39.2548588685
 10
42.742882503
 20
39.2569117344
  0
LWPOLYLINE
  5
25A
100
AcDbEntity
  8
0
100
AcDbPolyline
 62
7
  6
BYLAYER
 90
7
 70
0
 10
42.8026550671
 20
37.8642955765
 10
42.794087596
 20
37.8688811124
 10
42.6372755564
 20
37.9196595809
 10
42.4376795715
 20
37.9651771303
 10
42.1845132158
 20
38.010269851
 10
41.8659229133
 20
38.0577648129
 10
41.8006066754
 20
38.066322701
  0
LINE
  5
25B
100
AcDbEntity
  8
0
100
AcDbLine
 62
7
  6
BYLAYER
 10
42.5026550671
 20
91.2479591837
 11
41.4301474534
 21
88.9479591837
  0
LINE
  5
25C
100
AcDbEntity
  8
0
100
AcDbLine
 62
7
  6
BYLAYER
 10
42.3215081754
 20
42.8510870702
 11
41.8006066754
 21
42.7115119339
  0
LINE
  5
25D
100
AcDbEntity
  8
0
100
AcDbLine
 62
7
  6
BYLAYER
 10
41.9758656126
 20
43.793748605
 11
41.5417876303
 21
43.6774377602
  0
LINE
  5
25E
100
AcDbEntity
  8
0
100
AcDbLine
 62
7
  6
BYLAYER
 10
45.4026550671
 20
41.4479591837
 11
43.8026550671
 21
41.4479591837
  0
LINE
  5
25F
100
AcDbEntity
  8
0
100
AcDbLine
 62
7
  6
BYLAYER
 10
42.6563591527
 20
41.9378571322
 11
42.8026550671
 21
41.9378571322
  0
LINE
  5
260
100
AcDbEntity
  8
0
100
AcDbLine
 62
7
  6
BYLAYER
 10
42.6526550671
 20
41.9479591837
 11
45.399526217
 21
41.9479591837
  0
LWPOLYLINE
  5
261
100
AcDbEntity
  8
0
100
AcDbPolyline
 62
7
  6
BYLAYER
 90
10
 70
0
 10
38.501118896
 20
29.5024916515
 10
38.5447260689
 20
29.3275929212
 10
38.6743812967
 20
29.1813569635
 10
38.8213398993
 20
29.1058130225
 10
38.9917405021
 20
29.0536138299
 10
39.2155387154
 20
29.005106454
 10
39.5072550875
 20
28.95579776
 10
39.8694656919
 20
28.9044390448
 10
40.3043619412
 20
28.849411826
 10
40.8026550671
 20
28.78994317
  0
LWPOLYLINE
  5
262
100
AcDbEntity
  8
0
100
AcDbPolyline
 62
7
  6
BYLAYER
 90
12
 70
0
 10
38.5006530816
 20
25.5844491163
 10
38.540726312
 20
25.4211790297
 10
38.652188682
 20
25.2922529414
 10
38.7689191504
 20
25.2340580382
 10
38.8683931962
 20
25.2086343639
 10
38.9867765101
 20
25.1895391392
 10
39.1474298837
 20
25.1708070489
 10
39.3585763446
 20
25.1514697143
 10
39.6266499648
 20
25.1310526322
 10
39.9644777175
 20
25.1086258928
 10
40.3688468672
 20
25.0842230917
 10
40.8026550671
 20
25.0592495055
  0
LWPOLYLINE
  5
263
100
AcDbEntity
  8
0
100
AcDbPolyline
 62
7
  6
BYLAYER
 90
10
 70
0
 10
38.5012296146
 20
36.7528787952
 10
38.5473873423
 20
36.5731144751
 10
38.6675465971
 20
36.4365559974
 10
38.803559036
 20
36.3627533184
 10
38.9557569439
 20
36.3129522549
 10
39.0448540274
 20
36.2907135443
 10
39.2601252176
 20
36.2468874975
 10
39.5316640936
 20
36.2020657743
 10
39.8625412645
 20
36.1553312659
 10
40.2212682397
 20
36.1095922955
  0
LWPOLYLINE
  5
264
100
AcDbEntity
  8
0
100
AcDbPolyline
 62
7
  6
BYLAYER
 90
11
 70
0
 10
38.5006918788
 20
30.9525064457
 10
38.5093408911
 20
30.8737222963
 10
38.6039403291
 20
30.692812244
 10
38.7375979041
 20
30.5931989023
 10
38.8858073174
 20
30.533529452
 10
39.0732783143
 20
30.484194879
 10
39.3229859053
 20
30.4357056263
 10
39.4729634697
 20
30.4111431918
 10
39.8179234311
 20
30.3613310682
 10
40.2187237757
 20
30.3098904106
 10
40.8026550671
 20
30.2398738647
  0
LWPOLYLINE
  5
265
100
AcDbEntity
  8
0
100
AcDbPolyline
 62
7
  6
BYLAYER
 90
11
 70
0
 10
38.501239611
 20
28.0528813556
 10
38.5093913928
 20
27.9763150036
 10
38.6044584704
 20
27.7928357056
 10
38.7405282347
 20
27.6916168617
 10
38.887508864
 20
27.6328274927
 10
39.0682457845
 20
27.5853766029
 10
39.3000551949
 20
27.5397395945
 10
39.5958685394
 20
27.4924877185
 10
39.9654664248
 20
27.4418405893
 10
40.4009815837
 20
27.3877320791
 10
40.8026550671
 20
27.3399598513
  0
LWPOLYLINE
  5
266
100
AcDbEntity
  8
0
100
AcDbPolyline
 62
7
  6
BYLAYER
 90
11
 70
0
 10
38.5006129541
 20
33.852687838
 10
38.5087330179
 20
33.7763689545
 10
38.6031447788
 20
33.5937969822
 10
38.7387875257
 20
33.4926421826
 10
38.8856740299
 20
33.4335592519
 10
39.0667349759
 20
33.38563814
 10
39.3001006899
 20
33.339701864
 10
39.5988291025
 20
33.2921071927
 10
39.970451964
 20
33.2411697893
 10
40.4026016159
 20
33.1875311986
 10
40.8026550671
 20
33.1399759855
  0
LWPOLYLINE
  5
267
100
AcDbEntity
  8
0
100
AcDbPolyline
 62
7
  6
BYLAYER
 90
8
 70
0
 10
38.501240853
 20
26.6025921268
 10
38.509189323
 20
26.5270034444
 10
38.592251778
 20
26.3565529104
 10
38.7152210129
 20
26.2553359079
 10
38.7800504636
 20
26.2226655617
 10
38.9193215374
 20
26.1732343501
 10
39.0885817534
 20
26.1308743596
 10
39.1710487551
 20
26.1137343867
  0
LWPOLYLINE
  5
268
100
AcDbEntity
  8
0
100
AcDbPolyline
 62
7
  6
BYLAYER
 90
12
 70
0
 10
38.5006124649
 20
39.279684859
 10
38.5080342111
 20
39.2085688202
 10
38.5874497738
 20
39.0465758432
 10
38.7079671914
 20
38.9542365665
 10
38.8105546799
 20
38.917006591
 10
38.908631515
 20
38.8965745026
 10
38.9657594431
 20
38.8877233768
 10
39.1057359513
 20
38.8704714208
 10
39.2840933412
 20
38.8531167837
 10
39.5025580639
 20
38.8353708759
 10
39.759334675
 20
38.8171923548
 10
39.9156842681
 20
38.807019782
  0
LWPOLYLINE
  5
269
100
AcDbEntity
  8
0
100
AcDbPolyline
 62
7
  6
BYLAYER
 90
11
 70
0
 10
38.500879511
 20
35.3031065042
 10
38.5085601681
 20
35.2288260555
 10
38.600353217
 20
35.047335019
 10
38.7324608333
 20
34.9460386942
 10
38.8725037946
 20
34.887718465
 10
39.0431808895
 20
34.8410223946
 10
39.2660473231
 20
34.795808682
 10
39.5482532138
 20
34.7495980706
 10
39.8854335531
 20
34.7022829465
 10
40.2626231007
 20
34.6545237181
 10
40.8026550671
 20
34.5899193633
  0
LWPOLYLINE
  5
26A
100
AcDbEntity
  8
0
100
AcDbPolyline
 62
7
  6
BYLAYER
 90
10
 70
0
 10
38.5010224182
 20
38.2030791501
 10
38.5081611516
 20
38.1314496614
 10
38.6026887153
 20
37.9448057367
 10
38.7496447823
 20
37.8371115361
 10
38.9127458085
 20
37.775093565
 10
39.1160581287
 20
37.724956822
 10
39.3894404339
 20
37.6745523259
 10
39.7481614162
 20
37.6208205124
 10
40.166869378
 20
37.5663274403
 10
40.805440075
 20
37.489592057
  0
LINE
  5
26B
100
AcDbEntity
  8
0
100
AcDbLine
 62
7
  6
BYLAYER
 10
38.501240853
 20
26.6025921268
 11
38.501240893
 21
26.6024557982
  0
LINE
  5
26C
100
AcDbEntity
  8
0
100
AcDbLine
 62
7
  6
BYLAYER
 10
38.5006124649
 20
39.279684859
 11
38.5006124696
 21
39.2796549137
  0
LINE
  5
26D
100
AcDbEntity
  8
0
100
AcDbLine
 62
7
  6
BYLAYER
 10
38.3026550671
 20
96.6479591837
 11
38.3026550671
 21
90.9479591837
  0
LINE
  5
26E
100
AcDbEntity
  8
0
100
AcDbLine
 62
7
  6
BYLAYER
 10
38.5006918788
 20
30.9525064457
 11
38.5006918927
 21
30.9523522479
  0
LINE
  5
26F
100
AcDbEntity
  8
0
100
AcDbLine
 62
7
  6
BYLAYER
 10
38.500879511
 20
35.3031065042
 11
38.5008795233
 21
35.3029612051
  0
LINE
  5
270
100
AcDbEntity
  8
0
100
AcDbLine
 62
7
  6
BYLAYER
 10
38.5010224182
 20
38.2030791501
 11
38.5010224253
 21
38.2029360729
  0
LINE
  5
271
100
AcDbEntity
  8
0
100
AcDbLine
 62
7
  6
BYLAYER
 10
38.501118896
 20
29.5024916515
 11
38.5011188971
 21
29.502345108
  0
LINE
  5
272
100
AcDbEntity
  8
0
100
AcDbLine
 62
7
  6
BYLAYER
 10
38.5012296146
 20
36.7528787952
 11
38.501229613
 21
36.7527275961
  0
LINE
  5
273
100
AcDbEntity
  8
0
100
AcDbLine
 62
7
  6
BYLAYER
 10
38.501239611
 20
28.0528813556
 11
38.5012395986
 21
28.0527323351
  0
LINE
  5
274
100
AcDbEntity
  8
0
100
AcDbLine
 62
7
  6
BYLAYER
 10
38.5006530816
 20
25.5844491163
 11
38.500653077
 21
25.5844200013
  0
LINE
  5
275
100
AcDbEntity
  8
0
100
AcDbLine
 62
7
  6
BYLAYER
 10
38.5006129541
 20
33.852687838
 11
38.500612911
 21
33.8525406906
  0
LINE
  5
276
100
AcDbEntity
  8
0
100
AcDbLine
 62
7
  6
BYLAYER
 10
38.5009548766
 20
32.4024524857
 11
38.5009548096
 21
32.4023151258
  0
LINE
  5
277
100
AcDbEntity
  8
0
100
AcDbLine
 62
7
  6
BYLAYER
 10
37.9242693124
 20
55.5418625964
 11
37.1582248693
 21
56.1846502061
  0
LINE
  5
278
100
AcDbEntity
  8
0
100
AcDbLine
 62
7
  6
BYLAYER
 10
42.6526550671
 20
41.9479591837
 11
39.9026550671
 21
49.4479591837
  0
LWPOLYLINE
  5
279
100
AcDbEntity
  8
0
100
AcDbPolyline
 62
7
  6
BYLAYER
 90
11
 70
0
 10
38.5009548769
 20
32.4024525627
 10
38.5097017193
 20
32.323173174
 10
38.6073915385
 20
32.1391162843
 10
38.7459611824
 20
32.0387837212
 10
38.8977212564
 20
31.9797868539
 10
39.0919676659
 20
31.9301253614
 10
39.3506092232
 20
31.8809689563
 10
39.6752534833
 20
31.8310713189
 10
40.0501227453
 20
31.7809790901
 10
40.4528743683
 20
31.7314822573
 10
40.8026550671
 20
31.6899662274
  0
LINE
  5
27A
100
AcDbEntity
  8
0
100
AcDbLine
 62
7
  6
BYLAYER
 10
39.6026550671
 20
14.6479591837
 11
39.6026550671
 21
16.2479591837
  0
LINE
  5
27B
100
AcDbEntity
  8
0
100
AcDbLine
 62
7
  6
BYLAYER
 10
39.9026550671
 20
49.4479591837
 11
39.9026550671
 21
54.4479591837
  0
LINE
  5
27C
100
AcDbEntity
  8
0
100
AcDbLine
 62
7
  6
BYLAYER
 10
40.8006066754
 20
39.1046333136
 11
40.8006066754
 21
38.9120787812
  0
LINE
  5
27D
100
AcDbEntity
  8
0
100
AcDbLine
 62
7
  6
BYLAYER
 10
40.8006066754
 20
38.2119003926
 11
40.8006066754
 21
37.46518851
  0
LINE
  5
27E
100
AcDbEntity
  8
0
100
AcDbLine
 62
7
  6
BYLAYER
 10
40.8006066754
 20
39.8046343583
 11
40.8006066754
 21
42.7115119339
  0
LINE
  5
27F
100
AcDbEntity
  8
0
100
AcDbLine
 62
7
  6
BYLAYER
 10
40.8026550671
 20
21.2479591837
 11
40.8026550671
 21
34.7479591837
  0
LINE
  5
280
100
AcDbEntity
  8
0
100
AcDbLine
 62
7
  6
BYLAYER
 10
41.0026550671
 20
31.2479591837
 11
41.0026550671
 21
37.2479591837
  0
LINE
  5
281
100
AcDbEntity
  8
0
100
AcDbLine
 62
7
  6
BYLAYER
 10
41.0026550671
 20
56.2065053396
 11
41.0026550671
 21
56.4479591837
  0
LINE
  5
282
100
AcDbEntity
  8
0
100
AcDbLine
 62
7
  6
BYLAYER
 10
41.6026550671
 20
16.2479591837
 11
41.6026550671
 21
14.6479591837
  0
LINE
  5
283
100
AcDbEntity
  8
0
100
AcDbLine
 62
7
  6
BYLAYER
 10
37.1582248693
 20
56.1846502061
 11
40.4329659401
 21
60.0873346421
  0
LINE
  5
284
100
AcDbEntity
  8
0
100
AcDbLine
 62
7
  6
BYLAYER
 10
37.9242693124
 20
55.5418625964
 11
41.1990103832
 21
59.4445470324
  0
LINE
  5
285
100
AcDbEntity
  8
0
100
AcDbLine
 62
7
  6
BYLAYER
 10
41.0026550671
 20
56.4479591837
 11
45.3995279071
 21
56.4479591837
  0
LINE
  5
286
100
AcDbEntity
  8
0
100
AcDbLine
 62
7
  6
BYLAYER
 10
43.8026550671
 20
56.9479591837
 11
45.4026550671
 21
56.9479591837
  0
LINE
  5
287
100
AcDbEntity
  8
0
100
AcDbLine
 62
7
  6
BYLAYER
 10
42.6017546983
 20
57.2479591837
 11
42.8026550671
 21
57.2479591837
  0
LINE
  5
288
100
AcDbEntity
  8
0
100
AcDbLine
 62
7
  6
BYLAYER
 10
37.8010124789
 20
56.9506946492
 11
38.5670569221
 21
56.3079070396
  0
LINE
  5
289
100
AcDbEntity
  8
0
100
AcDbLine
 62
7
  6
BYLAYER
 10
41.1990103832
 20
59.4445470324
 11
41.6169469453
 21
57.074311006
  0
LINE
  5
28A
100
AcDbEntity
  8
0
100
AcDbLine
 62
7
  6
BYLAYER
 10
41.8006066754
 20
39.1645951061
 11
41.8006066754
 21
39.0258707517
  0
LINE
  5
28B
100
AcDbEntity
  8
0
100
AcDbLine
 62
7
  6
BYLAYER
 10
41.8006066754
 20
37.5904582058
 11
41.8006066754
 21
38.3246920602
  0
LINE
  5
28C
100
AcDbEntity
  8
0
100
AcDbLine
 62
7
  6
BYLAYER
 10
41.8006066754
 20
39.8650520267
 11
41.8006066754
 21
42.7115119339
  0
LINE
  5
28D
100
AcDbEntity
  8
0
100
AcDbLine
 62
7
  6
BYLAYER
 10
42.3396137553
 20
37.2479591837
 11
42.3396137553
 21
31.2479591837
  0
LINE
  5
28E
100
AcDbEntity
  8
0
100
AcDbLine
 62
7
  6
BYLAYER
 10
42.5026550671
 20
91.2479591837
 11
42.5026550671
 21
92.2479591837
  0
LINE
  5
28F
100
AcDbEntity
  8
0
100
AcDbLine
 62
7
  6
BYLAYER
 10
42.8026550671
 20
9.2479591837
 11
42.8026550671
 21
14.6479591837
  0
LINE
  5
290
100
AcDbEntity
  8
0
100
AcDbLine
 62
7
  6
BYLAYER
 10
42.8026550671
 20
16.2479591837
 11
42.8026550671
 21
31.2479591837
  0
LINE
  5
291
100
AcDbEntity
  8
0
100
AcDbLine
 62
7
  6
BYLAYER
 10
42.8026550671
 20
37.2479591837
 11
42.8026550671
 21
41.9479591837
  0
LINE
  5
292
100
AcDbEntity
  8
0
100
AcDbLine
 62
7
  6
BYLAYER
 10
43.4026550671
 20
89.7479472327
 11
43.4026550671
 21
87.7479711347
  0
LINE
  5
293
100
AcDbEntity
  8
0
100
AcDbLine
 62
7
  6
BYLAYER
 10
43.8026550671
 20
9.2479591837
 11
43.8026550671
 21
14.6479591837
  0
LINE
  5
294
100
AcDbEntity
  8
0
100
AcDbLine
 62
7
  6
BYLAYER
 10
43.8026550671
 20
16.2479591837
 11
43.8026550671
 21
104.6479591837
  0
LINE
  5
295
100
AcDbEntity
  8
0
100
AcDbLine
 62
7
  6
BYLAYER
 10
45.4026550671
 20
58.9479591837
 11
43.8026550671
 21
58.9479591837
  0
LINE
  5
296
100
AcDbEntity
  8
0
100
AcDbLine
 62
7
  6
BYLAYER
 10
45.4026550671
 20
59.4479591837
 11
43.8026550671
 21
59.4479591837
  0
LINE
  5
297
100
AcDbEntity
  8
0
100
AcDbLine
 62
7
  6
BYLAYER
 10
43.8026550671
 20
59.9479591837
 11
45.4026550671
 21
59.9479591837
  0
LINE
  5
298
100
AcDbEntity
  8
0
100
AcDbLine
 62
7
  6
BYLAYER
 10
42.6017546983
 20
57.2479591837
 11
42.1838181362
 21
59.6181952101
  0
LINE
  5
299
100
AcDbEntity
  8
0
100
AcDbLine
 62
7
  6
BYLAYER
 10
45.4026550671
 20
14.6479591837
 11
45.4026550671
 21
16.1015125743
  0
LINE
  5
29A
100
AcDbEntity
  8
0
100
AcDbLine
 62
7
  6
BYLAYER
 10
45.4026550671
 20
16.2479591837
 11
45.4026550671
 21
104.6479591837
  0
LWPOLYLINE
  5
29B
100
AcDbEntity
  8
0
100
AcDbPolyline
 62
7
  6
BYLAYER
 90
8
 70
0
 10
39.0668630453
 20
36.4998626189
 10
39.0664654924
 20
36.4992952014
 10
39.1331261907
 20
36.5205197089
 10
39.2688855252
 20
36.5524063773
 10
39.4634591262
 20
36.5886119343
 10
39.7117239529
 20
36.6273504893
 10
40.0067695438
 20
36.6679261582
 10
40.3413155519
 20
36.7101744614
  0
LWPOLYLINE
  5
29C
100
AcDbEntity
  8
0
100
AcDbPolyline
 62
7
  6
BYLAYER
 90
9
 70
0
 10
39.0663695737
 20
35.0494819154
 10
39.0659005607
 20
35.0489337505
 10
39.124071182
 20
35.0679847534
 10
39.2418303743
 20
35.0967342909
 10
39.411246311
 20
35.1295846473
 10
39.6279848811
 20
35.1648754793
 10
39.8877545903
 20
35.2020564205
 10
40.1865113366
 20
35.2409962744
 10
40.5203593083
 20
35.281861119
  0
LINE
  5
29D
100
AcDbEntity
  8
0
100
AcDbLine
 62
7
  6
BYLAYER
 10
38.5700836612
 20
32.4593785401
 11
38.5009548766
 21
32.4024524857
  0
LWPOLYLINE
  5
29E
100
AcDbEntity
  8
0
100
AcDbPolyline
 62
7
  6
BYLAYER
 90
4
 70
0
 10
38.7723575219
 20
32.779095435
 10
38.6540665259
 20
32.7084687445
 10
38.539636644
 20
32.5673939904
 10
38.5009548096
 20
32.4023151258
  0
LWPOLYLINE
  5
29F
100
AcDbEntity
  8
0
100
AcDbPolyline
 62
7
  6
BYLAYER
 90
7
 70
0
 10
42.5655962158
 20
39.1490451816
 10
42.5674201755
 20
39.1498503418
 10
42.5473716295
 20
39.1436293269
 10
42.4735639423
 20
39.1258152546
 10
42.3519009319
 20
39.1027821142
 10
42.1842122149
 20
39.0763532179
 10
41.9746608788
 20
39.0475311528
  0
LWPOLYLINE
  5
2A0
100
AcDbEntity
  8
0
100
AcDbPolyline
 62
7
  6
BYLAYER
 90
7
 70
0
 10
39.0627025746
 20
37.9476017258
 10
39.0647698208
 20
37.9485008073
 10
39.1246092454
 20
37.9681243734
 10
39.2543053741
 20
37.9993802294
 10
39.4444310691
 20
38.0353725149
 10
39.6864481164
 20
38.0736399049
 10
39.9463642249
 20
38.1099571156
  0
LWPOLYLINE
  5
2A1
100
AcDbEntity
  8
0
100
AcDbPolyline
 62
7
  6
BYLAYER
 90
8
 70
0
 10
42.5378793659
 20
37.7325743288
 10
42.4911166097
 20
37.7164452117
 10
42.3894749944
 20
37.6903045304
 10
42.2407343708
 20
37.6599823906
 10
42.0493784724
 20
37.6273314976
 10
41.8186395206
 20
37.5928920675
 10
41.5504504254
 20
37.5566950533
 10
41.2468103505
 20
37.5185946244
  0
LWPOLYLINE
  5
2A2
100
AcDbEntity
  8
0
100
AcDbPolyline
 62
7
  6
BYLAYER
 90
10
 70
0
 10
38.9852771016
 20
38.9661722154
 10
38.9848691778
 20
38.9660554399
 10
39.0081664743
 20
38.9709501436
 10
39.0731183492
 20
38.9811323993
 10
39.1731265767
 20
38.9932879029
 10
39.3058174375
 20
39.0065145253
 10
39.4698282068
 20
39.020476723
 10
39.6643789049
 20
39.0350589494
 10
39.8882823569
 20
39.0502447487
 10
40.1396596791
 20
39.0660481514
  0
LINE
  5
2A3
100
AcDbEntity
  8
0
100
AcDbLine
 62
7
  6
BYLAYER
 10
38.7722877734
 20
32.7790594105
 11
38.7723628325
 21
32.7790935925
  0
LWPOLYLINE
  5
2A4
100
AcDbEntity
  8
0
100
AcDbPolyline
 62
7
  6
BYLAYER
 90
9
 70
0
 10
39.0639497274
 20
33.5980438179
 10
39.1203502602
 20
33.6170002021
 10
39.2410863595
 20
33.6465998789
 10
39.4172404942
 20
33.6805945091
 10
39.6418109437
 20
33.7169617902
 10
39.9118236084
 20
33.7553442614
 10
40.2260225435
 20
33.7959388663
 10
40.5809943468
 20
33.8391007527
 10
40.8026550671
 20
33.8653928517
  0
LWPOLYLINE
  5
2A5
100
AcDbEntity
  8
0
100
AcDbPolyline
 62
7
  6
BYLAYER
 90
7
 70
0
 10
39.0651169467
 20
29.2487123002
 10
39.0882393143
 20
29.257220262
 10
39.1947402398
 20
29.2861120134
 10
39.3765407106
 20
29.3232859616
 10
39.6309637859
 20
29.3653656381
 10
39.9604973068
 20
29.4118431908
 10
40.3576709568
 20
29.4621596827
  0
LWPOLYLINE
  5
2A6
100
AcDbEntity
  8
0
100
AcDbPolyline
 62
7
  6
BYLAYER
 90
7
 70
0
 10
39.0651657545
 20
32.1487578959
 10
39.1082578375
 20
32.1633832266
 10
39.2765160873
 20
32.2040576054
 10
39.5587006512
 20
32.254134111
 10
39.9477199986
 20
32.3101401813
 10
40.40337247
 20
32.3677466239
 10
40.8026550671
 20
32.4153658163
  0
LWPOLYLINE
  5
2A7
100
AcDbEntity
  8
0
100
AcDbPolyline
 62
7
  6
BYLAYER
 90
8
 70
0
 10
39.0648610594
 20
30.698464645
 10
39.1319742927
 20
30.7203018468
 10
39.2782499173
 20
30.7543785344
 10
39.4935183293
 20
30.7935776984
 10
39.7664750454
 20
30.8352327894
 10
40.0877893343
 20
30.8784620402
 10
40.4536105812
 20
30.9238114994
 10
40.8026550671
 20
30.9653839893
  0
LWPOLYLINE
  5
2A8
100
AcDbEntity
  8
0
100
AcDbPolyline
 62
7
  6
BYLAYER
 90
11
 70
0
 10
38.9877613385
 20
25.2716771613
 10
38.9870770981
 20
25.2713376488
 10
39.0234300278
 20
25.2783618664
 10
39.0945830923
 20
25.2887229156
 10
39.1965431951
 20
25.3005388011
 10
39.2584860981
 20
25.30678799
 10
39.4033604754
 20
25.3197807927
 10
39.575761207
 20
25.3333519858
 10
39.7756529316
 20
25.3475041292
 10
40.0023179517
 20
25.362272048
 10
40.2545138401
 20
25.3777066225
  0
LWPOLYLINE
  5
2A9
100
AcDbEntity
  8
0
100
AcDbPolyline
 62
7
  6
BYLAYER
 90
10
 70
0
 10
39.0635977189
 20
27.7980933273
 10
39.0863590058
 20
27.8065175324
 10
39.1790877808
 20
27.8323338636
 10
39.3294557195
 20
27.8645025637
 10
39.4244080407
 20
27.8818924606
 10
39.6519107416
 20
27.9185170441
 10
39.9254247297
 20
27.9571388968
 10
40.2386527597
 20
27.9974955937
 10
40.5905191876
 20
28.0402621657
 10
40.8026550671
 20
28.0654173235
  0
LWPOLYLINE
  5
2AA
100
AcDbEntity
  8
0
100
AcDbPolyline
 62
7
  6
BYLAYER
 90
7
 70
0
 10
39.0646156776
 20
26.3485347372
 10
39.1255400701
 20
26.3684783961
 10
39.2565022992
 20
26.3998036658
 10
39.4472448327
 20
26.4358166544
 10
39.6910035358
 20
26.4743368185
 10
39.9800249589
 20
26.5144183317
 10
40.3083898918
 20
26.5561194742
  0
LINE
  5
2AB
100
AcDbEntity
  8
0
100
AcDbLine
 62
7
  6
BYLAYER
 10
45.4026550671
 20
86.4979591837
 11
43.8026550671
 21
86.4979591837
  0
LINE
  5
2AC
100
AcDbEntity
  8
0
100
AcDbLine
 62
7
  6
BYLAYER
 10
43.8026550671
 20
86.7479591837
 11
45.4026550671
 21
86.7479591837
  0
LINE
  5
2AD
100
AcDbEntity
  8
0
100
AcDbLine
 62
7
  6
BYLAYER
 10
43.8026550671
 20
86.9979591837
 11
45.4026550671
 21
86.9979591837
  0
LINE
  5
2AE
100
AcDbEntity
  8
0
100
AcDbLine
 62
7
  6
BYLAYER
 10
43.8026550671
 20
87.7479591837
 11
43.4026550671
 21
87.7479591837
  0
LINE
  5
2AF
100
AcDbEntity
  8
0
100
AcDbLine
 62
7
  6
BYLAYER
 10
40.3026550671
 20
88.9479591837
 11
41.4301474534
 21
88.9479591837
  0
LINE
  5
2B0
100
AcDbEntity
  8
0
100
AcDbLine
 62
7
  6
BYLAYER
 10
43.8026550671
 20
89.7479591837
 11
43.4026550671
 21
89.7479591837
  0
LINE
  5
2B1
100
AcDbEntity
  8
0
100
AcDbLine
 62
7
  6
BYLAYER
 10
45.4026550671
 20
91.9979591837
 11
43.8026550671
 21
91.9979591837
  0
LINE
  5
2B2
100
AcDbEntity
  8
0
100
AcDbLine
 62
7
  6
BYLAYER
 10
42.5026550671
 20
92.2479591837
 11
45.4026550671
 21
92.2479591837
  0
LINE
  5
2B3
100
AcDbEntity
  8
0
100
AcDbLine
 62
7
  6
BYLAYER
 10
45.4026550671
 20
104.6479591837
 11
42.3026550671
 21
104.6479591837
  0
ARC
  5
2B4
100
AcDbEntity
  8
0
100
AcDbCircle
 62
7
  6
BYLAYER
 10
39.9122812003
 20
55.308317818
 40
18.1866295402
100
AcDbArc
 50
276.7594685726
 51
277.719063321
  0
ARC
  5
2B5
100
AcDbEntity
  8
0
100
AcDbCircle
 62
7
  6
BYLAYER
 10
41.6762573804
 20
43.0897585214
 40
5.8407400392
100
AcDbArc
 50
279.1858411782
 51
280.081038741
  0
ARC
  5
2B6
100
AcDbEntity
  8
0
100
AcDbCircle
 62
7
  6
BYLAYER
 10
40.3026550671
 20
90.9479591837
 40
2.0
100
AcDbArc
 50
180.0
 51
270.0
  0
ARC
  5
2B7
100
AcDbEntity
  8
0
100
AcDbCircle
 62
7
  6
BYLAYER
 10
41.9026550671
 20
54.4479591837
 40
2.0
100
AcDbArc
 50
90.0
 51
180.0
  0
ARC
  5
2B8
100
AcDbEntity
  8
0
100
AcDbCircle
 62
7
  6
BYLAYER
 10
43.8026550671
 20
16.2479591837
 40
1.6
100
AcDbArc
 50
270.0
 51
360.0
  0
ARC
  5
2B9
100
AcDbEntity
  8
0
100
AcDbCircle
 62
7
  6
BYLAYER
 10
41.8006066754
 20
42.7115119339
 40
1.0
100
AcDbArc
 50
105.0
 51
180.0
  0
ARC
  5
2BA
100
AcDbEntity
  8
0
100
AcDbCircle
 62
7
  6
BYLAYER
 10
41.1990103832
 20
59.4445470324
 40
1.0
100
AcDbArc
 50
10.0000000002
 51
139.9999999998
  0
ARC
  5
2BB
100
AcDbEntity
  8
0
100
AcDbCircle
 62
7
  6
BYLAYER
 10
42.8026550671
 20
56.2479591837
 40
1.0
100
AcDbArc
 50
12.0578575166
 51
90.0
  0
ARC
  5
2BC
100
AcDbEntity
  8
0
100
AcDbCircle
 62
7
  6
BYLAYER
 10
42.6017546983
 20
57.2479591837
 40
1.0
100
AcDbArc
 50
190.0000000002
 51
236.1829559328
  0
ARC
  5
2BD
100
AcDbEntity
  8
0
100
AcDbCircle
 62
7
  6
BYLAYER
 10
39.3320833163
 20
39.8594925174
 40
0.713785182
100
AcDbArc
 50
351.6738419551
 51
359.9906381198
  0
ARC
  5
2BE
100
AcDbEntity
  8
0
100
AcDbCircle
 62
7
  6
BYLAYER
 10
40.4188861951
 20
39.8587582996
 40
0.703215934
100
AcDbArc
 50
179.9496915595
 51
190.0216129935
  0
ARC
  5
2BF
100
AcDbEntity
  8
0
100
AcDbCircle
 62
7
  6
BYLAYER
 10
41.3026550671
 20
34.7479591837
 40
0.5
100
AcDbArc
 50
121.6762932332
 51
180.0
  0
ARC
  5
2C0
100
AcDbEntity
  8
0
100
AcDbCircle
 62
7
  6
BYLAYER
 10
41.3026550671
 20
21.2479591837
 40
0.5
100
AcDbArc
 50
180.0
 51
270.0
  0
ARC
  5
2C1
100
AcDbEntity
  8
0
100
AcDbCircle
 62
7
  6
BYLAYER
 10
38.915001493
 20
32.4658924335
 40
0.3441583867
100
AcDbArc
 50
114.4991331908
 51
122.0428242286
  0
SPLINE
  5
2C2
100
AcDbEntity
  8
0
100
AcDbSpline
 62
7
  6
BYLAYER
 70
0
 71
3
 72
17
 73
13
 74
0
 42
0.0000001
 43
0.0000001
 44
0.0000000001
 40
0.0
 40
0.0
 40
0.0
 40
0.0
 40
0.1647083459
 40
0.3246347633
 40
0.4749788512
 40
0.6112905499
 40
0.7306112955
 40
0.8329513701
 40
0.8784592315
 40
0.9208262088
 40
0.9609327083
 40
1.0
 40
1.0
 40
1.0
 40
1.0
 10
39.7156365923
 20
39.8593757568
 30
0.0
 10
39.7156365595
 20
39.8825373829
 30
0.0
 10
39.7178776393
 20
39.928216864
 30
0.0
 10
39.7274932701
 20
39.9944159419
 30
0.0
 10
39.7428161762
 20
40.0554402599
 30
0.0
 10
39.7633592076
 20
40.10891435
 30
0.0
 10
39.7888306049
 20
40.1526125351
 30
0.0
 10
39.8142086224
 20
40.1808781698
 30
0.0
 10
39.8360126512
 20
40.1965433207
 30
0.0
 10
39.8522477745
 20
40.2045328103
 30
0.0
 10
39.8688520515
 20
40.2090415811
 30
0.0
 10
39.8800818619
 20
40.2095765416
 30
0.0
 10
39.8855639633
 20
40.2092193936
 30
0.0
  0
SPLINE
  5
2C3
100
AcDbEntity
  8
0
100
AcDbSpline
 62
7
  6
BYLAYER
 70
0
 71
3
 72
23
 73
19
 74
0
 42
0.0000001
 43
0.0000001
 44
0.0000000001
 40
0.0
 40
0.0
 40
0.0
 40
0.0
 40
0.2094784897
 40
0.4004615789
 40
0.5690849558
 40
0.6439176342
 40
0.7120617192
 40
0.7732914638
 40
0.8273930044
 40
0.8741726394
 40
0.9134736395
 40
0.9452143968
 40
0.9582751781
 40
0.9695121882
 40
0.9790343487
 40
0.987041407
 40
0.993860023
 40
1.0
 40
1.0
 40
1.0
 40
1.0
 10
39.7827921594
 20
38.4593787405
 30
0.0
 10
39.6908924996
 20
38.4490901832
 30
0.0
 10
39.5152747549
 20
38.4288008632
 30
0.0
 10
39.2660367778
 20
38.3972546439
 30
0.0
 10
39.0761667962
 20
38.3701255216
 30
0.0
 10
38.9403991846
 20
38.3479932738
 30
0.0
 10
38.8516640338
 20
38.3320784753
 30
0.0
 10
38.7722353185
 20
38.3161913338
 30
0.0
 10
38.7024401951
 20
38.3003394852
 30
0.0
 10
38.6425856806
 20
38.2845445854
 30
0.0
 10
38.5929887296
 20
38.2688166783
 30
0.0
 10
38.558428139
 20
38.2550622893
 30
0.0
 10
38.5364174611
 20
38.2437245994
 30
0.0
 10
38.5237514656
 20
38.2357758586
 30
0.0
 10
38.5138182661
 20
38.2278031897
 30
0.0
 10
38.5065935521
 20
38.2197557678
 30
0.0
 10
38.5020977183
 20
38.2115410207
 30
0.0
 10
38.5010306099
 20
38.2057896163
 30
0.0
 10
38.5010224182
 20
38.2030791501
 30
0.0
  0
SPLINE
  5
2C4
100
AcDbEntity
  8
0
100
AcDbSpline
 62
7
  6
BYLAYER
 70
0
 71
3
 72
16
 73
12
 74
0
 42
0.0000001
 43
0.0000001
 44
0.0000000001
 40
0.0
 40
0.0
 40
0.0
 40
0.0
 40
0.1637858524
 40
0.3229831979
 40
0.4731885826
 40
0.6106432826
 40
0.7317633638
 40
0.8356444319
 40
0.8815182757
 40
0.9237960212
 40
1.0
 40
1.0
 40
1.0
 40
1.0
 10
39.7826095627
 20
38.4593766964
 30
0.0
 10
39.7826103519
 20
38.4813367575
 30
0.0
 10
39.7845107946
 20
38.5246624788
 30
0.0
 10
39.792632492
 20
38.5876617166
 30
0.0
 10
39.805642364
 20
38.6462342742
 30
0.0
 10
39.8230321072
 20
38.6983556522
 30
0.0
 10
39.8447373335
 20
38.7420342501
 30
0.0
 10
39.8664881579
 20
38.7714766815
 30
0.0
 10
39.8854009853
 20
38.7890752062
 30
0.0
 10
39.9034985265
 20
38.8016941713
 30
0.0
 10
39.9188487674
 20
38.8074902184
 30
0.0
 10
39.9289795852
 20
38.8088165318
 30
0.0
  0
SPLINE
  5
2C5
100
AcDbEntity
  8
0
100
AcDbSpline
 62
7
  6
BYLAYER
 70
0
 71
3
 72
9
 73
5
 74
0
 42
0.0000001
 43
0.0000001
 44
0.0000000001
 40
0.0
 40
0.0
 40
0.0
 40
0.0
 40
0.2335654899
 40
1.0
 40
1.0
 40
1.0
 40
1.0
 10
42.8288644797
 20
37.3644607565
 30
0.0
 10
42.8187630709
 20
37.3623038518
 30
0.0
 10
42.7754649213
 20
37.3533007119
 30
0.0
 10
42.7319958636
 20
37.3451324046
 30
0.0
 10
42.6986258235
 20
37.3391927256
 30
0.0
  0
SPLINE
  5
2C6
100
AcDbEntity
  8
0
100
AcDbSpline
 62
7
  6
BYLAYER
 70
0
 71
3
 72
9
 73
5
 74
0
 42
0.0000001
 43
0.0000001
 44
0.0000000001
 40
0.0
 40
0.0
 40
0.0
 40
0.0
 40
0.2336284141
 40
1.0
 40
1.0
 40
1.0
 40
1.0
 10
42.6086570209
 20
37.323921625
 30
0.0
 10
42.5889494519
 20
37.3207229514
 30
0.0
 10
42.5045364666
 20
37.3073929267
 30
0.0
 10
42.4199299817
 20
37.2953109436
 30
0.0
 10
42.3550346361
 20
37.286485234
 30
0.0
  0
SPLINE
  5
2C7
100
AcDbEntity
  8
0
100
AcDbSpline
 62
7
  6
BYLAYER
 70
0
 71
3
 72
27
 73
23
 74
0
 42
0.0000001
 43
0.0000001
 44
0.0000000001
 40
0.0
 40
0.0
 40
0.0
 40
0.0
 40
0.1873939509
 40
0.3701467493
 40
0.4574016891
 40
0.5407113042
 40
0.6191816889
 40
0.6919219138
 40
0.758078034
 40
0.8170465891
 40
0.8683465408
 40
0.9115182708
 40
0.9299254237
 40
0.9461518764
 40
0.9601641467
 40
0.9719517818
 40
0.9815776322
 40
0.9891942536
 40
0.9923421328
 40
0.9951257629
 40
0.9976371771
 40
1.0
 40
1.0
 40
1.0
 40
1.0
 10
41.005682886
 20
37.1357988677
 30
0.0
 10
40.8469659925
 20
37.1198137388
 30
0.0
 10
40.5334349373
 20
37.0885231245
 30
0.0
 10
40.1460887265
 20
37.0489069369
 30
0.0
 10
39.8470558885
 20
37.016686403
 30
0.0
 10
39.6363997811
 20
36.9929143032
 30
0.0
 10
39.4381786973
 20
36.9691691547
 30
0.0
 10
39.2546652442
 20
36.9454652881
 30
0.0
 10
39.0879019946
 20
36.9217665199
 30
0.0
 10
38.9395824953
 20
36.8981172086
 30
0.0
 10
38.8110967613
 20
36.8745543841
 30
0.0
 10
38.7171704618
 20
36.8541209903
 30
0.0
 10
38.6530763548
 20
36.8373907116
 30
0.0
 10
38.6133857626
 20
36.8255420072
 30
0.0
 10
38.5796008603
 20
36.8137302869
 30
0.0
 10
38.5518081452
 20
36.8019350402
 30
0.0
 10
38.5300416874
 20
36.7901600437
 30
0.0
 10
38.5160031616
 20
36.779736028
 30
0.0
 10
38.5081924833
 20
36.7712005001
 30
0.0
 10
38.5042267082
 20
36.7651594187
 30
0.0
 10
38.5017981315
 20
36.7590542139
 30
0.0
 10
38.5012361187
 20
36.7548901469
 30
0.0
 10
38.5012296146
 20
36.7528787952
 30
0.0
  0
SPLINE
  5
2C8
100
AcDbEntity
  8
0
100
AcDbSpline
 62
7
  6
BYLAYER
 70
0
 71
3
 72
25
 73
21
 74
0
 42
0.0000001
 43
0.0000001
 44
0.0000000001
 40
0.0
 40
0.0
 40
0.0
 40
0.0
 40
0.1920456344
 40
0.3768977886
 40
0.464428575
 40
0.5475262896
 40
0.6253255542
 40
0.6971228913
 40
0.7623542811
 40
0.8204672563
 40
0.8709220618
 40
0.9132033499
 40
0.9311362165
 40
0.9468997769
 40
0.9605143946
 40
0.9720190077
 40
0.9814866533
 40
0.9890596761
 40
0.9950306239
 40
1.0
 40
1.0
 40
1.0
 40
1.0
 10
40.8027245542
 20
29.8654102055
 30
0.0
 10
40.6530446175
 20
29.8503853176
 30
0.0
 10
40.3592921948
 20
29.8208914751
 30
0.0
 10
39.9974531579
 20
29.7832040425
 30
0.0
 10
39.7206875705
 20
29.7525835173
 30
0.0
 10
39.5273970487
 20
29.7300584549
 30
0.0
 10
39.3465183999
 20
29.7075378061
 30
0.0
 10
39.179748814
 20
29.6850281724
 30
0.0
 10
39.0285460736
 20
29.6625620116
 30
0.0
 10
38.8942502703
 20
29.6401651349
 30
0.0
 10
38.7782014327
 20
29.617854147
 30
0.0
 10
38.6936639824
 20
29.5984962799
 30
0.0
 10
38.6362988207
 20
29.5826063406
 30
0.0
 10
38.6009751517
 20
29.5713605277
 30
0.0
 10
38.5709620988
 20
29.5601402571
 30
0.0
 10
38.5462616979
 20
29.5489441681
 30
0.0
 10
38.5268352448
 20
29.5377665026
 30
0.0
 10
38.5126289838
 20
29.5265274451
 30
0.0
 10
38.5034910949
 20
29.5149892553
 30
0.0
 10
38.5011310731
 20
29.5063842172
 30
0.0
 10
38.501118896
 20
29.5024916515
 30
0.0
  0
SPLINE
  5
2C9
100
AcDbEntity
  8
0
100
AcDbSpline
 62
7
  6
BYLAYER
 70
0
 71
3
 72
17
 73
13
 74
0
 42
0.0000001
 43
0.0000001
 44
0.0000000001
 40
0.0
 40
0.0
 40
0.0
 40
0.0
 40
0.0374898071
 40
0.0757762249
 40
0.1163049487
 40
0.1601058754
 40
0.2599995236
 40
0.3786890574
 40
0.5160778514
 40
0.6685482869
 40
0.8315349006
 40
1.0
 40
1.0
 40
1.0
 40
1.0
 10
39.9462254453
 20
38.1099583347
 30
0.0
 10
39.9410282294
 20
38.1092639464
 30
0.0
 10
39.9303073173
 20
38.1091220903
 30
0.0
 10
39.9143325937
 20
38.1128416263
 30
0.0
 10
39.8987203735
 20
38.1202011408
 30
0.0
 10
39.8776694012
 20
38.1352534336
 30
0.0
 10
39.8532142242
 20
38.1632112866
 30
0.0
 10
39.8287028906
 20
38.2068079202
 30
0.0
 10
39.8088644043
 20
38.2605968908
 30
0.0
 10
39.7940491552
 20
38.3222912685
 30
0.0
 10
39.7847774477
 20
38.3894307397
 30
0.0
 10
39.7825994367
 20
38.4358138294
 30
0.0
 10
39.782600578
 20
38.4593756914
 30
0.0
  0
LINE
  5
2CA
100
AcDbEntity
  8
0
100
AcDbLine
 62
7
  6
BYLAYER
 10
40.7709144701
 20
39.1034525599
 11
40.8006557
 21
39.101118922
  0
SPLINE
  5
2CB
100
AcDbEntity
  8
0
100
AcDbSpline
 62
7
  6
BYLAYER
 70
0
 71
3
 72
11
 73
7
 74
0
 42
0.0000001
 43
0.0000001
 44
0.0000000001
 40
0.0
 40
0.0
 40
0.0
 40
0.0
 40
0.2073733679
 40
0.4468951372
 40
0.7132860259
 40
1.0
 40
1.0
 40
1.0
 40
1.0
 10
39.5286392312
 20
36.602357045
 30
0.0
 10
39.5832707325
 20
36.5893514984
 30
0.0
 10
39.7016596133
 20
36.5640878966
 30
0.0
 10
39.8916194633
 20
36.5289950553
 30
0.0
 10
40.1033765879
 20
36.4938272551
 30
0.0
 10
40.251408328
 20
36.4709662886
 30
0.0
 10
40.3281820743
 20
36.4593724062
 30
0.0
  0
SPLINE
  5
2CC
100
AcDbEntity
  8
0
100
AcDbSpline
 62
7
  6
BYLAYER
 70
0
 71
3
 72
13
 73
9
 74
0
 42
0.0000001
 43
0.0000001
 44
0.0000000001
 40
0.0
 40
0.0
 40
0.0
 40
0.0
 40
0.3080539551
 40
0.4504956347
 40
0.582693728
 40
0.7035418952
 40
0.8130167576
 40
1.0
 40
1.0
 40
1.0
 40
1.0
 10
40.038327781
 20
39.0559772948
 30
0.0
 10
40.0342262838
 20
39.0280955943
 30
0.0
 10
40.0257426934
 20
38.9875825215
 30
0.0
 10
40.0088213351
 20
38.9369781341
 30
0.0
 10
39.994275125
 20
38.9037920693
 30
0.0
 10
39.9776577041
 20
38.8749684372
 30
0.0
 10
39.954614203
 20
38.8445433264
 30
0.0
 10
39.9333784964
 20
38.8263568714
 30
0.0
 10
39.9180822933
 20
38.8186994982
 30
0.0
  0
SPLINE
  5
2CD
100
AcDbEntity
  8
0
100
AcDbSpline
 62
7
  6
BYLAYER
 70
0
 71
3
 72
9
 73
5
 74
0
 42
0.0000001
 43
0.0000001
 44
0.0000000001
 40
0.0
 40
0.0
 40
0.0
 40
0.0
 40
0.5112626662
 40
1.0
 40
1.0
 40
1.0
 40
1.0
 10
39.9180822933
 20
38.8186994982
 30
0.0
 10
39.9114607493
 20
38.8153847126
 30
0.0
 10
39.897729375
 20
38.8102805438
 30
0.0
 10
39.8830701252
 20
38.8090720338
 30
0.0
 10
39.8760061857
 20
38.8095283077
 30
0.0
  0
SPLINE
  5
2CE
100
AcDbEntity
  8
0
100
AcDbSpline
 62
7
  6
BYLAYER
 70
0
 71
3
 72
9
 73
5
 74
0
 42
0.0000001
 43
0.0000001
 44
0.0000000001
 40
0.0
 40
0.0
 40
0.0
 40
0.0
 40
0.4845989637
 40
1.0
 40
1.0
 40
1.0
 40
1.0
 10
40.0458561857
 20
39.8593758582
 30
0.0
 10
40.1677154467
 20
39.8497553532
 30
0.0
 10
40.4192808438
 20
39.8311931325
 30
0.0
 10
40.6709179696
 20
39.8136737032
 30
0.0
 10
40.8006121368
 20
39.8046436868
 30
0.0
  0
SPLINE
  5
2CF
100
AcDbEntity
  8
0
100
AcDbSpline
 62
7
  6
BYLAYER
 70
0
 71
3
 72
11
 73
7
 74
0
 42
0.0000001
 43
0.0000001
 44
0.0000000001
 40
0.0
 40
0.0
 40
0.0
 40
0.0
 40
0.2164310673
 40
0.4612483844
 40
0.7255778166
 40
1.0
 40
1.0
 40
1.0
 40
1.0
 10
40.2960611831
 20
36.712911948
 30
0.0
 10
40.3015594047
 20
36.6952535487
 30
0.0
 10
40.3108583204
 20
36.6568683249
 30
0.0
 10
40.3205960105
 20
36.5955935205
 30
0.0
 10
40.3267301224
 20
36.5288724504
 30
0.0
 10
40.3281677989
 20
36.4828240158
 30
0.0
 10
40.3281718608
 20
36.4593739486
 30
0.0
  0
SPLINE
  5
2D0
100
AcDbEntity
  8
0
100
AcDbSpline
 62
7
  6
BYLAYER
 70
0
 71
3
 72
25
 73
21
 74
0
 42
0.0000001
 43
0.0000001
 44
0.0000000001
 40
0.0
 40
0.0
 40
0.0
 40
0.0
 40
0.1920827501
 40
0.376974006
 40
0.464441222
 40
0.5474037998
 40
0.6251458831
 40
0.6970121005
 40
0.7623517625
 40
0.8205218619
 40
0.8708933744
 40
0.9129769766
 40
0.9308600098
 40
0.946627188
 40
0.9602835568
 40
0.9718520862
 40
0.9813894808
 40
0.9890215291
 40
0.9950258993
 40
1.0
 40
1.0
 40
1.0
 40
1.0
 10
40.8026332539
 20
31.3153855653
 30
0.0
 10
40.6529145519
 20
31.3003563287
 30
0.0
 10
40.359081777
 20
31.2708702911
 30
0.0
 10
39.9972063811
 20
31.23320405
 30
0.0
 10
39.7205479911
 20
31.2025837053
 30
0.0
 10
39.527448737
 20
31.1800379424
 30
0.0
 10
39.3466564825
 20
31.1575096876
 30
0.0
 10
39.1797790454
 20
31.1350147643
 30
0.0
 10
39.0283779329
 20
31.1125660115
 30
0.0
 10
38.8940041872
 20
31.0901917113
 30
0.0
 10
38.7781206102
 20
31.0679007396
 30
0.0
 10
38.693856453
 20
31.0484838683
 30
0.0
 10
38.6366857655
 20
31.0325949662
 30
0.0
 10
38.6013628604
 20
31.0213519478
 30
0.0
 10
38.5712556925
 20
31.0101347295
 30
0.0
 10
38.5464016513
 20
30.9989432376
 30
0.0
 10
38.5267958774
 20
30.9877741759
 30
0.0
 10
38.5124190072
 20
30.9765486397
 30
0.0
 10
38.503130309
 20
30.9650336433
 30
0.0
 10
38.5007046598
 20
30.9564029676
 30
0.0
 10
38.5006918788
 20
30.9525064457
 30
0.0
  0
SPLINE
  5
2D1
100
AcDbEntity
  8
0
100
AcDbSpline
 62
7
  6
BYLAYER
 70
0
 71
3
 72
27
 73
23
 74
0
 42
0.0000001
 43
0.0000001
 44
0.0000000001
 40
0.0
 40
0.0
 40
0.0
 40
0.0
 40
0.1873041606
 40
0.3700520777
 40
0.4572233031
 40
0.5404070051
 40
0.6187791645
 40
0.6915185446
 40
0.757808401
 40
0.8168506574
 40
0.868077186
 40
0.911139114
 40
0.929514086
 40
0.9457422927
 40
0.9598033693
 40
0.9716940795
 40
0.9814442786
 40
0.9891545288
 40
0.9923272698
 40
0.9951232302
 40
0.9976381184
 40
1.0
 40
1.0
 40
1.0
 40
1.0
 10
41.0053378693
 20
35.6857512309
 30
0.0
 10
40.8467143039
 20
35.6697724262
 30
0.0
 10
40.5332969778
 20
35.6384934453
 30
0.0
 10
40.1461386964
 20
35.5989410793
 30
0.0
 10
39.8473206083
 20
35.5667316005
 30
0.0
 10
39.6369502553
 20
35.5429663024
 30
0.0
 10
39.4389427077
 20
35.5192281602
 30
0.0
 10
39.2554194765
 20
35.4955259554
 30
0.0
 10
39.0884894499
 20
35.47188095
 30
0.0
 10
38.9400633754
 20
35.4482752151
 30
0.0
 10
38.8116863985
 20
35.4247098195
 30
0.0
 10
38.7179597791
 20
35.4042693581
 30
0.0
 10
38.6539945393
 20
35.3875469603
 30
0.0
 10
38.6142923272
 20
35.3756988569
 30
0.0
 10
38.5803757406
 20
35.3638826606
 30
0.0
 10
38.5523276584
 20
35.3521008233
 30
0.0
 10
38.5302404096
 20
35.3403601659
 30
0.0
 10
38.5159242868
 20
35.3299666624
 30
0.0
 10
38.5079559486
 20
35.3214254621
 30
0.0
 10
38.5039219725
 20
35.3153877013
 30
0.0
 10
38.5014550244
 20
35.3092832209
 30
0.0
 10
38.5008856528
 20
35.3051168407
 30
0.0
 10
38.500879511
 20
35.3031065042
 30
0.0
  0
SPLINE
  5
2D2
100
AcDbEntity
  8
0
100
AcDbSpline
 62
7
  6
BYLAYER
 70
0
 71
3
 72
13
 73
9
 74
0
 42
0.0000001
 43
0.0000001
 44
0.0000000001
 40
0.0
 40
0.0
 40
0.0
 40
0.0
 40
0.0949413167
 40
0.2013956551
 40
0.3182376504
 40
0.4438765802
 40
0.7146844147
 40
1.0
 40
1.0
 40
1.0
 40
1.0
 10
39.5297726766
 20
27.9020814437
 30
0.0
 10
39.5695169631
 20
27.8926344271
 30
0.0
 10
39.6541736046
 20
27.8740574227
 30
0.0
 10
39.7885730882
 20
27.8478049142
 30
0.0
 10
39.9364064612
 20
27.821550915
 30
0.0
 10
40.1543216805
 20
27.7855872941
 30
0.0
 10
40.4443622881
 20
27.741583952
 30
0.0
 10
40.6811982532
 20
27.7074043509
 30
0.0
 10
40.802706776
 20
27.6898753874
 30
0.0
  0
SPLINE
  5
2D3
100
AcDbEntity
  8
0
100
AcDbSpline
 62
7
  6
BYLAYER
 70
0
 71
3
 72
13
 73
9
 74
0
 42
0.0000001
 43
0.0000001
 44
0.0000000001
 40
0.0
 40
0.0
 40
0.0
 40
0.0
 40
0.0956280759
 40
0.2025140725
 40
0.3193402333
 40
0.4447633347
 40
0.7152611665
 40
1.0
 40
1.0
 40
1.0
 40
1.0
 10
39.5347901447
 20
26.4508437257
 30
0.0
 10
39.5746261429
 20
26.4415055811
 30
0.0
 10
39.6593598307
 20
26.42331296
 30
0.0
 10
39.7936259921
 20
26.3979405592
 30
0.0
 10
39.940899507
 20
26.3728868847
 30
0.0
 10
40.1576734463
 20
26.3390989672
 30
0.0
 10
40.4461195071
 20
26.2988210373
 30
0.0
 10
40.6817356228
 20
26.2684417786
 30
0.0
 10
40.802595486
 20
26.2531004624
 30
0.0
  0
SPLINE
  5
2D4
100
AcDbEntity
  8
0
100
AcDbSpline
 62
7
  6
BYLAYER
 70
0
 71
3
 72
28
 73
24
 74
0
 42
0.0000001
 43
0.0000001
 44
0.0000000001
 40
0.0
 40
0.0
 40
0.0
 40
0.0
 40
0.1941417881
 40
0.3808062287
 40
0.4691064593
 40
0.5529339815
 40
0.6314537806
 40
0.7038675058
 40
0.7695411744
 40
0.8278890018
 40
0.8783283845
 40
0.9203113921
 40
0.9380250268
 40
0.9535179751
 40
0.9667672342
 40
0.9777551013
 40
0.9864748772
 40
0.9899899093
 40
0.992950386
 40
0.9953726536
 40
0.9972906821
 40
0.9987799048
 40
1.0
 40
1.0
 40
1.0
 40
1.0
 10
40.8006100317
 20
25.759375975
 30
0.0
 10
40.6510961753
 20
25.752133931
 30
0.0
 10
40.3578269075
 20
25.737930929
 30
0.0
 10
39.9965877084
 20
25.7197619045
 30
0.0
 10
39.72034236
 20
25.7049937345
 30
0.0
 10
39.527390663
 20
25.6941329371
 30
0.0
 10
39.3467076538
 20
25.6832850167
 30
0.0
 10
39.1800484711
 20
25.6724413539
 30
0.0
 10
39.0289769794
 20
25.6616174853
 30
0.0
 10
38.8948930384
 20
25.6508295207
 30
0.0
 10
38.7791387139
 20
25.6400910104
 30
0.0
 10
38.6947272557
 20
25.6307464703
 30
0.0
 10
38.63726062
 20
25.6230771401
 30
0.0
 10
38.6018500535
 20
25.6176687194
 30
0.0
 10
38.5716884091
 20
25.6122840083
 30
0.0
 10
38.5468444356
 20
25.6069250565
 30
0.0
 10
38.5295449619
 20
25.6022343145
 30
0.0
 10
38.5184862583
 20
25.5983471386
 30
0.0
 10
38.5121709212
 20
25.5956512662
 30
0.0
 10
38.5072104662
 20
25.5929632851
 30
0.0
 10
38.5035920235
 20
25.5902614658
 30
0.0
 10
38.5012629821
 20
25.5874861917
 30
0.0
 10
38.5006557764
 20
25.5853898425
 30
0.0
 10
38.5006530816
 20
25.5844491163
 30
0.0
  0
SPLINE
  5
2D5
100
AcDbEntity
  8
0
100
AcDbSpline
 62
7
  6
BYLAYER
 70
0
 71
3
 72
13
 73
9
 74
0
 42
0.0000001
 43
0.0000001
 44
0.0000000001
 40
0.0
 40
0.0
 40
0.0
 40
0.0
 40
0.0953348001
 40
0.202107772
 40
0.3189045675
 40
0.4442877388
 40
0.7148251938
 40
1.0
 40
1.0
 40
1.0
 40
1.0
 10
39.5321140466
 20
30.8014410495
 30
0.0
 10
39.5719565128
 20
30.7920164694
 30
0.0
 10
39.6567740842
 20
30.7735241453
 30
0.0
 10
39.7912180624
 20
30.7473846379
 30
0.0
 10
39.9387750674
 20
30.7211861964
 30
0.0
 10
40.1560214089
 20
30.685286718
 30
0.0
 10
40.4452252208
 20
30.6414387892
 30
0.0
 10
40.6814362721
 20
30.6073904934
 30
0.0
 10
40.8026515424
 20
30.5899070889
 30
0.0
  0
SPLINE
  5
2D6
100
AcDbEntity
  8
0
100
AcDbSpline
 62
7
  6
BYLAYER
 70
0
 71
3
 72
13
 73
9
 74
0
 42
0.0000001
 43
0.0000001
 44
0.0000000001
 40
0.0
 40
0.0
 40
0.0
 40
0.0
 40
0.0948600875
 40
0.2014497786
 40
0.3182594706
 40
0.4437383011
 40
0.7144199755
 40
1.0
 40
1.0
 40
1.0
 40
1.0
 10
39.5276063256
 20
32.2525298329
 30
0.0
 10
39.5673747965
 20
32.2430413739
 30
0.0
 10
39.6521952658
 20
32.224422886
 30
0.0
 10
39.7868366975
 20
32.1981704242
 30
0.0
 10
39.9348872646
 20
32.1718495483
 30
0.0
 10
40.1530194311
 20
32.1357810545
 30
0.0
 10
40.4435289963
 20
32.0916667612
 30
0.0
 10
40.680825186
 20
32.0574645921
 30
0.0
 10
40.8026501856
 20
32.0398970878
 30
0.0
  0
SPLINE
  5
2D7
100
AcDbEntity
  8
0
100
AcDbSpline
 62
7
  6
BYLAYER
 70
0
 71
3
 72
17
 73
13
 74
0
 42
0.0000001
 43
0.0000001
 44
0.0000000001
 40
0.0
 40
0.0
 40
0.0
 40
0.0
 40
0.0373577687
 40
0.0805110342
 40
0.1290061343
 40
0.1823834137
 40
0.3019286982
 40
0.4350094175
 40
0.5765576951
 40
0.7213773041
 40
0.8642617971
 40
1.0
 40
1.0
 40
1.0
 40
1.0
 10
42.8325147109
 20
38.7804848866
 30
0.0
 10
42.7948777084
 20
38.7739886061
 30
0.0
 10
42.7135551224
 20
38.7612042883
 30
0.0
 10
42.5829046528
 20
38.7431201802
 30
0.0
 10
42.4357779801
 20
38.7247140963
 30
0.0
 10
42.2108956325
 20
38.6987735629
 30
0.0
 10
41.899726397
 20
38.6663236801
 30
0.0
 10
41.4986012939
 20
38.6275639967
 30
0.0
 10
41.0716319195
 20
38.5876325368
 30
0.0
 10
40.6346975722
 20
38.5466103255
 30
0.0
 10
40.2038270484
 20
38.5045702391
 30
0.0
 10
39.9205243028
 20
38.474803931
 30
0.0
 10
39.7826095627
 20
38.4593766964
 30
0.0
  0
SPLINE
  5
2D8
100
AcDbEntity
  8
0
100
AcDbSpline
 62
7
  6
BYLAYER
 70
0
 71
3
 72
11
 73
7
 74
0
 42
0.0000001
 43
0.0000001
 44
0.0000000001
 40
0.0
 40
0.0
 40
0.0
 40
0.0
 40
0.2519557461
 40
0.5030186928
 40
0.7524944086
 40
1.0
 40
1.0
 40
1.0
 40
1.0
 10
38.5700837705
 20
32.4593743689
 30
0.0
 10
38.5700848024
 20
32.4890481614
 30
0.0
 10
38.5778516567
 20
32.5485244137
 30
0.0
 10
38.6104056774
 20
32.6318135577
 30
0.0
 10
38.6618126099
 20
32.7045240067
 30
0.0
 10
38.7076995285
 20
32.742151749
 30
0.0
 10
38.7324072396
 20
32.7576189043
 30
0.0
  0
SPLINE
  5
2D9
100
AcDbEntity
  8
0
100
AcDbSpline
 62
7
  6
BYLAYER
 70
0
 71
3
 72
25
 73
21
 74
0
 42
0.0000001
 43
0.0000001
 44
0.0000000001
 40
0.0
 40
0.0
 40
0.0
 40
0.0
 40
0.1920256723
 40
0.3768274833
 40
0.4642230366
 40
0.5471437769
 40
0.6248925404
 40
0.6967869688
 40
0.7621493958
 40
0.8203099987
 40
0.8706279221
 40
0.9127207879
 40
0.9306346208
 40
0.9464432968
 40
0.9601466905
 40
0.9717624792
 40
0.981341911
 40
0.9890052198
 40
0.9950252778
 40
1.0
 40
1.0
 40
1.0
 40
1.0
 10
40.8026432493
 20
34.2153837255
 30
0.0
 10
40.6529727673
 20
34.2003620253
 30
0.0
 10
40.3592614542
 20
34.1708942668
 30
0.0
 10
39.9975651813
 20
34.1332514233
 30
0.0
 10
39.7210737626
 20
34.1026351459
 30
0.0
 10
39.5280630897
 20
34.0800973153
 30
0.0
 10
39.3472794166
 20
34.0575839677
 30
0.0
 10
39.1803588411
 20
34.0351045849
 30
0.0
 10
39.0289268629
 20
34.012670829
 30
0.0
 10
38.8945850501
 20
33.9903176389
 30
0.0
 10
38.7787508191
 20
33.9680091244
 30
0.0
 10
38.6944984371
 20
33.9486024132
 30
0.0
 10
38.6372584953
 20
33.9327308046
 30
0.0
 10
38.601836787
 20
33.9214939839
 30
0.0
 10
38.571614854
 20
33.9102833619
 30
0.0
 10
38.5466417844
 20
33.8990990809
 30
0.0
 10
38.5269233864
 20
33.8879390687
 30
0.0
 10
38.512451418
 20
33.8767246894
 30
0.0
 10
38.5030852396
 20
33.8652251995
 30
0.0
 10
38.5006267591
 20
33.8565847391
 30
0.0
 10
38.5006129541
 20
33.852687838
 30
0.0
  0
SPLINE
  5
2DA
100
AcDbEntity
  8
0
100
AcDbSpline
 62
7
  6
BYLAYER
 70
0
 71
3
 72
13
 73
9
 74
0
 42
0.0000001
 43
0.0000001
 44
0.0000000001
 40
0.0
 40
0.0
 40
0.0
 40
0.0
 40
0.0954939152
 40
0.2024970024
 40
0.3195392557
 40
0.4450650057
 40
0.7152784247
 40
1.0
 40
1.0
 40
1.0
 40
1.0
 10
39.5374524168
 20
29.3502161775
 30
0.0
 10
39.5772028733
 20
29.3408530276
 30
0.0
 10
39.6618364094
 20
29.3224454085
 30
0.0
 10
39.7960036736
 20
29.296468809
 30
0.0
 10
39.9432186749
 20
29.2704286339
 30
0.0
 10
40.1595970521
 20
29.234774373
 30
0.0
 10
40.4473147198
 20
29.1911228427
 30
0.0
 10
40.682205714
 20
29.1572604197
 30
0.0
 10
40.8027213039
 20
29.1398816672
 30
0.0
  0
SPLINE
  5
2DB
100
AcDbEntity
  8
0
100
AcDbSpline
 62
7
  6
BYLAYER
 70
0
 71
3
 72
13
 73
9
 74
0
 42
0.0000001
 43
0.0000001
 44
0.0000000001
 40
0.0
 40
0.0
 40
0.0
 40
0.0
 40
0.0950864277
 40
0.201653573
 40
0.3183243027
 40
0.443698238
 40
0.7145021841
 40
1.0
 40
1.0
 40
1.0
 40
1.0
 10
39.5282313389
 20
33.7023714854
 30
0.0
 10
39.5680831188
 20
33.6929028704
 30
0.0
 10
39.6529554165
 20
33.6743229334
 30
0.0
 10
39.7875522636
 20
33.6480665073
 30
0.0
 10
39.9354085154
 20
33.6217505862
 30
0.0
 10
40.1533727348
 20
33.5856843542
 30
0.0
 10
40.4437159731
 20
33.5416672647
 30
0.0
 10
40.6809051373
 20
33.5074685401
 30
0.0
 10
40.8026314015
 20
33.4899085817
 30
0.0
  0
SPLINE
  5
2DC
100
AcDbEntity
  8
0
100
AcDbSpline
 62
7
  6
BYLAYER
 70
0
 71
3
 72
25
 73
21
 74
0
 42
0.0000001
 43
0.0000001
 44
0.0000000001
 40
0.0
 40
0.0
 40
0.0
 40
0.0
 40
0.1919065056
 40
0.3764809512
 40
0.4638969461
 40
0.546962104
 40
0.6248514455
 40
0.6967440808
 40
0.7619330477
 40
0.8199413922
 40
0.8703314516
 40
0.9126881803
 40
0.9307384414
 40
0.946650378
 40
0.9603979552
 40
0.9719847432
 40
0.9814893171
 40
0.9890701385
 40
0.9950359004
 40
1.0
 40
1.0
 40
1.0
 40
1.0
 10
40.8027243206
 20
28.4154189736
 30
0.0
 10
40.6531702879
 20
28.400411981
 30
0.0
 10
40.359776522
 20
28.3709690701
 30
0.0
 10
39.9983985839
 20
28.3332960351
 30
0.0
 10
39.7219988416
 20
28.3027009816
 30
0.0
 10
39.5287754555
 20
28.28019017
 30
0.0
 10
39.3477936145
 20
28.2577082888
 30
0.0
 10
39.1809242923
 20
28.2352512132
 30
0.0
 10
39.0297789364
 20
28.2127974709
 30
0.0
 10
38.8956671495
 20
28.1904057472
 30
0.0
 10
38.7797075835
 20
28.1680936215
 30
0.0
 10
38.6950791856
 20
28.1487398055
 30
0.0
 10
38.6374326384
 20
28.1328948281
 30
0.0
 10
38.6017786596
 20
28.1216745358
 30
0.0
 10
38.5714548063
 20
28.1104843636
 30
0.0
 10
38.5465338788
 20
28.0993032846
 30
0.0
 10
38.5269891683
 20
28.0881353011
 30
0.0
 10
38.5127381688
 20
28.0769039699
 30
0.0
 10
38.5035999376
 20
28.0653668316
 30
0.0
 10
38.5012522814
 20
28.0567693189
 30
0.0
 10
38.501239611
 20
28.0528813556
 30
0.0
  0
SPLINE
  5
2DD
100
AcDbEntity
  8
0
100
AcDbSpline
 62
7
  6
BYLAYER
 70
0
 71
3
 72
17
 73
13
 74
0
 42
0.0000001
 43
0.0000001
 44
0.0000000001
 40
0.0
 40
0.0
 40
0.0
 40
0.0
 40
0.1386626943
 40
0.2748413312
 40
0.407062698
 40
0.4713264801
 40
0.5341619898
 40
0.6556353161
 40
0.7725450473
 40
0.8865409739
 40
0.9431869482
 40
1.0
 40
1.0
 40
1.0
 40
1.0
 10
39.4992894634
 20
26.4433596327
 30
0.0
 10
39.4983356088
 20
26.4190259004
 30
0.0
 10
39.4921984851
 20
26.3708609197
 30
0.0
 10
39.4712226687
 20
26.3021837064
 30
0.0
 10
39.4444010318
 20
26.2498539883
 30
0.0
 10
39.4177676611
 20
26.2128148425
 30
0.0
 10
39.3885570489
 20
26.1802777557
 30
0.0
 10
39.3469736269
 20
26.1468178076
 30
0.0
 10
39.2907543179
 20
26.1196799638
 30
0.0
 10
39.240706866
 20
26.1092814858
 30
0.0
 10
39.2006578189
 20
26.1091648639
 30
0.0
 10
39.1808356907
 20
26.1117990066
 30
0.0
 10
39.1710482017
 20
26.1137379844
 30
0.0
  0
SPLINE
  5
2DE
100
AcDbEntity
  8
0
100
AcDbSpline
 62
7
  6
BYLAYER
 70
0
 71
3
 72
9
 73
5
 74
0
 42
0.0000001
 43
0.0000001
 44
0.0000000001
 40
0.0
 40
0.0
 40
0.0
 40
0.0
 40
0.2453313549
 40
1.0
 40
1.0
 40
1.0
 40
1.0
 10
40.328181732
 20
36.4593765249
 30
0.0
 10
40.3834248267
 20
36.4510405685
 30
0.0
 10
40.6086853333
 20
36.4176119679
 30
0.0
 10
40.8341357003
 20
36.3854869111
 30
0.0
 10
41.0042024819
 20
36.3607378562
 30
0.0
  0
SPLINE
  5
2DF
100
AcDbEntity
  8
0
100
AcDbSpline
 62
7
  6
BYLAYER
 70
0
 71
3
 72
15
 73
11
 74
0
 42
0.0000001
 43
0.0000001
 44
0.0000000001
 40
0.0
 40
0.0
 40
0.0
 40
0.0
 40
0.1239297676
 40
0.2474068812
 40
0.3710095616
 40
0.4951186188
 40
0.6200658055
 40
0.7460281203
 40
0.8727865551
 40
1.0
 40
1.0
 40
1.0
 40
1.0
 10
39.0651667947
 20
32.1487545978
 30
0.0
 10
39.0395646021
 20
32.135187436
 30
0.0
 10
38.9847816789
 20
32.1144531498
 30
0.0
 10
38.8974541988
 20
32.1055654178
 30
0.0
 10
38.810963417
 20
32.1209129795
 30
0.0
 10
38.7309525341
 20
32.1576129595
 30
0.0
 10
38.6622488926
 20
32.2137378723
 30
0.0
 10
38.6105619403
 20
32.2865599827
 30
0.0
 10
38.5778822182
 20
32.3700151021
 30
0.0
 10
38.5700799695
 20
32.4296307265
 30
0.0
 10
38.5700810949
 20
32.4593732705
 30
0.0
  0
SPLINE
  5
2E0
100
AcDbEntity
  8
0
100
AcDbSpline
 62
7
  6
BYLAYER
 70
0
 71
3
 72
11
 73
7
 74
0
 42
0.0000001
 43
0.0000001
 44
0.0000000001
 40
0.0
 40
0.0
 40
0.0
 40
0.0
 40
0.2724945041
 40
0.5358151216
 40
0.7812098913
 40
1.0
 40
1.0
 40
1.0
 40
1.0
 10
40.8027412971
 20
26.9654144096
 30
0.0
 10
40.6613602356
 20
26.9512250921
 30
0.0
 10
40.3833585632
 20
26.9233184203
 30
0.0
 10
39.9781743773
 20
26.8812565343
 30
0.0
 10
39.6011374463
 20
26.8393525439
 30
0.0
 10
39.3609164231
 20
26.8095438781
 30
0.0
 10
39.2478732183
 20
26.7941440207
 30
0.0
  0
SPLINE
  5
2E1
100
AcDbEntity
  8
0
100
AcDbSpline
 62
7
  6
BYLAYER
 70
0
 71
3
 72
21
 73
17
 74
0
 42
0.0000001
 43
0.0000001
 44
0.0000000001
 40
0.0
 40
0.0
 40
0.0
 40
0.0
 40
0.2148643877
 40
0.4066444181
 40
0.5735346087
 40
0.7138002692
 40
0.7734514842
 40
0.8258808392
 40
0.8710455547
 40
0.9090714901
 40
0.9401981877
 40
0.9648860252
 40
0.9751059721
 40
0.9841510068
 40
0.9923160556
 40
1.0
 40
1.0
 40
1.0
 40
1.0
 10
39.2478732183
 20
26.7941440207
 30
0.0
 10
39.1921224196
 20
26.7865490984
 30
0.0
 10
39.0866946352
 20
26.771543504
 30
0.0
 10
38.9383678093
 20
26.7478958593
 30
0.0
 10
38.8098426985
 20
26.7243386673
 30
0.0
 10
38.7159499546
 20
26.7039070413
 30
0.0
 10
38.6520154391
 20
26.6871621624
 30
0.0
 10
38.6125689267
 20
26.6753070394
 30
0.0
 10
38.5790693967
 20
26.6634680525
 30
0.0
 10
38.551523401
 20
26.6516574939
 30
0.0
 10
38.5299176071
 20
26.6398773881
 30
0.0
 10
38.5159618123
 20
26.629453799
 30
0.0
 10
38.5081840654
 20
26.6209200227
 30
0.0
 10
38.5042293136
 20
26.614876914
 30
0.0
 10
38.5018060244
 20
26.6087697416
 30
0.0
 10
38.5012461103
 20
26.6046042862
 30
0.0
 10
38.501240853
 20
26.6025921268
 30
0.0
  0
SPLINE
  5
2E2
100
AcDbEntity
  8
0
100
AcDbSpline
 62
7
  6
BYLAYER
 70
0
 71
3
 72
18
 73
14
 74
0
 42
0.0000001
 43
0.0000001
 44
0.0000000001
 40
0.0
 40
0.0
 40
0.0
 40
0.0
 40
0.1805288045
 40
0.3545396281
 40
0.5159472816
 40
0.6590429754
 40
0.7786093416
 40
0.8290344892
 40
0.8732100174
 40
0.9114231071
 40
0.9443230391
 40
0.9731315037
 40
1.0
 40
1.0
 40
1.0
 40
1.0
 10
40.3281820743
 20
36.4593724062
 30
0.0
 10
40.3281858026
 20
36.4361386582
 30
0.0
 10
40.3267805807
 20
36.3904985207
 30
0.0
 10
40.3207943256
 20
36.3243285906
 30
0.0
 10
40.3112124478
 20
36.2634375592
 30
0.0
 10
40.2984316116
 20
36.2103122425
 30
0.0
 10
40.2846804105
 20
36.1722791634
 30
0.0
 10
40.2720562141
 20
36.1477344997
 30
0.0
 10
40.2626613211
 20
36.1334067284
 30
0.0
 10
40.252858152
 20
36.122187026
 30
0.0
 10
40.2426590234
 20
36.1141877705
 30
0.0
 10
40.2320347149
 20
36.109613292
 30
0.0
 10
40.2247001701
 20
36.1091695016
 30
0.0
 10
40.2212682465
 20
36.1095927943
 30
0.0
  0
SPLINE
  5
2E3
100
AcDbEntity
  8
0
100
AcDbSpline
 62
7
  6
BYLAYER
 70
0
 71
3
 72
12
 73
8
 74
0
 42
0.0000001
 43
0.0000001
 44
0.0000000001
 40
0.0
 40
0.0
 40
0.0
 40
0.0
 40
0.0948767575
 40
0.2014407043
 40
0.4443207943
 40
0.7156525423
 40
1.0
 40
1.0
 40
1.0
 40
1.0
 10
39.5309922863
 20
35.1517723519
 30
0.0
 10
39.5725627737
 20
35.1419297662
 30
0.0
 10
39.6611995654
 20
35.1226136528
 30
0.0
 10
39.8576228244
 20
35.0845719661
 30
0.0
 10
40.1333537252
 20
35.0385161595
 30
0.0
 10
40.4889204703
 20
34.9850436716
 30
0.0
 10
40.7365794783
 20
34.9494418623
 30
0.0
 10
40.8632967639
 20
34.9311404183
 30
0.0
  0
SPLINE
  5
2E4
100
AcDbEntity
  8
0
100
AcDbSpline
 62
7
  6
BYLAYER
 70
0
 71
3
 72
34
 73
30
 74
0
 42
0.0000001
 43
0.0000001
 44
0.0000000001
 40
0.0
 40
0.0
 40
0.0
 40
0.0
 40
0.0476684222
 40
0.1068365703
 40
0.1758249748
 40
0.252774641
 40
0.3356176272
 40
0.4220468444
 40
0.5097284367
 40
0.5962741616
 40
0.6792887434
 40
0.7565309415
 40
0.8259087594
 40
0.8570157183
 40
0.8854662439
 40
0.9110832383
 40
0.9336905701
 40
0.9531139069
 40
0.9692113188
 40
0.9759919479
 40
0.9819193264
 40
0.9869893641
 40
0.9912007135
 40
0.9945576338
 40
0.9970776768
 40
0.9980402355
 40
0.9988228262
 40
0.9994565165
 40
1.0
 40
1.0
 40
1.0
 40
1.0
 10
42.8292312613
 20
39.5749935655
 30
0.0
 10
42.7605460781
 20
39.5679296356
 30
0.0
 10
42.6063499292
 20
39.5546238138
 30
0.0
 10
42.3522973252
 20
39.5367001086
 30
0.0
 10
42.0557477845
 20
39.5186355054
 30
0.0
 10
41.7248555513
 20
39.5004955544
 30
0.0
 10
41.3686669867
 20
39.4823252783
 30
0.0
 10
40.9969160724
 20
39.4641214258
 30
0.0
 10
40.619795631
 20
39.4459143707
 30
0.0
 10
40.2476265218
 20
39.4277183401
 30
0.0
 10
39.8905963485
 20
39.4095380444
 30
0.0
 10
39.5584662894
 20
39.3913919767
 30
0.0
 10
39.3014966197
 20
39.3758413703
 30
0.0
 10
39.1151652914
 20
39.3631495702
 30
0.0
 10
38.9921297952
 20
39.3539913417
 30
0.0
 10
38.8814418499
 20
39.3448525986
 30
0.0
 10
38.7838758603
 20
39.3357446246
 30
0.0
 10
38.7001646641
 20
39.3266721558
 30
0.0
 10
38.6393934882
 20
39.3187706431
 30
0.0
 10
38.5981726935
 20
39.3122916296
 30
0.0
 10
38.5728260367
 20
39.3077255548
 30
0.0
 10
38.5512682404
 20
39.3031752292
 30
0.0
 10
38.533517622
 20
39.2986525812
 30
0.0
 10
38.5196080064
 20
39.294159205
 30
0.0
 10
38.5104819091
 20
39.2901890081
 30
0.0
 10
38.5052689527
 20
39.2868438365
 30
0.0
 10
38.5026760108
 20
39.2845455967
 30
0.0
 10
38.5010248497
 20
39.282186876
 30
0.0
 10
38.5006145477
 20
39.2804720894
 30
0.0
 10
38.5006124649
 20
39.279684859
 30
0.0
  0
SPLINE
  5
2E5
100
AcDbEntity
  8
0
100
AcDbSpline
 62
7
  6
BYLAYER
 70
0
 71
3
 72
16
 73
12
 74
0
 42
0.0000001
 43
0.0000001
 44
0.0000000001
 40
0.0
 40
0.0
 40
0.0
 40
0.0
 40
0.0389371733
 40
0.0795397232
 40
0.1690100878
 40
0.2732082246
 40
0.3936966388
 40
0.5301156572
 40
0.6794352928
 40
0.837530586
 40
1.0
 40
1.0
 40
1.0
 40
1.0
 10
39.8855639633
 20
40.2092193936
 30
0.0
 10
39.8909023442
 20
40.2088716086
 30
0.0
 10
39.9017582789
 20
40.2069734554
 30
0.0
 10
39.9235191461
 20
40.1985272593
 30
0.0
 10
39.9498700152
 20
40.1791192767
 30
0.0
 10
39.9774170496
 20
40.1455148711
 30
0.0
 10
40.0013028191
 20
40.1017564439
 30
0.0
 10
40.0204838211
 20
40.0491782849
 30
0.0
 10
40.034800168
 20
39.9897920878
 30
0.0
 10
40.0437593001
 20
39.9257672352
 30
0.0
 10
40.0458449059
 20
39.8816980589
 30
0.0
 10
40.0458448784
 20
39.859375888
 30
0.0
  0
SPLINE
  5
2E6
100
AcDbEntity
  8
0
100
AcDbSpline
 62
7
  6
BYLAYER
 70
0
 71
3
 72
12
 73
8
 74
0
 42
0.0000001
 43
0.0000001
 44
0.0000000001
 40
0.0
 40
0.0
 40
0.0
 40
0.0
 40
0.0950206334
 40
0.2014389976
 40
0.4436901341
 40
0.7146113804
 40
1.0
 40
1.0
 40
1.0
 40
1.0
 10
39.5291011967
 20
38.0522354832
 30
0.0
 10
39.568835633
 20
38.042797513
 30
0.0
 10
39.6534175563
 20
38.0242467839
 30
0.0
 10
39.8405856949
 20
37.9876711831
 30
0.0
 10
40.1032084891
 20
37.943355565
 30
0.0
 10
40.4425463259
 20
37.8918553373
 30
0.0
 10
40.6791988369
 20
37.8577049582
 30
0.0
 10
40.8006014689
 20
37.8401853535
 30
0.0
  0
SPLINE
  5
2E7
100
AcDbEntity
  8
0
100
AcDbSpline
 62
7
  6
BYLAYER
 70
0
 71
3
 72
9
 73
5
 74
0
 42
0.0000001
 43
0.0000001
 44
0.0000000001
 40
0.0
 40
0.0
 40
0.0
 40
0.0
 40
0.5286299867
 40
1.0
 40
1.0
 40
1.0
 40
1.0
 10
41.8147228943
 20
37.6817194731
 30
0.0
 10
41.8604866107
 20
37.6731744786
 30
0.0
 10
41.9469302441
 20
37.6563191947
 30
0.0
 10
42.0329720973
 20
37.6374767111
 30
0.0
 10
42.0733590622
 20
37.6278780055
 30
0.0
  0
SPLINE
  5
2E8
100
AcDbEntity
  8
0
100
AcDbSpline
 62
7
  6
BYLAYER
 70
0
 71
3
 72
18
 73
14
 74
0
 42
0.0000001
 43
0.0000001
 44
0.0000000001
 40
0.0
 40
0.0
 40
0.0
 40
0.0
 40
0.1690732085
 40
0.3335716012
 40
0.4889069195
 40
0.6310786096
 40
0.756400752
 40
0.8116032995
 40
0.861248361
 40
0.9050650994
 40
0.9428846798
 40
0.9745622378
 40
1.0
 40
1.0
 40
1.0
 40
1.0
 10
40.8026353203
 20
32.7653839341
 30
0.0
 10
40.6761006287
 20
32.7526886826
 30
0.0
 10
40.4264542823
 20
32.7276485835
 30
0.0
 10
40.0606536724
 20
32.689964254
 30
0.0
 10
39.7151954316
 20
32.6522978738
 30
0.0
 10
39.3993823206
 20
32.6147270109
 30
0.0
 10
39.1588031189
 20
32.5824206916
 30
0.0
 10
38.9876991701
 20
32.5560101789
 30
0.0
 10
38.8774899127
 20
32.5370586463
 30
0.0
 10
38.7805656384
 20
32.5181380784
 30
0.0
 10
38.6974234285
 20
32.4992890649
 30
0.0
 10
38.6285051523
 20
32.4805367414
 30
0.0
 10
38.5877836682
 20
32.4666403636
 30
0.0
 10
38.5700837705
 20
32.4593743689
 30
0.0
  0
SPLINE
  5
2E9
100
AcDbEntity
  8
0
100
AcDbSpline
 62
7
  6
BYLAYER
 70
0
 71
3
 72
10
 73
6
 74
0
 42
0.0000001
 43
0.0000001
 44
0.0000000001
 40
0.0
 40
0.0
 40
0.0
 40
0.0
 40
0.3985273841
 40
0.688401164
 40
1.0
 40
1.0
 40
1.0
 40
1.0
 10
45.4026550671
 20
41.9378567481
 30
0.0
 10
45.4026550707
 20
41.9393295741
 30
0.0
 10
45.4025188527
 20
41.9419348336
 30
0.0
 10
45.4021714267
 20
41.945394303
 30
0.0
 10
45.4006768245
 20
41.9479594578
 30
0.0
 10
45.3995252578
 20
41.9479591837
 30
0.0
  0
SPLINE
  5
2EA
100
AcDbEntity
  8
0
100
AcDbSpline
 62
7
  6
BYLAYER
 70
0
 71
3
 72
10
 73
6
 74
0
 42
0.0000001
 43
0.0000001
 44
0.0000000001
 40
0.0
 40
0.0
 40
0.0
 40
0.0
 40
0.3117613217
 40
0.6015820191
 40
1.0
 40
1.0
 40
1.0
 40
1.0
 10
45.3995275195
 20
56.4479591837
 30
0.0
 10
45.4006793971
 20
56.4479591837
 30
0.0
 10
45.4021707401
 20
56.4505269149
 30
0.0
 10
45.4025193036
 20
56.4539844945
 30
0.0
 10
45.4026550707
 20
56.456588769
 30
0.0
 10
45.4026550671
 20
56.4580608206
 30
0.0
  0
ENDSEC
  0
SECTION
  2
OBJECTS
  0
DICTIONARY
  5
C
100
AcDbDictionary
280
0
281
1
  3
ACAD_GROUP
350
D
  3
ACAD_MLINESTYLE
350
17
  3
ACAD_LAYOUT
350
1A
  3
ACAD_PLOTSETTINGS
350
19
  3
ACAD_PLOTSTYLENAME
350
E
  0
DICTIONARY
  5
D
102
{ACAD_REACTORS
330
C
102
}
100
AcDbDictionary
280
0
281
1
  0
ACDBDICTIONARYWDFLT
  5
E
102
{ACAD_REACTORS
330
C
102
}
100
AcDbDictionary
281
1
  3
Normal
350
F
100
AcDbDictionaryWithDefault
340
F
  0
DICTIONARY
  5
17
102
{ACAD_REACTORS
330
C
102
}
100
AcDbDictionary
280
0
281
1
  3
Standard
350
18
  0
DICTIONARY
  5
19
102
{ACAD_REACTORS
330
C
102
}
100
AcDbDictionary
281
1
  0
DICTIONARY
  5
1A
102
{ACAD_REACTORS
330
C
102
}
100
AcDbDictionary
281
1
  3
Model
350
2EB
  3
Layout1
350
2EC
  0
ACDBPLACEHOLDER
  5
F
102
{ACAD_REACTORS
330
E
102
}
  0
MLINESTYLE
  5
18
102
{ACAD_REACTORS
330
17
102
}
100
AcDbMlineStyle
  2
STANDARD
 70
0
  3

 62
256
 51
90.0
 52
90.0
 71
2
 49
0.5
 62
256
  6
BYLAYER
 49
-0.5
 62
256
  6
BYLAYER
  0
LAYOUT
  5
2EB
102
{ACAD_REACTORS
330
1A
102
}
100
AcDbPlotSettings
  1

  2
none_device
  4

  6

 40
0.0
 41
0.0
 42
0.0
 43
0.0
 44
210.0
 45
297.0
 46
0.0
 47
0.0
 48
0.0
 49
0.0
140
0.0
141
0.0
142
1.0
143
1.0
 70
1024
 72
1
 73
0
 74
0
  7

 75
0
147
1.0
148
0.0
149
0.0
100
AcDbLayout
  1
Model
 70
0
 71
0
 10
0.0
 20
0.0
 11
210.0
 21
297.0
 12
0.0
 22
0.0
 32
0.0
 14
0.0
 24
0.0
 34
0.0
 15
0.0
 25
0.0
 35
0.0
146
0.0
 13
0.0
 23
0.0
 33
0.0
 16
1.0
 26
0.0
 36
0.0
 17
0.0
 27
1.0
 37
0.0
 76
0
330
210
345
0
346
0
  0
LAYOUT
  5
2EC
102
{ACAD_REACTORS
330
1A
102
}
100
AcDbPlotSettings
  1

  2
none_device
  4

  6

 40
0.0
 41
0.0
 42
0.0
 43
0.0
 44
210.0
 45
297.0
 46
0.0
 47
0.0
 48
0.0
 49
0.0
140
0.0
141
0.0
142
1.0
143
1.0
 70
0
 72
1
 73
0
 74
0
  7

 75
0
147
1.0
148
0.0
149
0.0
100
AcDbLayout
  1
Layout1
 70
0
 71
1
 10
0.0
 20
0.0
 11
210.0
 21
297.0
 12
0.0
 22
0.0
 32
0.0
 14
0.0
 24
0.0
 34
0.0
 15
0.0
 25
0.0
 35
0.0
146
0.0
 13
0.0
 23
0.0
 33
0.0
 16
1.0
 26
0.0
 36
0.0
 17
0.0
 27
1.0
 37
0.0
 76
0
330
211
345
0
346
0
  0
ENDSEC
  0
EOF
