999
DXF file: C:\2D\Gen2D\CAD\LV426801_3D-CAD\drw0001_3.dxf
999
Pro/ENGINEER 2019471 by Parametric Technology Corporation
  0
SECTION
  2
HEADER
  9
$ACADVER
  1
AC1024
  9
$DWGCODEPAGE
  3
ANSI_1252
  9
$EXTMAX
 10
47.1522375108
 20
66.6867359082
 30
0.0
  9
$EXTMIN
 10
0.0
 20
0.0
 30
0.0
  9
$LIMMIN
 10
0.0
 20
0.0
  9
$LIMMAX
 10
47.1522375108
 20
66.6867359082
  9
$VIEWCTR
 10
23.5761187554
 20
33.3433679541
  9
$VIEWSIZE
 40
66.6867359082
  9
$CLAYER
  8
0
  9
$LTSCALE
 40
4.3469872296
  9
$CELTYPE
  6
BYLAYER
  9
$DIMSCALE
 40
1.0
  9
$DIMASZ
 40
0.5613361608
  9
$DIMEXO
 40
1.0
  9
$DIMDLI
 40
3.003372995
  9
$DIMEXE
 40
1.0
  9
$DIMCEN
 40
0.711325183
  9
$DIMLFAC
 40
1.0
  9
$DIMBLK
  1
_FILLED
  9
$DIMALT
 70
0
  9
$DIMALTF
 40
0.0393700787
  9
$DIMTXT
 40
0.7858706252
  9
$DIMTOL
 70
1
  9
$DIMLIM
 70
0
  9
$DIMTFAC
 40
1.0
  9
$DIMTP
 40
0.01
  9
$DIMTM
 40
0.01
  9
$DIMGAP
 40
0.625
  9
$DIMDSEP
 70
46
  9
$AUNITS
 70
0
  9
$PDMODE
 70
3
  9
$PDSIZE
 40
0.3125
  9
$HANDSEED
  5
2DC
  9
$TILEMODE
 70
1
  9
$MEASUREMENT
 70
1
  9
$INSUNITS
 70
4
  0
ENDSEC
  0
SECTION
  2
CLASSES
  0
CLASS
  1
ACDBDICTIONARYWDFLT
  2
AcDbDictionaryWithDefault
  3
AutoCAD 2000
 90
0
 91
1
280
0
281
0
  0
CLASS
  1
ACDBPLACEHOLDER
  2
AcDbPlaceHolder
  3
AutoCAD 2000
 90
0
 91
1
280
0
281
0
  0
CLASS
  1
LAYOUT
  2
AcDbLayout
  3
AutoCAD 2000
 90
0
 91
0
280
0
281
0
  0
ENDSEC
  0
SECTION
  2
TABLES
  0
TABLE
  2
VPORT
  5
8
100
AcDbSymbolTable
 70
2
  0
VPORT
  5
1F4
100
AcDbSymbolTableRecord
100
AcDbViewportTableRecord
  2
*ACTIVE
 70
0
 10
0.0
 20
0.0
 11
1.0
 21
1.0
 12
23.5761187554
 22
33.3433679541
 13
0.0
 23
0.0
 14
1.0
 24
1.0
 15
0.0
 25
0.0
 16
0.0
 26
0.0
 36
1.0
 17
0.0
 27
0.0
 37
0.0
 40
66.6867359082
 41
0.7070707071
 42
50.0
 43
0.0
 44
0.0
 50
0.0
 51
0.0
 71
0
 72
100
 73
1
 74
1
 75
0
 76
0
 77
0
 78
0
  0
ENDTAB
  0
TABLE
  2
LTYPE
  5
5
100
AcDbSymbolTable
 70
6
  0
LTYPE
  5
14
100
AcDbSymbolTableRecord
100
AcDbLinetypeTableRecord
  2
BYBLOCK
 70
0
  3

 72
65
 73
0
 40
0.0
  0
LTYPE
  5
15
100
AcDbSymbolTableRecord
100
AcDbLinetypeTableRecord
  2
BYLAYER
 70
0
  3

 72
65
 73
0
 40
0.0
  0
LTYPE
  5
16
100
AcDbSymbolTableRecord
100
AcDbLinetypeTableRecord
  2
CONTINUOUS
 70
64
  3
Solid line
 72
65
 73
0
 40
0.0
  0
LTYPE
  5
1F5
100
AcDbSymbolTableRecord
100
AcDbLinetypeTableRecord
  2
CENTER
 70
64
  3
____ _ ____ _ ____ _ ____ _ ____ _ ____ _ ____
 72
65
 73
4
 40
0.6
 49
0.375
 74
0
 49
-0.075
 74
0
 49
0.075
 74
0
 49
-0.075
 74
0
  0
LTYPE
  5
1F6
100
AcDbSymbolTableRecord
100
AcDbLinetypeTableRecord
  2
HIDDEN
 70
64
  3
- - - - - - - - - - - - - - - - - - - -
 72
65
 73
2
 40
0.2
 49
0.1
 74
0
 49
-0.1
 74
0
  0
LTYPE
  5
1F7
100
AcDbSymbolTableRecord
100
AcDbLinetypeTableRecord
  2
PHANTOM
 70
64
  3
_____ _ _ _____ _ _ _____ _ _ _____
 72
65
 73
6
 40
0.8
 49
0.45
 74
0
 49
-0.05
 74
0
 49
0.1
 74
0
 49
-0.05
 74
0
 49
0.1
 74
0
 49
-0.05
 74
0
  0
LTYPE
  5
1F8
100
AcDbSymbolTableRecord
100
AcDbLinetypeTableRecord
  2
DOT
 70
64
  3
. . . . . . . . . . . . . . . . . . . .
 72
65
 73
2
 40
0.2
 49
0.1
 74
0
 49
-0.1
 74
0
  0
LTYPE
  5
1F9
100
AcDbSymbolTableRecord
100
AcDbLinetypeTableRecord
  2
DASHED
 70
64
  3
- - - - - - - - - - - - - - - - - - - -
 72
65
 73
2
 40
0.2
 49
0.1
 74
0
 49
-0.1
 74
0
  0
ENDTAB
  0
TABLE
  2
LAYER
  5
2
100
AcDbSymbolTable
 70
36
  0
LAYER
  5
10
100
AcDbSymbolTableRecord
100
AcDbLayerTableRecord
  2
0
 70
0
 62
7
  6
CONTINUOUS
370
-3
390
F
  0
LAYER
  5
1FA
100
AcDbSymbolTableRecord
100
AcDbLayerTableRecord
  2
DEFAULT_1
 70
0
 62
7
  6
CENTER
370
-3
390
F
  0
LAYER
  5
1FB
100
AcDbSymbolTableRecord
100
AcDbLayerTableRecord
  2
DEFAULT_2
 70
0
 62
8
  6
HIDDEN
370
-3
390
F
  0
LAYER
  5
1FC
100
AcDbSymbolTableRecord
100
AcDbLayerTableRecord
  2
DEFAULT_3
 70
0
 62
7
  6
PHANTOM
370
-3
390
F
  0
LAYER
  5
1FD
100
AcDbSymbolTableRecord
100
AcDbLayerTableRecord
  2
00_COMPONENTS
 70
0
 62
7
  6
CONTINUOUS
370
-3
390
F
  0
LAYER
  5
1FE
100
AcDbSymbolTableRecord
100
AcDbLayerTableRecord
  2
01_1_DEFAULT_DATUMS
 70
0
 62
7
  6
CONTINUOUS
370
-3
390
F
  0
LAYER
  5
1FF
100
AcDbSymbolTableRecord
100
AcDbLayerTableRecord
  2
01_PLANES
 70
0
 62
7
  6
CONTINUOUS
370
-3
390
F
  0
LAYER
  5
200
100
AcDbSymbolTableRecord
100
AcDbLayerTableRecord
  2
02_COORD_SYS
 70
0
 62
7
  6
CONTINUOUS
370
-3
390
F
  0
LAYER
  5
201
100
AcDbSymbolTableRecord
100
AcDbLayerTableRecord
  2
03_AXES
 70
0
 62
7
  6
CONTINUOUS
370
-3
390
F
  0
LAYER
  5
202
100
AcDbSymbolTableRecord
100
AcDbLayerTableRecord
  2
04_POINTS
 70
0
 62
7
  6
CONTINUOUS
370
-3
390
F
  0
LAYER
  5
203
100
AcDbSymbolTableRecord
100
AcDbLayerTableRecord
  2
05_CURVES
 70
0
 62
7
  6
CONTINUOUS
370
-3
390
F
  0
LAYER
  5
204
100
AcDbSymbolTableRecord
100
AcDbLayerTableRecord
  2
06_SURFS
 70
0
 62
7
  6
CONTINUOUS
370
-3
390
F
  0
LAYER
  5
205
100
AcDbSymbolTableRecord
100
AcDbLayerTableRecord
  2
07_COSMETICS
 70
0
 62
7
  6
CONTINUOUS
370
-3
390
F
  0
LAYER
  5
206
100
AcDbSymbolTableRecord
100
AcDbLayerTableRecord
  2
10_NOTES
 70
0
 62
7
  6
CONTINUOUS
370
-3
390
F
  0
LAYER
  5
207
100
AcDbSymbolTableRecord
100
AcDbLayerTableRecord
  2
11_NOTES_PUB
 70
0
 62
7
  6
CONTINUOUS
370
-3
390
F
  0
LAYER
  5
208
100
AcDbSymbolTableRecord
100
AcDbLayerTableRecord
  2
13_REF_GTOL
 70
0
 62
7
  6
CONTINUOUS
370
-3
390
F
  0
LAYER
  5
209
100
AcDbSymbolTableRecord
100
AcDbLayerTableRecord
  2
16_MISC
 70
0
 62
7
  6
CONTINUOUS
370
-3
390
F
  0
LAYER
  5
20A
100
AcDbSymbolTableRecord
100
AcDbLayerTableRecord
  2
17_NO_PRINT
 70
0
 62
7
  6
CONTINUOUS
370
-3
390
F
  0
LAYER
  5
20B
100
AcDbSymbolTableRecord
100
AcDbLayerTableRecord
  2
18_DATUM_CAMS_JOINTS
 70
0
 62
7
  6
CONTINUOUS
370
-3
390
F
  0
LAYER
  5
20C
100
AcDbSymbolTableRecord
100
AcDbLayerTableRecord
  2
19_DATUM_FUNCTIONAL
 70
0
 62
7
  6
CONTINUOUS
370
-3
390
F
  0
LAYER
  5
20D
100
AcDbSymbolTableRecord
100
AcDbLayerTableRecord
  2
20_DATUM_KINEMATIC_SCHEME
 70
0
 62
7
  6
CONTINUOUS
370
-3
390
F
  0
ENDTAB
  0
TABLE
  2
STYLE
  5
3
100
AcDbSymbolTable
 70
1
  0
STYLE
  5
11
100
AcDbSymbolTableRecord
100
AcDbTextStyleTableRecord
  2
STANDARD
 70
0
 40
0.0
 41
0.8
 50
0.0
 71
0
 42
0.2
  3
txt
  4

  0
STYLE
  5
20E
100
AcDbSymbolTableRecord
100
AcDbTextStyleTableRecord
  2
TEXTSTYLE_1
 70
0
 40
0.0
 41
0.8
 50
0.0
 71
0
 42
0.2
  3
gdt
  4

  0
ENDTAB
  0
TABLE
  2
VIEW
  5
6
100
AcDbSymbolTable
 70
0
  0
ENDTAB
  0
TABLE
  2
UCS
  5
7
100
AcDbSymbolTable
 70
0
  0
ENDTAB
  0
TABLE
  2
APPID
  5
9
100
AcDbSymbolTable
 70
1
  0
APPID
  5
20F
100
AcDbSymbolTableRecord
100
AcDbRegAppTableRecord
  2
ACAD
 70
0
  0
ENDTAB
  0
TABLE
  2
BLOCK_RECORD
  5
1
100
AcDbSymbolTable
 70
0
  0
BLOCK_RECORD
  5
210
100
AcDbSymbolTableRecord
100
AcDbBlockTableRecord
  2
*Model_Space
  0
BLOCK_RECORD
  5
211
100
AcDbSymbolTableRecord
100
AcDbBlockTableRecord
  2
*Paper_Space
  0
BLOCK_RECORD
  5
212
100
AcDbSymbolTableRecord
100
AcDbBlockTableRecord
  2
_FILLED
  0
ENDTAB
  0
TABLE
  2
DIMSTYLE
  5
A
100
AcDbSymbolTable
 70
1
100
AcDbDimStyleTable
 71
0
  0
DIMSTYLE
105
213
100
AcDbSymbolTableRecord
100
AcDbDimStyleTableRecord
  2
STANDARD
 70
0
  3

  4

 40
1.0
 41
0.5613361608
 42
1.0
 43
0.38
 44
1.0
 45
0.0
 46
0.0
 47
0.01
 48
0.01
140
0.7858706252
141
0.09
142
0.0
143
25.4
144
1.0
145
0.0
146
1.0
147
0.625
 71
1
 72
0
 73
0
 74
0
 75
0
 76
0
 77
1
 78
8
 79
2
170
0
171
1
172
0
173
0
174
0
175
0
176
0
177
0
178
0
270
2
179
2
271
2
272
2
273
2
274
2
275
0
280
0
281
0
282
0
283
1
284
8
285
0
286
0
287
3
288
0
340
11
278
46
341
212
342
212
343
212
344
212
  0
ENDTAB
  0
ENDSEC
  0
SECTION
  2
BLOCKS
  0
BLOCK
  5
20
100
AcDbEntity
  8
0
100
AcDbBlockBegin
  2
*Model_Space
 70
0
 10
0.0
 20
0.0
 30
0.0
  3
*Model_Space
  1

  0
ENDBLK
  5
21
100
AcDbEntity
  8
0
100
AcDbBlockEnd
  0
BLOCK
  5
1C
100
AcDbEntity
  8
0
100
AcDbBlockBegin
  2
*Paper_Space
 70
0
 10
0.0
 20
0.0
 30
0.0
  3
*Paper_Space
  1

  0
ENDBLK
  5
1D
100
AcDbEntity
  8
0
100
AcDbBlockEnd
  0
BLOCK
  5
214
100
AcDbEntity
  8
0
100
AcDbBlockBegin
  2
_FILLED
 70
64
 10
0.0
 20
0.0
  3
_FILLED
  1

  0
SOLID
  5
215
100
AcDbEntity
  8
0
  6
BYBLOCK
 62
0
100
AcDbTrace
 10
0.0
 20
0.0
 11
-1.0
 21
0.25
 12
-1.0
 22
-0.25
 13
-1.0
 23
-0.25
  0
ENDBLK
  5
216
100
AcDbEntity
  8
0
  6
BYBLOCK
 62
0
100
AcDbBlockEnd
  0
ENDSEC
  0
SECTION
  2
ENTITIES
  0
LINE
  5
217
100
AcDbEntity
  8
0
100
AcDbLine
 62
7
  6
CONTINUOUS
 10
30.6791100495
 20
5.3463662203
 11
27.9791100495
 21
5.3463662203
  0
LINE
  5
218
100
AcDbEntity
  8
0
100
AcDbLine
 62
7
  6
CONTINUOUS
 10
30.6791100495
 20
13.2463662203
 11
27.9791100495
 21
13.2463662203
  0
LINE
  5
219
100
AcDbEntity
  8
0
100
AcDbLine
 62
7
  6
CONTINUOUS
 10
27.9791100495
 20
14.7463662203
 11
32.4791100495
 21
14.7463662203
  0
LINE
  5
21A
100
AcDbEntity
  8
0
100
AcDbLine
 62
7
  6
CONTINUOUS
 10
32.4791100495
 20
15.7133359423
 11
27.9791100495
 21
15.7133359423
  0
LINE
  5
21B
100
AcDbEntity
  8
0
100
AcDbLine
 62
7
  6
CONTINUOUS
 10
26.5896808839
 20
50.3431562422
 11
29.6791100495
 21
51.5381252619
  0
LINE
  5
21C
100
AcDbEntity
  8
0
100
AcDbLine
 62
7
  6
CONTINUOUS
 10
29.4475140782
 20
51.5589993551
 11
26.5524027088
 21
50.4416137684
  0
LINE
  5
21D
100
AcDbEntity
  8
0
100
AcDbLine
 62
7
  6
CONTINUOUS
 10
27.9791100495
 20
19.6087633579
 11
32.4791100495
 21
19.6087633579
  0
LINE
  5
21E
100
AcDbEntity
  8
0
100
AcDbLine
 62
7
  6
CONTINUOUS
 10
16.9291100495
 20
53.0207564407
 11
17.4790908387
 21
54.9528833487
  0
LINE
  5
21F
100
AcDbEntity
  8
0
100
AcDbLine
 62
7
  6
CONTINUOUS
 10
18.6324871636
 20
52.0091553567
 11
18.7410393106
 21
52.2894585108
  0
LINE
  5
220
100
AcDbEntity
  8
0
100
AcDbLine
 62
7
  6
CONTINUOUS
 10
27.1006838912
 20
48.8442286364
 11
31.1791528425
 21
50.421751144
  0
LINE
  5
221
100
AcDbEntity
  8
0
100
AcDbLine
 62
7
  6
CONTINUOUS
 10
25.8791100495
 20
47.1679978997
 11
31.5791100495
 21
49.1175127166
  0
LINE
  5
222
100
AcDbEntity
  8
0
100
AcDbLine
 62
7
  6
CONTINUOUS
 10
22.2647506956
 20
21.3294862235
 11
22.8791100495
 21
21.3294862235
  0
LINE
  5
223
100
AcDbEntity
  8
0
100
AcDbLine
 62
7
  6
CONTINUOUS
 10
24.6791100495
 20
21.7942475827
 11
27.9791100495
 21
21.7942475827
  0
LINE
  5
224
100
AcDbEntity
  8
0
100
AcDbLine
 62
7
  6
CONTINUOUS
 10
27.9791100495
 20
21.9137447891
 11
19.2291100495
 21
21.9137447891
  0
LINE
  5
225
100
AcDbEntity
  8
0
100
AcDbLine
 62
7
  6
CONTINUOUS
 10
22.9791100495
 20
21.335916635
 11
22.8791724698
 21
21.3367727534
  0
LINE
  5
226
100
AcDbEntity
  8
0
100
AcDbLine
 62
7
  6
CONTINUOUS
 10
22.2431720137
 20
21.3422210708
 11
17.4791100495
 21
21.3830325536
  0
LINE
  5
227
100
AcDbEntity
  8
0
100
AcDbLine
 62
7
  6
CONTINUOUS
 10
17.4791100495
 20
21.4273538983
 11
22.9791100495
 21
21.3805863053
  0
LINE
  5
228
100
AcDbEntity
  8
0
100
AcDbLine
 62
7
  6
CONTINUOUS
 10
24.6791100495
 20
21.8047854234
 11
19.2291100495
 21
21.8511278565
  0
LINE
  5
229
100
AcDbEntity
  8
0
100
AcDbLine
 62
7
  6
CONTINUOUS
 10
22.9791100495
 20
21.0862722033
 11
24.6791100495
 21
21.0711074003
  0
LINE
  5
22A
100
AcDbEntity
  8
0
100
AcDbLine
 62
7
  6
CONTINUOUS
 10
19.2291100495
 20
21.9137447891
 11
18.4791100495
 21
22.0824580799
  0
LINE
  5
22B
100
AcDbEntity
  8
0
100
AcDbLine
 62
7
  6
CONTINUOUS
 10
18.4791100495
 20
22.0262185463
 11
19.2291100495
 21
21.8511278565
  0
LINE
  5
22C
100
AcDbEntity
  8
0
100
AcDbLine
 62
7
  6
CONTINUOUS
 10
32.4791100495
 20
48.2253308456
 11
26.8791100495
 21
46.310018043
  0
LINE
  5
22D
100
AcDbEntity
  8
0
100
AcDbLine
 62
7
  6
CONTINUOUS
 10
27.9791100495
 20
23.1824433573
 11
32.4791100495
 21
23.1824433573
  0
LINE
  5
22E
100
AcDbEntity
  8
0
100
AcDbLine
 62
7
  6
CONTINUOUS
 10
32.4791100495
 20
23.33151174
 11
18.4791100495
 21
23.33151174
  0
LINE
  5
22F
100
AcDbEntity
  8
0
100
AcDbLine
 62
7
  6
CONTINUOUS
 10
30.5791100495
 20
23.4779057539
 11
32.4791100495
 21
23.4779057539
  0
LINE
  5
230
100
AcDbEntity
  8
0
100
AcDbLine
 62
7
  6
CONTINUOUS
 10
18.4791100495
 20
23.3315075037
 11
17.4791100495
 21
23.3400107024
  0
LINE
  5
231
100
AcDbEntity
  8
0
100
AcDbLine
 62
7
  6
CONTINUOUS
 10
22.1664546779
 20
21.3874964754
 11
22.2647506956
 21
21.3294862235
  0
LINE
  5
232
100
AcDbEntity
  8
0
100
AcDbLine
 62
7
  6
CONTINUOUS
 10
15.4791100495
 20
45.9463662203
 11
15.4791100495
 21
52.8201856169
  0
LINE
  5
233
100
AcDbEntity
  8
0
100
AcDbLine
 62
7
  6
CONTINUOUS
 10
16.2791100495
 20
49.4463662203
 11
16.2791100495
 21
48.0463662203
  0
LINE
  5
234
100
AcDbEntity
  8
0
100
AcDbLine
 62
7
  6
CONTINUOUS
 10
30.5791100495
 20
45.4614080372
 11
26.8791100495
 21
44.0282906145
  0
LINE
  5
235
100
AcDbEntity
  8
0
100
AcDbLine
 62
7
  6
CONTINUOUS
 10
30.5791100495
 20
44.6334432594
 11
32.4791100495
 21
45.3693684223
  0
LINE
  5
236
100
AcDbEntity
  8
0
100
AcDbLine
 62
7
  6
CONTINUOUS
 10
32.4791100495
 20
25.1463662203
 11
32.9791100495
 21
25.1463662203
  0
LINE
  5
237
100
AcDbEntity
  8
0
100
AcDbLine
 62
7
  6
CONTINUOUS
 10
30.5791100495
 20
25.8332058398
 11
18.4791100495
 21
25.8332058398
  0
LINE
  5
238
100
AcDbEntity
  8
0
100
AcDbLine
 62
7
  6
CONTINUOUS
 10
17.4791100495
 20
25.8362492293
 11
18.4791100495
 21
25.8332040242
  0
LINE
  5
239
100
AcDbEntity
  8
0
100
AcDbLine
 62
7
  6
CONTINUOUS
 10
16.9291100495
 20
42.7902193935
 11
16.9291100495
 21
32.8863662203
  0
LINE
  5
23A
100
AcDbEntity
  8
0
100
AcDbLine
 62
7
  6
CONTINUOUS
 10
16.9291100495
 20
46.039530531
 11
16.9291100495
 21
53.0207564407
  0
LINE
  5
23B
100
AcDbEntity
  8
0
100
AcDbLine
 62
7
  6
CONTINUOUS
 10
17.4791100495
 20
61.0359501597
 11
17.4791100495
 21
54.9528833487
  0
LINE
  5
23C
100
AcDbEntity
  8
0
100
AcDbLine
 62
7
  6
CONTINUOUS
 10
17.4791100495
 20
21.3830325536
 11
17.4791100495
 21
31.706887414
  0
LINE
  5
23D
100
AcDbEntity
  8
0
100
AcDbLine
 62
7
  6
CONTINUOUS
 10
17.4791100495
 20
42.7899852228
 11
17.4791100495
 21
46.039530531
  0
LINE
  5
23E
100
AcDbEntity
  8
0
100
AcDbLine
 62
7
  6
CONTINUOUS
 10
18.4791100495
 20
22.0262185463
 11
18.4791100495
 21
29.5623804935
  0
LINE
  5
23F
100
AcDbEntity
  8
0
100
AcDbLine
 62
7
  6
CONTINUOUS
 10
18.7299371082
 20
51.6276283097
 11
18.7291100495
 21
51.5346903944
  0
LINE
  5
240
100
AcDbEntity
  8
0
100
AcDbLine
 62
7
  6
CONTINUOUS
 10
18.7788435423
 20
54.5340722022
 11
18.7298926456
 21
51.6276289835
  0
LINE
  5
241
100
AcDbEntity
  8
0
100
AcDbLine
 62
7
  6
CONTINUOUS
 10
18.7982578466
 20
54.911707923
 11
18.8040363292
 21
55.2537280663
  0
LINE
  5
242
100
AcDbEntity
  8
0
100
AcDbLine
 62
7
  6
CONTINUOUS
 10
18.8040363292
 20
54.3140354456
 11
18.7982578466
 21
53.9720153022
  0
LINE
  5
243
100
AcDbEntity
  8
0
100
AcDbLine
 62
7
  6
CONTINUOUS
 10
32.9791100495
 20
26.991315862
 11
32.4791100495
 21
26.991315862
  0
LINE
  5
244
100
AcDbEntity
  8
0
100
AcDbLine
 62
7
  6
CONTINUOUS
 10
18.4791100495
 20
27.2608354642
 11
30.5791100495
 21
27.2608354642
  0
LINE
  5
245
100
AcDbEntity
  8
0
100
AcDbLine
 62
7
  6
CONTINUOUS
 10
25.9791100495
 20
27.2863662203
 11
24.9791100495
 21
27.2863662203
  0
LINE
  5
246
100
AcDbEntity
  8
0
100
AcDbLine
 62
7
  6
CONTINUOUS
 10
17.4791100495
 20
27.2627930527
 11
18.4791100495
 21
27.2582076392
  0
LINE
  5
247
100
AcDbEntity
  8
0
100
AcDbLine
 62
7
  6
CONTINUOUS
 10
18.561186853
 20
29.3863662203
 11
16.9291100495
 21
32.8863662203
  0
LINE
  5
248
100
AcDbEntity
  8
0
100
AcDbLine
 62
7
  6
CONTINUOUS
 10
19.2291100495
 20
21.8511278565
 11
19.2291100495
 21
21.9137447891
  0
LINE
  5
249
100
AcDbEntity
  8
0
100
AcDbLine
 62
7
  6
CONTINUOUS
 10
19.7491100495
 20
55.2537280663
 11
19.7491100495
 21
54.3140354456
  0
LINE
  5
24A
100
AcDbEntity
  8
0
100
AcDbLine
 62
7
  6
CONTINUOUS
 10
18.7780670764
 20
54.4418616126
 11
18.7788435994
 21
54.5340722014
  0
LINE
  5
24B
100
AcDbEntity
  8
0
100
AcDbLine
 62
7
  6
CONTINUOUS
 10
25.9791100495
 20
29.1084207288
 11
24.9791100495
 21
29.1084207288
  0
LINE
  5
24C
100
AcDbEntity
  8
0
100
AcDbLine
 62
7
  6
CONTINUOUS
 10
18.561186853
 20
29.3863662203
 11
24.9791100495
 21
29.3863662203
  0
LINE
  5
24D
100
AcDbEntity
  8
0
100
AcDbLine
 62
7
  6
CONTINUOUS
 10
22.2647506956
 20
21.3866606449
 11
22.2647506956
 21
21.3294862235
  0
LINE
  5
24E
100
AcDbEntity
  8
0
100
AcDbLine
 62
7
  6
CONTINUOUS
 10
20.8460098205
 20
52.749573329
 11
20.8459951866
 21
52.7441894208
  0
LINE
  5
24F
100
AcDbEntity
  8
0
100
AcDbLine
 62
7
  6
CONTINUOUS
 10
32.4791100495
 20
30.3463662203
 11
32.9791100495
 21
30.3463662203
  0
LINE
  5
250
100
AcDbEntity
  8
0
100
AcDbLine
 62
7
  6
CONTINUOUS
 10
22.8791100495
 20
21.3294862235
 11
22.8791100495
 21
21.3814366252
  0
LINE
  5
251
100
AcDbEntity
  8
0
100
AcDbLine
 62
7
  6
CONTINUOUS
 10
22.9791100495
 20
21.3805863053
 11
22.9791100495
 21
21.0862722033
  0
LINE
  5
252
100
AcDbEntity
  8
0
100
AcDbLine
 62
7
  6
CONTINUOUS
 10
23.0791100495
 20
42.7876009388
 11
23.0791100495
 21
46.3360056907
  0
LINE
  5
253
100
AcDbEntity
  8
0
100
AcDbLine
 62
7
  6
CONTINUOUS
 10
23.7791100495
 20
60.9269128858
 11
23.7791100495
 21
60.4365051825
  0
LINE
  5
254
100
AcDbEntity
  8
0
100
AcDbLine
 62
7
  6
CONTINUOUS
 10
24.0791100495
 20
47.2099246155
 11
24.0791100495
 21
45.1785452877
  0
LINE
  5
255
100
AcDbEntity
  8
0
100
AcDbLine
 62
7
  6
CONTINUOUS
 10
24.2291100495
 20
45.7040510186
 11
24.2291100495
 21
45.1794407852
  0
LINE
  5
256
100
AcDbEntity
  8
0
100
AcDbLine
 62
7
  6
CONTINUOUS
 10
24.4791100495
 20
61.5840938349
 11
24.4791100495
 21
61.1142475245
  0
LINE
  5
257
100
AcDbEntity
  8
0
100
AcDbLine
 62
7
  6
CONTINUOUS
 10
24.2753626796
 20
48.4892836543
 11
24.2713090395
 21
46.3747297625
  0
LINE
  5
258
100
AcDbEntity
  8
0
100
AcDbLine
 62
7
  6
CONTINUOUS
 10
24.2713090395
 20
46.3747297625
 11
24.2514960463
 21
45.1795744293
  0
LINE
  5
259
100
AcDbEntity
  8
0
100
AcDbLine
 62
7
  6
CONTINUOUS
 10
25.6869110594
 20
46.3747297625
 11
25.7066365298
 21
45.1848539699
  0
LINE
  5
25A
100
AcDbEntity
  8
0
100
AcDbLine
 62
7
  6
CONTINUOUS
 10
25.6869110594
 20
46.3747297625
 11
25.6828574194
 21
48.4892836543
  0
LINE
  5
25B
100
AcDbEntity
  8
0
100
AcDbLine
 62
7
  6
CONTINUOUS
 10
24.6791100495
 20
21.0711074003
 11
24.6791100495
 21
21.9137447891
  0
LINE
  5
25C
100
AcDbEntity
  8
0
100
AcDbLine
 62
7
  6
CONTINUOUS
 10
24.9791100495
 20
45.1848539699
 11
24.9791100495
 21
42.7885181747
  0
LINE
  5
25D
100
AcDbEntity
  8
0
100
AcDbLine
 62
7
  6
CONTINUOUS
 10
24.9791100495
 20
29.3863662203
 11
24.9791100495
 21
27.2863662203
  0
LINE
  5
25E
100
AcDbEntity
  8
0
100
AcDbLine
 62
7
  6
CONTINUOUS
 10
25.7291100495
 20
45.7040510186
 11
25.7291100495
 21
45.1848539699
  0
LINE
  5
25F
100
AcDbEntity
  8
0
100
AcDbLine
 62
7
  6
CONTINUOUS
 10
25.8791100495
 20
47.1679978997
 11
25.8791100495
 21
45.1848539699
  0
LINE
  5
260
100
AcDbEntity
  8
0
100
AcDbLine
 62
7
  6
CONTINUOUS
 10
25.9791100495
 20
27.2863662203
 11
25.9791100495
 21
44.2921459801
  0
LINE
  5
261
100
AcDbEntity
  8
0
100
AcDbLine
 62
7
  6
CONTINUOUS
 10
25.9791100495
 20
34.3863662203
 11
30.5791100495
 21
34.3863662203
  0
LINE
  5
262
100
AcDbEntity
  8
0
100
AcDbLine
 62
7
  6
CONTINUOUS
 10
25.9791100495
 20
34.580903828
 11
27.1791100495
 21
34.580903828
  0
LINE
  5
263
100
AcDbEntity
  8
0
100
AcDbLine
 62
7
  6
CONTINUOUS
 10
27.1006838912
 20
48.8442286364
 11
27.1078119583
 21
47.5882387026
  0
LINE
  5
264
100
AcDbEntity
  8
0
100
AcDbLine
 62
7
  6
CONTINUOUS
 10
26.5524027088
 20
50.4416137684
 11
26.5524027088
 21
50.3313555693
  0
LINE
  5
265
100
AcDbEntity
  8
0
100
AcDbLine
 62
7
  6
CONTINUOUS
 10
26.8791100495
 20
42.2583635489
 11
26.8791100495
 21
46.310018043
  0
LINE
  5
266
100
AcDbEntity
  8
0
100
AcDbLine
 62
7
  6
CONTINUOUS
 10
27.1791100495
 20
42.2593164449
 11
27.1791100495
 21
34.580903828
  0
LINE
  5
267
100
AcDbEntity
  8
0
100
AcDbLine
 62
7
  6
CONTINUOUS
 10
27.9791100495
 20
5.3463662203
 11
27.9791100495
 21
23.1824433573
  0
LINE
  5
268
100
AcDbEntity
  8
0
100
AcDbLine
 62
7
  6
CONTINUOUS
 10
29.4475140782
 20
51.448545603
 11
29.4475140782
 21
51.5589993551
  0
LINE
  5
269
100
AcDbEntity
  8
0
100
AcDbLine
 62
7
  6
CONTINUOUS
 10
29.5791100495
 20
51.6132114476
 11
29.5791100495
 21
54.783881756
  0
LINE
  5
26A
100
AcDbEntity
  8
0
100
AcDbLine
 62
7
  6
CONTINUOUS
 10
29.6791100495
 20
54.783881756
 11
29.6791100495
 21
51.5381252619
  0
LINE
  5
26B
100
AcDbEntity
  8
0
100
AcDbLine
 62
7
  6
CONTINUOUS
 10
30.2091100495
 20
54.3140354456
 11
30.2091100495
 21
55.2537280663
  0
LINE
  5
26C
100
AcDbEntity
  8
0
100
AcDbLine
 62
7
  6
CONTINUOUS
 10
20.8479123531
 20
52.7454692977
 11
20.8460098205
 21
52.749573329
  0
LINE
  5
26D
100
AcDbEntity
  8
0
100
AcDbLine
 62
7
  6
CONTINUOUS
 10
31.1541837698
 20
55.2537280663
 11
31.1599622524
 21
54.911707923
  0
LINE
  5
26E
100
AcDbEntity
  8
0
100
AcDbLine
 62
7
  6
CONTINUOUS
 10
31.1801530226
 20
53.9720153022
 11
31.1743933724
 21
54.3140354456
  0
LINE
  5
26F
100
AcDbEntity
  8
0
100
AcDbLine
 62
7
  6
CONTINUOUS
 10
31.2291100495
 20
51.5346903944
 11
31.1823033837
 21
54.3141686509
  0
LINE
  5
270
100
AcDbEntity
  8
0
100
AcDbLine
 62
7
  6
CONTINUOUS
 10
31.1830799956
 20
54.3141817474
 11
31.2283274534
 21
51.6276289835
  0
LINE
  5
271
100
AcDbEntity
  8
0
100
AcDbLine
 62
7
  6
CONTINUOUS
 10
31.2030180571
 20
48.9888816795
 11
31.1791528425
 21
50.421751144
  0
LINE
  5
272
100
AcDbEntity
  8
0
100
AcDbLine
 62
7
  6
CONTINUOUS
 10
31.2291100495
 20
51.5346903944
 11
31.2282781906
 21
51.6276282351
  0
LINE
  5
273
100
AcDbEntity
  8
0
100
AcDbLine
 62
7
  6
CONTINUOUS
 10
31.1793764996
 20
54.5340722014
 11
31.1801530226
 21
54.4418616126
  0
LINE
  5
274
100
AcDbEntity
  8
0
100
AcDbLine
 62
7
  6
CONTINUOUS
 10
31.1791528425
 20
50.421751144
 11
31.1743933724
 21
52.9044965144
  0
LINE
  5
275
100
AcDbEntity
  8
0
100
AcDbLine
 62
7
  6
CONTINUOUS
 10
30.5791100495
 20
23.4779057539
 11
30.5791100495
 21
45.4614080372
  0
LINE
  5
276
100
AcDbEntity
  8
0
100
AcDbLine
 62
7
  6
CONTINUOUS
 10
30.6791100495
 20
14.7463662203
 11
30.6791100495
 21
5.3463662203
  0
LINE
  5
277
100
AcDbEntity
  8
0
100
AcDbLine
 62
7
  6
CONTINUOUS
 10
31.1743933724
 20
52.9044965144
 11
31.1743933724
 21
54.3140354456
  0
LINE
  5
278
100
AcDbEntity
  8
0
100
AcDbLine
 62
7
  6
CONTINUOUS
 10
31.1801530226
 20
53.9720153022
 11
31.1801530226
 21
54.4418616126
  0
LINE
  5
279
100
AcDbEntity
  8
0
100
AcDbLine
 62
7
  6
CONTINUOUS
 10
31.2291100495
 20
48.9978056665
 11
31.2291100495
 21
51.5346903944
  0
LINE
  5
27A
100
AcDbEntity
  8
0
100
AcDbLine
 62
7
  6
CONTINUOUS
 10
31.4791100495
 20
49.0833107023
 11
31.4791100495
 21
51.1865157729
  0
LINE
  5
27B
100
AcDbEntity
  8
0
100
AcDbLine
 62
7
  6
CONTINUOUS
 10
31.5791100495
 20
53.3601797707
 11
31.5791100495
 21
49.1175127166
  0
LINE
  5
27C
100
AcDbEntity
  8
0
100
AcDbLine
 62
7
  6
CONTINUOUS
 10
31.8791100495
 20
56.5354453541
 11
31.8791100495
 21
61.6668653349
  0
LWPOLYLINE
  5
27D
100
AcDbEntity
  8
0
100
AcDbPolyline
 62
7
  6
CONTINUOUS
 90
3
 70
0
 10
19.8015899241
 20
45.297386237
 10
19.2226667147
 20
45.7341757176
 10
18.9784338842
 20
46.039530531
  0
LINE
  5
27E
100
AcDbEntity
  8
0
100
AcDbLine
 62
7
  6
CONTINUOUS
 10
20.8484576099
 20
52.7457222286
 11
20.8460098205
 21
52.749573329
  0
LWPOLYLINE
  5
27F
100
AcDbEntity
  8
0
100
AcDbPolyline
 62
7
  6
CONTINUOUS
 90
3
 70
0
 10
20.8460077689
 20
52.7441650905
 10
21.1516014816
 20
52.1811714149
 10
21.9392535648
 20
51.2409324809
  0
LINE
  5
280
100
AcDbEntity
  8
0
100
AcDbLine
 62
7
  6
CONTINUOUS
 10
32.4809364267
 20
48.2254906329
 11
32.6291100495
 21
46.5318583749
  0
LINE
  5
281
100
AcDbEntity
  8
0
100
AcDbLine
 62
7
  6
CONTINUOUS
 10
32.4791100495
 20
14.7463662203
 11
32.4791100495
 21
59.7773848958
  0
LINE
  5
282
100
AcDbEntity
  8
0
100
AcDbLine
 62
7
  6
CONTINUOUS
 10
32.6291100495
 20
30.3463662203
 11
32.6291100495
 21
46.5318583749
  0
LINE
  5
283
100
AcDbEntity
  8
0
100
AcDbLine
 62
7
  6
CONTINUOUS
 10
32.9791100495
 20
25.1463662203
 11
32.9791100495
 21
30.3463662203
  0
LINE
  5
284
100
AcDbEntity
  8
0
100
AcDbLine
 62
7
  6
CONTINUOUS
 10
27.1791100495
 20
42.2593164449
 11
26.8791100495
 21
42.2583635489
  0
LINE
  5
285
100
AcDbEntity
  8
0
100
AcDbLine
 62
7
  6
CONTINUOUS
 10
16.9291100495
 20
42.7902193935
 11
25.9791100495
 21
42.7863662203
  0
LINE
  5
286
100
AcDbEntity
  8
0
100
AcDbLine
 62
7
  6
CONTINUOUS
 10
21.2036730153
 20
45.3148607614
 11
17.4791100495
 21
45.2684405691
  0
LINE
  5
287
100
AcDbEntity
  8
0
100
AcDbLine
 62
7
  6
CONTINUOUS
 10
24.9791100495
 20
45.1839182731
 11
24.0791100495
 21
45.1785452877
  0
LINE
  5
288
100
AcDbEntity
  8
0
100
AcDbLine
 62
7
  6
CONTINUOUS
 10
25.9791100495
 20
44.2921459801
 11
26.8791100495
 21
44.2921459801
  0
LINE
  5
289
100
AcDbEntity
  8
0
100
AcDbLine
 62
7
  6
CONTINUOUS
 10
25.8791100495
 20
45.1848539699
 11
24.9791100495
 21
45.1848539699
  0
LINE
  5
28A
100
AcDbEntity
  8
0
100
AcDbLine
 62
7
  6
CONTINUOUS
 10
24.9791100495
 20
44.2848911882
 11
23.0791100495
 21
44.2891293081
  0
LINE
  5
28B
100
AcDbEntity
  8
0
100
AcDbLine
 62
7
  6
CONTINUOUS
 10
31.5791100495
 20
53.3601797707
 11
31.1768128372
 21
55.2585236205
  0
LINE
  5
28C
100
AcDbEntity
  8
0
100
AcDbLine
 62
7
  6
CONTINUOUS
 10
16.9291100495
 20
46.2992902903
 11
23.0791100495
 21
46.3360056907
  0
LINE
  5
28D
100
AcDbEntity
  8
0
100
AcDbLine
 62
7
  6
CONTINUOUS
 10
15.4791100495
 20
45.9463662203
 11
17.4791100495
 21
45.9463662203
  0
LINE
  5
28E
100
AcDbEntity
  8
0
100
AcDbLine
 62
7
  6
CONTINUOUS
 10
23.0791100495
 20
46.039530531
 11
16.9291100495
 21
46.039530531
  0
LINE
  5
28F
100
AcDbEntity
  8
0
100
AcDbLine
 62
7
  6
CONTINUOUS
 10
24.2713090395
 20
46.3747297625
 11
25.6869110594
 21
46.3747297625
  0
LINE
  5
290
100
AcDbEntity
  8
0
100
AcDbLine
 62
7
  6
CONTINUOUS
 10
16.2791100495
 20
48.0463662203
 11
16.9291100495
 21
48.0463662203
  0
LINE
  5
291
100
AcDbEntity
  8
0
100
AcDbLine
 62
7
  6
CONTINUOUS
 10
31.5791100495
 20
49.344558118
 11
31.4791100495
 21
49.344558118
  0
LINE
  5
292
100
AcDbEntity
  8
0
100
AcDbLine
 62
7
  6
CONTINUOUS
 10
15.4791100495
 20
49.4463662203
 11
16.9291100495
 21
49.4463662203
  0
LINE
  5
293
100
AcDbEntity
  8
0
100
AcDbLine
 62
7
  6
CONTINUOUS
 10
15.4791100495
 20
52.8201856169
 11
16.9291100495
 21
52.8328395752
  0
LINE
  5
294
100
AcDbEntity
  8
0
100
AcDbLine
 62
7
  6
CONTINUOUS
 10
16.9291100495
 20
51.8463662203
 11
15.4791100495
 21
51.8463662203
  0
LINE
  5
295
100
AcDbEntity
  8
0
100
AcDbLine
 62
7
  6
CONTINUOUS
 10
29.5791100495
 20
52.3906438089
 11
21.1078240424
 21
52.3906438089
  0
LINE
  5
296
100
AcDbEntity
  8
0
100
AcDbLine
 62
7
  6
CONTINUOUS
 10
29.6791100495
 20
52.7958619368
 11
29.5791100495
 21
52.7958619368
  0
LINE
  5
297
100
AcDbEntity
  8
0
100
AcDbLine
 62
7
  6
CONTINUOUS
 10
20.8280534229
 20
52.7958619368
 11
20.7829588627
 21
52.7958619368
  0
LINE
  5
298
100
AcDbEntity
  8
0
100
AcDbLine
 62
7
  6
CONTINUOUS
 10
31.1743933724
 20
52.9044965144
 11
29.6791100495
 21
52.9044965144
  0
LINE
  5
299
100
AcDbEntity
  8
0
100
AcDbLine
 62
7
  6
CONTINUOUS
 10
20.7258759859
 20
52.9044965144
 11
19.1155330311
 21
52.9044965144
  0
LINE
  5
29A
100
AcDbEntity
  8
0
100
AcDbLine
 62
7
  6
CONTINUOUS
 10
20.6257849787
 20
53.3873831743
 11
29.5791100495
 21
53.3873831743
  0
LINE
  5
29B
100
AcDbEntity
  8
0
100
AcDbLine
 62
7
  6
CONTINUOUS
 10
19.7491100495
 20
54.3140354456
 11
18.8040363292
 21
54.3140354456
  0
LINE
  5
29C
100
AcDbEntity
  8
0
100
AcDbLine
 62
7
  6
CONTINUOUS
 10
30.2091100495
 20
54.3140354456
 11
31.1743933724
 21
54.3140354456
  0
LINE
  5
29D
100
AcDbEntity
  8
0
100
AcDbLine
 62
7
  6
CONTINUOUS
 10
18.7982578466
 20
54.911707923
 11
19.7491100495
 21
54.911707923
  0
LINE
  5
29E
100
AcDbEntity
  8
0
100
AcDbLine
 62
7
  6
CONTINUOUS
 10
30.2091100495
 20
54.911707923
 11
31.1599622524
 21
54.911707923
  0
LINE
  5
29F
100
AcDbEntity
  8
0
100
AcDbLine
 62
7
  6
CONTINUOUS
 10
19.7491100495
 20
55.2537280663
 11
18.8040363292
 21
55.2537280663
  0
LINE
  5
2A0
100
AcDbEntity
  8
0
100
AcDbLine
 62
7
  6
CONTINUOUS
 10
30.2091100495
 20
55.2537280663
 11
31.1541837698
 21
55.2537280663
  0
LINE
  5
2A1
100
AcDbEntity
  8
0
100
AcDbLine
 62
7
  6
CONTINUOUS
 10
31.8791100495
 20
58.7585762857
 11
30.0700222358
 21
58.7585762857
  0
LINE
  5
2A2
100
AcDbEntity
  8
0
100
AcDbLine
 62
7
  6
CONTINUOUS
 10
26.2291100495
 20
58.9438130038
 11
23.7291100495
 21
58.9438130038
  0
LINE
  5
2A3
100
AcDbEntity
  8
0
100
AcDbLine
 62
7
  6
CONTINUOUS
 10
31.8791100495
 20
61.0175141223
 11
23.7791100495
 21
60.9269128858
  0
LINE
  5
2A4
100
AcDbEntity
  8
0
100
AcDbLine
 62
7
  6
CONTINUOUS
 10
17.4791100495
 20
61.0359501597
 11
24.4791100495
 21
61.1142475245
  0
LINE
  5
2A5
100
AcDbEntity
  8
0
100
AcDbLine
 62
7
  6
CONTINUOUS
 10
31.8791100495
 20
61.6668653349
 11
24.4791100495
 21
61.5840938349
  0
LINE
  5
2A6
100
AcDbEntity
  8
0
100
AcDbLine
 62
7
  6
CONTINUOUS
 10
27.785807688
 20
59.9557162759
 11
31.8791100495
 21
59.9679338198
  0
LINE
  5
2A7
100
AcDbEntity
  8
0
100
AcDbLine
 62
7
  6
CONTINUOUS
 10
31.8791100495
 20
59.7773848958
 11
32.4791100495
 21
59.7773848958
  0
LINE
  5
2A8
100
AcDbEntity
  8
0
100
AcDbLine
 62
7
  6
CONTINUOUS
 10
27.9688626791
 20
59.8862074307
 11
31.8791100495
 21
59.8862074307
  0
LWPOLYLINE
  5
2A9
100
AcDbEntity
  8
0
100
AcDbPolyline
 62
7
  6
CONTINUOUS
 90
5
 70
0
 10
26.9094206644
 20
60.2884941454
 10
29.170389718
 20
59.4299688085
 10
30.3216118059
 20
58.5708158915
 10
32.0071385252
 20
56.3163710725
 10
32.4791100495
 20
54.9985898395
  0
ARC
  5
2AA
100
AcDbEntity
  8
0
100
AcDbCircle
 62
7
  6
CONTINUOUS
 10
24.9829083546
 20
52.4397323142
 40
8.1558231115
100
AcDbArc
 50
76.1929807451
 51
84.7393351892
  0
ARC
  5
2AB
100
AcDbEntity
  8
0
100
AcDbCircle
 62
7
  6
CONTINUOUS
 10
24.9809951076
 20
52.2904588578
 40
6.6287588726
100
AcDbArc
 50
276.4801494447
 51
277.7917782026
  0
ARC
  5
2AC
100
AcDbEntity
  8
0
100
AcDbCircle
 62
7
  6
CONTINUOUS
 10
24.9763011565
 20
52.2821946732
 40
6.6204432246
100
AcDbArc
 50
262.2010726859
 51
263.5197228608
  0
ARC
  5
2AD
100
AcDbEntity
  8
0
100
AcDbCircle
 62
7
  6
CONTINUOUS
 10
25.6417213983
 20
50.0868715372
 40
5.9402599312
100
AcDbArc
 50
15.4277175161
 51
19.5576107078
  0
ARC
  5
2AE
100
AcDbEntity
  8
0
100
AcDbCircle
 62
7
  6
CONTINUOUS
 10
25.6955117196
 20
50.1017744491
 40
5.8844433366
100
AcDbArc
 50
10.6226855077
 51
15.4271675986
  0
ARC
  5
2AF
100
AcDbEntity
  8
0
100
AcDbCircle
 62
7
  6
CONTINUOUS
 10
24.220926894
 20
53.3211129473
 40
5.8416954108
100
AcDbArc
 50
180.0124566495
 51
197.0949471728
  0
ARC
  5
2B0
100
AcDbEntity
  8
0
100
AcDbCircle
 62
7
  6
CONTINUOUS
 10
25.7375566043
 20
50.1102670984
 40
5.8415534897
100
AcDbArc
 50
0.0070748405
 51
10.6168345532
  0
ARC
  5
2B1
100
AcDbEntity
  8
0
100
AcDbCircle
 62
7
  6
CONTINUOUS
 10
24.3016265806
 20
54.7897698292
 40
5.5181357157
100
AcDbArc
 50
184.9457739437
 51
199.9774577377
  0
ARC
  5
2B2
100
AcDbEntity
  8
0
100
AcDbCircle
 62
7
  6
CONTINUOUS
 10
24.2342393025
 20
51.5346931893
 40
5.505129253
100
AcDbArc
 50
180.0000290891
 51
180.4190393479
  0
ARC
  5
2B3
100
AcDbEntity
  8
0
100
AcDbCircle
 62
7
  6
CONTINUOUS
 10
24.255715872
 20
54.441896383
 40
5.4776487957
100
AcDbArc
 50
180.0003636949
 51
184.9209672475
  0
ARC
  5
2B4
100
AcDbEntity
  8
0
100
AcDbCircle
 62
7
  6
CONTINUOUS
 10
25.7029572571
 20
54.4418451125
 40
5.4771958683
100
AcDbArc
 50
0.9648135461
 51
4.9211833543
  0
ARC
  5
2B5
100
AcDbEntity
  8
0
100
AcDbCircle
 62
7
  6
CONTINUOUS
 10
24.2552628419
 20
54.4418451125
 40
5.4771958683
100
AcDbArc
 50
175.0788166457
 51
179.0351864539
  0
ARC
  5
2B6
100
AcDbEntity
  8
0
100
AcDbCircle
 62
7
  6
CONTINUOUS
 10
24.9791102293
 20
53.9950976934
 40
5.0001185584
100
AcDbArc
 50
83.8585193809
 51
96.1695920276
  0
ARC
  5
2B7
100
AcDbEntity
  8
0
100
AcDbCircle
 62
7
  6
CONTINUOUS
 10
25.2960647454
 20
54.8074835464
 40
4.9028524826
100
AcDbArc
 50
204.8708571677
 51
216.556017763
  0
ARC
  5
2B8
100
AcDbEntity
  8
0
100
AcDbCircle
 62
7
  6
CONTINUOUS
 10
25.2270344901
 20
54.7594994584
 40
4.8188231681
100
AcDbArc
 50
216.5865820334
 51
217.9541445417
  0
ARC
  5
2B9
100
AcDbEntity
  8
0
100
AcDbCircle
 62
7
  6
CONTINUOUS
 10
25.1984057371
 20
54.736909295
 40
4.7823556662
100
AcDbArc
 50
217.9516902145
 51
221.8741689783
  0
ARC
  5
2BA
100
AcDbEntity
  8
0
100
AcDbCircle
 62
7
  6
CONTINUOUS
 10
25.1728333335
 20
54.7143713583
 40
4.7482701387
100
AcDbArc
 50
221.8776377841
 51
223.6459791117
  0
ARC
  5
2BB
100
AcDbEntity
  8
0
100
AcDbCircle
 62
7
  6
CONTINUOUS
 10
25.127772981
 20
54.6700078751
 40
4.6850440573
100
AcDbArc
 50
223.6337306659
 51
230.622603762
  0
ARC
  5
2BC
100
AcDbEntity
  8
0
100
AcDbCircle
 62
7
  6
CONTINUOUS
 10
25.3402455665
 20
54.5090242608
 40
4.3528153118
100
AcDbArc
 50
26.0582207625
 51
35.984334342
  0
ARC
  5
2BD
100
AcDbEntity
  8
0
100
AcDbCircle
 62
7
  6
CONTINUOUS
 10
24.4289340594
 20
54.5784542445
 40
4.1498258907
100
AcDbArc
 50
177.217661937
 51
179.0676449435
  0
ARC
  5
2BE
100
AcDbEntity
  8
0
100
AcDbCircle
 62
7
  6
CONTINUOUS
 10
24.4694445908
 20
54.7867397206
 40
4.0904357009
100
AcDbArc
 50
181.9525860089
 51
200.0049866709
  0
ARC
  5
2BF
100
AcDbEntity
  8
0
100
AcDbCircle
 62
7
  6
CONTINUOUS
 10
24.4410244556
 20
54.6470736756
 40
4.0619144061
100
AcDbArc
 50
179.7146631545
 51
179.9999996754
  0
ARC
  5
2C0
100
AcDbEntity
  8
0
100
AcDbCircle
 62
7
  6
CONTINUOUS
 10
24.4383433006
 20
54.7839181456
 40
4.0592332512
100
AcDbArc
 50
180.0005136374
 51
181.9277403602
  0
ARC
  5
2C1
100
AcDbEntity
  8
0
100
AcDbCircle
 62
7
  6
CONTINUOUS
 10
29.3791100495
 20
51.6132114476
 40
0.2
100
AcDbArc
 50
317.2194238252
 51
360.0
  0
ARC
  5
2C2
100
AcDbEntity
  8
0
100
AcDbCircle
 62
7
  6
CONTINUOUS
 10
29.3956545188
 20
51.6155556398
 40
0.183897777
100
AcDbArc
 50
328.5433075524
 51
332.652673248
  0
SPLINE
  5
2C3
100
AcDbEntity
  8
0
100
AcDbSpline
 62
7
  6
CONTINUOUS
 70
0
 71
3
 72
23
 73
19
 74
0
 42
0.0000001
 43
0.0000001
 44
0.0000000001
 40
0.0
 40
0.0
 40
0.0
 40
0.0
 40
0.0644565299
 40
0.1287323979
 40
0.1927562058
 40
0.2565126273
 40
0.319980361
 40
0.3831400341
 40
0.4459841857
 40
0.508513486
 40
0.5707359252
 40
0.6326679287
 40
0.6943344641
 40
0.7557678515
 40
0.8170033888
 40
0.878086644
 40
0.9390796349
 40
1.0
 40
1.0
 40
1.0
 40
1.0
 10
26.2291100495
 20
58.9438130038
 30
0.0
 10
26.3483908433
 20
58.912163565
 30
0.0
 10
26.5842934064
 20
58.8397796162
 30
0.0
 10
26.9280508901
 20
58.7045458832
 30
0.0
 10
27.2590844526
 20
58.5435930837
 30
0.0
 10
27.5751697151
 20
58.3580106227
 30
0.0
 10
27.8742804937
 20
58.149016447
 30
0.0
 10
28.1544338678
 20
57.9179483459
 30
0.0
 10
28.4137960912
 20
57.6663301155
 30
0.0
 10
28.6506732268
 20
57.3958106839
 30
0.0
 10
28.8634894682
 20
57.1081437938
 30
0.0
 10
29.0508634837
 20
56.8052273974
 30
0.0
 10
29.2115551205
 20
56.4890376554
 30
0.0
 10
29.3444889977
 20
56.161645477
 30
0.0
 10
29.4488197019
 20
55.8252148954
 30
0.0
 10
29.5238398052
 20
55.4819114652
 30
0.0
 10
29.5690277571
 20
55.1340584745
 30
0.0
 10
29.5791100495
 20
54.9005196715
 30
0.0
 10
29.5791100495
 20
54.783881756
 30
0.0
  0
SPLINE
  5
2C4
100
AcDbEntity
  8
0
100
AcDbSpline
 62
7
  6
CONTINUOUS
 70
0
 71
3
 72
23
 73
19
 74
0
 42
0.0000001
 43
0.0000001
 44
0.0000000001
 40
0.0
 40
0.0
 40
0.0
 40
0.0
 40
0.0609203651
 40
0.121913356
 40
0.1829966112
 40
0.2442321485
 40
0.3056655359
 40
0.3673320713
 40
0.4292640748
 40
0.491486514
 40
0.5540158143
 40
0.6168599659
 40
0.680019639
 40
0.7434873727
 40
0.8072437942
 40
0.8712676021
 40
0.9355434701
 40
1.0
 40
1.0
 40
1.0
 40
1.0
 10
20.3791100495
 20
54.783881756
 30
0.0
 10
20.3791100495
 20
54.9005196715
 30
0.0
 10
20.3891923419
 20
55.1340584745
 30
0.0
 10
20.4343802938
 20
55.4819114652
 30
0.0
 10
20.5094003971
 20
55.8252148954
 30
0.0
 10
20.6137311013
 20
56.161645477
 30
0.0
 10
20.7466649785
 20
56.4890376554
 30
0.0
 10
20.9073566153
 20
56.8052273974
 30
0.0
 10
21.0947306308
 20
57.1081437938
 30
0.0
 10
21.3075468722
 20
57.3958106839
 30
0.0
 10
21.5444240078
 20
57.6663301155
 30
0.0
 10
21.8037862312
 20
57.9179483459
 30
0.0
 10
22.0839396053
 20
58.149016447
 30
0.0
 10
22.3830503839
 20
58.3580106227
 30
0.0
 10
22.6991356464
 20
58.5435930837
 30
0.0
 10
23.0301692089
 20
58.7045458832
 30
0.0
 10
23.3739266926
 20
58.8397796162
 30
0.0
 10
23.6098292557
 20
58.912163565
 30
0.0
 10
23.7291100495
 20
58.9438130038
 30
0.0
  0
SPLINE
  5
2C5
100
AcDbEntity
  8
0
100
AcDbSpline
 62
7
  6
CONTINUOUS
 70
0
 71
3
 72
11
 73
7
 74
0
 42
0.0000001
 43
0.0000001
 44
0.0000000001
 40
0.0
 40
0.0
 40
0.0
 40
0.0
 40
0.249091135
 40
0.4985459967
 40
0.748763829
 40
1.0
 40
1.0
 40
1.0
 40
1.0
 10
20.3791125171
 20
54.6470736268
 30
0.0
 10
20.379109389
 20
54.4829014919
 30
0.0
 10
20.3989840763
 20
54.1539779444
 30
0.0
 10
20.4879346029
 20
53.6673960196
 30
0.0
 10
20.6348607385
 20
53.1936027764
 30
0.0
 10
20.7698910475
 20
52.8909506026
 30
0.0
 10
20.8461127493
 20
52.7439508037
 30
0.0
  0
SPLINE
  5
2C6
100
AcDbEntity
  8
0
100
AcDbSpline
 62
7
  6
CONTINUOUS
 70
0
 71
3
 72
9
 73
5
 74
0
 42
0.0000001
 43
0.0000001
 44
0.0000000001
 40
0.0
 40
0.0
 40
0.0
 40
0.0
 40
0.4933485594
 40
1.0
 40
1.0
 40
1.0
 40
1.0
 10
20.6257849787
 20
53.3873831743
 30
0.0
 10
20.688028899
 20
53.2160469588
 30
0.0
 10
20.8333842924
 20
52.8755247223
 30
0.0
 10
21.0108904721
 20
52.5508016338
 30
0.0
 10
21.1078240424
 20
52.3906438089
 30
0.0
  0
SPLINE
  5
2C7
100
AcDbEntity
  8
0
100
AcDbSpline
 62
7
  6
CONTINUOUS
 70
0
 71
3
 72
9
 73
5
 74
0
 42
0.0000001
 43
0.0000001
 44
0.0000000001
 40
0.0
 40
0.0
 40
0.0
 40
0.0
 40
0.5030917519
 40
1.0
 40
1.0
 40
1.0
 40
1.0
 10
29.4992585584
 20
51.4629646679
 30
0.0
 10
29.5099633401
 20
51.470523832
 30
0.0
 10
29.5298123979
 20
51.4876948355
 30
0.0
 10
29.5457716991
 20
51.5085460881
 30
0.0
 10
29.5525257325
 20
51.5195878604
 30
0.0
  0
SPLINE
  5
2C8
100
AcDbEntity
  8
0
100
AcDbSpline
 62
7
  6
CONTINUOUS
 70
0
 71
3
 72
9
 73
5
 74
0
 42
0.0000001
 43
0.0000001
 44
0.0000000001
 40
0.0
 40
0.0
 40
0.0
 40
0.0
 40
0.5016444522
 40
1.0
 40
1.0
 40
1.0
 40
1.0
 10
29.5589995274
 20
51.5310760533
 30
0.0
 10
29.5655407632
 20
51.5437263724
 30
0.0
 10
29.5756649201
 20
51.5705708886
 30
0.0
 10
29.5791100495
 20
51.5990633876
 30
0.0
 10
29.5791100495
 20
51.6132114476
 30
0.0
  0
SPLINE
  5
2C9
100
AcDbEntity
  8
0
100
AcDbSpline
 62
7
  6
CONTINUOUS
 70
0
 71
3
 72
11
 73
7
 74
0
 42
0.0000001
 43
0.0000001
 44
0.0000000001
 40
0.0
 40
0.0
 40
0.0
 40
0.0
 40
0.2489834101
 40
0.4983874838
 40
0.7486092263
 40
1.0
 40
1.0
 40
1.0
 40
1.0
 10
20.3791100495
 20
54.6470736986
 30
0.0
 10
20.3791100495
 20
54.4834247727
 30
0.0
 10
20.3989617019
 20
54.1555093075
 30
0.0
 10
20.4878921891
 20
53.6704068991
 30
0.0
 10
20.6347762146
 20
53.1979527951
 30
0.0
 10
20.7697894889
 20
52.8961741945
 30
0.0
 10
20.8460098205
 20
52.749573329
 30
0.0
  0
SPLINE
  5
2CA
100
AcDbEntity
  8
0
100
AcDbSpline
 62
7
  6
CONTINUOUS
 70
0
 71
3
 72
11
 73
7
 74
0
 42
0.0000001
 43
0.0000001
 44
0.0000000001
 40
0.0
 40
0.0
 40
0.0
 40
0.0
 40
0.2490238667
 40
0.4984857636
 40
0.7487153264
 40
1.0
 40
1.0
 40
1.0
 40
1.0
 10
20.2791100495
 20
54.783881756
 30
0.0
 10
20.2791100495
 20
54.6221707784
 30
0.0
 10
20.2981040659
 20
54.2981517402
 30
0.0
 10
20.383071249
 20
53.8183531805
 30
0.0
 10
20.5236104907
 20
53.3502713777
 30
0.0
 10
20.6528523597
 20
53.0504244705
 30
0.0
 10
20.7258759859
 20
52.9044965144
 30
0.0
  0
SPLINE
  5
2CB
100
AcDbEntity
  8
0
100
AcDbSpline
 62
7
  6
CONTINUOUS
 70
0
 71
3
 72
39
 73
35
 74
0
 42
0.0000001
 43
0.0000001
 44
0.0000000001
 40
0.0
 40
0.0
 40
0.0
 40
0.0
 40
0.0302476933
 40
0.0605694214
 40
0.0909776995
 40
0.1215089085
 40
0.1521855469
 40
0.1830240343
 40
0.2140369219
 40
0.2452297206
 40
0.2766017495
 40
0.3081462012
 40
0.339850473
 40
0.371696825
 40
0.4036626785
 40
0.4357216705
 40
0.467844537
 40
0.4999997677
 40
0.5321549961
 40
0.564277862
 40
0.5963368614
 40
0.6283027289
 40
0.6601490972
 40
0.6918533623
 40
0.7233977693
 40
0.7547697258
 40
0.7859624622
 40
0.8169753293
 40
0.8478138728
 40
0.8784906186
 40
0.9090219358
 40
0.9394303608
 40
0.9697522544
 40
1.0
 40
1.0
 40
1.0
 40
1.0
 10
18.8040363292
 20
55.2537280663
 30
0.0
 10
18.8195519266
 20
55.4338761323
 30
0.0
 10
18.8685807377
 20
55.7933191591
 30
0.0
 10
18.9949969642
 20
56.3231299568
 30
0.0
 10
19.1733550571
 20
56.8396286547
 30
0.0
 10
19.4020463856
 20
57.3382031588
 30
0.0
 10
19.6790588582
 20
57.8146051101
 30
0.0
 10
20.0019987552
 20
58.26468463
 30
0.0
 10
20.3680574362
 20
58.6845351302
 30
0.0
 10
20.774025915
 20
59.0705528349
 30
0.0
 10
21.2163907338
 20
59.4193926272
 30
0.0
 10
21.691319307
 20
59.72803071
 30
0.0
 10
22.1946760353
 20
59.9938364004
 30
0.0
 10
22.722113581
 20
60.2145030463
 30
0.0
 10
23.2690684721
 20
60.3881206436
 30
0.0
 10
23.8308009536
 20
60.5132259919
 30
0.0
 10
24.4024614002
 20
60.5887191207
 30
0.0
 10
24.9791057979
 20
60.6139462425
 30
0.0
 10
25.5557501949
 20
60.5887196415
 30
0.0
 10
26.1274108215
 20
60.5132276599
 30
0.0
 10
26.6891435406
 20
60.3881227298
 30
0.0
 10
27.2360988072
 20
60.2145056293
 30
0.0
 10
27.7635368994
 20
59.9938399143
 30
0.0
 10
28.2668936763
 20
59.7280347326
 30
0.0
 10
28.7418219307
 20
59.4193975644
 30
0.0
 10
29.1841867306
 20
59.0705594776
 30
0.0
 10
29.5901549178
 20
58.6845427938
 30
0.0
 10
29.9562142349
 20
58.2646931044
 30
0.0
 10
30.279155868
 20
57.8146137457
 30
0.0
 10
30.5561694225
 20
57.3382105391
 30
0.0
 10
30.7848628051
 20
56.8396346033
 30
0.0
 10
30.9632221483
 20
56.3231336373
 30
0.0
 10
31.0896389464
 20
55.7933207357
 30
0.0
 10
31.1386681456
 20
55.4338764438
 30
0.0
 10
31.1541837698
 20
55.2537280663
 30
0.0
  0
SPLINE
  5
2CC
100
AcDbEntity
  8
0
100
AcDbSpline
 62
7
  6
CONTINUOUS
 70
0
 71
3
 72
39
 73
35
 74
0
 42
0.0000001
 43
0.0000001
 44
0.0000000001
 40
0.0
 40
0.0
 40
0.0
 40
0.0
 40
0.0302709295
 40
0.0605920141
 40
0.0909795879
 40
0.1214770106
 40
0.1521127892
 40
0.1829090118
 40
0.2138834082
 40
0.2450456827
 40
0.2763983061
 40
0.3079364271
 40
0.3396482392
 40
0.3715157095
 40
0.4035148905
 40
0.435617187
 40
0.4677904306
 40
0.4999996755
 40
0.5322089173
 40
0.5643821606
 40
0.5964844674
 40
0.6284836661
 40
0.6603511568
 40
0.6920629595
 40
0.723601024
 40
0.7549535615
 40
0.7861157684
 40
0.8170901535
 40
0.8478864614
 40
0.8785223867
 40
0.9090199534
 40
0.9394077161
 40
0.969729007
 40
1.0
 40
1.0
 40
1.0
 40
1.0
 10
29.6791100495
 20
54.783881756
 30
0.0
 10
29.6791100495
 20
54.92835426
 30
0.0
 10
29.6639540284
 20
55.2177638562
 30
0.0
 10
29.5961166875
 20
55.6474030475
 30
0.0
 10
29.4837230438
 20
56.0687574114
 30
0.0
 10
29.3279176927
 20
56.4776441771
 30
0.0
 10
29.1302316054
 20
56.8701850518
 30
0.0
 10
28.8925606967
 20
57.2425778246
 30
0.0
 10
28.6172053609
 20
57.5912291105
 30
0.0
 10
28.3068547756
 20
57.9128109942
 30
0.0
 10
27.9644949312
 20
58.2042268273
 30
0.0
 10
27.5934234573
 20
58.4626696212
 30
0.0
 10
27.1972349957
 20
58.685691758
 30
0.0
 10
26.779731666
 20
58.8711439188
 30
0.0
 10
26.3449276937
 20
59.0172430835
 30
0.0
 10
25.8970108365
 20
59.122621928
 30
0.0
 10
25.4402769337
 20
59.1862517733
 30
0.0
 10
24.9791147983
 20
59.2075204306
 30
0.0
 10
24.5179526601
 20
59.1862523862
 30
0.0
 10
24.061218534
 20
59.122623889
 30
0.0
 10
23.6133014039
 20
59.0172455369
 30
0.0
 10
23.178497014
 20
58.8711469626
 30
0.0
 10
22.7609930412
 20
58.6856959021
 30
0.0
 10
22.3648044768
 20
58.4626743506
 30
0.0
 10
21.9937332212
 20
58.2042325663
 30
0.0
 10
21.6513731316
 20
57.9128185604
 30
0.0
 10
21.3410226503
 20
57.591237648
 30
0.0
 10
21.0656664017
 20
57.2425870932
 30
0.0
 10
20.8279935211
 20
56.870194291
 30
0.0
 10
20.6303063349
 20
56.4776519551
 30
0.0
 10
20.4744988586
 20
56.0687635599
 30
0.0
 10
20.362104113
 20
55.6474067798
 30
0.0
 10
20.2942663931
 20
55.2177654357
 30
0.0
 10
20.2791100495
 20
54.9283545631
 30
0.0
 10
20.2791100495
 20
54.783881756
 30
0.0
  0
LINE
  5
2CD
100
AcDbEntity
  8
0
100
AcDbLine
 62
7
  6
CONTINUOUS
 10
24.2753626796
 20
48.4892836543
 11
24.2291100495
 21
45.7040510186
  0
LINE
  5
2CE
100
AcDbEntity
  8
0
100
AcDbLine
 62
7
  6
CONTINUOUS
 10
25.7291100495
 20
45.7040510186
 11
25.6828574194
 21
48.4892836543
  0
SPLINE
  5
2CF
100
AcDbEntity
  8
0
100
AcDbSpline
 62
7
  6
CONTINUOUS
 70
0
 71
3
 72
11
 73
7
 74
0
 42
0.0000001
 43
0.0000001
 44
0.0000000001
 40
0.0
 40
0.0
 40
0.0
 40
0.0
 40
0.2491005925
 40
0.4986091428
 40
0.7488069429
 40
1.0
 40
1.0
 40
1.0
 40
1.0
 10
20.2840001982
 20
54.7798945806
 30
0.0
 10
20.2908836694
 20
54.9215528017
 30
0.0
 10
20.3191923624
 20
55.2046083492
 30
0.0
 10
20.404901769
 20
55.6229669881
 30
0.0
 10
20.5330139706
 20
56.0315875067
 30
0.0
 10
20.6456920589
 20
56.2944924047
 30
0.0
 10
20.7085210623
 20
56.4229692316
 30
0.0
  0
SPLINE
  5
2D0
100
AcDbEntity
  8
0
100
AcDbSpline
 62
7
  6
CONTINUOUS
 70
0
 71
3
 72
11
 73
7
 74
0
 42
0.0000001
 43
0.0000001
 44
0.0000000001
 40
0.0
 40
0.0
 40
0.0
 40
0.0
 40
0.2511904619
 40
0.5013876748
 40
0.7508978274
 40
1.0
 40
1.0
 40
1.0
 40
1.0
 10
29.2505890801
 20
56.4211473594
 30
0.0
 10
29.3132830407
 20
56.2927927512
 30
0.0
 10
29.4257193894
 20
56.0301523954
 30
0.0
 10
29.5535571848
 20
55.6219744791
 30
0.0
 10
29.6390891827
 20
55.2040906335
 30
0.0
 10
29.6673462627
 20
54.9213645502
 30
0.0
 10
29.674220977
 20
54.7798714312
 30
0.0
  0
SPLINE
  5
2D1
100
AcDbEntity
  8
0
100
AcDbSpline
 62
7
  6
CONTINUOUS
 70
0
 71
3
 72
15
 73
11
 74
0
 42
0.0000001
 43
0.0000001
 44
0.0000000001
 40
0.0
 40
0.0
 40
0.0
 40
0.0
 40
0.1216331363
 40
0.24406094
 40
0.3674662161
 40
0.4919647697
 40
0.6175808464
 40
0.744228967
 40
0.8717979993
 40
1.0
 40
1.0
 40
1.0
 40
1.0
 10
18.6373237666
 20
51.6039113315
 30
0.0
 10
18.7252899992
 20
51.3175854944
 30
0.0
 10
18.946153465
 20
50.7556770317
 30
0.0
 10
19.4016130619
 20
49.9700025059
 30
0.0
 10
19.9728897932
 20
49.254828752
 30
0.0
 10
20.6478416768
 20
48.6251888521
 30
0.0
 10
21.4123840318
 20
48.0940380465
 30
0.0
 10
22.2506365566
 20
47.6720806096
 30
0.0
 10
23.1450388947
 20
47.3682515024
 30
0.0
 10
23.7657754909
 20
47.2485832629
 30
0.0
 10
24.0791100495
 20
47.2099246155
 30
0.0
  0
SPLINE
  5
2D2
100
AcDbEntity
  8
0
100
AcDbSpline
 62
7
  6
CONTINUOUS
 70
0
 71
3
 72
15
 73
11
 74
0
 42
0.0000001
 43
0.0000001
 44
0.0000000001
 40
0.0
 40
0.0
 40
0.0
 40
0.0
 40
0.1218359999
 40
0.2444663781
 40
0.367984068
 40
0.4925169463
 40
0.6180686945
 40
0.74458823
 40
0.8719607787
 40
1.0
 40
1.0
 40
1.0
 40
1.0
 10
17.4790908387
 20
54.9528833487
 30
0.0
 10
17.5559069239
 20
55.26384255
 30
0.0
 10
17.7539433612
 20
55.8778286628
 30
0.0
 10
18.1756279663
 20
56.7517052275
 30
0.0
 10
18.7156975749
 20
57.5664724232
 30
0.0
 10
19.3643733759
 20
58.3078050513
 30
0.0
 10
20.1104616436
 20
58.9629286822
 30
0.0
 10
20.9409382466
 20
59.5205721483
 30
0.0
 10
21.841173934
 20
59.971044748
 30
0.0
 10
22.4765708335
 20
60.1945233718
 30
0.0
 10
22.8004512936
 20
60.2862350339
 30
0.0
  0
SPLINE
  5
2D3
100
AcDbEntity
  8
0
100
AcDbSpline
 62
7
  6
CONTINUOUS
 70
0
 71
3
 72
9
 73
5
 74
0
 42
0.0000001
 43
0.0000001
 44
0.0000000001
 40
0.0
 40
0.0
 40
0.0
 40
0.0
 40
0.5014417031
 40
1.0
 40
1.0
 40
1.0
 40
1.0
 10
18.8628199476
 20
55.6531105646
 30
0.0
 10
18.704545718
 20
55.2853680351
 30
0.0
 10
18.4615609018
 20
54.5183972297
 30
0.0
 10
18.3792316212
 20
53.7178972302
 30
0.0
 10
18.3792316212
 20
53.3198429069
 30
0.0
  0
ELLIPSE
  5
2D4
100
AcDbEntity
  8
0
100
AcDbEllipse
 62
7
  6
CONTINUOUS
 10
24.9791100495
 20
55.0253072719
 30
0.0
 11
0.0
 21
4.8778647422
 31
0.0
 40
0.9430355787
 41
-4.1418016998
 42
-2.7925268032
  0
ELLIPSE
  5
2D5
100
AcDbEntity
  8
0
100
AcDbEllipse
 62
7
  6
CONTINUOUS
 10
29.3791100495
 20
51.7582903769
 30
0.0
 11
0.0
 21
0.2120810757
 31
0.0
 40
0.9430355787
 41
-2.7925268032
 42
-1.5707963268
  0
ELLIPSE
  5
2D6
100
AcDbEntity
  8
0
100
AcDbEllipse
 62
7
  6
CONTINUOUS
 10
24.9791100495
 20
55.0253077395
 30
0.0
 11
0.0
 21
4.983906379
 31
0.0
 40
0.9430353708
 41
-4.2728393879
 42
-2.791830208
  0
ELLIPSE
  5
2D7
100
AcDbEntity
  8
0
100
AcDbEllipse
 62
7
  6
CONTINUOUS
 10
24.9791100495
 20
55.0119618254
 30
0.0
 11
0.0
 21
6.5652291141
 31
0.0
 40
0.9430334223
 41
-4.3855994992
 42
-3.2555072808
  0
ELLIPSE
  5
2D8
100
AcDbEntity
  8
0
100
AcDbEllipse
 62
7
  6
CONTINUOUS
 10
24.9791100495
 20
55.0119618254
 30
0.0
 11
0.0
 21
6.5652291141
 31
0.0
 40
0.9430334223
 41
-3.0276780264
 42
-2.7918308732
  0
ELLIPSE
  5
2D9
100
AcDbEntity
  8
0
100
AcDbEllipse
 62
7
  6
CONTINUOUS
 10
24.9791100495
 20
52.4684351564
 30
0.0
 11
0.1962939138
 21
8.1921293003
 31
0.0
 40
0.939621102
 41
-3.6285500374
 42
-3.3654256424
  0
ENDSEC
  0
SECTION
  2
OBJECTS
  0
DICTIONARY
  5
C
100
AcDbDictionary
280
0
281
1
  3
ACAD_GROUP
350
D
  3
ACAD_MLINESTYLE
350
17
  3
ACAD_LAYOUT
350
1A
  3
ACAD_PLOTSETTINGS
350
19
  3
ACAD_PLOTSTYLENAME
350
E
  0
DICTIONARY
  5
D
102
{ACAD_REACTORS
330
C
102
}
100
AcDbDictionary
280
0
281
1
  0
ACDBDICTIONARYWDFLT
  5
E
102
{ACAD_REACTORS
330
C
102
}
100
AcDbDictionary
281
1
  3
Normal
350
F
100
AcDbDictionaryWithDefault
340
F
  0
DICTIONARY
  5
17
102
{ACAD_REACTORS
330
C
102
}
100
AcDbDictionary
280
0
281
1
  3
Standard
350
18
  0
DICTIONARY
  5
19
102
{ACAD_REACTORS
330
C
102
}
100
AcDbDictionary
281
1
  0
DICTIONARY
  5
1A
102
{ACAD_REACTORS
330
C
102
}
100
AcDbDictionary
281
1
  3
Model
350
2DA
  3
Layout1
350
2DB
  0
ACDBPLACEHOLDER
  5
F
102
{ACAD_REACTORS
330
E
102
}
  0
MLINESTYLE
  5
18
102
{ACAD_REACTORS
330
17
102
}
100
AcDbMlineStyle
  2
STANDARD
 70
0
  3

 62
256
 51
90.0
 52
90.0
 71
2
 49
0.5
 62
256
  6
BYLAYER
 49
-0.5
 62
256
  6
BYLAYER
  0
LAYOUT
  5
2DA
102
{ACAD_REACTORS
330
1A
102
}
100
AcDbPlotSettings
  1

  2
none_device
  4

  6

 40
0.0
 41
0.0
 42
0.0
 43
0.0
 44
210.0
 45
297.0
 46
0.0
 47
0.0
 48
0.0
 49
0.0
140
0.0
141
0.0
142
1.0
143
1.0
 70
1024
 72
1
 73
0
 74
0
  7

 75
0
147
1.0
148
0.0
149
0.0
100
AcDbLayout
  1
Model
 70
0
 71
0
 10
0.0
 20
0.0
 11
210.0
 21
297.0
 12
0.0
 22
0.0
 32
0.0
 14
0.0
 24
0.0
 34
0.0
 15
0.0
 25
0.0
 35
0.0
146
0.0
 13
0.0
 23
0.0
 33
0.0
 16
1.0
 26
0.0
 36
0.0
 17
0.0
 27
1.0
 37
0.0
 76
0
330
210
345
0
346
0
  0
LAYOUT
  5
2DB
102
{ACAD_REACTORS
330
1A
102
}
100
AcDbPlotSettings
  1

  2
none_device
  4

  6

 40
0.0
 41
0.0
 42
0.0
 43
0.0
 44
210.0
 45
297.0
 46
0.0
 47
0.0
 48
0.0
 49
0.0
140
0.0
141
0.0
142
1.0
143
1.0
 70
0
 72
1
 73
0
 74
0
  7

 75
0
147
1.0
148
0.0
149
0.0
100
AcDbLayout
  1
Layout1
 70
0
 71
1
 10
0.0
 20
0.0
 11
210.0
 21
297.0
 12
0.0
 22
0.0
 32
0.0
 14
0.0
 24
0.0
 34
0.0
 15
0.0
 25
0.0
 35
0.0
146
0.0
 13
0.0
 23
0.0
 33
0.0
 16
1.0
 26
0.0
 36
0.0
 17
0.0
 27
1.0
 37
0.0
 76
0
330
211
345
0
346
0
  0
ENDSEC
  0
EOF
