999
DXF file: C:\Users\sesa63760\Dev\_Creo\CAD\MCADPP0003098_3D-CAD\drw0001_3.dxf
999
Pro/ENGINEER 2019471 by Parametric Technology Corporation
  0
SECTION
  2
HEADER
  9
$ACADVER
  1
AC1024
  9
$DWGCODEPAGE
  3
ANSI_1252
  9
$EXTMAX
 10
160.5359945185
 20
227.0437636761
 30
0.0
  9
$EXTMIN
 10
0.0
 20
0.0
 30
0.0
  9
$LIMMIN
 10
0.0
 20
0.0
  9
$LIMMAX
 10
160.5359945185
 20
227.0437636761
  9
$VIEWCTR
 10
80.2679972592
 20
113.5218818381
  9
$VIEWSIZE
 40
227.0437636761
  9
$CLAYER
  8
0
  9
$LTSCALE
 40
14.7998897804
  9
$CELTYPE
  6
BYLAYER
  9
$DIMSCALE
 40
1.0
  9
$DIMASZ
 40
1.9111427919
  9
$DIMEXO
 40
1.0
  9
$DIMDLI
 40
10.2253783937
  9
$DIMEXE
 40
1.0
  9
$DIMCEN
 40
2.4218001459
  9
$DIMLFAC
 40
1.0
  9
$DIMBLK
  1
_FILLED
  9
$DIMALT
 70
0
  9
$DIMALTF
 40
0.0393700787
  9
$DIMTXT
 40
2.6755999086
  9
$DIMTOL
 70
1
  9
$DIMLIM
 70
0
  9
$DIMTFAC
 40
1.0
  9
$DIMTP
 40
0.01
  9
$DIMTM
 40
0.01
  9
$DIMGAP
 40
0.625
  9
$DIMDSEP
 70
46
  9
$AUNITS
 70
0
  9
$PDMODE
 70
3
  9
$PDSIZE
 40
0.3125
  9
$HANDSEED
  5
341
  9
$TILEMODE
 70
1
  9
$MEASUREMENT
 70
1
  9
$INSUNITS
 70
4
  0
ENDSEC
  0
SECTION
  2
CLASSES
  0
CLASS
  1
ACDBDICTIONARYWDFLT
  2
AcDbDictionaryWithDefault
  3
AutoCAD 2000
 90
0
 91
1
280
0
281
0
  0
CLASS
  1
ACDBPLACEHOLDER
  2
AcDbPlaceHolder
  3
AutoCAD 2000
 90
0
 91
1
280
0
281
0
  0
CLASS
  1
LAYOUT
  2
AcDbLayout
  3
AutoCAD 2000
 90
0
 91
0
280
0
281
0
  0
ENDSEC
  0
SECTION
  2
TABLES
  0
TABLE
  2
VPORT
  5
8
100
AcDbSymbolTable
 70
2
  0
VPORT
  5
1F4
100
AcDbSymbolTableRecord
100
AcDbViewportTableRecord
  2
*ACTIVE
 70
0
 10
0.0
 20
0.0
 11
1.0
 21
1.0
 12
80.2679972592
 22
113.5218818381
 13
0.0
 23
0.0
 14
1.0
 24
1.0
 15
0.0
 25
0.0
 16
0.0
 26
0.0
 36
1.0
 17
0.0
 27
0.0
 37
0.0
 40
227.0437636761
 41
0.7070707071
 42
50.0
 43
0.0
 44
0.0
 50
0.0
 51
0.0
 71
0
 72
100
 73
1
 74
1
 75
0
 76
0
 77
0
 78
0
  0
ENDTAB
  0
TABLE
  2
LTYPE
  5
5
100
AcDbSymbolTable
 70
6
  0
LTYPE
  5
14
100
AcDbSymbolTableRecord
100
AcDbLinetypeTableRecord
  2
BYBLOCK
 70
0
  3

 72
65
 73
0
 40
0.0
  0
LTYPE
  5
15
100
AcDbSymbolTableRecord
100
AcDbLinetypeTableRecord
  2
BYLAYER
 70
0
  3

 72
65
 73
0
 40
0.0
  0
LTYPE
  5
16
100
AcDbSymbolTableRecord
100
AcDbLinetypeTableRecord
  2
CONTINUOUS
 70
64
  3
Solid line
 72
65
 73
0
 40
0.0
  0
LTYPE
  5
1F5
100
AcDbSymbolTableRecord
100
AcDbLinetypeTableRecord
  2
CENTER
 70
64
  3
____ _ ____ _ ____ _ ____ _ ____ _ ____ _ ____
 72
65
 73
4
 40
0.6
 49
0.375
 74
0
 49
-0.075
 74
0
 49
0.075
 74
0
 49
-0.075
 74
0
  0
LTYPE
  5
1F6
100
AcDbSymbolTableRecord
100
AcDbLinetypeTableRecord
  2
HIDDEN
 70
64
  3
- - - - - - - - - - - - - - - - - - - -
 72
65
 73
2
 40
0.2
 49
0.1
 74
0
 49
-0.1
 74
0
  0
LTYPE
  5
1F7
100
AcDbSymbolTableRecord
100
AcDbLinetypeTableRecord
  2
PHANTOM
 70
64
  3
_____ _ _ _____ _ _ _____ _ _ _____
 72
65
 73
6
 40
0.8
 49
0.45
 74
0
 49
-0.05
 74
0
 49
0.1
 74
0
 49
-0.05
 74
0
 49
0.1
 74
0
 49
-0.05
 74
0
  0
LTYPE
  5
1F8
100
AcDbSymbolTableRecord
100
AcDbLinetypeTableRecord
  2
DOT
 70
64
  3
. . . . . . . . . . . . . . . . . . . .
 72
65
 73
2
 40
0.2
 49
0.1
 74
0
 49
-0.1
 74
0
  0
LTYPE
  5
1F9
100
AcDbSymbolTableRecord
100
AcDbLinetypeTableRecord
  2
DASHED
 70
64
  3
- - - - - - - - - - - - - - - - - - - -
 72
65
 73
2
 40
0.2
 49
0.1
 74
0
 49
-0.1
 74
0
  0
ENDTAB
  0
TABLE
  2
LAYER
  5
2
100
AcDbSymbolTable
 70
36
  0
LAYER
  5
10
100
AcDbSymbolTableRecord
100
AcDbLayerTableRecord
  2
0
 70
0
 62
7
  6
CONTINUOUS
370
-3
390
F
  0
LAYER
  5
1FA
100
AcDbSymbolTableRecord
100
AcDbLayerTableRecord
  2
DEFAULT_1
 70
0
 62
7
  6
CENTER
370
-3
390
F
  0
LAYER
  5
1FB
100
AcDbSymbolTableRecord
100
AcDbLayerTableRecord
  2
DEFAULT_2
 70
0
 62
8
  6
HIDDEN
370
-3
390
F
  0
LAYER
  5
1FC
100
AcDbSymbolTableRecord
100
AcDbLayerTableRecord
  2
DEFAULT_3
 70
0
 62
7
  6
PHANTOM
370
-3
390
F
  0
LAYER
  5
1FD
100
AcDbSymbolTableRecord
100
AcDbLayerTableRecord
  2
00_COMPONENTS
 70
0
 62
7
  6
CONTINUOUS
370
-3
390
F
  0
LAYER
  5
1FE
100
AcDbSymbolTableRecord
100
AcDbLayerTableRecord
  2
01_1_DEFAULT_DATUMS
 70
0
 62
7
  6
CONTINUOUS
370
-3
390
F
  0
LAYER
  5
1FF
100
AcDbSymbolTableRecord
100
AcDbLayerTableRecord
  2
01_PLANES
 70
0
 62
7
  6
CONTINUOUS
370
-3
390
F
  0
LAYER
  5
200
100
AcDbSymbolTableRecord
100
AcDbLayerTableRecord
  2
02_COORD_SYS
 70
0
 62
7
  6
CONTINUOUS
370
-3
390
F
  0
LAYER
  5
201
100
AcDbSymbolTableRecord
100
AcDbLayerTableRecord
  2
03_AXES
 70
0
 62
7
  6
CONTINUOUS
370
-3
390
F
  0
LAYER
  5
202
100
AcDbSymbolTableRecord
100
AcDbLayerTableRecord
  2
04_POINTS
 70
0
 62
7
  6
CONTINUOUS
370
-3
390
F
  0
LAYER
  5
203
100
AcDbSymbolTableRecord
100
AcDbLayerTableRecord
  2
05_CURVES
 70
0
 62
7
  6
CONTINUOUS
370
-3
390
F
  0
LAYER
  5
204
100
AcDbSymbolTableRecord
100
AcDbLayerTableRecord
  2
06_SURFS
 70
0
 62
7
  6
CONTINUOUS
370
-3
390
F
  0
LAYER
  5
205
100
AcDbSymbolTableRecord
100
AcDbLayerTableRecord
  2
07_COSMETICS
 70
0
 62
7
  6
CONTINUOUS
370
-3
390
F
  0
LAYER
  5
206
100
AcDbSymbolTableRecord
100
AcDbLayerTableRecord
  2
10_NOTES
 70
0
 62
7
  6
CONTINUOUS
370
-3
390
F
  0
LAYER
  5
207
100
AcDbSymbolTableRecord
100
AcDbLayerTableRecord
  2
11_NOTES_PUB
 70
0
 62
7
  6
CONTINUOUS
370
-3
390
F
  0
LAYER
  5
208
100
AcDbSymbolTableRecord
100
AcDbLayerTableRecord
  2
13_REF_GTOL
 70
0
 62
7
  6
CONTINUOUS
370
-3
390
F
  0
LAYER
  5
209
100
AcDbSymbolTableRecord
100
AcDbLayerTableRecord
  2
16_MISC
 70
0
 62
7
  6
CONTINUOUS
370
-3
390
F
  0
LAYER
  5
20A
100
AcDbSymbolTableRecord
100
AcDbLayerTableRecord
  2
17_NO_PRINT
 70
0
 62
7
  6
CONTINUOUS
370
-3
390
F
  0
LAYER
  5
20B
100
AcDbSymbolTableRecord
100
AcDbLayerTableRecord
  2
18_DATUM_CAMS_JOINTS
 70
0
 62
7
  6
CONTINUOUS
370
-3
390
F
  0
LAYER
  5
20C
100
AcDbSymbolTableRecord
100
AcDbLayerTableRecord
  2
19_DATUM_FUNCTIONAL
 70
0
 62
7
  6
CONTINUOUS
370
-3
390
F
  0
LAYER
  5
20D
100
AcDbSymbolTableRecord
100
AcDbLayerTableRecord
  2
20_DATUM_KINEMATIC_SCHEME
 70
0
 62
7
  6
CONTINUOUS
370
-3
390
F
  0
LAYER
  5
20E
100
AcDbSymbolTableRecord
100
AcDbLayerTableRecord
  2
SHELL6
 70
0
 62
7
  6
CONTINUOUS
370
-3
390
F
  0
ENDTAB
  0
TABLE
  2
STYLE
  5
3
100
AcDbSymbolTable
 70
1
  0
STYLE
  5
11
100
AcDbSymbolTableRecord
100
AcDbTextStyleTableRecord
  2
STANDARD
 70
0
 40
0.0
 41
0.8
 50
0.0
 71
0
 42
0.2
  3
txt
  4

  0
STYLE
  5
20F
100
AcDbSymbolTableRecord
100
AcDbTextStyleTableRecord
  2
TEXTSTYLE_1
 70
0
 40
0.0
 41
0.8
 50
0.0
 71
0
 42
0.2
  3
gdt
  4

  0
ENDTAB
  0
TABLE
  2
VIEW
  5
6
100
AcDbSymbolTable
 70
0
  0
ENDTAB
  0
TABLE
  2
UCS
  5
7
100
AcDbSymbolTable
 70
0
  0
ENDTAB
  0
TABLE
  2
APPID
  5
9
100
AcDbSymbolTable
 70
1
  0
APPID
  5
210
100
AcDbSymbolTableRecord
100
AcDbRegAppTableRecord
  2
ACAD
 70
0
  0
ENDTAB
  0
TABLE
  2
BLOCK_RECORD
  5
1
100
AcDbSymbolTable
 70
0
  0
BLOCK_RECORD
  5
211
100
AcDbSymbolTableRecord
100
AcDbBlockTableRecord
  2
*Model_Space
  0
BLOCK_RECORD
  5
212
100
AcDbSymbolTableRecord
100
AcDbBlockTableRecord
  2
*Paper_Space
  0
BLOCK_RECORD
  5
213
100
AcDbSymbolTableRecord
100
AcDbBlockTableRecord
  2
_FILLED
  0
ENDTAB
  0
TABLE
  2
DIMSTYLE
  5
A
100
AcDbSymbolTable
 70
1
100
AcDbDimStyleTable
 71
0
  0
DIMSTYLE
105
214
100
AcDbSymbolTableRecord
100
AcDbDimStyleTableRecord
  2
STANDARD
 70
0
  3

  4

 40
1.0
 41
1.9111427919
 42
1.0
 43
0.38
 44
1.0
 45
0.0
 46
0.0
 47
0.01
 48
0.01
140
2.6755999086
141
0.09
142
0.0
143
25.4
144
1.0
145
0.0
146
1.0
147
0.625
 71
1
 72
0
 73
0
 74
0
 75
0
 76
0
 77
1
 78
8
 79
2
170
0
171
1
172
0
173
0
174
0
175
0
176
0
177
0
178
0
270
2
179
2
271
2
272
2
273
2
274
2
275
0
280
0
281
0
282
0
283
1
284
8
285
0
286
0
287
3
288
0
340
11
278
46
341
213
342
213
343
213
344
213
  0
ENDTAB
  0
ENDSEC
  0
SECTION
  2
BLOCKS
  0
BLOCK
  5
20
100
AcDbEntity
  8
0
100
AcDbBlockBegin
  2
*Model_Space
 70
0
 10
0.0
 20
0.0
 30
0.0
  3
*Model_Space
  1

  0
ENDBLK
  5
21
100
AcDbEntity
  8
0
100
AcDbBlockEnd
  0
BLOCK
  5
1C
100
AcDbEntity
  8
0
100
AcDbBlockBegin
  2
*Paper_Space
 70
0
 10
0.0
 20
0.0
 30
0.0
  3
*Paper_Space
  1

  0
ENDBLK
  5
1D
100
AcDbEntity
  8
0
100
AcDbBlockEnd
  0
BLOCK
  5
215
100
AcDbEntity
  8
0
100
AcDbBlockBegin
  2
_FILLED
 70
64
 10
0.0
 20
0.0
  3
_FILLED
  1

  0
SOLID
  5
216
100
AcDbEntity
  8
0
  6
BYBLOCK
 62
0
100
AcDbTrace
 10
0.0
 20
0.0
 11
-1.0
 21
0.25
 12
-1.0
 22
-0.25
 13
-1.0
 23
-0.25
  0
ENDBLK
  5
217
100
AcDbEntity
  8
0
  6
BYBLOCK
 62
0
100
AcDbBlockEnd
  0
ENDSEC
  0
SECTION
  2
ENTITIES
  0
LINE
  5
218
100
AcDbEntity
  8
SHELL6
100
AcDbLine
 62
7
  6
CONTINUOUS
 10
18.9911920076
 20
164.8776805252
 11
18.9911920076
 21
63.2776805252
  0
LINE
  5
219
100
AcDbEntity
  8
SHELL6
100
AcDbLine
 62
7
  6
CONTINUOUS
 10
19.0165920076
 20
152.1776805226
 11
19.0165920076
 21
75.9776805277
  0
LINE
  5
21A
100
AcDbEntity
  8
SHELL6
100
AcDbLine
 62
7
  6
CONTINUOUS
 10
26.2301920076
 20
164.8776805226
 11
26.2301920076
 21
153.0983074613
  0
LINE
  5
21B
100
AcDbEntity
  8
SHELL6
100
AcDbLine
 62
7
  6
CONTINUOUS
 10
26.2301920076
 20
144.907053589
 11
26.2301920076
 21
118.1733074613
  0
LINE
  5
21C
100
AcDbEntity
  8
SHELL6
100
AcDbLine
 62
7
  6
CONTINUOUS
 10
26.2301920076
 20
109.982053589
 11
26.2301920076
 21
83.2483074613
  0
LINE
  5
21D
100
AcDbEntity
  8
SHELL6
100
AcDbLine
 62
7
  6
CONTINUOUS
 10
26.2301920076
 20
75.057053589
 11
26.2301920076
 21
63.2776805277
  0
LINE
  5
21E
100
AcDbEntity
  8
SHELL6
100
AcDbLine
 62
7
  6
CONTINUOUS
 10
28.7701920076
 20
79.1526805252
 11
28.7701920076
 21
149.0026805252
  0
LINE
  5
21F
100
AcDbEntity
  8
SHELL6
100
AcDbLine
 62
7
  6
CONTINUOUS
 10
31.6223331268
 20
85.0264305252
 11
32.7680125672
 21
83.0420555252
  0
LINE
  5
220
100
AcDbEntity
  8
SHELL6
100
AcDbLine
 62
7
  6
CONTINUOUS
 10
35.059371448
 20
87.0108055252
 11
36.2050508884
 21
85.0264305252
  0
LINE
  5
221
100
AcDbEntity
  8
SHELL6
100
AcDbLine
 62
7
  6
CONTINUOUS
 10
29.8179420076
 20
79.1526805252
 11
29.8179420076
 21
102.6222805252
  0
LINE
  5
222
100
AcDbEntity
  8
SHELL6
100
AcDbLine
 62
7
  6
CONTINUOUS
 10
32.5039920076
 20
149.0026805252
 11
32.5039920076
 21
125.5330805252
  0
LINE
  5
223
100
AcDbEntity
  8
SHELL6
100
AcDbLine
 62
7
  6
CONTINUOUS
 10
39.9630177982
 20
143.6051805252
 11
36.2968435889
 21
137.2551805252
  0
LINE
  5
224
100
AcDbEntity
  8
SHELL6
100
AcDbLine
 62
7
  6
CONTINUOUS
 10
145.9911920076
 20
63.2776805252
 11
18.9911920076
 21
63.2776805252
  0
LINE
  5
225
100
AcDbEntity
  8
SHELL6
100
AcDbLine
 62
7
  6
CONTINUOUS
 10
31.6223331268
 20
96.7739305252
 11
32.7680125672
 21
94.7895555252
  0
LINE
  5
226
100
AcDbEntity
  8
SHELL6
100
AcDbLine
 62
7
  6
CONTINUOUS
 10
41.3378331268
 20
85.0264305252
 11
42.4835125672
 21
83.0420555252
  0
LINE
  5
227
100
AcDbEntity
  8
SHELL6
100
AcDbLine
 62
7
  6
CONTINUOUS
 10
35.059371448
 20
98.7583055252
 11
36.2050508884
 21
96.7739305252
  0
LINE
  5
228
100
AcDbEntity
  8
SHELL6
100
AcDbLine
 62
7
  6
CONTINUOUS
 10
38.0094420076
 20
79.1526805252
 11
38.0094420076
 21
102.6222805252
  0
LINE
  5
229
100
AcDbEntity
  8
SHELL6
100
AcDbLine
 62
7
  6
CONTINUOUS
 10
39.5334420076
 20
79.1526805252
 11
39.5334420076
 21
102.6222805252
  0
LINE
  5
22A
100
AcDbEntity
  8
SHELL6
100
AcDbLine
 62
7
  6
CONTINUOUS
 10
44.774871448
 20
87.0108055252
 11
45.9205508884
 21
85.0264305252
  0
LINE
  5
22B
100
AcDbEntity
  8
SHELL6
100
AcDbLine
 62
7
  6
CONTINUOUS
 10
41.3378331268
 20
96.7739305252
 11
42.4835125672
 21
94.7895555252
  0
LINE
  5
22C
100
AcDbEntity
  8
SHELL6
100
AcDbLine
 62
7
  6
CONTINUOUS
 10
50.9615404263
 20
137.2551805252
 11
47.295366217
 21
130.9051805252
  0
LINE
  5
22D
100
AcDbEntity
  8
SHELL6
100
AcDbLine
 62
7
  6
CONTINUOUS
 10
145.9911920076
 20
73.4376805252
 11
138.7521920076
 21
73.4376805252
  0
LINE
  5
22E
100
AcDbEntity
  8
SHELL6
100
AcDbLine
 62
7
  6
CONTINUOUS
 10
103.9541920076
 20
73.4376805252
 11
99.8901920076
 21
73.4376805252
  0
LINE
  5
22F
100
AcDbEntity
  8
SHELL6
100
AcDbLine
 62
7
  6
CONTINUOUS
 10
65.0921920076
 20
73.4376805252
 11
61.0281920076
 21
73.4376805252
  0
LINE
  5
230
100
AcDbEntity
  8
SHELL6
100
AcDbLine
 62
7
  6
CONTINUOUS
 10
26.2301920076
 20
73.4376805252
 11
18.9911920076
 21
73.4376805252
  0
LINE
  5
231
100
AcDbEntity
  8
SHELL6
100
AcDbLine
 62
7
  6
CONTINUOUS
 10
19.0165920076
 20
75.9776805277
 11
18.9911920076
 21
75.9776805277
  0
LINE
  5
232
100
AcDbEntity
  8
SHELL6
100
AcDbLine
 62
7
  6
CONTINUOUS
 10
51.0533331268
 20
85.0264305252
 11
52.1990125672
 21
83.0420555252
  0
LINE
  5
233
100
AcDbEntity
  8
SHELL6
100
AcDbLine
 62
7
  6
CONTINUOUS
 10
44.774871448
 20
98.7583055252
 11
45.9205508884
 21
96.7739305252
  0
LINE
  5
234
100
AcDbEntity
  8
SHELL6
100
AcDbLine
 62
7
  6
CONTINUOUS
 10
54.490371448
 20
87.0108055252
 11
55.6360508884
 21
85.0264305252
  0
LINE
  5
235
100
AcDbEntity
  8
SHELL6
100
AcDbLine
 62
7
  6
CONTINUOUS
 10
47.7249420076
 20
79.1526805252
 11
47.7249420076
 21
102.6222805252
  0
LINE
  5
236
100
AcDbEntity
  8
SHELL6
100
AcDbLine
 62
7
  6
CONTINUOUS
 10
49.2489420076
 20
79.1526805252
 11
49.2489420076
 21
102.6222805252
  0
LINE
  5
237
100
AcDbEntity
  8
SHELL6
100
AcDbLine
 62
7
  6
CONTINUOUS
 10
32.7680125672
 20
98.7583055252
 11
31.6223331268
 21
96.7739305252
  0
LINE
  5
238
100
AcDbEntity
  8
SHELL6
100
AcDbLine
 62
7
  6
CONTINUOUS
 10
136.2121920076
 20
79.1526805252
 11
106.4941920076
 21
79.1526805252
  0
LINE
  5
239
100
AcDbEntity
  8
SHELL6
100
AcDbLine
 62
7
  6
CONTINUOUS
 10
97.3501920076
 20
79.1526805252
 11
67.6321920076
 21
79.1526805252
  0
LINE
  5
23A
100
AcDbEntity
  8
SHELL6
100
AcDbLine
 62
7
  6
CONTINUOUS
 10
58.4881920076
 20
79.1526805252
 11
28.7701920076
 21
79.1526805252
  0
LINE
  5
23B
100
AcDbEntity
  8
SHELL6
100
AcDbLine
 62
7
  6
CONTINUOUS
 10
51.0533331268
 20
96.7739305252
 11
52.1990125672
 21
94.7895555252
  0
LINE
  5
23C
100
AcDbEntity
  8
SHELL6
100
AcDbLine
 62
7
  6
CONTINUOUS
 10
54.490371448
 20
98.7583055252
 11
55.6360508884
 21
96.7739305252
  0
LINE
  5
23D
100
AcDbEntity
  8
SHELL6
100
AcDbLine
 62
7
  6
CONTINUOUS
 10
54.7543920076
 20
149.0026805252
 11
54.7543920076
 21
125.5330805252
  0
LINE
  5
23E
100
AcDbEntity
  8
SHELL6
100
AcDbLine
 62
7
  6
CONTINUOUS
 10
36.2050508884
 20
96.7739305252
 11
35.059371448
 21
94.7895555252
  0
LINE
  5
23F
100
AcDbEntity
  8
SHELL6
100
AcDbLine
 62
7
  6
CONTINUOUS
 10
32.7680125672
 20
87.0108055252
 11
31.6223331268
 21
85.0264305252
  0
LINE
  5
240
100
AcDbEntity
  8
SHELL6
100
AcDbLine
 62
7
  6
CONTINUOUS
 10
42.4835125672
 20
98.7583055252
 11
41.3378331268
 21
96.7739305252
  0
LINE
  5
241
100
AcDbEntity
  8
SHELL6
100
AcDbLine
 62
7
  6
CONTINUOUS
 10
132.214371448
 20
83.0420555252
 11
129.9230125672
 21
83.0420555252
  0
LINE
  5
242
100
AcDbEntity
  8
SHELL6
100
AcDbLine
 62
7
  6
CONTINUOUS
 10
122.498871448
 20
83.0420555252
 11
120.2075125672
 21
83.0420555252
  0
LINE
  5
243
100
AcDbEntity
  8
SHELL6
100
AcDbLine
 62
7
  6
CONTINUOUS
 10
112.783371448
 20
83.0420555252
 11
110.4920125672
 21
83.0420555252
  0
LINE
  5
244
100
AcDbEntity
  8
SHELL6
100
AcDbLine
 62
7
  6
CONTINUOUS
 10
93.352371448
 20
83.0420555252
 11
91.0610125672
 21
83.0420555252
  0
LINE
  5
245
100
AcDbEntity
  8
SHELL6
100
AcDbLine
 62
7
  6
CONTINUOUS
 10
83.636871448
 20
83.0420555252
 11
81.3455125672
 21
83.0420555252
  0
LINE
  5
246
100
AcDbEntity
  8
SHELL6
100
AcDbLine
 62
7
  6
CONTINUOUS
 10
73.921371448
 20
83.0420555252
 11
71.6300125672
 21
83.0420555252
  0
LINE
  5
247
100
AcDbEntity
  8
SHELL6
100
AcDbLine
 62
7
  6
CONTINUOUS
 10
54.490371448
 20
83.0420555252
 11
52.1990125672
 21
83.0420555252
  0
LINE
  5
248
100
AcDbEntity
  8
SHELL6
100
AcDbLine
 62
7
  6
CONTINUOUS
 10
44.774871448
 20
83.0420555252
 11
42.4835125672
 21
83.0420555252
  0
LINE
  5
249
100
AcDbEntity
  8
SHELL6
100
AcDbLine
 62
7
  6
CONTINUOUS
 10
35.059371448
 20
83.0420555252
 11
32.7680125672
 21
83.0420555252
  0
LINE
  5
24A
100
AcDbEntity
  8
SHELL6
100
AcDbLine
 62
7
  6
CONTINUOUS
 10
19.0165920076
 20
83.0896805252
 11
18.9911920076
 21
83.0896805252
  0
LINE
  5
24B
100
AcDbEntity
  8
SHELL6
100
AcDbLine
 62
7
  6
CONTINUOUS
 10
136.2121920076
 20
85.5026805252
 11
106.4941920076
 21
85.5026805252
  0
LINE
  5
24C
100
AcDbEntity
  8
SHELL6
100
AcDbLine
 62
7
  6
CONTINUOUS
 10
97.3501920076
 20
85.5026805252
 11
67.6321920076
 21
85.5026805252
  0
LINE
  5
24D
100
AcDbEntity
  8
SHELL6
100
AcDbLine
 62
7
  6
CONTINUOUS
 10
58.4881920076
 20
85.5026805252
 11
28.7701920076
 21
85.5026805252
  0
LINE
  5
24E
100
AcDbEntity
  8
SHELL6
100
AcDbLine
 62
7
  6
CONTINUOUS
 10
132.214371448
 20
87.0108055252
 11
129.9230125672
 21
87.0108055252
  0
LINE
  5
24F
100
AcDbEntity
  8
SHELL6
100
AcDbLine
 62
7
  6
CONTINUOUS
 10
122.498871448
 20
87.0108055252
 11
120.2075125672
 21
87.0108055252
  0
LINE
  5
250
100
AcDbEntity
  8
SHELL6
100
AcDbLine
 62
7
  6
CONTINUOUS
 10
112.783371448
 20
87.0108055252
 11
110.4920125672
 21
87.0108055252
  0
LINE
  5
251
100
AcDbEntity
  8
SHELL6
100
AcDbLine
 62
7
  6
CONTINUOUS
 10
93.352371448
 20
87.0108055252
 11
91.0610125672
 21
87.0108055252
  0
LINE
  5
252
100
AcDbEntity
  8
SHELL6
100
AcDbLine
 62
7
  6
CONTINUOUS
 10
83.636871448
 20
87.0108055252
 11
81.3455125672
 21
87.0108055252
  0
LINE
  5
253
100
AcDbEntity
  8
SHELL6
100
AcDbLine
 62
7
  6
CONTINUOUS
 10
73.921371448
 20
87.0108055252
 11
71.6300125672
 21
87.0108055252
  0
LINE
  5
254
100
AcDbEntity
  8
SHELL6
100
AcDbLine
 62
7
  6
CONTINUOUS
 10
54.490371448
 20
87.0108055252
 11
52.1990125672
 21
87.0108055252
  0
LINE
  5
255
100
AcDbEntity
  8
SHELL6
100
AcDbLine
 62
7
  6
CONTINUOUS
 10
44.774871448
 20
87.0108055252
 11
42.4835125672
 21
87.0108055252
  0
LINE
  5
256
100
AcDbEntity
  8
SHELL6
100
AcDbLine
 62
7
  6
CONTINUOUS
 10
35.059371448
 20
87.0108055252
 11
32.7680125672
 21
87.0108055252
  0
LINE
  5
257
100
AcDbEntity
  8
SHELL6
100
AcDbLine
 62
7
  6
CONTINUOUS
 10
36.2968435889
 20
137.2551805252
 11
39.9630177982
 21
130.9051805252
  0
LINE
  5
258
100
AcDbEntity
  8
SHELL6
100
AcDbLine
 62
7
  6
CONTINUOUS
 10
57.4404420076
 20
79.1526805252
 11
57.4404420076
 21
102.6222805252
  0
LINE
  5
259
100
AcDbEntity
  8
SHELL6
100
AcDbLine
 62
7
  6
CONTINUOUS
 10
58.4881920076
 20
79.1526805252
 11
58.4881920076
 21
149.0026805252
  0
LINE
  5
25A
100
AcDbEntity
  8
SHELL6
100
AcDbLine
 62
7
  6
CONTINUOUS
 10
61.0281920076
 20
75.057053589
 11
61.0281920076
 21
63.2776805252
  0
LINE
  5
25B
100
AcDbEntity
  8
SHELL6
100
AcDbLine
 62
7
  6
CONTINUOUS
 10
61.0281920076
 20
83.2483074613
 11
61.0281920076
 21
109.982053589
  0
LINE
  5
25C
100
AcDbEntity
  8
SHELL6
100
AcDbLine
 62
7
  6
CONTINUOUS
 10
61.0281920076
 20
118.1733074613
 11
61.0281920076
 21
144.907053589
  0
LINE
  5
25D
100
AcDbEntity
  8
SHELL6
100
AcDbLine
 62
7
  6
CONTINUOUS
 10
61.0281920076
 20
153.0983074613
 11
61.0281920076
 21
164.8776805252
  0
LINE
  5
25E
100
AcDbEntity
  8
SHELL6
100
AcDbLine
 62
7
  6
CONTINUOUS
 10
36.2050508884
 20
85.0264305252
 11
35.059371448
 21
83.0420555252
  0
LINE
  5
25F
100
AcDbEntity
  8
SHELL6
100
AcDbLine
 62
7
  6
CONTINUOUS
 10
45.9205508884
 20
96.7739305252
 11
44.774871448
 21
94.7895555252
  0
LINE
  5
260
100
AcDbEntity
  8
SHELL6
100
AcDbLine
 62
7
  6
CONTINUOUS
 10
42.4835125672
 20
87.0108055252
 11
41.3378331268
 21
85.0264305252
  0
LINE
  5
261
100
AcDbEntity
  8
SHELL6
100
AcDbLine
 62
7
  6
CONTINUOUS
 10
135.1644420076
 20
90.8747805252
 11
126.9729420076
 21
90.8747805252
  0
LINE
  5
262
100
AcDbEntity
  8
SHELL6
100
AcDbLine
 62
7
  6
CONTINUOUS
 10
125.4489420076
 20
90.8747805252
 11
117.2574420076
 21
90.8747805252
  0
LINE
  5
263
100
AcDbEntity
  8
SHELL6
100
AcDbLine
 62
7
  6
CONTINUOUS
 10
115.7334420076
 20
90.8747805252
 11
107.5419420076
 21
90.8747805252
  0
LINE
  5
264
100
AcDbEntity
  8
SHELL6
100
AcDbLine
 62
7
  6
CONTINUOUS
 10
96.3024420076
 20
90.8747805252
 11
88.1109420076
 21
90.8747805252
  0
LINE
  5
265
100
AcDbEntity
  8
SHELL6
100
AcDbLine
 62
7
  6
CONTINUOUS
 10
86.5869420076
 20
90.8747805252
 11
78.3954420076
 21
90.8747805252
  0
LINE
  5
266
100
AcDbEntity
  8
SHELL6
100
AcDbLine
 62
7
  6
CONTINUOUS
 10
76.8714420076
 20
90.8747805252
 11
68.6799420076
 21
90.8747805252
  0
LINE
  5
267
100
AcDbEntity
  8
SHELL6
100
AcDbLine
 62
7
  6
CONTINUOUS
 10
57.4404420076
 20
90.8747805252
 11
49.2489420076
 21
90.8747805252
  0
LINE
  5
268
100
AcDbEntity
  8
SHELL6
100
AcDbLine
 62
7
  6
CONTINUOUS
 10
47.7249420076
 20
90.8747805252
 11
39.5334420076
 21
90.8747805252
  0
LINE
  5
269
100
AcDbEntity
  8
SHELL6
100
AcDbLine
 62
7
  6
CONTINUOUS
 10
38.0094420076
 20
90.8747805252
 11
29.8179420076
 21
90.8747805252
  0
LINE
  5
26A
100
AcDbEntity
  8
SHELL6
100
AcDbLine
 62
7
  6
CONTINUOUS
 10
136.2121920076
 20
90.9001805252
 11
106.4941920076
 21
90.9001805252
  0
LINE
  5
26B
100
AcDbEntity
  8
SHELL6
100
AcDbLine
 62
7
  6
CONTINUOUS
 10
97.3501920076
 20
90.9001805252
 11
67.6321920076
 21
90.9001805252
  0
LINE
  5
26C
100
AcDbEntity
  8
SHELL6
100
AcDbLine
 62
7
  6
CONTINUOUS
 10
58.4881920076
 20
90.9001805252
 11
28.7701920076
 21
90.9001805252
  0
LINE
  5
26D
100
AcDbEntity
  8
SHELL6
100
AcDbLine
 62
7
  6
CONTINUOUS
 10
70.4843331268
 20
85.0264305252
 11
71.6300125672
 21
83.0420555252
  0
LINE
  5
26E
100
AcDbEntity
  8
SHELL6
100
AcDbLine
 62
7
  6
CONTINUOUS
 10
65.0921920076
 20
164.8776805226
 11
65.0921920076
 21
153.0983074613
  0
LINE
  5
26F
100
AcDbEntity
  8
SHELL6
100
AcDbLine
 62
7
  6
CONTINUOUS
 10
65.0921920076
 20
144.907053589
 11
65.0921920076
 21
118.1733074613
  0
LINE
  5
270
100
AcDbEntity
  8
SHELL6
100
AcDbLine
 62
7
  6
CONTINUOUS
 10
65.0921920076
 20
109.982053589
 11
65.0921920076
 21
83.2483074613
  0
LINE
  5
271
100
AcDbEntity
  8
SHELL6
100
AcDbLine
 62
7
  6
CONTINUOUS
 10
65.0921920076
 20
75.057053589
 11
65.0921920076
 21
63.2776805277
  0
LINE
  5
272
100
AcDbEntity
  8
SHELL6
100
AcDbLine
 62
7
  6
CONTINUOUS
 10
52.1990125672
 20
98.7583055252
 11
51.0533331268
 21
96.7739305252
  0
LINE
  5
273
100
AcDbEntity
  8
SHELL6
100
AcDbLine
 62
7
  6
CONTINUOUS
 10
78.8250177982
 20
143.6051805252
 11
75.1588435889
 21
137.2551805252
  0
LINE
  5
274
100
AcDbEntity
  8
SHELL6
100
AcDbLine
 62
7
  6
CONTINUOUS
 10
45.9205508884
 20
85.0264305252
 11
44.774871448
 21
83.0420555252
  0
LINE
  5
275
100
AcDbEntity
  8
SHELL6
100
AcDbLine
 62
7
  6
CONTINUOUS
 10
132.214371448
 20
94.7895555252
 11
129.9230125672
 21
94.7895555252
  0
LINE
  5
276
100
AcDbEntity
  8
SHELL6
100
AcDbLine
 62
7
  6
CONTINUOUS
 10
122.498871448
 20
94.7895555252
 11
120.2075125672
 21
94.7895555252
  0
LINE
  5
277
100
AcDbEntity
  8
SHELL6
100
AcDbLine
 62
7
  6
CONTINUOUS
 10
112.783371448
 20
94.7895555252
 11
110.4920125672
 21
94.7895555252
  0
LINE
  5
278
100
AcDbEntity
  8
SHELL6
100
AcDbLine
 62
7
  6
CONTINUOUS
 10
93.352371448
 20
94.7895555252
 11
91.0610125672
 21
94.7895555252
  0
LINE
  5
279
100
AcDbEntity
  8
SHELL6
100
AcDbLine
 62
7
  6
CONTINUOUS
 10
83.636871448
 20
94.7895555252
 11
81.3455125672
 21
94.7895555252
  0
LINE
  5
27A
100
AcDbEntity
  8
SHELL6
100
AcDbLine
 62
7
  6
CONTINUOUS
 10
73.921371448
 20
94.7895555252
 11
71.6300125672
 21
94.7895555252
  0
LINE
  5
27B
100
AcDbEntity
  8
SHELL6
100
AcDbLine
 62
7
  6
CONTINUOUS
 10
54.490371448
 20
94.7895555252
 11
52.1990125672
 21
94.7895555252
  0
LINE
  5
27C
100
AcDbEntity
  8
SHELL6
100
AcDbLine
 62
7
  6
CONTINUOUS
 10
44.774871448
 20
94.7895555252
 11
42.4835125672
 21
94.7895555252
  0
LINE
  5
27D
100
AcDbEntity
  8
SHELL6
100
AcDbLine
 62
7
  6
CONTINUOUS
 10
35.059371448
 20
94.7895555252
 11
32.7680125672
 21
94.7895555252
  0
LINE
  5
27E
100
AcDbEntity
  8
SHELL6
100
AcDbLine
 62
7
  6
CONTINUOUS
 10
73.921371448
 20
87.0108055252
 11
75.0670508884
 21
85.0264305252
  0
LINE
  5
27F
100
AcDbEntity
  8
SHELL6
100
AcDbLine
 62
7
  6
CONTINUOUS
 10
70.4843331268
 20
96.7739305252
 11
71.6300125672
 21
94.7895555252
  0
LINE
  5
280
100
AcDbEntity
  8
SHELL6
100
AcDbLine
 62
7
  6
CONTINUOUS
 10
80.1998331268
 20
85.0264305252
 11
81.3455125672
 21
83.0420555252
  0
LINE
  5
281
100
AcDbEntity
  8
SHELL6
100
AcDbLine
 62
7
  6
CONTINUOUS
 10
47.295366217
 20
143.6051805252
 11
50.9615404263
 21
137.2551805252
  0
LINE
  5
282
100
AcDbEntity
  8
SHELL6
100
AcDbLine
 62
7
  6
CONTINUOUS
 10
67.6321920076
 20
79.1526805252
 11
67.6321920076
 21
149.0026805252
  0
LINE
  5
283
100
AcDbEntity
  8
SHELL6
100
AcDbLine
 62
7
  6
CONTINUOUS
 10
68.6799420076
 20
79.1526805252
 11
68.6799420076
 21
102.6222805252
  0
LINE
  5
284
100
AcDbEntity
  8
SHELL6
100
AcDbLine
 62
7
  6
CONTINUOUS
 10
71.3659920076
 20
149.0026805252
 11
71.3659920076
 21
125.5330805252
  0
LINE
  5
285
100
AcDbEntity
  8
SHELL6
100
AcDbLine
 62
7
  6
CONTINUOUS
 10
55.6360508884
 20
96.7739305252
 11
54.490371448
 21
94.7895555252
  0
LINE
  5
286
100
AcDbEntity
  8
SHELL6
100
AcDbLine
 62
7
  6
CONTINUOUS
 10
52.1990125672
 20
87.0108055252
 11
51.0533331268
 21
85.0264305252
  0
LINE
  5
287
100
AcDbEntity
  8
SHELL6
100
AcDbLine
 62
7
  6
CONTINUOUS
 10
132.214371448
 20
98.7583055252
 11
129.9230125672
 21
98.7583055252
  0
LINE
  5
288
100
AcDbEntity
  8
SHELL6
100
AcDbLine
 62
7
  6
CONTINUOUS
 10
122.498871448
 20
98.7583055252
 11
120.2075125672
 21
98.7583055252
  0
LINE
  5
289
100
AcDbEntity
  8
SHELL6
100
AcDbLine
 62
7
  6
CONTINUOUS
 10
112.783371448
 20
98.7583055252
 11
110.4920125672
 21
98.7583055252
  0
LINE
  5
28A
100
AcDbEntity
  8
SHELL6
100
AcDbLine
 62
7
  6
CONTINUOUS
 10
93.352371448
 20
98.7583055252
 11
91.0610125672
 21
98.7583055252
  0
LINE
  5
28B
100
AcDbEntity
  8
SHELL6
100
AcDbLine
 62
7
  6
CONTINUOUS
 10
83.636871448
 20
98.7583055252
 11
81.3455125672
 21
98.7583055252
  0
LINE
  5
28C
100
AcDbEntity
  8
SHELL6
100
AcDbLine
 62
7
  6
CONTINUOUS
 10
73.921371448
 20
98.7583055252
 11
71.6300125672
 21
98.7583055252
  0
LINE
  5
28D
100
AcDbEntity
  8
SHELL6
100
AcDbLine
 62
7
  6
CONTINUOUS
 10
54.490371448
 20
98.7583055252
 11
52.1990125672
 21
98.7583055252
  0
LINE
  5
28E
100
AcDbEntity
  8
SHELL6
100
AcDbLine
 62
7
  6
CONTINUOUS
 10
44.774871448
 20
98.7583055252
 11
42.4835125672
 21
98.7583055252
  0
LINE
  5
28F
100
AcDbEntity
  8
SHELL6
100
AcDbLine
 62
7
  6
CONTINUOUS
 10
35.059371448
 20
98.7583055252
 11
32.7680125672
 21
98.7583055252
  0
LINE
  5
290
100
AcDbEntity
  8
SHELL6
100
AcDbLine
 62
7
  6
CONTINUOUS
 10
135.1644420076
 20
102.6222805252
 11
126.9729420076
 21
102.6222805252
  0
LINE
  5
291
100
AcDbEntity
  8
SHELL6
100
AcDbLine
 62
7
  6
CONTINUOUS
 10
125.4489420076
 20
102.6222805252
 11
117.2574420076
 21
102.6222805252
  0
LINE
  5
292
100
AcDbEntity
  8
SHELL6
100
AcDbLine
 62
7
  6
CONTINUOUS
 10
115.7334420076
 20
102.6222805252
 11
107.5419420076
 21
102.6222805252
  0
LINE
  5
293
100
AcDbEntity
  8
SHELL6
100
AcDbLine
 62
7
  6
CONTINUOUS
 10
96.3024420076
 20
102.6222805252
 11
88.1109420076
 21
102.6222805252
  0
LINE
  5
294
100
AcDbEntity
  8
SHELL6
100
AcDbLine
 62
7
  6
CONTINUOUS
 10
86.5869420076
 20
102.6222805252
 11
78.3954420076
 21
102.6222805252
  0
LINE
  5
295
100
AcDbEntity
  8
SHELL6
100
AcDbLine
 62
7
  6
CONTINUOUS
 10
76.8714420076
 20
102.6222805252
 11
68.6799420076
 21
102.6222805252
  0
LINE
  5
296
100
AcDbEntity
  8
SHELL6
100
AcDbLine
 62
7
  6
CONTINUOUS
 10
57.4404420076
 20
102.6222805252
 11
49.2489420076
 21
102.6222805252
  0
LINE
  5
297
100
AcDbEntity
  8
SHELL6
100
AcDbLine
 62
7
  6
CONTINUOUS
 10
47.7249420076
 20
102.6222805252
 11
39.5334420076
 21
102.6222805252
  0
LINE
  5
298
100
AcDbEntity
  8
SHELL6
100
AcDbLine
 62
7
  6
CONTINUOUS
 10
38.0094420076
 20
102.6222805252
 11
29.8179420076
 21
102.6222805252
  0
LINE
  5
299
100
AcDbEntity
  8
SHELL6
100
AcDbLine
 62
7
  6
CONTINUOUS
 10
136.2121920076
 20
102.6476805252
 11
106.4941920076
 21
102.6476805252
  0
LINE
  5
29A
100
AcDbEntity
  8
SHELL6
100
AcDbLine
 62
7
  6
CONTINUOUS
 10
97.3501920076
 20
102.6476805252
 11
67.6321920076
 21
102.6476805252
  0
LINE
  5
29B
100
AcDbEntity
  8
SHELL6
100
AcDbLine
 62
7
  6
CONTINUOUS
 10
58.4881920076
 20
102.6476805252
 11
28.7701920076
 21
102.6476805252
  0
LINE
  5
29C
100
AcDbEntity
  8
SHELL6
100
AcDbLine
 62
7
  6
CONTINUOUS
 10
73.921371448
 20
98.7583055252
 11
75.0670508884
 21
96.7739305252
  0
LINE
  5
29D
100
AcDbEntity
  8
SHELL6
100
AcDbLine
 62
7
  6
CONTINUOUS
 10
83.636871448
 20
87.0108055252
 11
84.7825508884
 21
85.0264305252
  0
LINE
  5
29E
100
AcDbEntity
  8
SHELL6
100
AcDbLine
 62
7
  6
CONTINUOUS
 10
80.1998331268
 20
96.7739305252
 11
81.3455125672
 21
94.7895555252
  0
LINE
  5
29F
100
AcDbEntity
  8
SHELL6
100
AcDbLine
 62
7
  6
CONTINUOUS
 10
76.8714420076
 20
79.1526805252
 11
76.8714420076
 21
102.6222805252
  0
LINE
  5
2A0
100
AcDbEntity
  8
SHELL6
100
AcDbLine
 62
7
  6
CONTINUOUS
 10
55.6360508884
 20
85.0264305252
 11
54.490371448
 21
83.0420555252
  0
LINE
  5
2A1
100
AcDbEntity
  8
SHELL6
100
AcDbLine
 62
7
  6
CONTINUOUS
 10
89.8235404263
 20
137.2551805252
 11
86.157366217
 21
130.9051805252
  0
LINE
  5
2A2
100
AcDbEntity
  8
SHELL6
100
AcDbLine
 62
7
  6
CONTINUOUS
 10
89.9153331268
 20
85.0264305252
 11
91.0610125672
 21
83.0420555252
  0
LINE
  5
2A3
100
AcDbEntity
  8
SHELL6
100
AcDbLine
 62
7
  6
CONTINUOUS
 10
83.636871448
 20
98.7583055252
 11
84.7825508884
 21
96.7739305252
  0
LINE
  5
2A4
100
AcDbEntity
  8
SHELL6
100
AcDbLine
 62
7
  6
CONTINUOUS
 10
78.3954420076
 20
79.1526805252
 11
78.3954420076
 21
102.6222805252
  0
LINE
  5
2A5
100
AcDbEntity
  8
SHELL6
100
AcDbLine
 62
7
  6
CONTINUOUS
 10
71.6300125672
 20
98.7583055252
 11
70.4843331268
 21
96.7739305252
  0
LINE
  5
2A6
100
AcDbEntity
  8
SHELL6
100
AcDbLine
 62
7
  6
CONTINUOUS
 10
93.352371448
 20
87.0108055252
 11
94.4980508884
 21
85.0264305252
  0
LINE
  5
2A7
100
AcDbEntity
  8
SHELL6
100
AcDbLine
 62
7
  6
CONTINUOUS
 10
89.9153331268
 20
96.7739305252
 11
91.0610125672
 21
94.7895555252
  0
LINE
  5
2A8
100
AcDbEntity
  8
SHELL6
100
AcDbLine
 62
7
  6
CONTINUOUS
 10
86.5869420076
 20
79.1526805252
 11
86.5869420076
 21
102.6222805252
  0
LINE
  5
2A9
100
AcDbEntity
  8
SHELL6
100
AcDbLine
 62
7
  6
CONTINUOUS
 10
88.1109420076
 20
79.1526805252
 11
88.1109420076
 21
102.6222805252
  0
LINE
  5
2AA
100
AcDbEntity
  8
SHELL6
100
AcDbLine
 62
7
  6
CONTINUOUS
 10
75.0670508884
 20
96.7739305252
 11
73.921371448
 21
94.7895555252
  0
LINE
  5
2AB
100
AcDbEntity
  8
SHELL6
100
AcDbLine
 62
7
  6
CONTINUOUS
 10
71.6300125672
 20
87.0108055252
 11
70.4843331268
 21
85.0264305252
  0
LINE
  5
2AC
100
AcDbEntity
  8
SHELL6
100
AcDbLine
 62
7
  6
CONTINUOUS
 10
93.352371448
 20
98.7583055252
 11
94.4980508884
 21
96.7739305252
  0
LINE
  5
2AD
100
AcDbEntity
  8
SHELL6
100
AcDbLine
 62
7
  6
CONTINUOUS
 10
75.1588435889
 20
137.2551805252
 11
78.8250177982
 21
130.9051805252
  0
LINE
  5
2AE
100
AcDbEntity
  8
SHELL6
100
AcDbLine
 62
7
  6
CONTINUOUS
 10
93.6163920076
 20
149.0026805252
 11
93.6163920076
 21
125.5330805252
  0
LINE
  5
2AF
100
AcDbEntity
  8
SHELL6
100
AcDbLine
 62
7
  6
CONTINUOUS
 10
81.3455125672
 20
98.7583055252
 11
80.1998331268
 21
96.7739305252
  0
LINE
  5
2B0
100
AcDbEntity
  8
SHELL6
100
AcDbLine
 62
7
  6
CONTINUOUS
 10
75.0670508884
 20
85.0264305252
 11
73.921371448
 21
83.0420555252
  0
LINE
  5
2B1
100
AcDbEntity
  8
SHELL6
100
AcDbLine
 62
7
  6
CONTINUOUS
 10
84.7825508884
 20
96.7739305252
 11
83.636871448
 21
94.7895555252
  0
LINE
  5
2B2
100
AcDbEntity
  8
SHELL6
100
AcDbLine
 62
7
  6
CONTINUOUS
 10
136.2121920076
 20
125.5076805252
 11
106.4941920076
 21
125.5076805252
  0
LINE
  5
2B3
100
AcDbEntity
  8
SHELL6
100
AcDbLine
 62
7
  6
CONTINUOUS
 10
97.3501920076
 20
125.5076805252
 11
67.6321920076
 21
125.5076805252
  0
LINE
  5
2B4
100
AcDbEntity
  8
SHELL6
100
AcDbLine
 62
7
  6
CONTINUOUS
 10
58.4881920076
 20
125.5076805252
 11
28.7701920076
 21
125.5076805252
  0
LINE
  5
2B5
100
AcDbEntity
  8
SHELL6
100
AcDbLine
 62
7
  6
CONTINUOUS
 10
132.4783920076
 20
125.5330805252
 11
110.2279920076
 21
125.5330805252
  0
LINE
  5
2B6
100
AcDbEntity
  8
SHELL6
100
AcDbLine
 62
7
  6
CONTINUOUS
 10
93.6163920076
 20
125.5330805252
 11
71.3659920076
 21
125.5330805252
  0
LINE
  5
2B7
100
AcDbEntity
  8
SHELL6
100
AcDbLine
 62
7
  6
CONTINUOUS
 10
54.7543920076
 20
125.5330805252
 11
32.5039920076
 21
125.5330805252
  0
LINE
  5
2B8
100
AcDbEntity
  8
SHELL6
100
AcDbLine
 62
7
  6
CONTINUOUS
 10
110.4920125672
 20
83.0420555252
 11
109.3463331268
 21
85.0264305252
  0
LINE
  5
2B9
100
AcDbEntity
  8
SHELL6
100
AcDbLine
 62
7
  6
CONTINUOUS
 10
96.3024420076
 20
79.1526805252
 11
96.3024420076
 21
102.6222805252
  0
LINE
  5
2BA
100
AcDbEntity
  8
SHELL6
100
AcDbLine
 62
7
  6
CONTINUOUS
 10
97.3501920076
 20
79.1526805252
 11
97.3501920076
 21
149.0026805252
  0
LINE
  5
2BB
100
AcDbEntity
  8
SHELL6
100
AcDbLine
 62
7
  6
CONTINUOUS
 10
81.3455125672
 20
87.0108055252
 11
80.1998331268
 21
85.0264305252
  0
LINE
  5
2BC
100
AcDbEntity
  8
SHELL6
100
AcDbLine
 62
7
  6
CONTINUOUS
 10
91.0610125672
 20
98.7583055252
 11
89.9153331268
 21
96.7739305252
  0
LINE
  5
2BD
100
AcDbEntity
  8
SHELL6
100
AcDbLine
 62
7
  6
CONTINUOUS
 10
117.6870177982
 20
143.6051805252
 11
114.0208435889
 21
137.2551805252
  0
LINE
  5
2BE
100
AcDbEntity
  8
SHELL6
100
AcDbLine
 62
7
  6
CONTINUOUS
 10
84.7825508884
 20
85.0264305252
 11
83.636871448
 21
83.0420555252
  0
LINE
  5
2BF
100
AcDbEntity
  8
SHELL6
100
AcDbLine
 62
7
  6
CONTINUOUS
 10
125.019366217
 20
130.9051805252
 11
117.6870177982
 21
130.9051805252
  0
LINE
  5
2C0
100
AcDbEntity
  8
SHELL6
100
AcDbLine
 62
7
  6
CONTINUOUS
 10
86.157366217
 20
130.9051805252
 11
78.8250177982
 21
130.9051805252
  0
LINE
  5
2C1
100
AcDbEntity
  8
SHELL6
100
AcDbLine
 62
7
  6
CONTINUOUS
 10
47.295366217
 20
130.9051805252
 11
39.9630177982
 21
130.9051805252
  0
LINE
  5
2C2
100
AcDbEntity
  8
SHELL6
100
AcDbLine
 62
7
  6
CONTINUOUS
 10
113.9290508884
 20
85.0264305252
 11
112.783371448
 21
87.0108055252
  0
LINE
  5
2C3
100
AcDbEntity
  8
SHELL6
100
AcDbLine
 62
7
  6
CONTINUOUS
 10
109.3463331268
 20
96.7739305252
 11
110.4920125672
 21
94.7895555252
  0
LINE
  5
2C4
100
AcDbEntity
  8
SHELL6
100
AcDbLine
 62
7
  6
CONTINUOUS
 10
99.8901920076
 20
63.2776805277
 11
99.8901920076
 21
75.057053589
  0
LINE
  5
2C5
100
AcDbEntity
  8
SHELL6
100
AcDbLine
 62
7
  6
CONTINUOUS
 10
99.8901920076
 20
83.2483074613
 11
99.8901920076
 21
109.982053589
  0
LINE
  5
2C6
100
AcDbEntity
  8
SHELL6
100
AcDbLine
 62
7
  6
CONTINUOUS
 10
99.8901920076
 20
118.1733074613
 11
99.8901920076
 21
144.907053589
  0
LINE
  5
2C7
100
AcDbEntity
  8
SHELL6
100
AcDbLine
 62
7
  6
CONTINUOUS
 10
99.8901920076
 20
153.0983074613
 11
99.8901920076
 21
164.8776805252
  0
LINE
  5
2C8
100
AcDbEntity
  8
SHELL6
100
AcDbLine
 62
7
  6
CONTINUOUS
 10
103.9541920076
 20
164.8776805226
 11
103.9541920076
 21
153.0983074613
  0
LINE
  5
2C9
100
AcDbEntity
  8
SHELL6
100
AcDbLine
 62
7
  6
CONTINUOUS
 10
103.9541920076
 20
144.907053589
 11
103.9541920076
 21
118.1733074613
  0
LINE
  5
2CA
100
AcDbEntity
  8
SHELL6
100
AcDbLine
 62
7
  6
CONTINUOUS
 10
103.9541920076
 20
109.982053589
 11
103.9541920076
 21
83.2483074613
  0
LINE
  5
2CB
100
AcDbEntity
  8
SHELL6
100
AcDbLine
 62
7
  6
CONTINUOUS
 10
103.9541920076
 20
75.057053589
 11
103.9541920076
 21
63.2776805277
  0
LINE
  5
2CC
100
AcDbEntity
  8
SHELL6
100
AcDbLine
 62
7
  6
CONTINUOUS
 10
94.4980508884
 20
96.7739305252
 11
93.352371448
 21
94.7895555252
  0
LINE
  5
2CD
100
AcDbEntity
  8
SHELL6
100
AcDbLine
 62
7
  6
CONTINUOUS
 10
91.0610125672
 20
87.0108055252
 11
89.9153331268
 21
85.0264305252
  0
LINE
  5
2CE
100
AcDbEntity
  8
SHELL6
100
AcDbLine
 62
7
  6
CONTINUOUS
 10
120.2075125672
 20
83.0420555252
 11
119.0618331268
 21
85.0264305252
  0
LINE
  5
2CF
100
AcDbEntity
  8
SHELL6
100
AcDbLine
 62
7
  6
CONTINUOUS
 10
86.157366217
 20
143.6051805252
 11
89.8235404263
 21
137.2551805252
  0
LINE
  5
2D0
100
AcDbEntity
  8
SHELL6
100
AcDbLine
 62
7
  6
CONTINUOUS
 10
112.783371448
 20
98.7583055252
 11
113.9290508884
 21
96.7739305252
  0
LINE
  5
2D1
100
AcDbEntity
  8
SHELL6
100
AcDbLine
 62
7
  6
CONTINUOUS
 10
123.6445508884
 20
85.0264305252
 11
122.498871448
 21
87.0108055252
  0
LINE
  5
2D2
100
AcDbEntity
  8
SHELL6
100
AcDbLine
 62
7
  6
CONTINUOUS
 10
106.4941920076
 20
79.1526805252
 11
106.4941920076
 21
149.0026805252
  0
LINE
  5
2D3
100
AcDbEntity
  8
SHELL6
100
AcDbLine
 62
7
  6
CONTINUOUS
 10
107.5419420076
 20
79.1526805252
 11
107.5419420076
 21
102.6222805252
  0
LINE
  5
2D4
100
AcDbEntity
  8
SHELL6
100
AcDbLine
 62
7
  6
CONTINUOUS
 10
110.2279920076
 20
149.0026805252
 11
110.2279920076
 21
125.5330805252
  0
LINE
  5
2D5
100
AcDbEntity
  8
SHELL6
100
AcDbLine
 62
7
  6
CONTINUOUS
 10
94.4980508884
 20
85.0264305252
 11
93.352371448
 21
83.0420555252
  0
LINE
  5
2D6
100
AcDbEntity
  8
SHELL6
100
AcDbLine
 62
7
  6
CONTINUOUS
 10
120.2075125672
 20
94.7895555252
 11
119.0618331268
 21
96.7739305252
  0
LINE
  5
2D7
100
AcDbEntity
  8
SHELL6
100
AcDbLine
 62
7
  6
CONTINUOUS
 10
129.9230125672
 20
83.0420555252
 11
128.7773331268
 21
85.0264305252
  0
LINE
  5
2D8
100
AcDbEntity
  8
SHELL6
100
AcDbLine
 62
7
  6
CONTINUOUS
 10
123.6445508884
 20
96.7739305252
 11
122.498871448
 21
98.7583055252
  0
LINE
  5
2D9
100
AcDbEntity
  8
SHELL6
100
AcDbLine
 62
7
  6
CONTINUOUS
 10
115.7334420076
 20
79.1526805252
 11
115.7334420076
 21
102.6222805252
  0
LINE
  5
2DA
100
AcDbEntity
  8
SHELL6
100
AcDbLine
 62
7
  6
CONTINUOUS
 10
128.6855404263
 20
137.2551805252
 11
125.019366217
 21
130.9051805252
  0
LINE
  5
2DB
100
AcDbEntity
  8
SHELL6
100
AcDbLine
 62
7
  6
CONTINUOUS
 10
110.4920125672
 20
98.7583055252
 11
109.3463331268
 21
96.7739305252
  0
LINE
  5
2DC
100
AcDbEntity
  8
SHELL6
100
AcDbLine
 62
7
  6
CONTINUOUS
 10
136.2121920076
 20
142.6526805252
 11
106.4941920076
 21
142.6526805252
  0
LINE
  5
2DD
100
AcDbEntity
  8
SHELL6
100
AcDbLine
 62
7
  6
CONTINUOUS
 10
97.3501920076
 20
142.6526805252
 11
67.6321920076
 21
142.6526805252
  0
LINE
  5
2DE
100
AcDbEntity
  8
SHELL6
100
AcDbLine
 62
7
  6
CONTINUOUS
 10
58.4881920076
 20
142.6526805252
 11
28.7701920076
 21
142.6526805252
  0
LINE
  5
2DF
100
AcDbEntity
  8
SHELL6
100
AcDbLine
 62
7
  6
CONTINUOUS
 10
125.019366217
 20
143.6051805252
 11
117.6870177982
 21
143.6051805252
  0
LINE
  5
2E0
100
AcDbEntity
  8
SHELL6
100
AcDbLine
 62
7
  6
CONTINUOUS
 10
86.157366217
 20
143.6051805252
 11
78.8250177982
 21
143.6051805252
  0
LINE
  5
2E1
100
AcDbEntity
  8
SHELL6
100
AcDbLine
 62
7
  6
CONTINUOUS
 10
47.295366217
 20
143.6051805252
 11
39.9630177982
 21
143.6051805252
  0
LINE
  5
2E2
100
AcDbEntity
  8
SHELL6
100
AcDbLine
 62
7
  6
CONTINUOUS
 10
19.0165920076
 20
145.0656805252
 11
18.9911920076
 21
145.0656805252
  0
LINE
  5
2E3
100
AcDbEntity
  8
SHELL6
100
AcDbLine
 62
7
  6
CONTINUOUS
 10
133.3600508884
 20
85.0264305252
 11
132.214371448
 21
87.0108055252
  0
LINE
  5
2E4
100
AcDbEntity
  8
SHELL6
100
AcDbLine
 62
7
  6
CONTINUOUS
 10
129.9230125672
 20
94.7895555252
 11
128.7773331268
 21
96.7739305252
  0
LINE
  5
2E5
100
AcDbEntity
  8
SHELL6
100
AcDbLine
 62
7
  6
CONTINUOUS
 10
117.2574420076
 20
79.1526805252
 11
117.2574420076
 21
102.6222805252
  0
LINE
  5
2E6
100
AcDbEntity
  8
SHELL6
100
AcDbLine
 62
7
  6
CONTINUOUS
 10
113.9290508884
 20
96.7739305252
 11
112.783371448
 21
94.7895555252
  0
LINE
  5
2E7
100
AcDbEntity
  8
SHELL6
100
AcDbLine
 62
7
  6
CONTINUOUS
 10
110.4920125672
 20
87.0108055252
 11
109.3463331268
 21
85.0264305252
  0
LINE
  5
2E8
100
AcDbEntity
  8
SHELL6
100
AcDbLine
 62
7
  6
CONTINUOUS
 10
136.2121920076
 20
149.0026805252
 11
106.4941920076
 21
149.0026805252
  0
LINE
  5
2E9
100
AcDbEntity
  8
SHELL6
100
AcDbLine
 62
7
  6
CONTINUOUS
 10
97.3501920076
 20
149.0026805252
 11
67.6321920076
 21
149.0026805252
  0
LINE
  5
2EA
100
AcDbEntity
  8
SHELL6
100
AcDbLine
 62
7
  6
CONTINUOUS
 10
58.4881920076
 20
149.0026805252
 11
28.7701920076
 21
149.0026805252
  0
LINE
  5
2EB
100
AcDbEntity
  8
SHELL6
100
AcDbLine
 62
7
  6
CONTINUOUS
 10
19.0165920076
 20
152.1776805226
 11
18.9911920076
 21
152.1776805226
  0
LINE
  5
2EC
100
AcDbEntity
  8
SHELL6
100
AcDbLine
 62
7
  6
CONTINUOUS
 10
133.3600508884
 20
96.7739305252
 11
132.214371448
 21
98.7583055252
  0
LINE
  5
2ED
100
AcDbEntity
  8
SHELL6
100
AcDbLine
 62
7
  6
CONTINUOUS
 10
125.4489420076
 20
79.1526805252
 11
125.4489420076
 21
102.6222805252
  0
LINE
  5
2EE
100
AcDbEntity
  8
SHELL6
100
AcDbLine
 62
7
  6
CONTINUOUS
 10
120.2075125672
 20
98.7583055252
 11
119.0618331268
 21
96.7739305252
  0
LINE
  5
2EF
100
AcDbEntity
  8
SHELL6
100
AcDbLine
 62
7
  6
CONTINUOUS
 10
113.9290508884
 20
85.0264305252
 11
112.783371448
 21
83.0420555252
  0
LINE
  5
2F0
100
AcDbEntity
  8
SHELL6
100
AcDbLine
 62
7
  6
CONTINUOUS
 10
18.9911920076
 20
154.7176805252
 11
26.2301920076
 21
154.7176805252
  0
LINE
  5
2F1
100
AcDbEntity
  8
SHELL6
100
AcDbLine
 62
7
  6
CONTINUOUS
 10
61.0281920076
 20
154.7176805252
 11
65.0921920076
 21
154.7176805252
  0
LINE
  5
2F2
100
AcDbEntity
  8
SHELL6
100
AcDbLine
 62
7
  6
CONTINUOUS
 10
99.8901920076
 20
154.7176805252
 11
103.9541920076
 21
154.7176805252
  0
LINE
  5
2F3
100
AcDbEntity
  8
SHELL6
100
AcDbLine
 62
7
  6
CONTINUOUS
 10
138.7521920076
 20
154.7176805252
 11
145.9911920076
 21
154.7176805252
  0
LINE
  5
2F4
100
AcDbEntity
  8
SHELL6
100
AcDbLine
 62
7
  6
CONTINUOUS
 10
114.0208435889
 20
137.2551805252
 11
117.6870177982
 21
130.9051805252
  0
LINE
  5
2F5
100
AcDbEntity
  8
SHELL6
100
AcDbLine
 62
7
  6
CONTINUOUS
 10
126.9729420076
 20
79.1526805252
 11
126.9729420076
 21
102.6222805252
  0
LINE
  5
2F6
100
AcDbEntity
  8
SHELL6
100
AcDbLine
 62
7
  6
CONTINUOUS
 10
123.6445508884
 20
96.7739305252
 11
122.498871448
 21
94.7895555252
  0
LINE
  5
2F7
100
AcDbEntity
  8
SHELL6
100
AcDbLine
 62
7
  6
CONTINUOUS
 10
120.2075125672
 20
87.0108055252
 11
119.0618331268
 21
85.0264305252
  0
LINE
  5
2F8
100
AcDbEntity
  8
SHELL6
100
AcDbLine
 62
7
  6
CONTINUOUS
 10
129.9230125672
 20
98.7583055252
 11
128.7773331268
 21
96.7739305252
  0
LINE
  5
2F9
100
AcDbEntity
  8
SHELL6
100
AcDbLine
 62
7
  6
CONTINUOUS
 10
132.4783920076
 20
149.0026805252
 11
132.4783920076
 21
125.5330805252
  0
LINE
  5
2FA
100
AcDbEntity
  8
SHELL6
100
AcDbLine
 62
7
  6
CONTINUOUS
 10
135.1644420076
 20
79.1526805252
 11
135.1644420076
 21
102.6222805252
  0
LINE
  5
2FB
100
AcDbEntity
  8
SHELL6
100
AcDbLine
 62
7
  6
CONTINUOUS
 10
136.2121920076
 20
79.1526805252
 11
136.2121920076
 21
149.0026805252
  0
LINE
  5
2FC
100
AcDbEntity
  8
SHELL6
100
AcDbLine
 62
7
  6
CONTINUOUS
 10
123.6445508884
 20
85.0264305252
 11
122.498871448
 21
83.0420555252
  0
LINE
  5
2FD
100
AcDbEntity
  8
SHELL6
100
AcDbLine
 62
7
  6
CONTINUOUS
 10
133.3600508884
 20
96.7739305252
 11
132.214371448
 21
94.7895555252
  0
LINE
  5
2FE
100
AcDbEntity
  8
SHELL6
100
AcDbLine
 62
7
  6
CONTINUOUS
 10
129.9230125672
 20
87.0108055252
 11
128.7773331268
 21
85.0264305252
  0
LINE
  5
2FF
100
AcDbEntity
  8
SHELL6
100
AcDbLine
 62
7
  6
CONTINUOUS
 10
145.9911920076
 20
164.8776805226
 11
18.9911920076
 21
164.8776805226
  0
LINE
  5
300
100
AcDbEntity
  8
SHELL6
100
AcDbLine
 62
7
  6
CONTINUOUS
 10
125.019366217
 20
143.6051805252
 11
128.6855404263
 21
137.2551805252
  0
LINE
  5
301
100
AcDbEntity
  8
SHELL6
100
AcDbLine
 62
7
  6
CONTINUOUS
 10
138.7521920076
 20
63.2776805277
 11
138.7521920076
 21
75.057053589
  0
LINE
  5
302
100
AcDbEntity
  8
SHELL6
100
AcDbLine
 62
7
  6
CONTINUOUS
 10
138.7521920076
 20
83.2483074613
 11
138.7521920076
 21
109.982053589
  0
LINE
  5
303
100
AcDbEntity
  8
SHELL6
100
AcDbLine
 62
7
  6
CONTINUOUS
 10
138.7521920076
 20
118.1733074613
 11
138.7521920076
 21
144.907053589
  0
LINE
  5
304
100
AcDbEntity
  8
SHELL6
100
AcDbLine
 62
7
  6
CONTINUOUS
 10
138.7521920076
 20
153.0983074613
 11
138.7521920076
 21
164.8776805252
  0
LINE
  5
305
100
AcDbEntity
  8
SHELL6
100
AcDbLine
 62
7
  6
CONTINUOUS
 10
133.3600508884
 20
85.0264305252
 11
132.214371448
 21
83.0420555252
  0
LINE
  5
306
100
AcDbEntity
  8
SHELL6
100
AcDbLine
 62
7
  6
CONTINUOUS
 10
145.9911920076
 20
164.8776805226
 11
145.9911920076
 21
63.2776805277
  0
CIRCLE
  5
307
100
AcDbEntity
  8
SHELL6
100
AcDbCircle
 62
7
  6
CONTINUOUS
 10
43.6291920076
 20
71.1516805252
 40
5.1562
  0
ARC
  5
308
100
AcDbEntity
  8
SHELL6
100
AcDbCircle
 62
7
  6
CONTINUOUS
 10
24.1981920076
 20
79.1526805252
 40
4.572
100
AcDbArc
 50
296.3877999612
 51
63.6122000388
  0
CIRCLE
  5
309
100
AcDbEntity
  8
SHELL6
100
AcDbCircle
 62
7
  6
CONTINUOUS
 10
43.6291920076
 20
71.1516805252
 40
2.5781
  0
CIRCLE
  5
30A
100
AcDbEntity
  8
SHELL6
100
AcDbCircle
 62
7
  6
CONTINUOUS
 10
33.9136920076
 20
85.0264305252
 40
3.96875
  0
CIRCLE
  5
30B
100
AcDbEntity
  8
SHELL6
100
AcDbCircle
 62
7
  6
CONTINUOUS
 10
43.6291920076
 20
85.0264305252
 40
3.96875
  0
CIRCLE
  5
30C
100
AcDbEntity
  8
SHELL6
100
AcDbCircle
 62
7
  6
CONTINUOUS
 10
43.6291920076
 20
96.7739305252
 40
3.96875
  0
CIRCLE
  5
30D
100
AcDbEntity
  8
SHELL6
100
AcDbCircle
 62
7
  6
CONTINUOUS
 10
33.9136920076
 20
96.7739305252
 40
3.96875
  0
ARC
  5
30E
100
AcDbEntity
  8
SHELL6
100
AcDbCircle
 62
7
  6
CONTINUOUS
 10
63.0601920076
 20
79.1526805252
 40
4.572
100
AcDbArc
 50
296.3877999612
 51
63.6122000388
  0
ARC
  5
30F
100
AcDbEntity
  8
SHELL6
100
AcDbCircle
 62
7
  6
CONTINUOUS
 10
63.0601920076
 20
79.1526805252
 40
4.572
100
AcDbArc
 50
116.3877999612
 51
243.6122000388
  0
CIRCLE
  5
310
100
AcDbEntity
  8
SHELL6
100
AcDbCircle
 62
7
  6
CONTINUOUS
 10
53.3446920076
 20
85.0264305252
 40
3.96875
  0
CIRCLE
  5
311
100
AcDbEntity
  8
SHELL6
100
AcDbCircle
 62
7
  6
CONTINUOUS
 10
53.3446920076
 20
96.7739305252
 40
3.96875
  0
CIRCLE
  5
312
100
AcDbEntity
  8
SHELL6
100
AcDbCircle
 62
7
  6
CONTINUOUS
 10
72.7756920076
 20
96.7739305252
 40
3.96875
  0
CIRCLE
  5
313
100
AcDbEntity
  8
SHELL6
100
AcDbCircle
 62
7
  6
CONTINUOUS
 10
72.7756920076
 20
85.0264305252
 40
3.96875
  0
ARC
  5
314
100
AcDbEntity
  8
SHELL6
100
AcDbCircle
 62
7
  6
CONTINUOUS
 10
24.1981920076
 20
114.0776805252
 40
4.572
100
AcDbArc
 50
296.3877999612
 51
63.6122000388
  0
ARC
  5
315
100
AcDbEntity
  8
SHELL6
100
AcDbCircle
 62
7
  6
CONTINUOUS
 10
24.1981920076
 20
149.0026805252
 40
4.572
100
AcDbArc
 50
296.3877999612
 51
63.6122000388
  0
CIRCLE
  5
316
100
AcDbEntity
  8
SHELL6
100
AcDbCircle
 62
7
  6
CONTINUOUS
 10
43.6291920076
 20
114.0776805252
 40
6.35
  0
ARC
  5
317
100
AcDbEntity
  8
SHELL6
100
AcDbCircle
 62
7
  6
CONTINUOUS
 10
63.0601920076
 20
114.0776805252
 40
4.572
100
AcDbArc
 50
116.3877999612
 51
243.6122000388
  0
ARC
  5
318
100
AcDbEntity
  8
SHELL6
100
AcDbCircle
 62
7
  6
CONTINUOUS
 10
63.0601920076
 20
114.0776805252
 40
4.572
100
AcDbArc
 50
296.3877999612
 51
63.6122000388
  0
CIRCLE
  5
319
100
AcDbEntity
  8
SHELL6
100
AcDbCircle
 62
7
  6
CONTINUOUS
 10
43.6291920076
 20
137.2551805252
 40
11.1125
  0
CIRCLE
  5
31A
100
AcDbEntity
  8
SHELL6
100
AcDbCircle
 62
7
  6
CONTINUOUS
 10
43.6291920076
 20
157.0036805252
 40
5.1562
  0
ARC
  5
31B
100
AcDbEntity
  8
SHELL6
100
AcDbCircle
 62
7
  6
CONTINUOUS
 10
63.0601920076
 20
149.0026805252
 40
4.572
100
AcDbArc
 50
116.3877999612
 51
243.6122000388
  0
ARC
  5
31C
100
AcDbEntity
  8
SHELL6
100
AcDbCircle
 62
7
  6
CONTINUOUS
 10
63.0601920076
 20
149.0026805252
 40
4.572
100
AcDbArc
 50
296.3877999612
 51
63.6122000388
  0
CIRCLE
  5
31D
100
AcDbEntity
  8
SHELL6
100
AcDbCircle
 62
7
  6
CONTINUOUS
 10
43.6291920076
 20
157.0036805252
 40
2.5781
  0
CIRCLE
  5
31E
100
AcDbEntity
  8
SHELL6
100
AcDbCircle
 62
7
  6
CONTINUOUS
 10
82.4911920076
 20
71.1516805252
 40
5.1562
  0
ARC
  5
31F
100
AcDbEntity
  8
SHELL6
100
AcDbCircle
 62
7
  6
CONTINUOUS
 10
101.9221920076
 20
79.1526805252
 40
4.572
100
AcDbArc
 50
296.3877999612
 51
63.6122000388
  0
ARC
  5
320
100
AcDbEntity
  8
SHELL6
100
AcDbCircle
 62
7
  6
CONTINUOUS
 10
101.9221920076
 20
79.1526805252
 40
4.572
100
AcDbArc
 50
116.3877999612
 51
243.6122000388
  0
CIRCLE
  5
321
100
AcDbEntity
  8
SHELL6
100
AcDbCircle
 62
7
  6
CONTINUOUS
 10
82.4911920076
 20
71.1516805252
 40
2.5781
  0
CIRCLE
  5
322
100
AcDbEntity
  8
SHELL6
100
AcDbCircle
 62
7
  6
CONTINUOUS
 10
92.2066920076
 20
96.7739305252
 40
3.96875
  0
CIRCLE
  5
323
100
AcDbEntity
  8
SHELL6
100
AcDbCircle
 62
7
  6
CONTINUOUS
 10
82.4911920076
 20
96.7739305252
 40
3.96875
  0
CIRCLE
  5
324
100
AcDbEntity
  8
SHELL6
100
AcDbCircle
 62
7
  6
CONTINUOUS
 10
92.2066920076
 20
85.0264305252
 40
3.96875
  0
CIRCLE
  5
325
100
AcDbEntity
  8
SHELL6
100
AcDbCircle
 62
7
  6
CONTINUOUS
 10
82.4911920076
 20
85.0264305252
 40
3.96875
  0
CIRCLE
  5
326
100
AcDbEntity
  8
SHELL6
100
AcDbCircle
 62
7
  6
CONTINUOUS
 10
121.3531920076
 20
71.1516805252
 40
5.1562
  0
ARC
  5
327
100
AcDbEntity
  8
SHELL6
100
AcDbCircle
 62
7
  6
CONTINUOUS
 10
140.7841920076
 20
79.1526805252
 40
4.572
100
AcDbArc
 50
116.3877999612
 51
243.6122000388
  0
CIRCLE
  5
328
100
AcDbEntity
  8
SHELL6
100
AcDbCircle
 62
7
  6
CONTINUOUS
 10
121.3531920076
 20
71.1516805252
 40
2.5781
  0
CIRCLE
  5
329
100
AcDbEntity
  8
SHELL6
100
AcDbCircle
 62
7
  6
CONTINUOUS
 10
131.0686920076
 20
96.7739305252
 40
3.96875
  0
CIRCLE
  5
32A
100
AcDbEntity
  8
SHELL6
100
AcDbCircle
 62
7
  6
CONTINUOUS
 10
121.3531920076
 20
96.7739305252
 40
3.96875
  0
CIRCLE
  5
32B
100
AcDbEntity
  8
SHELL6
100
AcDbCircle
 62
7
  6
CONTINUOUS
 10
111.6376920076
 20
96.7739305252
 40
3.96875
  0
CIRCLE
  5
32C
100
AcDbEntity
  8
SHELL6
100
AcDbCircle
 62
7
  6
CONTINUOUS
 10
131.0686920076
 20
85.0264305252
 40
3.96875
  0
CIRCLE
  5
32D
100
AcDbEntity
  8
SHELL6
100
AcDbCircle
 62
7
  6
CONTINUOUS
 10
121.3531920076
 20
85.0264305252
 40
3.96875
  0
CIRCLE
  5
32E
100
AcDbEntity
  8
SHELL6
100
AcDbCircle
 62
7
  6
CONTINUOUS
 10
111.6376920076
 20
85.0264305252
 40
3.96875
  0
CIRCLE
  5
32F
100
AcDbEntity
  8
SHELL6
100
AcDbCircle
 62
7
  6
CONTINUOUS
 10
82.4911920076
 20
114.0776805252
 40
6.35
  0
ARC
  5
330
100
AcDbEntity
  8
SHELL6
100
AcDbCircle
 62
7
  6
CONTINUOUS
 10
101.9221920076
 20
114.0776805252
 40
4.572
100
AcDbArc
 50
296.3877999612
 51
63.6122000388
  0
ARC
  5
331
100
AcDbEntity
  8
SHELL6
100
AcDbCircle
 62
7
  6
CONTINUOUS
 10
101.9221920076
 20
114.0776805252
 40
4.572
100
AcDbArc
 50
116.3877999612
 51
243.6122000388
  0
CIRCLE
  5
332
100
AcDbEntity
  8
SHELL6
100
AcDbCircle
 62
7
  6
CONTINUOUS
 10
82.4911920076
 20
137.2551805252
 40
11.1125
  0
CIRCLE
  5
333
100
AcDbEntity
  8
SHELL6
100
AcDbCircle
 62
7
  6
CONTINUOUS
 10
82.4911920076
 20
157.0036805252
 40
5.1562
  0
ARC
  5
334
100
AcDbEntity
  8
SHELL6
100
AcDbCircle
 62
7
  6
CONTINUOUS
 10
101.9221920076
 20
149.0026805252
 40
4.572
100
AcDbArc
 50
296.3877999612
 51
63.6122000388
  0
ARC
  5
335
100
AcDbEntity
  8
SHELL6
100
AcDbCircle
 62
7
  6
CONTINUOUS
 10
101.9221920076
 20
149.0026805252
 40
4.572
100
AcDbArc
 50
116.3877999612
 51
243.6122000388
  0
CIRCLE
  5
336
100
AcDbEntity
  8
SHELL6
100
AcDbCircle
 62
7
  6
CONTINUOUS
 10
82.4911920076
 20
157.0036805252
 40
2.5781
  0
CIRCLE
  5
337
100
AcDbEntity
  8
SHELL6
100
AcDbCircle
 62
7
  6
CONTINUOUS
 10
121.3531920076
 20
114.0776805252
 40
6.35
  0
ARC
  5
338
100
AcDbEntity
  8
SHELL6
100
AcDbCircle
 62
7
  6
CONTINUOUS
 10
140.7841920076
 20
114.0776805252
 40
4.572
100
AcDbArc
 50
116.3877999612
 51
243.6122000388
  0
CIRCLE
  5
339
100
AcDbEntity
  8
SHELL6
100
AcDbCircle
 62
7
  6
CONTINUOUS
 10
121.3531920076
 20
137.2551805252
 40
11.1125
  0
CIRCLE
  5
33A
100
AcDbEntity
  8
SHELL6
100
AcDbCircle
 62
7
  6
CONTINUOUS
 10
121.3531920076
 20
157.0036805252
 40
5.1562
  0
ARC
  5
33B
100
AcDbEntity
  8
SHELL6
100
AcDbCircle
 62
7
  6
CONTINUOUS
 10
140.7841920076
 20
149.0026805252
 40
4.572
100
AcDbArc
 50
116.3877999612
 51
243.6122000388
  0
CIRCLE
  5
33C
100
AcDbEntity
  8
SHELL6
100
AcDbCircle
 62
7
  6
CONTINUOUS
 10
121.3531920076
 20
157.0036805252
 40
2.5781
  0
SPLINE
  5
33D
100
AcDbEntity
  8
SHELL6
100
AcDbSpline
 62
7
  6
CONTINUOUS
 70
0
 71
3
 72
12
 73
8
 74
0
 42
0.0000001
 43
0.0000001
 44
0.0000000001
 40
0.0
 40
0.0
 40
0.0
 40
0.0
 40
0.2003310331
 40
0.4001684217
 40
0.5998500309
 40
0.7996812575
 40
1.0
 40
1.0
 40
1.0
 40
1.0
 10
58.4881920076
 20
79.1526805252
 30
0.0
 10
58.4892774171
 20
79.4909443793
 30
0.0
 10
58.5633156531
 20
80.169041063
 30
0.0
 10
58.8980637612
 20
81.1336498912
 30
0.0
 10
59.4358450264
 20
82.000776802
 30
0.0
 10
60.151161759
 20
82.7293250693
 30
0.0
 10
60.7256729922
 20
83.0970070357
 30
0.0
 10
61.0281920076
 20
83.2483074613
 30
0.0
  0
SPLINE
  5
33E
100
AcDbEntity
  8
SHELL6
100
AcDbSpline
 62
7
  6
CONTINUOUS
 70
0
 71
3
 72
12
 73
8
 74
0
 42
0.0000001
 43
0.0000001
 44
0.0000000001
 40
0.0
 40
0.0
 40
0.0
 40
0.0
 40
0.2003310331
 40
0.4001684217
 40
0.5998500309
 40
0.7996812575
 40
1.0
 40
1.0
 40
1.0
 40
1.0
 10
61.0281920076
 20
75.057053589
 30
0.0
 10
60.7256554808
 20
75.2083653966
 30
0.0
 10
60.1511180032
 20
75.5760656273
 30
0.0
 10
59.4357921625
 20
76.3046501652
 30
0.0
 10
58.8980282075
 20
77.1717878114
 30
0.0
 10
58.5633085428
 20
78.1363723601
 30
0.0
 10
58.4892750039
 20
78.8144374165
 30
0.0
 10
58.4881920076
 20
79.1526805252
 30
0.0
  0
ENDSEC
  0
SECTION
  2
OBJECTS
  0
DICTIONARY
  5
C
100
AcDbDictionary
280
0
281
1
  3
ACAD_GROUP
350
D
  3
ACAD_MLINESTYLE
350
17
  3
ACAD_LAYOUT
350
1A
  3
ACAD_PLOTSETTINGS
350
19
  3
ACAD_PLOTSTYLENAME
350
E
  0
DICTIONARY
  5
D
102
{ACAD_REACTORS
330
C
102
}
100
AcDbDictionary
280
0
281
1
  0
ACDBDICTIONARYWDFLT
  5
E
102
{ACAD_REACTORS
330
C
102
}
100
AcDbDictionary
281
1
  3
Normal
350
F
100
AcDbDictionaryWithDefault
340
F
  0
DICTIONARY
  5
17
102
{ACAD_REACTORS
330
C
102
}
100
AcDbDictionary
280
0
281
1
  3
Standard
350
18
  0
DICTIONARY
  5
19
102
{ACAD_REACTORS
330
C
102
}
100
AcDbDictionary
281
1
  0
DICTIONARY
  5
1A
102
{ACAD_REACTORS
330
C
102
}
100
AcDbDictionary
281
1
  3
Model
350
33F
  3
Layout1
350
340
  0
ACDBPLACEHOLDER
  5
F
102
{ACAD_REACTORS
330
E
102
}
  0
MLINESTYLE
  5
18
102
{ACAD_REACTORS
330
17
102
}
100
AcDbMlineStyle
  2
STANDARD
 70
0
  3

 62
256
 51
90.0
 52
90.0
 71
2
 49
0.5
 62
256
  6
BYLAYER
 49
-0.5
 62
256
  6
BYLAYER
  0
LAYOUT
  5
33F
102
{ACAD_REACTORS
330
1A
102
}
100
AcDbPlotSettings
  1

  2
none_device
  4

  6

 40
0.0
 41
0.0
 42
0.0
 43
0.0
 44
210.0
 45
297.0
 46
0.0
 47
0.0
 48
0.0
 49
0.0
140
0.0
141
0.0
142
1.0
143
1.0
 70
1024
 72
1
 73
0
 74
0
  7

 75
0
147
1.0
148
0.0
149
0.0
100
AcDbLayout
  1
Model
 70
0
 71
0
 10
0.0
 20
0.0
 11
210.0
 21
297.0
 12
0.0
 22
0.0
 32
0.0
 14
0.0
 24
0.0
 34
0.0
 15
0.0
 25
0.0
 35
0.0
146
0.0
 13
0.0
 23
0.0
 33
0.0
 16
1.0
 26
0.0
 36
0.0
 17
0.0
 27
1.0
 37
0.0
 76
0
330
211
345
0
346
0
  0
LAYOUT
  5
340
102
{ACAD_REACTORS
330
1A
102
}
100
AcDbPlotSettings
  1

  2
none_device
  4

  6

 40
0.0
 41
0.0
 42
0.0
 43
0.0
 44
210.0
 45
297.0
 46
0.0
 47
0.0
 48
0.0
 49
0.0
140
0.0
141
0.0
142
1.0
143
1.0
 70
0
 72
1
 73
0
 74
0
  7

 75
0
147
1.0
148
0.0
149
0.0
100
AcDbLayout
  1
Layout1
 70
0
 71
1
 10
0.0
 20
0.0
 11
210.0
 21
297.0
 12
0.0
 22
0.0
 32
0.0
 14
0.0
 24
0.0
 34
0.0
 15
0.0
 25
0.0
 35
0.0
146
0.0
 13
0.0
 23
0.0
 33
0.0
 16
1.0
 26
0.0
 36
0.0
 17
0.0
 27
1.0
 37
0.0
 76
0
330
212
345
0
346
0
  0
ENDSEC
  0
EOF
