999
DXF file: C:\Users\sesa63760\Dev\_Creo\CAD\MCADUE0002475_3D-CAD\drw0001_1.dxf
999
Pro/ENGINEER 2019471 by Parametric Technology Corporation
  0
SECTION
  2
HEADER
  9
$ACADVER
  1
AC1024
  9
$DWGCODEPAGE
  3
ANSI_1252
  9
$EXTMAX
 10
432.1146081634
 20
611.1335172596
 30
0.0
  9
$EXTMIN
 10
0.0
 20
0.0
 30
0.0
  9
$LIMMIN
 10
0.0
 20
0.0
  9
$LIMMAX
 10
432.1146081634
 20
611.1335172596
  9
$VIEWCTR
 10
216.0573040817
 20
305.5667586298
  9
$VIEWSIZE
 40
611.1335172596
  9
$CLAYER
  8
0
  9
$LTSCALE
 40
39.8368514954
  9
$CELTYPE
  6
BYLAYER
  9
$DIMSCALE
 40
1.0
  9
$DIMASZ
 40
5.1442215258
  9
$DIMEXO
 40
1.0
  9
$DIMDLI
 40
27.5236428514
  9
$DIMEXE
 40
1.0
  9
$DIMCEN
 40
6.5187575174
  9
$DIMLFAC
 40
1.0
  9
$DIMBLK
  1
_FILLED
  9
$DIMALT
 70
0
  9
$DIMALTF
 40
0.0393700787
  9
$DIMTXT
 40
7.2019101361
  9
$DIMTOL
 70
1
  9
$DIMLIM
 70
0
  9
$DIMTFAC
 40
1.0
  9
$DIMTP
 40
0.01
  9
$DIMTM
 40
0.01
  9
$DIMGAP
 40
0.625
  9
$DIMDSEP
 70
46
  9
$AUNITS
 70
0
  9
$PDMODE
 70
3
  9
$PDSIZE
 40
0.3125
  9
$HANDSEED
  5
46F
  9
$TILEMODE
 70
1
  9
$MEASUREMENT
 70
1
  9
$INSUNITS
 70
4
  0
ENDSEC
  0
SECTION
  2
CLASSES
  0
CLASS
  1
ACDBDICTIONARYWDFLT
  2
AcDbDictionaryWithDefault
  3
AutoCAD 2000
 90
0
 91
1
280
0
281
0
  0
CLASS
  1
ACDBPLACEHOLDER
  2
AcDbPlaceHolder
  3
AutoCAD 2000
 90
0
 91
1
280
0
281
0
  0
CLASS
  1
LAYOUT
  2
AcDbLayout
  3
AutoCAD 2000
 90
0
 91
0
280
0
281
0
  0
ENDSEC
  0
SECTION
  2
TABLES
  0
TABLE
  2
VPORT
  5
8
100
AcDbSymbolTable
 70
2
  0
VPORT
  5
1F4
100
AcDbSymbolTableRecord
100
AcDbViewportTableRecord
  2
*ACTIVE
 70
0
 10
0.0
 20
0.0
 11
1.0
 21
1.0
 12
216.0573040817
 22
305.5667586298
 13
0.0
 23
0.0
 14
1.0
 24
1.0
 15
0.0
 25
0.0
 16
0.0
 26
0.0
 36
1.0
 17
0.0
 27
0.0
 37
0.0
 40
611.1335172596
 41
0.7070707071
 42
50.0
 43
0.0
 44
0.0
 50
0.0
 51
0.0
 71
0
 72
100
 73
1
 74
1
 75
0
 76
0
 77
0
 78
0
  0
ENDTAB
  0
TABLE
  2
LTYPE
  5
5
100
AcDbSymbolTable
 70
6
  0
LTYPE
  5
14
100
AcDbSymbolTableRecord
100
AcDbLinetypeTableRecord
  2
BYBLOCK
 70
0
  3

 72
65
 73
0
 40
0.0
  0
LTYPE
  5
15
100
AcDbSymbolTableRecord
100
AcDbLinetypeTableRecord
  2
BYLAYER
 70
0
  3

 72
65
 73
0
 40
0.0
  0
LTYPE
  5
16
100
AcDbSymbolTableRecord
100
AcDbLinetypeTableRecord
  2
CONTINUOUS
 70
64
  3
Solid line
 72
65
 73
0
 40
0.0
  0
LTYPE
  5
1F5
100
AcDbSymbolTableRecord
100
AcDbLinetypeTableRecord
  2
CENTER
 70
64
  3
____ _ ____ _ ____ _ ____ _ ____ _ ____ _ ____
 72
65
 73
4
 40
0.6
 49
0.375
 74
0
 49
-0.075
 74
0
 49
0.075
 74
0
 49
-0.075
 74
0
  0
LTYPE
  5
1F6
100
AcDbSymbolTableRecord
100
AcDbLinetypeTableRecord
  2
HIDDEN
 70
64
  3
- - - - - - - - - - - - - - - - - - - -
 72
65
 73
2
 40
0.2
 49
0.1
 74
0
 49
-0.1
 74
0
  0
LTYPE
  5
1F7
100
AcDbSymbolTableRecord
100
AcDbLinetypeTableRecord
  2
PHANTOM
 70
64
  3
_____ _ _ _____ _ _ _____ _ _ _____
 72
65
 73
6
 40
0.8
 49
0.45
 74
0
 49
-0.05
 74
0
 49
0.1
 74
0
 49
-0.05
 74
0
 49
0.1
 74
0
 49
-0.05
 74
0
  0
LTYPE
  5
1F8
100
AcDbSymbolTableRecord
100
AcDbLinetypeTableRecord
  2
DOT
 70
64
  3
. . . . . . . . . . . . . . . . . . . .
 72
65
 73
2
 40
0.2
 49
0.1
 74
0
 49
-0.1
 74
0
  0
LTYPE
  5
1F9
100
AcDbSymbolTableRecord
100
AcDbLinetypeTableRecord
  2
DASHED
 70
64
  3
- - - - - - - - - - - - - - - - - - - -
 72
65
 73
2
 40
0.2
 49
0.1
 74
0
 49
-0.1
 74
0
  0
ENDTAB
  0
TABLE
  2
LAYER
  5
2
100
AcDbSymbolTable
 70
36
  0
LAYER
  5
10
100
AcDbSymbolTableRecord
100
AcDbLayerTableRecord
  2
0
 70
0
 62
7
  6
CONTINUOUS
370
-3
390
F
  0
LAYER
  5
1FA
100
AcDbSymbolTableRecord
100
AcDbLayerTableRecord
  2
DEFAULT_1
 70
0
 62
7
  6
CENTER
370
-3
390
F
  0
LAYER
  5
1FB
100
AcDbSymbolTableRecord
100
AcDbLayerTableRecord
  2
DEFAULT_2
 70
0
 62
8
  6
HIDDEN
370
-3
390
F
  0
LAYER
  5
1FC
100
AcDbSymbolTableRecord
100
AcDbLayerTableRecord
  2
DEFAULT_3
 70
0
 62
7
  6
PHANTOM
370
-3
390
F
  0
LAYER
  5
1FD
100
AcDbSymbolTableRecord
100
AcDbLayerTableRecord
  2
00_COMPONENTS
 70
0
 62
7
  6
CONTINUOUS
370
-3
390
F
  0
LAYER
  5
1FE
100
AcDbSymbolTableRecord
100
AcDbLayerTableRecord
  2
01_1_DEFAULT_DATUMS
 70
0
 62
7
  6
CONTINUOUS
370
-3
390
F
  0
LAYER
  5
1FF
100
AcDbSymbolTableRecord
100
AcDbLayerTableRecord
  2
01_PLANES
 70
0
 62
7
  6
CONTINUOUS
370
-3
390
F
  0
LAYER
  5
200
100
AcDbSymbolTableRecord
100
AcDbLayerTableRecord
  2
02_COORD_SYS
 70
0
 62
7
  6
CONTINUOUS
370
-3
390
F
  0
LAYER
  5
201
100
AcDbSymbolTableRecord
100
AcDbLayerTableRecord
  2
03_AXES
 70
0
 62
7
  6
CONTINUOUS
370
-3
390
F
  0
LAYER
  5
202
100
AcDbSymbolTableRecord
100
AcDbLayerTableRecord
  2
04_POINTS
 70
0
 62
7
  6
CONTINUOUS
370
-3
390
F
  0
LAYER
  5
203
100
AcDbSymbolTableRecord
100
AcDbLayerTableRecord
  2
05_CURVES
 70
0
 62
7
  6
CONTINUOUS
370
-3
390
F
  0
LAYER
  5
204
100
AcDbSymbolTableRecord
100
AcDbLayerTableRecord
  2
06_SURFS
 70
0
 62
7
  6
CONTINUOUS
370
-3
390
F
  0
LAYER
  5
205
100
AcDbSymbolTableRecord
100
AcDbLayerTableRecord
  2
07_COSMETICS
 70
0
 62
7
  6
CONTINUOUS
370
-3
390
F
  0
LAYER
  5
206
100
AcDbSymbolTableRecord
100
AcDbLayerTableRecord
  2
10_NOTES
 70
0
 62
7
  6
CONTINUOUS
370
-3
390
F
  0
LAYER
  5
207
100
AcDbSymbolTableRecord
100
AcDbLayerTableRecord
  2
11_NOTES_PUB
 70
0
 62
7
  6
CONTINUOUS
370
-3
390
F
  0
LAYER
  5
208
100
AcDbSymbolTableRecord
100
AcDbLayerTableRecord
  2
13_REF_GTOL
 70
0
 62
7
  6
CONTINUOUS
370
-3
390
F
  0
LAYER
  5
209
100
AcDbSymbolTableRecord
100
AcDbLayerTableRecord
  2
16_MISC
 70
0
 62
7
  6
CONTINUOUS
370
-3
390
F
  0
LAYER
  5
20A
100
AcDbSymbolTableRecord
100
AcDbLayerTableRecord
  2
17_NO_PRINT
 70
0
 62
7
  6
CONTINUOUS
370
-3
390
F
  0
LAYER
  5
20B
100
AcDbSymbolTableRecord
100
AcDbLayerTableRecord
  2
18_DATUM_CAMS_JOINTS
 70
0
 62
7
  6
CONTINUOUS
370
-3
390
F
  0
LAYER
  5
20C
100
AcDbSymbolTableRecord
100
AcDbLayerTableRecord
  2
19_DATUM_FUNCTIONAL
 70
0
 62
7
  6
CONTINUOUS
370
-3
390
F
  0
LAYER
  5
20D
100
AcDbSymbolTableRecord
100
AcDbLayerTableRecord
  2
20_DATUM_KINEMATIC_SCHEME
 70
0
 62
7
  6
CONTINUOUS
370
-3
390
F
  0
ENDTAB
  0
TABLE
  2
STYLE
  5
3
100
AcDbSymbolTable
 70
1
  0
STYLE
  5
11
100
AcDbSymbolTableRecord
100
AcDbTextStyleTableRecord
  2
STANDARD
 70
0
 40
0.0
 41
0.8
 50
0.0
 71
0
 42
0.2
  3
txt
  4

  0
STYLE
  5
20E
100
AcDbSymbolTableRecord
100
AcDbTextStyleTableRecord
  2
TEXTSTYLE_1
 70
0
 40
0.0
 41
0.8
 50
0.0
 71
0
 42
0.2
  3
gdt
  4

  0
ENDTAB
  0
TABLE
  2
VIEW
  5
6
100
AcDbSymbolTable
 70
0
  0
ENDTAB
  0
TABLE
  2
UCS
  5
7
100
AcDbSymbolTable
 70
0
  0
ENDTAB
  0
TABLE
  2
APPID
  5
9
100
AcDbSymbolTable
 70
1
  0
APPID
  5
20F
100
AcDbSymbolTableRecord
100
AcDbRegAppTableRecord
  2
ACAD
 70
0
  0
ENDTAB
  0
TABLE
  2
BLOCK_RECORD
  5
1
100
AcDbSymbolTable
 70
0
  0
BLOCK_RECORD
  5
210
100
AcDbSymbolTableRecord
100
AcDbBlockTableRecord
  2
*Model_Space
  0
BLOCK_RECORD
  5
211
100
AcDbSymbolTableRecord
100
AcDbBlockTableRecord
  2
*Paper_Space
  0
BLOCK_RECORD
  5
212
100
AcDbSymbolTableRecord
100
AcDbBlockTableRecord
  2
_FILLED
  0
ENDTAB
  0
TABLE
  2
DIMSTYLE
  5
A
100
AcDbSymbolTable
 70
1
100
AcDbDimStyleTable
 71
0
  0
DIMSTYLE
105
213
100
AcDbSymbolTableRecord
100
AcDbDimStyleTableRecord
  2
STANDARD
 70
0
  3

  4

 40
1.0
 41
5.1442215258
 42
1.0
 43
0.38
 44
1.0
 45
0.0
 46
0.0
 47
0.01
 48
0.01
140
7.2019101361
141
0.09
142
0.0
143
25.4
144
1.0
145
0.0
146
1.0
147
0.625
 71
1
 72
0
 73
0
 74
0
 75
0
 76
0
 77
1
 78
8
 79
2
170
0
171
1
172
0
173
0
174
0
175
0
176
0
177
0
178
0
270
2
179
2
271
2
272
2
273
2
274
2
275
0
280
0
281
0
282
0
283
1
284
8
285
0
286
0
287
3
288
0
340
11
278
46
341
212
342
212
343
212
344
212
  0
ENDTAB
  0
ENDSEC
  0
SECTION
  2
BLOCKS
  0
BLOCK
  5
20
100
AcDbEntity
  8
0
100
AcDbBlockBegin
  2
*Model_Space
 70
0
 10
0.0
 20
0.0
 30
0.0
  3
*Model_Space
  1

  0
ENDBLK
  5
21
100
AcDbEntity
  8
0
100
AcDbBlockEnd
  0
BLOCK
  5
1C
100
AcDbEntity
  8
0
100
AcDbBlockBegin
  2
*Paper_Space
 70
0
 10
0.0
 20
0.0
 30
0.0
  3
*Paper_Space
  1

  0
ENDBLK
  5
1D
100
AcDbEntity
  8
0
100
AcDbBlockEnd
  0
BLOCK
  5
214
100
AcDbEntity
  8
0
100
AcDbBlockBegin
  2
_FILLED
 70
64
 10
0.0
 20
0.0
  3
_FILLED
  1

  0
SOLID
  5
215
100
AcDbEntity
  8
0
  6
BYBLOCK
 62
0
100
AcDbTrace
 10
0.0
 20
0.0
 11
-1.0
 21
0.25
 12
-1.0
 22
-0.25
 13
-1.0
 23
-0.25
  0
ENDBLK
  5
216
100
AcDbEntity
  8
0
  6
BYBLOCK
 62
0
100
AcDbBlockEnd
  0
ENDSEC
  0
SECTION
  2
ENTITIES
  0
LINE
  5
217
100
AcDbEntity
  8
0
100
AcDbLine
 62
7
  6
CONTINUOUS
 10
51.4022438961
 20
452.2086965461
 11
50.7579330159
 21
451.3105668861
  0
LINE
  5
218
100
AcDbEntity
  8
0
100
AcDbLine
 62
7
  6
CONTINUOUS
 10
260.8795625704
 20
87.3712600136
 11
261.9795200449
 21
87.4801800287
  0
LINE
  5
219
100
AcDbEntity
  8
0
100
AcDbLine
 62
7
  6
CONTINUOUS
 10
51.8579140781
 20
453.215784287
 11
51.4022438961
 21
452.2086965461
  0
LINE
  5
21A
100
AcDbEntity
  8
0
100
AcDbLine
 62
7
  6
CONTINUOUS
 10
50.4406733517
 20
424.2812894217
 11
50.1302698316
 21
423.6120582132
  0
LINE
  5
21B
100
AcDbEntity
  8
0
100
AcDbLine
 62
7
  6
CONTINUOUS
 10
52.6149701107
 20
425.8841011399
 11
52.3045665885
 21
425.2148699317
  0
LINE
  5
21C
100
AcDbEntity
  8
0
100
AcDbLine
 62
7
  6
CONTINUOUS
 10
52.3045665885
 20
425.2148699317
 11
53.0393465729
 21
426.1291220099
  0
LINE
  5
21D
100
AcDbEntity
  8
0
100
AcDbLine
 62
7
  6
CONTINUOUS
 10
53.1877342846
 20
425.3773366085
 11
53.9225142681
 21
426.2915886877
  0
LINE
  5
21E
100
AcDbEntity
  8
0
100
AcDbLine
 62
7
  6
CONTINUOUS
 10
176.6320191231
 20
525.2537725215
 11
51.857890216
 21
453.2158256176
  0
LINE
  5
21F
100
AcDbEntity
  8
0
100
AcDbLine
 62
7
  6
CONTINUOUS
 10
52.9578852914
 20
453.1068722038
 11
177.7320141985
 21
525.1448191077
  0
LINE
  5
220
100
AcDbEntity
  8
0
100
AcDbLine
 62
7
  6
CONTINUOUS
 10
239.0531962825
 20
101.7585506379
 11
240.2123527261
 21
101.9377652083
  0
LINE
  5
221
100
AcDbEntity
  8
0
100
AcDbLine
 62
7
  6
CONTINUOUS
 10
239.6354549169
 20
102.4422042048
 11
240.7946113612
 21
102.6214187734
  0
LINE
  5
222
100
AcDbEntity
  8
0
100
AcDbLine
 62
7
  6
CONTINUOUS
 10
237.3127704445
 20
100.6111195071
 11
236.577990464
 21
100.6769258096
  0
LINE
  5
223
100
AcDbEntity
  8
0
100
AcDbLine
 62
7
  6
CONTINUOUS
 10
239.7879762639
 20
101.6927443382
 11
239.0531962825
 21
101.758550638
  0
LINE
  5
224
100
AcDbEntity
  8
0
100
AcDbLine
 62
7
  6
CONTINUOUS
 10
261.9795200449
 20
87.4801800287
 11
263.0794912582
 21
87.3712679456
  0
LINE
  5
225
100
AcDbEntity
  8
0
100
AcDbLine
 62
7
  6
CONTINUOUS
 10
58.2189402025
 20
423.8111021341
 11
64.3423707077
 21
427.3464452815
  0
LINE
  5
226
100
AcDbEntity
  8
0
100
AcDbLine
 62
7
  6
CONTINUOUS
 10
50.1302698316
 20
211.8505986781
 11
50.1302698316
 21
423.6120582132
  0
LINE
  5
227
100
AcDbEntity
  8
0
100
AcDbLine
 62
7
  6
CONTINUOUS
 10
50.7578852914
 20
209.5441990099
 11
50.7578852914
 21
211.1319483882
  0
LINE
  5
228
100
AcDbEntity
  8
0
100
AcDbLine
 62
7
  6
CONTINUOUS
 10
50.7578852914
 20
424.5464316018
 11
50.7578852914
 21
451.3105668861
  0
LINE
  5
229
100
AcDbEntity
  8
0
100
AcDbLine
 62
7
  6
CONTINUOUS
 10
51.4022568496
 20
209.0543152441
 11
51.4022568496
 21
210.4520823168
  0
LINE
  5
22A
100
AcDbEntity
  8
0
100
AcDbLine
 62
7
  6
CONTINUOUS
 10
51.4022568496
 20
425.0576828641
 11
51.4022568496
 21
450.4124297476
  0
LINE
  5
22B
100
AcDbEntity
  8
0
100
AcDbLine
 62
7
  6
CONTINUOUS
 10
55.038607643
 20
422.7909657504
 11
55.038607643
 21
211.154007616
  0
LINE
  5
22C
100
AcDbEntity
  8
0
100
AcDbLine
 62
7
  6
CONTINUOUS
 10
243.4722768227
 20
132.3987300698
 11
248.1567733497
 21
131.6740583637
  0
LINE
  5
22D
100
AcDbEntity
  8
0
100
AcDbLine
 62
7
  6
CONTINUOUS
 10
248.5449958849
 20
132.510563642
 11
243.8604993569
 21
133.2352353482
  0
LINE
  5
22E
100
AcDbEntity
  8
0
100
AcDbLine
 62
7
  6
CONTINUOUS
 10
236.577990464
 20
100.6769258096
 11
53.1877342843
 21
206.5549443009
  0
LINE
  5
22F
100
AcDbEntity
  8
0
100
AcDbLine
 62
7
  6
CONTINUOUS
 10
260.5259777365
 20
87.5753425872
 11
237.7007686238
 21
100.7531850901
  0
LINE
  5
230
100
AcDbEntity
  8
0
100
AcDbLine
 62
7
  6
CONTINUOUS
 10
52.8792660238
 20
207.4575153938
 11
51.5043433289
 21
208.2513094237
  0
LINE
  5
231
100
AcDbEntity
  8
0
100
AcDbLine
 62
7
  6
CONTINUOUS
 10
260.423891603
 20
88.3783482079
 11
238.4657347969
 21
101.0556091529
  0
LINE
  5
232
100
AcDbEntity
  8
0
100
AcDbLine
 62
7
  6
CONTINUOUS
 10
52.6126466207
 20
208.355512193
 11
51.4022568496
 21
209.0543152441
  0
LINE
  5
233
100
AcDbEntity
  8
0
100
AcDbLine
 62
7
  6
CONTINUOUS
 10
55.038607643
 20
211.154007616
 11
238.3210427685
 21
105.3382382311
  0
LINE
  5
234
100
AcDbEntity
  8
0
100
AcDbLine
 62
7
  6
CONTINUOUS
 10
50.7578852914
 20
209.5441993179
 11
51.4022568496
 21
209.0543152441
  0
LINE
  5
235
100
AcDbEntity
  8
0
100
AcDbLine
 62
7
  6
CONTINUOUS
 10
51.4022568496
 20
209.0543152441
 11
51.5043430621
 21
208.2513095778
  0
LINE
  5
236
100
AcDbEntity
  8
0
100
AcDbLine
 62
7
  6
CONTINUOUS
 10
57.1633221584
 20
212.3807203072
 11
57.1633221584
 21
421.4778200099
  0
LINE
  5
237
100
AcDbEntity
  8
0
100
AcDbLine
 62
7
  6
CONTINUOUS
 10
63.4938331496
 20
429.4693215124
 11
63.4938331496
 21
426.8565448182
  0
LINE
  5
238
100
AcDbEntity
  8
0
100
AcDbLine
 62
7
  6
CONTINUOUS
 10
64.3423707077
 20
417.3330881638
 11
64.3423707077
 21
216.5255211786
  0
LINE
  5
239
100
AcDbEntity
  8
0
100
AcDbLine
 62
7
  6
CONTINUOUS
 10
64.9867293124
 20
216.8975304804
 11
64.9867293124
 21
416.961075966
  0
LINE
  5
23A
100
AcDbEntity
  8
0
100
AcDbLine
 62
7
  6
CONTINUOUS
 10
238.2461629165
 20
107.8348585934
 11
57.1633221584
 21
212.3807203072
  0
LINE
  5
23B
100
AcDbEntity
  8
0
100
AcDbLine
 62
7
  6
CONTINUOUS
 10
246.0695610171
 20
110.6278286851
 11
248.332315303
 21
109.3214564431
  0
LINE
  5
23C
100
AcDbEntity
  8
0
100
AcDbLine
 62
7
  6
CONTINUOUS
 10
64.3423707077
 20
216.5255211786
 11
238.2461629165
 21
116.1243913108
  0
LINE
  5
23D
100
AcDbEntity
  8
0
100
AcDbLine
 62
7
  6
CONTINUOUS
 10
238.2461629165
 20
116.8684128105
 11
64.9867293124
 21
216.8975304804
  0
LINE
  5
23E
100
AcDbEntity
  8
0
100
AcDbLine
 62
7
  6
CONTINUOUS
 10
243.4722768223
 20
162.3643687785
 11
248.1567733497
 21
161.6396970724
  0
LINE
  5
23F
100
AcDbEntity
  8
0
100
AcDbLine
 62
7
  6
CONTINUOUS
 10
248.5449958849
 20
162.4762023507
 11
243.8604993573
 21
163.2008740568
  0
LINE
  5
240
100
AcDbEntity
  8
0
100
AcDbLine
 62
7
  6
CONTINUOUS
 10
254.9084445787
 20
125.2842021838
 11
251.9161360967
 21
127.0117732084
  0
LINE
  5
241
100
AcDbEntity
  8
0
100
AcDbLine
 62
7
  6
CONTINUOUS
 10
245.6453690026
 20
131.2855418434
 11
244.5847044149
 21
131.8979029752
  0
LINE
  5
242
100
AcDbEntity
  8
0
100
AcDbLine
 62
7
  6
CONTINUOUS
 10
246.9568093153
 20
111.0609099252
 11
247.1204452218
 21
110.9148263135
  0
LINE
  5
243
100
AcDbEntity
  8
0
100
AcDbLine
 62
7
  6
CONTINUOUS
 10
142.7524359856
 20
213.7855243326
 11
238.2461629165
 21
158.6534426375
  0
LINE
  5
244
100
AcDbEntity
  8
0
100
AcDbLine
 62
7
  6
CONTINUOUS
 10
238.2461629165
 20
158.8983889273
 11
142.9024353609
 21
213.9438704019
  0
LINE
  5
245
100
AcDbEntity
  8
0
100
AcDbLine
 62
7
  6
CONTINUOUS
 10
144.6923774023
 20
217.0441581702
 11
238.2461629165
 21
163.0320768365
  0
LINE
  5
246
100
AcDbEntity
  8
0
100
AcDbLine
 62
7
  6
CONTINUOUS
 10
238.2461629165
 20
164.0935107592
 11
145.3423746964
 21
217.73032447
  0
LINE
  5
247
100
AcDbEntity
  8
0
100
AcDbLine
 62
7
  6
CONTINUOUS
 10
244.5847044149
 20
161.8635416839
 11
245.6453690026
 21
161.2511805521
  0
LINE
  5
248
100
AcDbEntity
  8
0
100
AcDbLine
 62
7
  6
CONTINUOUS
 10
177.840097552
 20
203.8332491787
 11
238.2461629165
 21
168.9585800201
  0
LINE
  5
249
100
AcDbEntity
  8
0
100
AcDbLine
 62
7
  6
CONTINUOUS
 10
238.2461629165
 20
169.5335057465
 11
178.6900831034
 21
203.9174465898
  0
LINE
  5
24A
100
AcDbEntity
  8
0
100
AcDbLine
 62
7
  6
CONTINUOUS
 10
246.9181017406
 20
111.1177583615
 11
247.1204515577
 21
110.9148327313
  0
LINE
  5
24B
100
AcDbEntity
  8
0
100
AcDbLine
 62
7
  6
CONTINUOUS
 10
64.2678098315
 20
427.6231363166
 11
64.3423707077
 21
427.3464452815
  0
LINE
  5
24C
100
AcDbEntity
  8
0
100
AcDbLine
 62
7
  6
CONTINUOUS
 10
238.2461629165
 20
171.0813964221
 11
180.8806440254
 21
204.2006449386
  0
LINE
  5
24D
100
AcDbEntity
  8
0
100
AcDbLine
 62
7
  6
CONTINUOUS
 10
238.2461629165
 20
173.8574691384
 11
182.0827205612
 21
206.2827140939
  0
LINE
  5
24E
100
AcDbEntity
  8
0
100
AcDbLine
 62
7
  6
CONTINUOUS
 10
248.5444570524
 20
168.1504849967
 11
250.1225460841
 21
167.239395481
  0
LINE
  5
24F
100
AcDbEntity
  8
0
100
AcDbLine
 62
7
  6
CONTINUOUS
 10
251.9161360967
 20
166.2038892307
 11
254.9084445787
 21
164.476318206
  0
LINE
  5
250
100
AcDbEntity
  8
0
100
AcDbLine
 62
7
  6
CONTINUOUS
 10
255.9691003345
 20
165.0886844368
 11
249.6051128082
 21
168.7628512275
  0
LINE
  5
251
100
AcDbEntity
  8
0
100
AcDbLine
 62
7
  6
CONTINUOUS
 10
238.2461629165
 20
175.4904321148
 11
155.2125392172
 21
223.4288325978
  0
LINE
  5
252
100
AcDbEntity
  8
0
100
AcDbLine
 62
7
  6
CONTINUOUS
 10
228.7515738172
 20
233.226828272
 11
229.6015593828
 21
233.3110256685
  0
LINE
  5
253
100
AcDbEntity
  8
0
100
AcDbLine
 62
7
  6
CONTINUOUS
 10
51.4022568496
 20
450.4124297476
 11
63.4938331496
 21
429.4693215124
  0
LINE
  5
254
100
AcDbEntity
  8
0
100
AcDbLine
 62
7
  6
CONTINUOUS
 10
260.423891603
 20
88.3783482079
 11
248.332315303
 21
109.3214564431
  0
LINE
  5
255
100
AcDbEntity
  8
0
100
AcDbLine
 62
7
  6
CONTINUOUS
 10
155.2124332344
 20
237.1457580483
 11
155.2124332344
 21
238.1255609489
  0
LINE
  5
256
100
AcDbEntity
  8
0
100
AcDbLine
 62
7
  6
CONTINUOUS
 10
199.0529771244
 20
247.7601672373
 11
238.2461629165
 21
225.1324827765
  0
LINE
  5
257
100
AcDbEntity
  8
0
100
AcDbLine
 62
7
  6
CONTINUOUS
 10
199.0529771244
 20
248.7399701379
 11
238.2461629165
 21
226.112285677
  0
LINE
  5
258
100
AcDbEntity
  8
0
100
AcDbLine
 62
7
  6
CONTINUOUS
 10
228.7515738047
 20
233.2268282648
 11
238.2461629165
 21
227.745248699
  0
LINE
  5
259
100
AcDbEntity
  8
0
100
AcDbLine
 62
7
  6
CONTINUOUS
 10
229.6015593828
 20
233.3110256685
 11
238.2461629165
 21
228.3201743995
  0
LINE
  5
25A
100
AcDbEntity
  8
0
100
AcDbLine
 62
7
  6
CONTINUOUS
 10
238.2461629165
 20
229.8680650751
 11
231.7921203048
 21
233.5942240173
  0
LINE
  5
25B
100
AcDbEntity
  8
0
100
AcDbLine
 62
7
  6
CONTINUOUS
 10
238.2461629165
 20
232.6441377453
 11
232.994196828
 21
235.676293188
  0
LINE
  5
25C
100
AcDbEntity
  8
0
100
AcDbLine
 62
7
  6
CONTINUOUS
 10
229.6015593828
 20
233.3110256685
 11
229.4884106913
 21
233.3889031595
  0
LINE
  5
25D
100
AcDbEntity
  8
0
100
AcDbLine
 62
7
  6
CONTINUOUS
 10
173.5971330019
 20
248.7399089495
 11
173.5971330019
 21
247.760106049
  0
LINE
  5
25E
100
AcDbEntity
  8
0
100
AcDbLine
 62
7
  6
CONTINUOUS
 10
174.6699981559
 20
353.6368437591
 11
174.6699981559
 21
280.9156352271
  0
LINE
  5
25F
100
AcDbEntity
  8
0
100
AcDbLine
 62
7
  6
CONTINUOUS
 10
176.2562265184
 20
280.6663704288
 11
176.2562265184
 21
352.721055105
  0
LINE
  5
260
100
AcDbEntity
  8
0
100
AcDbLine
 62
7
  6
CONTINUOUS
 10
178.3956169968
 20
351.4859053792
 11
178.3956169968
 21
282.4228364585
  0
LINE
  5
261
100
AcDbEntity
  8
0
100
AcDbLine
 62
7
  6
CONTINUOUS
 10
178.8249935924
 20
282.6219183212
 11
178.8249935924
 21
351.2380102942
  0
LINE
  5
262
100
AcDbEntity
  8
0
100
AcDbLine
 62
7
  6
CONTINUOUS
 10
243.4722768227
 20
264.6721216448
 11
248.1567733497
 21
263.9474499387
  0
LINE
  5
263
100
AcDbEntity
  8
0
100
AcDbLine
 62
7
  6
CONTINUOUS
 10
248.5449958849
 20
264.783955217
 11
243.8604993569
 21
265.5086269232
  0
LINE
  5
264
100
AcDbEntity
  8
0
100
AcDbLine
 62
7
  6
CONTINUOUS
 10
208.9231416455
 20
254.4384782655
 11
238.2461629165
 21
237.5092070326
  0
LINE
  5
265
100
AcDbEntity
  8
0
100
AcDbLine
 62
7
  6
CONTINUOUS
 10
238.2461629165
 20
237.9488561004
 11
209.5731389393
 21
254.5028597105
  0
LINE
  5
266
100
AcDbEntity
  8
0
100
AcDbLine
 62
7
  6
CONTINUOUS
 10
238.2461629165
 20
238.0502606516
 11
211.5130803561
 21
253.4842639002
  0
LINE
  5
267
100
AcDbEntity
  8
0
100
AcDbLine
 62
7
  6
CONTINUOUS
 10
238.2461629165
 20
243.5209977938
 11
175.2730761904
 21
279.8777038682
  0
LINE
  5
268
100
AcDbEntity
  8
0
100
AcDbLine
 62
7
  6
CONTINUOUS
 10
238.2461629165
 20
245.3526272565
 11
175.8503271155
 21
281.3760648935
  0
LINE
  5
269
100
AcDbEntity
  8
0
100
AcDbLine
 62
7
  6
CONTINUOUS
 10
178.0845801208
 20
282.556495068
 11
238.2461629165
 21
247.8229748233
  0
LINE
  5
26A
100
AcDbEntity
  8
0
100
AcDbLine
 62
7
  6
CONTINUOUS
 10
238.2461629165
 20
248.3158663229
 11
178.8249935924
 21
282.6219183211
  0
LINE
  5
26B
100
AcDbEntity
  8
0
100
AcDbLine
 62
7
  6
CONTINUOUS
 10
185.0506201671
 20
286.2159678996
 11
238.2461629165
 21
255.5042017666
  0
LINE
  5
26C
100
AcDbEntity
  8
0
100
AcDbLine
 62
7
  6
CONTINUOUS
 10
50.7579330159
 20
451.3105668861
 11
51.4022568496
 21
450.4124297476
  0
LINE
  5
26D
100
AcDbEntity
  8
0
100
AcDbLine
 62
7
  6
CONTINUOUS
 10
258.4439932044
 20
158.3526023477
 11
254.9084445787
 21
164.476318206
  0
LINE
  5
26E
100
AcDbEntity
  8
0
100
AcDbLine
 62
7
  6
CONTINUOUS
 10
255.9691003345
 20
165.0886844368
 11
259.5046489603
 21
158.9649685785
  0
LINE
  5
26F
100
AcDbEntity
  8
0
100
AcDbLine
 62
7
  6
CONTINUOUS
 10
260.423891603
 20
88.3783482079
 11
260.8795625704
 21
87.3712600136
  0
LINE
  5
270
100
AcDbEntity
  8
0
100
AcDbLine
 62
7
  6
CONTINUOUS
 10
185.0506201671
 20
347.643724429
 11
185.0506201671
 21
286.2159678996
  0
LINE
  5
271
100
AcDbEntity
  8
0
100
AcDbLine
 62
7
  6
CONTINUOUS
 10
185.8991447718
 20
286.7058608843
 11
185.8991447718
 21
347.1538396028
  0
LINE
  5
272
100
AcDbEntity
  8
0
100
AcDbLine
 62
7
  6
CONTINUOUS
 10
199.0529771244
 20
247.7601672373
 11
199.0529771244
 21
248.7399701379
  0
LINE
  5
273
100
AcDbEntity
  8
0
100
AcDbLine
 62
7
  6
CONTINUOUS
 10
197.9146329601
 20
285.7614481167
 11
198.1923281397
 21
287.4353590764
  0
LINE
  5
274
100
AcDbEntity
  8
0
100
AcDbLine
 62
7
  6
CONTINUOUS
 10
142.9024353609
 20
213.9438704019
 11
144.6923774023
 21
217.0441581702
  0
LINE
  5
275
100
AcDbEntity
  8
0
100
AcDbLine
 62
7
  6
CONTINUOUS
 10
185.8991447718
 20
286.7058608843
 11
190.8706156751
 21
283.8356288996
  0
LINE
  5
276
100
AcDbEntity
  8
0
100
AcDbLine
 62
7
  6
CONTINUOUS
 10
193.6560329077
 20
282.2275110735
 11
238.2461629165
 21
256.4839723848
  0
LINE
  5
277
100
AcDbEntity
  8
0
100
AcDbLine
 62
7
  6
CONTINUOUS
 10
254.9084445787
 20
257.5575937588
 11
251.9161360967
 21
259.2851647834
  0
LINE
  5
278
100
AcDbEntity
  8
0
100
AcDbLine
 62
7
  6
CONTINUOUS
 10
245.6453690026
 20
263.5589334184
 11
244.5847044149
 21
264.1712945502
  0
LINE
  5
279
100
AcDbEntity
  8
0
100
AcDbLine
 62
7
  6
CONTINUOUS
 10
55.038607643
 20
422.7909657504
 11
52.3045643147
 21
425.2148721648
  0
LINE
  5
27A
100
AcDbEntity
  8
0
100
AcDbLine
 62
7
  6
CONTINUOUS
 10
52.6149678411
 20
425.8841033689
 11
52.730955628
 21
425.7812726867
  0
LINE
  5
27B
100
AcDbEntity
  8
0
100
AcDbLine
 62
7
  6
CONTINUOUS
 10
239.0531970798
 20
101.7585475513
 11
238.3210427685
 21
105.3382382311
  0
LINE
  5
27C
100
AcDbEntity
  8
0
100
AcDbLine
 62
7
  6
CONTINUOUS
 10
239.7569150898
 20
101.8446112146
 11
239.7879770593
 21
101.6927412592
  0
LINE
  5
27D
100
AcDbEntity
  8
0
100
AcDbLine
 62
7
  6
CONTINUOUS
 10
386.7536489519
 20
404.4688520714
 11
261.9795200449
 21
332.4309051676
  0
LINE
  5
27E
100
AcDbEntity
  8
0
100
AcDbLine
 62
7
  6
CONTINUOUS
 10
246.0695700705
 20
322.4285713697
 11
239.4492779744
 21
318.6063667615
  0
LINE
  5
27F
100
AcDbEntity
  8
0
100
AcDbLine
 62
7
  6
CONTINUOUS
 10
246.0695700705
 20
321.4487684692
 11
239.2100010228
 21
317.4884180731
  0
LINE
  5
280
100
AcDbEntity
  8
0
100
AcDbLine
 62
7
  6
CONTINUOUS
 10
261.2724162077
 20
330.2263556961
 11
248.332315303
 21
322.7551882808
  0
LINE
  5
281
100
AcDbEntity
  8
0
100
AcDbLine
 62
7
  6
CONTINUOUS
 10
238.3210427684
 20
316.9751963655
 11
239.0531970791
 21
317.3979376949
  0
LINE
  5
282
100
AcDbEntity
  8
0
100
AcDbLine
 62
7
  6
CONTINUOUS
 10
51.4022568496
 20
209.0543152441
 11
55.038607643
 21
211.154007616
  0
LINE
  5
283
100
AcDbEntity
  8
0
100
AcDbLine
 62
7
  6
CONTINUOUS
 10
64.3423707077
 20
216.5255211786
 11
57.1633221584
 21
212.3807203072
  0
LINE
  5
284
100
AcDbEntity
  8
0
100
AcDbLine
 62
7
  6
CONTINUOUS
 10
185.0506201671
 20
286.2159678996
 11
185.8991447718
 21
286.7058608843
  0
LINE
  5
285
100
AcDbEntity
  8
0
100
AcDbLine
 62
7
  6
CONTINUOUS
 10
64.9867293124
 20
216.8972531518
 11
175.3911568524
 21
280.6388986255
  0
LINE
  5
286
100
AcDbEntity
  8
0
100
AcDbLine
 62
7
  6
CONTINUOUS
 10
240.2977860242
 20
317.1366613183
 11
246.9181017407
 21
320.9588795638
  0
LINE
  5
287
100
AcDbEntity
  8
0
100
AcDbLine
 62
7
  6
CONTINUOUS
 10
263.5351614402
 20
329.73647019
 11
388.3092903473
 21
401.7744170938
  0
LINE
  5
288
100
AcDbEntity
  8
0
100
AcDbLine
 62
7
  6
CONTINUOUS
 10
243.4722768223
 20
294.6377603535
 11
248.1567733497
 21
293.9130886474
  0
LINE
  5
289
100
AcDbEntity
  8
0
100
AcDbLine
 62
7
  6
CONTINUOUS
 10
248.5449958849
 20
294.7495939256
 11
243.8604993573
 21
295.4742656318
  0
LINE
  5
28A
100
AcDbEntity
  8
0
100
AcDbLine
 62
7
  6
CONTINUOUS
 10
244.5847044149
 20
294.1369332589
 11
245.6453690026
 21
293.5245721271
  0
LINE
  5
28B
100
AcDbEntity
  8
0
100
AcDbLine
 62
7
  6
CONTINUOUS
 10
55.038607643
 20
422.7909657503
 11
55.4800523731
 21
422.4496342882
  0
LINE
  5
28C
100
AcDbEntity
  8
0
100
AcDbLine
 62
7
  6
CONTINUOUS
 10
238.2461629165
 20
105.8911838298
 11
238.3210427684
 21
105.3382382311
  0
LINE
  5
28D
100
AcDbEntity
  8
0
100
AcDbLine
 62
7
  6
CONTINUOUS
 10
238.2461629165
 20
316.9751963655
 11
238.2461629165
 21
105.8911846255
  0
LINE
  5
28E
100
AcDbEntity
  8
0
100
AcDbLine
 62
7
  6
CONTINUOUS
 10
238.3210427685
 20
105.3382382311
 11
238.3210427685
 21
316.9751963655
  0
LINE
  5
28F
100
AcDbEntity
  8
0
100
AcDbLine
 62
7
  6
CONTINUOUS
 10
239.6354552461
 20
102.4421993773
 11
239.635455246
 21
314.2036671478
  0
LINE
  5
290
100
AcDbEntity
  8
0
100
AcDbLine
 62
7
  6
CONTINUOUS
 10
237.3127704449
 20
320.4135701981
 11
236.5779904637
 21
319.4993181176
  0
LINE
  5
291
100
AcDbEntity
  8
0
100
AcDbLine
 62
7
  6
CONTINUOUS
 10
239.0531962823
 20
317.3979374521
 11
239.7879762641
 21
318.3121895319
  0
LINE
  5
292
100
AcDbEntity
  8
0
100
AcDbLine
 62
7
  6
CONTINUOUS
 10
161.1369260169
 20
253.4841428108
 11
142.7522262498
 21
242.8697948104
  0
LINE
  5
293
100
AcDbEntity
  8
0
100
AcDbLine
 62
7
  6
CONTINUOUS
 10
163.0768835875
 20
254.5027479473
 11
142.902226874
 21
242.8549382748
  0
LINE
  5
294
100
AcDbEntity
  8
0
100
AcDbLine
 62
7
  6
CONTINUOUS
 10
145.3421865263
 20
243.8240216266
 11
163.7268862934
 21
254.438369627
  0
LINE
  5
295
100
AcDbEntity
  8
0
100
AcDbLine
 62
7
  6
CONTINUOUS
 10
246.0695789023
 20
301.0362343041
 11
241.6790980162
 21
298.5014041135
  0
LINE
  5
296
100
AcDbEntity
  8
0
100
AcDbLine
 62
7
  6
CONTINUOUS
 10
242.7397626038
 20
297.8890429817
 11
247.13024349
 21
300.4238731723
  0
LINE
  5
297
100
AcDbEntity
  8
0
100
AcDbLine
 62
7
  6
CONTINUOUS
 10
240.7946113612
 20
314.3828783045
 11
239.6354549169
 21
314.2036637402
  0
LINE
  5
298
100
AcDbEntity
  8
0
100
AcDbLine
 62
7
  6
CONTINUOUS
 10
239.0531962825
 20
317.3979374522
 11
240.2123527261
 21
317.5771520181
  0
LINE
  5
299
100
AcDbEntity
  8
0
100
AcDbLine
 62
7
  6
CONTINUOUS
 10
248.5444570524
 20
300.4238765717
 11
250.1225460841
 21
299.512787056
  0
LINE
  5
29A
100
AcDbEntity
  8
0
100
AcDbLine
 62
7
  6
CONTINUOUS
 10
251.9161360967
 20
298.4772808057
 11
254.9084445787
 21
296.749709781
  0
LINE
  5
29B
100
AcDbEntity
  8
0
100
AcDbLine
 62
7
  6
CONTINUOUS
 10
255.9691003345
 20
297.3620760118
 11
249.6051128082
 21
301.0362428025
  0
LINE
  5
29C
100
AcDbEntity
  8
0
100
AcDbLine
 62
7
  6
CONTINUOUS
 10
55.4800530622
 20
422.4496338903
 11
238.2836010192
 21
316.9103438863
  0
LINE
  5
29D
100
AcDbEntity
  8
0
100
AcDbLine
 62
7
  6
CONTINUOUS
 10
238.3210427684
 20
316.9751963655
 11
55.038607643
 21
422.7909657503
  0
LINE
  5
29E
100
AcDbEntity
  8
0
100
AcDbLine
 62
7
  6
CONTINUOUS
 10
236.5779935774
 20
319.4993166997
 11
53.18773027
 21
425.3773393062
  0
LINE
  5
29F
100
AcDbEntity
  8
0
100
AcDbLine
 62
7
  6
CONTINUOUS
 10
240.7946113612
 20
102.6214187734
 11
240.7946113612
 21
314.3828783045
  0
LINE
  5
2A0
100
AcDbEntity
  8
0
100
AcDbLine
 62
7
  6
CONTINUOUS
 10
242.2161528549
 20
132.7365072453
 11
242.2161528549
 21
153.4756686404
  0
LINE
  5
2A1
100
AcDbEntity
  8
0
100
AcDbLine
 62
7
  6
CONTINUOUS
 10
242.2161528549
 20
265.0098988203
 11
242.2161528549
 21
285.7490602154
  0
LINE
  5
2A2
100
AcDbEntity
  8
0
100
AcDbLine
 62
7
  6
CONTINUOUS
 10
242.7397626038
 20
163.6546076072
 11
242.7397626038
 21
165.6156514067
  0
LINE
  5
2A3
100
AcDbEntity
  8
0
100
AcDbLine
 62
7
  6
CONTINUOUS
 10
242.7397626038
 20
295.9279991822
 11
242.7397626038
 21
297.8890429817
  0
LINE
  5
2A4
100
AcDbEntity
  8
0
100
AcDbLine
 62
7
  6
CONTINUOUS
 10
243.0754218781
 20
285.487103454
 11
243.0754218781
 21
265.7197376577
  0
LINE
  5
2A5
100
AcDbEntity
  8
0
100
AcDbLine
 62
7
  6
CONTINUOUS
 10
243.0754218781
 20
153.213711879
 11
243.0754218781
 21
133.4463460827
  0
LINE
  5
2A6
100
AcDbEntity
  8
0
100
AcDbLine
 62
7
  6
CONTINUOUS
 10
243.383854288
 20
120.9976385681
 11
243.383854288
 21
130.2241158817
  0
LINE
  5
2A7
100
AcDbEntity
  8
0
100
AcDbLine
 62
7
  6
CONTINUOUS
 10
243.383854288
 20
150.9632772768
 11
243.383854288
 21
160.1897545903
  0
LINE
  5
2A8
100
AcDbEntity
  8
0
100
AcDbLine
 62
7
  6
CONTINUOUS
 10
243.383854288
 20
253.2710301431
 11
243.383854288
 21
262.4975074567
  0
LINE
  5
2A9
100
AcDbEntity
  8
0
100
AcDbLine
 62
7
  6
CONTINUOUS
 10
243.383854288
 20
283.2366688518
 11
243.383854288
 21
292.4631461653
  0
LINE
  5
2AA
100
AcDbEntity
  8
0
100
AcDbLine
 62
7
  6
CONTINUOUS
 10
243.4722768223
 20
130.632290924
 11
243.4722768223
 21
132.3987300699
  0
LINE
  5
2AB
100
AcDbEntity
  8
0
100
AcDbLine
 62
7
  6
CONTINUOUS
 10
243.4722768223
 20
160.5979296326
 11
243.4722768223
 21
162.3643687786
  0
LINE
  5
2AC
100
AcDbEntity
  8
0
100
AcDbLine
 62
7
  6
CONTINUOUS
 10
243.4722768223
 20
262.905682499
 11
243.4722768223
 21
264.6721216449
  0
LINE
  5
2AD
100
AcDbEntity
  8
0
100
AcDbLine
 62
7
  6
CONTINUOUS
 10
243.4722768223
 20
292.8713212076
 11
243.4722768223
 21
294.6377603536
  0
LINE
  5
2AE
100
AcDbEntity
  8
0
100
AcDbLine
 62
7
  6
CONTINUOUS
 10
245.6453690026
 20
129.1947492385
 11
245.6453690026
 21
131.2855418434
  0
LINE
  5
2AF
100
AcDbEntity
  8
0
100
AcDbLine
 62
7
  6
CONTINUOUS
 10
245.6453690026
 20
159.1603879472
 11
245.6453690026
 21
161.2511805521
  0
LINE
  5
2B0
100
AcDbEntity
  8
0
100
AcDbLine
 62
7
  6
CONTINUOUS
 10
245.6453690026
 20
261.4681408135
 11
245.6453690026
 21
263.5589334184
  0
LINE
  5
2B1
100
AcDbEntity
  8
0
100
AcDbLine
 62
7
  6
CONTINUOUS
 10
245.6453690026
 20
291.4337795222
 11
245.6453690026
 21
293.5245721271
  0
LINE
  5
2B2
100
AcDbEntity
  8
0
100
AcDbLine
 62
7
  6
CONTINUOUS
 10
246.0695700705
 20
322.4285713697
 11
246.0695700705
 21
321.4487684692
  0
LINE
  5
2B3
100
AcDbEntity
  8
0
100
AcDbLine
 62
7
  6
CONTINUOUS
 10
246.9181017406
 20
320.9588795638
 11
246.9181017406
 21
301.2852949416
  0
LINE
  5
2B4
100
AcDbEntity
  8
0
100
AcDbLine
 62
7
  6
CONTINUOUS
 10
246.9181017406
 20
251.0410312044
 11
246.9181017406
 21
169.0119033666
  0
LINE
  5
2B5
100
AcDbEntity
  8
0
100
AcDbLine
 62
7
  6
CONTINUOUS
 10
246.9181017406
 20
118.7676396294
 11
246.9181017406
 21
111.1177583614
  0
LINE
  5
2B6
100
AcDbEntity
  8
0
100
AcDbLine
 62
7
  6
CONTINUOUS
 10
247.13024349
 20
300.4238731723
 11
247.13024349
 21
294.9684501092
  0
LINE
  5
2B7
100
AcDbEntity
  8
0
100
AcDbLine
 62
7
  6
CONTINUOUS
 10
247.13024349
 20
280.9872786611
 11
247.13024349
 21
265.0028114005
  0
LINE
  5
2B8
100
AcDbEntity
  8
0
100
AcDbLine
 62
7
  6
CONTINUOUS
 10
247.13024349
 20
168.1504815973
 11
247.13024349
 21
162.6950585342
  0
LINE
  5
2B9
100
AcDbEntity
  8
0
100
AcDbLine
 62
7
  6
CONTINUOUS
 10
247.13024349
 20
148.7138870861
 11
247.13024349
 21
132.7294198255
  0
LINE
  5
2BA
100
AcDbEntity
  8
0
100
AcDbLine
 62
7
  6
CONTINUOUS
 10
248.1567733493
 20
293.9130886475
 11
248.1567733492
 21
291.0884097825
  0
LINE
  5
2BB
100
AcDbEntity
  8
0
100
AcDbLine
 62
7
  6
CONTINUOUS
 10
248.1567733493
 20
263.9474499388
 11
248.1567733493
 21
261.1227710738
  0
LINE
  5
2BC
100
AcDbEntity
  8
0
100
AcDbLine
 62
7
  6
CONTINUOUS
 10
248.1567733493
 20
161.6396970725
 11
248.1567733492
 21
158.8150182075
  0
LINE
  5
2BD
100
AcDbEntity
  8
0
100
AcDbLine
 62
7
  6
CONTINUOUS
 10
248.1567733493
 20
131.6740583638
 11
248.1567733493
 21
128.8493794988
  0
LINE
  5
2BE
100
AcDbEntity
  8
0
100
AcDbLine
 62
7
  6
CONTINUOUS
 10
248.332315303
 20
109.3214564431
 11
248.332315303
 21
118.7230289415
  0
LINE
  5
2BF
100
AcDbEntity
  8
0
100
AcDbLine
 62
7
  6
CONTINUOUS
 10
248.332315303
 20
169.1364383718
 11
248.332315303
 21
250.9964205164
  0
LINE
  5
2C0
100
AcDbEntity
  8
0
100
AcDbLine
 62
7
  6
CONTINUOUS
 10
248.332315303
 20
301.4098299468
 11
248.332315303
 21
322.7551882808
  0
LINE
  5
2C1
100
AcDbEntity
  8
0
100
AcDbLine
 62
7
  6
CONTINUOUS
 10
248.5444570524
 20
132.510563642
 11
248.5444570524
 21
148.7508221514
  0
LINE
  5
2C2
100
AcDbEntity
  8
0
100
AcDbLine
 62
7
  6
CONTINUOUS
 10
248.5444570524
 20
162.4762023507
 11
248.5444570524
 21
168.1504849967
  0
LINE
  5
2C3
100
AcDbEntity
  8
0
100
AcDbLine
 62
7
  6
CONTINUOUS
 10
248.5444570524
 20
264.783955217
 11
248.5444570524
 21
281.0242137264
  0
LINE
  5
2C4
100
AcDbEntity
  8
0
100
AcDbLine
 62
7
  6
CONTINUOUS
 10
248.5444570524
 20
294.7495939256
 11
248.5444570524
 21
300.4238765717
  0
LINE
  5
2C5
100
AcDbEntity
  8
0
100
AcDbLine
 62
7
  6
CONTINUOUS
 10
251.583854288
 20
120.9976385681
 11
251.583854288
 21
130.2241158817
  0
LINE
  5
2C6
100
AcDbEntity
  8
0
100
AcDbLine
 62
7
  6
CONTINUOUS
 10
251.583854288
 20
150.9632772768
 11
251.583854288
 21
160.1897545903
  0
LINE
  5
2C7
100
AcDbEntity
  8
0
100
AcDbLine
 62
7
  6
CONTINUOUS
 10
251.583854288
 20
253.2710301431
 11
251.583854288
 21
262.4975074567
  0
LINE
  5
2C8
100
AcDbEntity
  8
0
100
AcDbLine
 62
7
  6
CONTINUOUS
 10
251.583854288
 20
283.2366688518
 11
251.583854288
 21
292.4631461653
  0
LINE
  5
2C9
100
AcDbEntity
  8
0
100
AcDbLine
 62
7
  6
CONTINUOUS
 10
258.4439932044
 20
290.6259939227
 11
258.4439932044
 21
259.5989020718
  0
LINE
  5
2CA
100
AcDbEntity
  8
0
100
AcDbLine
 62
7
  6
CONTINUOUS
 10
258.4439932044
 20
158.3526023477
 11
258.4439932044
 21
127.3255104968
  0
LINE
  5
2CB
100
AcDbEntity
  8
0
100
AcDbLine
 62
7
  6
CONTINUOUS
 10
255.9691003345
 20
297.3620760118
 11
254.9084445787
 21
296.749709781
  0
LINE
  5
2CC
100
AcDbEntity
  8
0
100
AcDbLine
 62
7
  6
CONTINUOUS
 10
155.2124332344
 20
238.1255609489
 11
173.5971330019
 21
248.7399089495
  0
LINE
  5
2CD
100
AcDbEntity
  8
0
100
AcDbLine
 62
7
  6
CONTINUOUS
 10
155.2124332344
 20
237.1457580483
 11
173.5971330019
 21
247.760106049
  0
LINE
  5
2CE
100
AcDbEntity
  8
0
100
AcDbLine
 62
7
  6
CONTINUOUS
 10
259.5046489603
 20
291.2383601535
 11
258.4439932044
 21
290.6259939227
  0
LINE
  5
2CF
100
AcDbEntity
  8
0
100
AcDbLine
 62
7
  6
CONTINUOUS
 10
237.3127704449
 20
320.4135701981
 11
53.9225142681
 21
426.2915886877
  0
LINE
  5
2D0
100
AcDbEntity
  8
0
100
AcDbLine
 62
7
  6
CONTINUOUS
 10
246.0695700705
 20
321.4487684692
 11
246.9181017407
 21
320.9588795638
  0
LINE
  5
2D1
100
AcDbEntity
  8
0
100
AcDbLine
 62
7
  6
CONTINUOUS
 10
64.3423707077
 20
427.3464452815
 11
246.0695700705
 21
322.4285713697
  0
LINE
  5
2D2
100
AcDbEntity
  8
0
100
AcDbLine
 62
7
  6
CONTINUOUS
 10
248.332315303
 20
322.7551882808
 11
63.4938331496
 21
429.4693215124
  0
LINE
  5
2D3
100
AcDbEntity
  8
0
100
AcDbLine
 62
7
  6
CONTINUOUS
 10
258.4439932044
 20
290.6259939227
 11
254.9084445787
 21
296.749709781
  0
LINE
  5
2D4
100
AcDbEntity
  8
0
100
AcDbLine
 62
7
  6
CONTINUOUS
 10
255.9691003345
 20
297.3620760118
 11
259.5046489603
 21
291.2383601535
  0
LINE
  5
2D5
100
AcDbEntity
  8
0
100
AcDbLine
 62
7
  6
CONTINUOUS
 10
259.5046489603
 20
291.2383601535
 11
259.5046489603
 21
260.2112683026
  0
LINE
  5
2D6
100
AcDbEntity
  8
0
100
AcDbLine
 62
7
  6
CONTINUOUS
 10
259.5046489603
 20
158.9649685785
 11
259.5046489603
 21
127.9378767276
  0
LINE
  5
2D7
100
AcDbEntity
  8
0
100
AcDbLine
 62
7
  6
CONTINUOUS
 10
260.423891603
 20
329.7364627114
 11
260.423891603
 21
88.3783482079
  0
LINE
  5
2D8
100
AcDbEntity
  8
0
100
AcDbLine
 62
7
  6
CONTINUOUS
 10
261.9795200449
 20
87.4801800287
 11
261.9795200449
 21
88.0063626559
  0
LINE
  5
2D9
100
AcDbEntity
  8
0
100
AcDbLine
 62
7
  6
CONTINUOUS
 10
261.9795200449
 20
331.4511022671
 11
261.9795200449
 21
332.4309051676
  0
LINE
  5
2DA
100
AcDbEntity
  8
0
100
AcDbLine
 62
7
  6
CONTINUOUS
 10
263.5351614402
 20
88.3783556865
 11
263.5351614402
 21
329.73647019
  0
LINE
  5
2DB
100
AcDbEntity
  8
0
100
AcDbLine
 62
7
  6
CONTINUOUS
 10
243.075421878
 20
265.7197376577
 11
242.2162703563
 21
265.0099958878
  0
LINE
  5
2DC
100
AcDbEntity
  8
0
100
AcDbLine
 62
7
  6
CONTINUOUS
 10
51.4022568496
 20
450.4124297476
 11
260.423891603
 21
329.7364627114
  0
LINE
  5
2DD
100
AcDbEntity
  8
0
100
AcDbLine
 62
7
  6
CONTINUOUS
 10
51.4022438961
 20
452.2086965461
 11
51.857905483
 21
451.9456261577
  0
LINE
  5
2DE
100
AcDbEntity
  8
0
100
AcDbLine
 62
7
  6
CONTINUOUS
 10
262.68662977
 20
330.2263590954
 11
263.5351614402
 21
329.73647019
  0
LINE
  5
2DF
100
AcDbEntity
  8
0
100
AcDbLine
 62
7
  6
CONTINUOUS
 10
261.9795200449
 20
332.4309051676
 11
52.9578852914
 21
453.1068722038
  0
LINE
  5
2E0
100
AcDbEntity
  8
0
100
AcDbLine
 62
7
  6
CONTINUOUS
 10
254.9084445787
 20
257.5575937588
 11
259.5046489603
 21
260.2112683026
  0
LINE
  5
2E1
100
AcDbEntity
  8
0
100
AcDbLine
 62
7
  6
CONTINUOUS
 10
388.3110517723
 20
401.7734001576
 11
388.7040533253
 21
402.3255434761
  0
LINE
  5
2E2
100
AcDbEntity
  8
0
100
AcDbLine
 62
7
  6
CONTINUOUS
 10
387.4292898121
 20
404.5351750849
 11
386.7536489519
 21
404.4688520714
  0
LINE
  5
2E3
100
AcDbEntity
  8
0
100
AcDbLine
 62
7
  6
CONTINUOUS
 10
263.0794912582
 20
87.3712679456
 11
263.5351614402
 21
88.3783556865
  0
LINE
  5
2E4
100
AcDbEntity
  8
0
100
AcDbLine
 62
7
  6
CONTINUOUS
 10
52.9578852914
 20
453.1068722038
 11
51.8579140781
 21
453.215784287
  0
LINE
  5
2E5
100
AcDbEntity
  8
0
100
AcDbLine
 62
7
  6
CONTINUOUS
 10
243.075421878
 20
133.4463460827
 11
242.2162703563
 21
132.7366043128
  0
LINE
  5
2E6
100
AcDbEntity
  8
0
100
AcDbLine
 62
7
  6
CONTINUOUS
 10
246.0695789023
 20
168.7628427291
 11
241.6790980162
 21
166.2280125385
  0
LINE
  5
2E7
100
AcDbEntity
  8
0
100
AcDbLine
 62
7
  6
CONTINUOUS
 10
242.7397626038
 20
165.6156514067
 11
247.13024349
 21
168.1504815973
  0
LINE
  5
2E8
100
AcDbEntity
  8
0
100
AcDbLine
 62
7
  6
CONTINUOUS
 10
255.9691003345
 20
165.0886844368
 11
254.9084445787
 21
164.476318206
  0
LINE
  5
2E9
100
AcDbEntity
  8
0
100
AcDbLine
 62
7
  6
CONTINUOUS
 10
259.5046489603
 20
158.9649685785
 11
258.4439932044
 21
158.3526023477
  0
LINE
  5
2EA
100
AcDbEntity
  8
0
100
AcDbLine
 62
7
  6
CONTINUOUS
 10
388.3092903473
 20
401.7744170938
 11
388.3092903473
 21
160.4163025903
  0
LINE
  5
2EB
100
AcDbEntity
  8
0
100
AcDbLine
 62
7
  6
CONTINUOUS
 10
388.7046922183
 20
160.9674276089
 11
388.7046922183
 21
402.3255421124
  0
LINE
  5
2EC
100
AcDbEntity
  8
0
100
AcDbLine
 62
7
  6
CONTINUOUS
 10
259.5046489603
 20
127.9378767276
 11
254.9084445787
 21
125.2842021838
  0
LINE
  5
2ED
100
AcDbEntity
  8
0
100
AcDbLine
 62
7
  6
CONTINUOUS
 10
246.9181017406
 20
111.1177583615
 11
240.7946113612
 21
107.5823806459
  0
LINE
  5
2EE
100
AcDbEntity
  8
0
100
AcDbLine
 62
7
  6
CONTINUOUS
 10
177.7320141985
 20
525.1448191077
 11
386.7536489519
 21
404.4688520714
  0
LINE
  5
2EF
100
AcDbEntity
  8
0
100
AcDbLine
 62
7
  6
CONTINUOUS
 10
178.408022318
 20
525.211782748
 11
387.4296570714
 21
404.5358157118
  0
LINE
  5
2F0
100
AcDbEntity
  8
0
100
AcDbLine
 62
7
  6
CONTINUOUS
 10
388.3092903473
 20
160.4163025903
 11
387.8536201653
 21
159.4092148494
  0
LINE
  5
2F1
100
AcDbEntity
  8
0
100
AcDbLine
 62
7
  6
CONTINUOUS
 10
388.7039549647
 20
160.9674298557
 11
388.3092903473
 21
160.4163025903
  0
LINE
  5
2F2
100
AcDbEntity
  8
0
100
AcDbLine
 62
7
  6
CONTINUOUS
 10
388.3092903473
 20
160.4163025903
 11
263.5351614402
 21
88.3783556865
  0
LINE
  5
2F3
100
AcDbEntity
  8
0
100
AcDbLine
 62
7
  6
CONTINUOUS
 10
387.8536440274
 20
159.4091735187
 11
263.0795151203
 21
87.3712266149
  0
LINE
  5
2F4
100
AcDbEntity
  8
0
100
AcDbLine
 62
7
  6
CONTINUOUS
 10
177.7320141985
 20
525.1460299785
 11
178.4076815206
 21
525.2111890307
  0
LINE
  5
2F5
100
AcDbEntity
  8
0
100
AcDbLine
 62
7
  6
CONTINUOUS
 10
176.6320429852
 20
525.2537311908
 11
177.7320141985
 21
525.1448191077
  0
ARC
  5
2F6
100
AcDbEntity
  8
0
100
AcDbCircle
 62
7
  6
CONTINUOUS
 10
175.6961541202
 20
245.3272160203
 40
97.1317052338
100
AcDbArc
 50
48.7119842926
 51
50.6273518408
  0
ARC
  5
2F7
100
AcDbEntity
  8
0
100
AcDbCircle
 62
7
  6
CONTINUOUS
 10
175.3527245358
 20
244.8724272298
 40
96.5282663326
100
AcDbArc
 50
48.8695499129
 51
50.6339180252
  0
ARC
  5
2F8
100
AcDbEntity
  8
0
100
AcDbCircle
 62
7
  6
CONTINUOUS
 10
177.2561365361
 20
247.0627353634
 40
93.6264779791
100
AcDbArc
 50
48.6972068333
 51
48.8652325795
  0
ARC
  5
2F9
100
AcDbEntity
  8
0
100
AcDbCircle
 62
7
  6
CONTINUOUS
 10
193.5618791475
 20
222.2970881659
 40
35.9849406752
100
AcDbArc
 50
60.8926271208
 51
63.279584853
  0
ARC
  5
2FA
100
AcDbEntity
  8
0
100
AcDbCircle
 62
7
  6
CONTINUOUS
 10
178.8708405855
 20
222.7076218439
 40
35.5204540827
100
AcDbArc
 50
116.7051819312
 51
119.123252323
  0
ARC
  5
2FB
100
AcDbEntity
  8
0
100
AcDbCircle
 62
7
  6
CONTINUOUS
 10
194.5259759174
 20
224.0560399835
 40
33.9791473626
100
AcDbArc
 50
60.2091189011
 51
60.8702045988
  0
ARC
  5
2FC
100
AcDbEntity
  8
0
100
AcDbCircle
 62
7
  6
CONTINUOUS
 10
178.1240607343
 20
224.0563553799
 40
33.9787844761
100
AcDbArc
 50
119.130076468
 51
119.7912900036
  0
ARC
  5
2FD
100
AcDbEntity
  8
0
100
AcDbCircle
 62
7
  6
CONTINUOUS
 10
194.7709581092
 20
224.485259716
 40
33.4849354338
100
AcDbArc
 50
60.0006825766
 51
60.2080147483
  0
ARC
  5
2FE
100
AcDbEntity
  8
0
100
AcDbCircle
 62
7
  6
CONTINUOUS
 10
177.8790404916
 20
224.4856350174
 40
33.4845016586
100
AcDbArc
 50
119.7923946296
 51
119.9997305877
  0
ARC
  5
2FF
100
AcDbEntity
  8
0
100
AcDbCircle
 62
7
  6
CONTINUOUS
 10
160.1207725831
 20
218.2245297387
 40
29.5591033483
100
AcDbArc
 50
119.9978387695
 51
120.94741636
  0
ARC
  5
300
100
AcDbEntity
  8
0
100
AcDbCircle
 62
7
  6
CONTINUOUS
 10
159.8280640646
 20
218.7141620658
 40
28.9886495724
100
AcDbArc
 50
120.9489097613
 51
121.4340175819
  0
ARC
  5
301
100
AcDbEntity
  8
0
100
AcDbCircle
 62
7
  6
CONTINUOUS
 10
159.0284586165
 20
220.0052552343
 40
27.4700297108
100
AcDbArc
 50
121.4153912405
 51
125.4667061304
  0
ARC
  5
302
100
AcDbEntity
  8
0
100
AcDbCircle
 62
7
  6
CONTINUOUS
 10
157.8525608467
 20
221.7017823838
 40
25.4060114693
100
AcDbArc
 50
125.5268351747
 51
126.0675442461
  0
ARC
  5
303
100
AcDbEntity
  8
0
100
AcDbCircle
 62
7
  6
CONTINUOUS
 10
68.6561136967
 20
227.4089966479
 40
24.1951942882
100
AcDbArc
 50
224.9755608918
 51
227.4822900991
  0
ARC
  5
304
100
AcDbEntity
  8
0
100
AcDbCircle
 62
7
  6
CONTINUOUS
 10
75.4935889153
 20
214.7162734334
 40
23.7520232511
100
AcDbArc
 50
192.4997844989
 51
200.0966997147
  0
ARC
  5
305
100
AcDbEntity
  8
0
100
AcDbCircle
 62
7
  6
CONTINUOUS
 10
67.9443811048
 20
226.7143064725
 40
23.2007010757
100
AcDbArc
 50
219.8408926789
 51
225.0042736425
  0
ARC
  5
306
100
AcDbEntity
  8
0
100
AcDbCircle
 62
7
  6
CONTINUOUS
 10
163.3927311522
 20
223.9511708781
 40
16.3655310914
100
AcDbArc
 50
119.9900248431
 51
122.0989379333
  0
ARC
  5
307
100
AcDbEntity
  8
0
100
AcDbCircle
 62
7
  6
CONTINUOUS
 10
156.0550125956
 20
229.7881498943
 40
6.1149005919
100
AcDbArc
 50
168.9862704784
 51
175.310268892
  0
ARC
  5
308
100
AcDbEntity
  8
0
100
AcDbCircle
 62
7
  6
CONTINUOUS
 10
156.0270738721
 20
230.7815727851
 40
6.0865348221
100
AcDbArc
 50
180.0409057226
 51
191.0192530713
  0
ARC
  5
309
100
AcDbEntity
  8
0
100
AcDbCircle
 62
7
  6
CONTINUOUS
 10
179.1802528631
 20
206.1559152563
 40
2.6815655811
100
AcDbArc
 50
237.3069427176
 51
240.0154799386
  0
ARC
  5
30A
100
AcDbEntity
  8
0
100
AcDbCircle
 62
7
  6
CONTINUOUS
 10
219.0090369189
 20
240.5746337607
 40
0.6427668894
100
AcDbArc
 50
167.8883332548
 51
179.9520256515
  0
ARC
  5
30B
100
AcDbEntity
  8
0
100
AcDbCircle
 62
7
  6
CONTINUOUS
 10
168.0975606395
 20
211.1810546819
 40
0.6427668894
100
AcDbArc
 50
167.8883332548
 51
179.9520256515
  0
ARC
  5
30C
100
AcDbEntity
  8
0
100
AcDbCircle
 62
7
  6
CONTINUOUS
 10
159.6120319721
 20
245.4734004383
 40
0.6427668894
100
AcDbArc
 50
167.8883332548
 51
179.9520256515
  0
ARC
  5
30D
100
AcDbEntity
  8
0
100
AcDbCircle
 62
7
  6
CONTINUOUS
 10
178.4049418239
 20
203.422844234
 40
0.5709089591
100
AcDbArc
 50
60.0362883926
 51
69.2584329044
  0
ARC
  5
30E
100
AcDbEntity
  8
0
100
AcDbCircle
 62
7
  6
CONTINUOUS
 10
143.7986915369
 20
298.3845451207
 40
97.1335673182
100
AcDbArc
 50
9.3729096772
 51
11.2882373311
  0
ARC
  5
30F
100
AcDbEntity
  8
0
100
AcDbCircle
 62
7
  6
CONTINUOUS
 10
145.8644195307
 20
298.7290114355
 40
96.2121875737
100
AcDbArc
 50
9.3637377021
 51
11.2974093037
  0
ARC
  5
310
100
AcDbEntity
  8
0
100
AcDbCircle
 62
7
  6
CONTINUOUS
 10
60.3198598014
 20
412.0236932903
 40
15.4354190691
100
AcDbArc
 50
121.2839289279
 51
124.6664154832
  0
ARC
  5
311
100
AcDbEntity
  8
0
100
AcDbCircle
 62
7
  6
CONTINUOUS
 10
60.6302633211
 20
412.6929245054
 40
15.4354190563
100
AcDbArc
 50
121.2839289281
 51
124.6664154868
  0
ARC
  5
312
100
AcDbEntity
  8
0
100
AcDbCircle
 62
7
  6
CONTINUOUS
 10
60.25704635
 20
413.2288887941
 40
14.7823157039
100
AcDbArc
 50
124.6582471264
 51
131.6104052609
  0
ARC
  5
313
100
AcDbEntity
  8
0
100
AcDbCircle
 62
7
  6
CONTINUOUS
 10
59.9466427999
 20
412.5596576224
 40
14.7823156639
100
AcDbArc
 50
124.6582471214
 51
131.6104052547
  0
ARC
  5
314
100
AcDbEntity
  8
0
100
AcDbCircle
 62
7
  6
CONTINUOUS
 10
188.4770399743
 20
286.5352098378
 40
10.3033292847
100
AcDbArc
 50
5.2277579914
 51
5.8956418562
  0
ARC
  5
315
100
AcDbEntity
  8
0
100
AcDbCircle
 62
7
  6
CONTINUOUS
 10
189.2532792437
 20
286.5982880244
 40
9.5245747949
100
AcDbArc
 50
1.0729216541
 51
5.2753488247
  0
ARC
  5
316
100
AcDbEntity
  8
0
100
AcDbCircle
 62
7
  6
CONTINUOUS
 10
189.9514619957
 20
286.6187145698
 40
8.8261350275
100
AcDbArc
 50
0.0024775994
 51
1.0252112941
  0
ARC
  5
317
100
AcDbEntity
  8
0
100
AcDbCircle
 62
7
  6
CONTINUOUS
 10
190.3261496951
 20
286.6186696099
 40
8.4514473307
100
AcDbArc
 50
358.8348978467
 51
0.0028922429
  0
ARC
  5
318
100
AcDbEntity
  8
0
100
AcDbCircle
 62
7
  6
CONTINUOUS
 10
194.8439900862
 20
293.843042011
 40
7.1639921552
100
AcDbArc
 50
180.0026445251
 51
181.0253782196
  0
ARC
  5
319
100
AcDbEntity
  8
0
100
AcDbCircle
 62
7
  6
CONTINUOUS
 10
172.567843961
 20
285.8865274465
 40
7.0589413267
100
AcDbArc
 50
329.5065067617
 51
330.2177284059
  0
ARC
  5
31A
100
AcDbEntity
  8
0
100
AcDbCircle
 62
7
  6
CONTINUOUS
 10
191.3698306173
 20
287.4349522217
 40
6.8224975346
100
AcDbArc
 50
0.003416792
 51
1.0261504858
  0
ARC
  5
31B
100
AcDbEntity
  8
0
100
AcDbCircle
 62
7
  6
CONTINUOUS
 10
192.154292821
 20
286.4617633574
 40
6.6148201581
100
AcDbArc
 50
350.0365091142
 51
351.1808343435
  0
ARC
  5
31C
100
AcDbEntity
  8
0
100
AcDbCircle
 62
7
  6
CONTINUOUS
 10
188.8165406603
 20
292.2462739641
 40
6.6134430262
100
AcDbArc
 50
68.8864683744
 51
69.725517689
  0
ARC
  5
31D
100
AcDbEntity
  8
0
100
AcDbCircle
 62
7
  6
CONTINUOUS
 10
195.5209831452
 20
294.0500788891
 40
6.5025606212
100
AcDbArc
 50
180.0027494993
 51
181.045549708
  0
ARC
  5
31E
100
AcDbEntity
  8
0
100
AcDbCircle
 62
7
  6
CONTINUOUS
 10
195.7576908848
 20
293.9024905539
 40
5.7733589922
100
AcDbArc
 50
181.0460024519
 51
182.0761363688
  0
ARC
  5
31F
100
AcDbEntity
  8
0
100
AcDbCircle
 62
7
  6
CONTINUOUS
 10
195.6573840275
 20
293.9006142946
 40
5.6730345988
100
AcDbArc
 50
180.0027494994
 51
181.0455497079
  0
ARC
  5
320
100
AcDbEntity
  8
0
100
AcDbCircle
 62
7
  6
CONTINUOUS
 10
192.6531495269
 20
289.3750349543
 40
5.1607806385
100
AcDbArc
 50
0.0555132538
 51
4.4072826461
  0
ARC
  5
321
100
AcDbEntity
  8
0
100
AcDbCircle
 62
7
  6
CONTINUOUS
 10
179.1892168205
 20
278.508037018
 40
4.4011705012
100
AcDbArc
 50
145.0082697071
 51
146.2392602282
  0
ARC
  5
322
100
AcDbEntity
  8
0
100
AcDbCircle
 62
7
  6
CONTINUOUS
 10
175.4471942705
 20
284.9300123353
 40
4.3392306819
100
AcDbArc
 50
273.802342995
 51
274.9805376559
  0
ARC
  5
323
100
AcDbEntity
  8
0
100
AcDbCircle
 62
7
  6
CONTINUOUS
 10
179.1178165785
 20
278.555843322
 40
4.315243597
100
AcDbArc
 50
146.2401303505
 51
147.0233475432
  0
ARC
  5
324
100
AcDbEntity
  8
0
100
AcDbCircle
 62
7
  6
CONTINUOUS
 10
175.453835102
 20
284.830124938
 40
4.2391227762
100
AcDbArc
 50
272.817860381
 51
273.8023131199
  0
ARC
  5
325
100
AcDbEntity
  8
0
100
AcDbCircle
 62
7
  6
CONTINUOUS
 10
194.2097753658
 20
287.2678466374
 40
3.9994183671
100
AcDbArc
 50
337.7819706098
 51
341.4768278056
  0
ARC
  5
326
100
AcDbEntity
  8
0
100
AcDbCircle
 62
7
  6
CONTINUOUS
 10
55.0984223399
 20
450.0747550544
 40
3.7420707802
100
AcDbArc
 50
140.6668498468
 51
159.3338499413
  0
ARC
  5
327
100
AcDbEntity
  8
0
100
AcDbCircle
 62
7
  6
CONTINUOUS
 10
54.6989273951
 20
450.2257559036
 40
3.3149907293
100
AcDbArc
 50
159.3389269957
 51
165.1287140049
  0
ARC
  5
328
100
AcDbEntity
  8
0
100
AcDbCircle
 62
7
  6
CONTINUOUS
 10
54.7678742835
 20
450.3452442114
 40
3.3149568567
100
AcDbArc
 50
134.8717997104
 51
140.6617588439
  0
ARC
  5
329
100
AcDbEntity
  8
0
100
AcDbCircle
 62
7
  6
CONTINUOUS
 10
195.3814871282
 20
288.602022799
 40
2.9197981188
100
AcDbArc
 50
334.9000359536
 51
337.1664685497
  0
ARC
  5
32A
100
AcDbEntity
  8
0
100
AcDbCircle
 62
7
  6
CONTINUOUS
 10
195.5591016837
 20
288.5173604187
 40
2.7230425088
100
AcDbArc
 50
330.0412086827
 51
334.9278889182
  0
ARC
  5
32B
100
AcDbEntity
  8
0
100
AcDbCircle
 62
7
  6
CONTINUOUS
 10
195.8982717907
 20
287.557740944
 40
2.5340244456
100
AcDbArc
 50
316.560258463
 51
322.3021148665
  0
ARC
  5
32C
100
AcDbEntity
  8
0
100
AcDbCircle
 62
7
  6
CONTINUOUS
 10
193.2960233202
 20
294.7196067696
 40
1.9137674721
100
AcDbArc
 50
137.190223041
 51
140.8713937116
  0
ARC
  5
32D
100
AcDbEntity
  8
0
100
AcDbCircle
 62
7
  6
CONTINUOUS
 10
195.773116427
 20
288.6387550472
 40
1.8909103087
100
AcDbArc
 50
315.0538490765
 51
320.9685009718
  0
ARC
  5
32E
100
AcDbEntity
  8
0
100
AcDbCircle
 62
7
  6
CONTINUOUS
 10
232.3341082121
 20
115.3007207414
 40
15.5157103086
100
AcDbArc
 50
296.4008650806
 51
298.7120419544
  0
ARC
  5
32F
100
AcDbEntity
  8
0
100
AcDbCircle
 62
7
  6
CONTINUOUS
 10
231.6367238929
 20
115.2955489272
 40
15.4354941865
100
AcDbArc
 50
295.3344018323
 51
298.7168702867
  0
ARC
  5
330
100
AcDbEntity
  8
0
100
AcDbCircle
 62
7
  6
CONTINUOUS
 10
232.6177405653
 20
114.7176650567
 40
14.867348542
100
AcDbArc
 50
288.4088084161
 51
296.4209203448
  0
ARC
  5
331
100
AcDbEntity
  8
0
100
AcDbCircle
 62
7
  6
CONTINUOUS
 10
231.9142989289
 20
114.7043203649
 40
14.7823521842
100
AcDbArc
 50
288.3904394904
 51
295.3425707722
  0
ARC
  5
332
100
AcDbEntity
  8
0
100
AcDbCircle
 62
7
  6
CONTINUOUS
 10
254.3492368494
 20
266.8077308796
 40
7.9062620716
100
AcDbArc
 50
249.5174903376
 51
252.0767042479
  0
ARC
  5
333
100
AcDbEntity
  8
0
100
AcDbCircle
 62
7
  6
CONTINUOUS
 10
254.3492368494
 20
134.5343393046
 40
7.9062620715
100
AcDbArc
 50
249.5174903376
 51
252.0767042479
  0
ARC
  5
334
100
AcDbEntity
  8
0
100
AcDbCircle
 62
7
  6
CONTINUOUS
 10
241.914754136
 20
105.361323591
 40
7.6082667433
100
AcDbArc
 50
41.9292562521
 51
44.2302432057
  0
ARC
  5
335
100
AcDbEntity
  8
0
100
AcDbCircle
 62
7
  6
CONTINUOUS
 10
251.8794951154
 20
143.9615248108
 40
4.6199463489
100
AcDbArc
 50
358.9207908771
 51
0.0024020656
  0
ARC
  5
336
100
AcDbEntity
  8
0
100
AcDbCircle
 62
7
  6
CONTINUOUS
 10
261.9795200031
 20
91.7482383635
 40
3.7421364572
100
AcDbArc
 50
260.666949008
 51
279.3331884497
  0
ARC
  5
337
100
AcDbEntity
  8
0
100
AcDbCircle
 62
7
  6
CONTINUOUS
 10
245.8563572713
 20
107.64572006
 40
2.9819969578
100
AcDbArc
 50
60.0008220039
 51
68.6565707797
  0
ARC
  5
338
100
AcDbEntity
  8
0
100
AcDbCircle
 62
7
  6
CONTINUOUS
 10
252.1356757847
 20
147.1638248347
 40
2.9772367907
100
AcDbArc
 50
66.341521703
 51
69.1555987276
  0
ARC
  5
339
100
AcDbEntity
  8
0
100
AcDbCircle
 62
7
  6
CONTINUOUS
 10
251.2572669873
 20
147.7749689038
 40
2.8637728109
100
AcDbArc
 50
76.7640043932
 51
78.7978104259
  0
ARC
  5
33A
100
AcDbEntity
  8
0
100
AcDbCircle
 62
7
  6
CONTINUOUS
 10
251.2891875456
 20
147.9377078766
 40
2.6979331361
100
AcDbArc
 50
78.7913713896
 51
81.765592269
  0
ARC
  5
33B
100
AcDbEntity
  8
0
100
AcDbCircle
 62
7
  6
CONTINUOUS
 10
230.0917290877
 20
235.5494942931
 40
2.6815655243
100
AcDbArc
 50
237.3069432339
 51
240.0154799322
  0
ARC
  5
33C
100
AcDbEntity
  8
0
100
AcDbCircle
 62
7
  6
CONTINUOUS
 10
256.061205336
 20
145.1546551383
 40
1.5434265723
100
AcDbArc
 50
273.8604048967
 51
277.2675053312
  0
ARC
  5
33D
100
AcDbEntity
  8
0
100
AcDbCircle
 62
7
  6
CONTINUOUS
 10
252.6870566293
 20
148.9043390814
 40
1.3846873848
100
AcDbArc
 50
130.7881211711
 51
132.5812631872
  0
ARC
  5
33E
100
AcDbEntity
  8
0
100
AcDbCircle
 62
7
  6
CONTINUOUS
 10
252.3416298874
 20
148.753216014
 40
1.3422535307
100
AcDbArc
 50
119.971708318
 51
128.59665852
  0
ARC
  5
33F
100
AcDbEntity
  8
0
100
AcDbCircle
 62
7
  6
CONTINUOUS
 10
252.7204994776
 20
148.8377658939
 40
1.3084783873
100
AcDbArc
 50
122.131534123
 51
129.9830787836
  0
ARC
  5
340
100
AcDbEntity
  8
0
100
AcDbCircle
 62
7
  6
CONTINUOUS
 10
255.267128762
 20
144.4212647765
 40
1.293109351
100
AcDbArc
 50
290.4124722123
 51
300.0214020428
  0
ARC
  5
341
100
AcDbEntity
  8
0
100
AcDbCircle
 62
7
  6
CONTINUOUS
 10
252.7091077012
 20
148.8548646753
 40
1.2879398723
100
AcDbArc
 50
112.0441802174
 51
122.1069486575
  0
ARC
  5
342
100
AcDbEntity
  8
0
100
AcDbCircle
 62
7
  6
CONTINUOUS
 10
253.300320827
 20
317.0322647542
 40
7.5595671602
100
AcDbArc
 50
135.7649261072
 51
138.1699532329
  0
ARC
  5
343
100
AcDbEntity
  8
0
100
AcDbCircle
 62
7
  6
CONTINUOUS
 10
245.8601120948
 20
329.9186655328
 40
7.559189886
100
AcDbArc
 50
281.8309305235
 51
284.2359094194
  0
ARC
  5
344
100
AcDbEntity
  8
0
100
AcDbCircle
 62
7
  6
CONTINUOUS
 10
251.8794951163
 20
276.2349163858
 40
4.619946348
100
AcDbArc
 50
358.920790877
 51
0.0024020657
  0
ARC
  5
345
100
AcDbEntity
  8
0
100
AcDbCircle
 62
7
  6
CONTINUOUS
 10
384.5726650925
 20
401.4133275919
 40
3.788554414
100
AcDbArc
 50
28.5641353208
 51
31.4162273846
  0
ARC
  5
346
100
AcDbEntity
  8
0
100
AcDbCircle
 62
7
  6
CONTINUOUS
 10
252.1414586825
 20
279.4510663969
 40
2.962230271
100
AcDbArc
 50
66.3364750876
 51
69.4795650609
  0
ARC
  5
347
100
AcDbEntity
  8
0
100
AcDbCircle
 62
7
  6
CONTINUOUS
 10
385.2034528243
 20
401.9683860935
 40
2.9465897901
100
AcDbArc
 50
45.1254889664
 51
51.0021673567
  0
ARC
  5
348
100
AcDbEntity
  8
0
100
AcDbCircle
 62
7
  6
CONTINUOUS
 10
251.2572669872
 20
280.0483604786
 40
2.8637728111
100
AcDbArc
 50
76.7640043932
 51
78.7978104258
  0
ARC
  5
349
100
AcDbEntity
  8
0
100
AcDbCircle
 62
7
  6
CONTINUOUS
 10
251.2891875456
 20
280.2110994517
 40
2.697933136
100
AcDbArc
 50
78.7913713896
 51
81.765592269
  0
ARC
  5
34A
100
AcDbEntity
  8
0
100
AcDbCircle
 62
7
  6
CONTINUOUS
 10
256.061205336
 20
277.4280467133
 40
1.5434265723
100
AcDbArc
 50
273.8604048966
 51
277.2675053313
  0
ARC
  5
34B
100
AcDbEntity
  8
0
100
AcDbCircle
 62
7
  6
CONTINUOUS
 10
252.6870566291
 20
281.1777306566
 40
1.3846873845
100
AcDbArc
 50
130.7881211709
 51
132.5812631875
  0
ARC
  5
34C
100
AcDbEntity
  8
0
100
AcDbCircle
 62
7
  6
CONTINUOUS
 10
252.3416298874
 20
281.026607589
 40
1.3422535307
100
AcDbArc
 50
119.9717083179
 51
128.59665852
  0
ARC
  5
34D
100
AcDbEntity
  8
0
100
AcDbCircle
 62
7
  6
CONTINUOUS
 10
252.7204994776
 20
281.1111574689
 40
1.3084783873
100
AcDbArc
 50
122.1315341231
 51
129.9830787836
  0
ARC
  5
34E
100
AcDbEntity
  8
0
100
AcDbCircle
 62
7
  6
CONTINUOUS
 10
255.267128762
 20
276.6946563515
 40
1.293109351
100
AcDbArc
 50
290.4124722124
 51
300.0214020427
  0
ARC
  5
34F
100
AcDbEntity
  8
0
100
AcDbCircle
 62
7
  6
CONTINUOUS
 10
252.7091077013
 20
281.1282562501
 40
1.2879398725
100
AcDbArc
 50
112.0441802174
 51
122.1069486572
  0
SPLINE
  5
350
100
AcDbEntity
  8
0
100
AcDbSpline
 62
7
  6
CONTINUOUS
 70
0
 71
3
 72
11
 73
7
 74
0
 42
0.0000001
 43
0.0000001
 44
0.0000000001
 40
0.0
 40
0.0
 40
0.0
 40
0.0
 40
0.0919474396
 40
0.1889554521
 40
0.4910904483
 40
1.0
 40
1.0
 40
1.0
 40
1.0
 10
178.5723096262
 20
203.9950527865
 30
0.0
 10
178.5692793508
 20
203.999365424
 30
0.0
 10
178.556668867
 20
204.0150320871
 30
0.0
 10
178.5906738156
 20
203.9820708115
 30
0.0
 10
178.6210591325
 20
203.9616965812
 30
0.0
 10
178.6648185746
 20
203.9320327423
 30
0.0
 10
178.6900831034
 20
203.9174465898
 30
0.0
  0
SPLINE
  5
351
100
AcDbEntity
  8
0
100
AcDbSpline
 62
7
  6
CONTINUOUS
 70
0
 71
3
 72
9
 73
5
 74
0
 42
0.0000001
 43
0.0000001
 44
0.0000000001
 40
0.0
 40
0.0
 40
0.0
 40
0.0
 40
0.4999994563
 40
1.0
 40
1.0
 40
1.0
 40
1.0
 10
262.68662977
 20
330.2263590954
 30
0.0
 10
262.4767506671
 20
330.1051860621
 30
0.0
 10
261.979523681
 20
330.00935573
 30
0.0
 10
261.4822966409
 20
330.1051839127
 30
0.0
 10
261.2724162077
 20
330.2263556961
 30
0.0
  0
SPLINE
  5
352
100
AcDbEntity
  8
0
100
AcDbSpline
 62
7
  6
CONTINUOUS
 70
0
 71
3
 72
9
 73
5
 74
0
 42
0.0000001
 43
0.0000001
 44
0.0000000001
 40
0.0
 40
0.0
 40
0.0
 40
0.0
 40
0.4999988717
 40
1.0
 40
1.0
 40
1.0
 40
1.0
 10
261.9795200449
 20
331.4511022671
 30
0.0
 10
262.1894000669
 20
331.3299307211
 30
0.0
 10
262.5210087638
 20
330.9472353547
 30
0.0
 10
262.68662977
 20
330.468707393
 30
0.0
 10
262.68662977
 20
330.2263590954
 30
0.0
  0
SPLINE
  5
353
100
AcDbEntity
  8
0
100
AcDbSpline
 62
7
  6
CONTINUOUS
 70
0
 71
3
 72
9
 73
5
 74
0
 42
0.0000001
 43
0.0000001
 44
0.0000000001
 40
0.0
 40
0.0
 40
0.0
 40
0.0
 40
0.5000016721
 40
1.0
 40
1.0
 40
1.0
 40
1.0
 10
261.2724162077
 20
330.2263556961
 30
0.0
 10
261.2724162077
 20
330.468704148
 30
0.0
 10
261.4380355697
 20
330.9472318969
 30
0.0
 10
261.7696412194
 20
331.329929394
 30
0.0
 10
261.9795200449
 20
331.4511022671
 30
0.0
  0
SPLINE
  5
354
100
AcDbEntity
  8
0
100
AcDbSpline
 62
7
  6
CONTINUOUS
 70
0
 71
3
 72
9
 73
5
 74
0
 42
0.0000001
 43
0.0000001
 44
0.0000000001
 40
0.0
 40
0.0
 40
0.0
 40
0.0
 40
0.2358395768
 40
1.0
 40
1.0
 40
1.0
 40
1.0
 10
162.5345143381
 20
245.0221390058
 30
0.0
 10
162.5127840415
 20
245.0449584204
 30
0.0
 10
162.4165815406
 20
245.1378366051
 30
0.0
 10
162.3061857211
 20
245.2153908981
 30
0.0
 10
162.2179375528
 20
245.2667402394
 30
0.0
  0
SPLINE
  5
355
100
AcDbEntity
  8
0
100
AcDbSpline
 62
7
  6
CONTINUOUS
 70
0
 71
3
 72
9
 73
5
 74
0
 42
0.0000001
 43
0.0000001
 44
0.0000000001
 40
0.0
 40
0.0
 40
0.0
 40
0.0
 40
0.4997042732
 40
1.0
 40
1.0
 40
1.0
 40
1.0
 10
162.2179375528
 20
245.2667402394
 30
0.0
 10
161.8193527601
 20
245.4986664874
 30
0.0
 10
160.8724995051
 20
245.6824779629
 30
0.0
 10
159.9255672017
 20
245.5006402938
 30
0.0
 10
159.5257260146
 20
245.2697932549
 30
0.0
  0
SPLINE
  5
356
100
AcDbEntity
  8
0
100
AcDbSpline
 62
7
  6
CONTINUOUS
 70
0
 71
3
 72
9
 73
5
 74
0
 42
0.0000001
 43
0.0000001
 44
0.0000000001
 40
0.0
 40
0.0
 40
0.0
 40
0.0
 40
0.4594134537
 40
1.0
 40
1.0
 40
1.0
 40
1.0
 10
162.7692036768
 20
245.4739388101
 30
0.0
 10
162.7692596578
 20
245.3502334708
 30
0.0
 10
162.6828082136
 20
245.0788402985
 30
0.0
 10
162.4839811011
 20
244.8859086755
 30
0.0
 10
162.3670525195
 20
244.7992126681
 30
0.0
  0
SPLINE
  5
357
100
AcDbEntity
  8
0
100
AcDbSpline
 62
7
  6
CONTINUOUS
 70
0
 71
3
 72
8
 73
4
 74
0
 42
0.0000001
 43
0.0000001
 44
0.0000000001
 40
0.0
 40
0.0
 40
0.0
 40
0.0
 40
1.0
 40
1.0
 40
1.0
 40
1.0
 10
162.3670525195
 20
244.7992126681
 30
0.0
 10
162.3176806235
 20
244.7626061669
 30
0.0
 10
162.2659710032
 20
244.729012324
 30
0.0
 10
162.2127429702
 20
244.6982812882
 30
0.0
  0
SPLINE
  5
358
100
AcDbEntity
  8
0
100
AcDbSpline
 62
7
  6
CONTINUOUS
 70
0
 71
3
 72
9
 73
5
 74
0
 42
0.0000001
 43
0.0000001
 44
0.0000000001
 40
0.0
 40
0.0
 40
0.0
 40
0.0
 40
0.2302329806
 40
1.0
 40
1.0
 40
1.0
 40
1.0
 10
53.0393441154
 20
426.1291241305
 30
0.0
 10
53.0786722941
 20
426.1477568793
 30
0.0
 10
53.2537110346
 20
426.2198255948
 30
0.0
 10
53.4413917172
 20
426.2578180977
 30
0.0
 10
53.5859669379
 20
426.2742131721
 30
0.0
  0
SPLINE
  5
359
100
AcDbEntity
  8
0
100
AcDbSpline
 62
7
  6
CONTINUOUS
 70
0
 71
3
 72
9
 73
5
 74
0
 42
0.0000001
 43
0.0000001
 44
0.0000000001
 40
0.0
 40
0.0
 40
0.0
 40
0.0
 40
0.239169467
 40
1.0
 40
1.0
 40
1.0
 40
1.0
 10
53.5859669379
 20
426.2742131721
 30
0.0
 10
53.6126704948
 20
426.2772414006
 30
0.0
 10
53.7245289464
 20
426.28805852
 30
0.0
 10
53.8370185322
 20
426.291844872
 30
0.0
 10
53.9225102608
 20
426.2915913807
 30
0.0
  0
SPLINE
  5
35A
100
AcDbEntity
  8
0
100
AcDbSpline
 62
7
  6
CONTINUOUS
 70
0
 71
3
 72
9
 73
5
 74
0
 42
0.0000001
 43
0.0000001
 44
0.0000000001
 40
0.0
 40
0.0
 40
0.0
 40
0.0
 40
0.2358395768
 40
1.0
 40
1.0
 40
1.0
 40
1.0
 10
221.9315192849
 20
240.1233723282
 30
0.0
 10
221.9097889883
 20
240.1461917428
 30
0.0
 10
221.8135864873
 20
240.2390699275
 30
0.0
 10
221.7031906679
 20
240.3166242205
 30
0.0
 10
221.6149424996
 20
240.3679735618
 30
0.0
  0
SPLINE
  5
35B
100
AcDbEntity
  8
0
100
AcDbSpline
 62
7
  6
CONTINUOUS
 70
0
 71
3
 72
9
 73
5
 74
0
 42
0.0000001
 43
0.0000001
 44
0.0000000001
 40
0.0
 40
0.0
 40
0.0
 40
0.0
 40
0.4997042732
 40
1.0
 40
1.0
 40
1.0
 40
1.0
 10
221.6149424996
 20
240.3679735618
 30
0.0
 10
221.2163577069
 20
240.5998998098
 30
0.0
 10
220.2695044519
 20
240.7837112853
 30
0.0
 10
219.3225721484
 20
240.6018736162
 30
0.0
 10
218.9227309614
 20
240.3710265773
 30
0.0
  0
SPLINE
  5
35C
100
AcDbEntity
  8
0
100
AcDbSpline
 62
7
  6
CONTINUOUS
 70
0
 71
3
 72
9
 73
5
 74
0
 42
0.0000001
 43
0.0000001
 44
0.0000000001
 40
0.0
 40
0.0
 40
0.0
 40
0.0
 40
0.4594134537
 40
1.0
 40
1.0
 40
1.0
 40
1.0
 10
222.1662086235
 20
240.5751721325
 30
0.0
 10
222.1662646045
 20
240.4514667932
 30
0.0
 10
222.0798131604
 20
240.1800736209
 30
0.0
 10
221.8809860479
 20
239.9871419979
 30
0.0
 10
221.7640574663
 20
239.9004459905
 30
0.0
  0
SPLINE
  5
35D
100
AcDbEntity
  8
0
100
AcDbSpline
 62
7
  6
CONTINUOUS
 70
0
 71
3
 72
8
 73
4
 74
0
 42
0.0000001
 43
0.0000001
 44
0.0000000001
 40
0.0
 40
0.0
 40
0.0
 40
0.0
 40
1.0
 40
1.0
 40
1.0
 40
1.0
 10
221.7640574663
 20
239.9004459905
 30
0.0
 10
221.7146855702
 20
239.8638394893
 30
0.0
 10
221.6629759499
 20
239.8302456463
 30
0.0
 10
221.6097479169
 20
239.7995146106
 30
0.0
  0
SPLINE
  5
35E
100
AcDbEntity
  8
0
100
AcDbSpline
 62
7
  6
CONTINUOUS
 70
0
 71
3
 72
9
 73
5
 74
0
 42
0.0000001
 43
0.0000001
 44
0.0000000001
 40
0.0
 40
0.0
 40
0.0
 40
0.0
 40
0.2358395768
 40
1.0
 40
1.0
 40
1.0
 40
1.0
 10
171.0200430055
 20
210.7297932494
 30
0.0
 10
170.9983127089
 20
210.752612664
 30
0.0
 10
170.9021102079
 20
210.8454908487
 30
0.0
 10
170.7917143885
 20
210.9230451417
 30
0.0
 10
170.7034662202
 20
210.9743944831
 30
0.0
  0
SPLINE
  5
35F
100
AcDbEntity
  8
0
100
AcDbSpline
 62
7
  6
CONTINUOUS
 70
0
 71
3
 72
9
 73
5
 74
0
 42
0.0000001
 43
0.0000001
 44
0.0000000001
 40
0.0
 40
0.0
 40
0.0
 40
0.0
 40
0.4997042732
 40
1.0
 40
1.0
 40
1.0
 40
1.0
 10
170.7034662202
 20
210.9743944831
 30
0.0
 10
170.3048814275
 20
211.206320731
 30
0.0
 10
169.3580281725
 20
211.3901322066
 30
0.0
 10
168.411095869
 20
211.2082945375
 30
0.0
 10
168.011254682
 20
210.9774474985
 30
0.0
  0
SPLINE
  5
360
100
AcDbEntity
  8
0
100
AcDbSpline
 62
7
  6
CONTINUOUS
 70
0
 71
3
 72
9
 73
5
 74
0
 42
0.0000001
 43
0.0000001
 44
0.0000000001
 40
0.0
 40
0.0
 40
0.0
 40
0.0
 40
0.2359135205
 40
1.0
 40
1.0
 40
1.0
 40
1.0
 10
51.4022568496
 20
450.4124297476
 30
0.0
 10
51.4022568496
 20
450.4652445567
 30
0.0
 10
51.4110449393
 20
450.6890955679
 30
0.0
 10
51.4512480131
 20
450.9111670855
 30
0.0
 10
51.4949728735
 20
451.0765431616
 30
0.0
  0
SPLINE
  5
361
100
AcDbEntity
  8
0
100
AcDbSpline
 62
7
  6
CONTINUOUS
 70
0
 71
3
 72
9
 73
5
 74
0
 42
0.0000001
 43
0.0000001
 44
0.0000000001
 40
0.0
 40
0.0
 40
0.0
 40
0.0
 40
0.2633931201
 40
1.0
 40
1.0
 40
1.0
 40
1.0
 10
52.4290964781
 20
452.694511616
 30
0.0
 10
52.4709260837
 20
452.7360653231
 30
0.0
 10
52.6341218865
 20
452.889225579
 30
0.0
 10
52.8150849821
 20
453.0244268989
 30
0.0
 10
52.9578852914
 20
453.1068722038
 30
0.0
  0
SPLINE
  5
362
100
AcDbEntity
  8
0
100
AcDbSpline
 62
7
  6
CONTINUOUS
 70
0
 71
3
 72
9
 73
5
 74
0
 42
0.0000001
 43
0.0000001
 44
0.0000000001
 40
0.0
 40
0.0
 40
0.0
 40
0.0
 40
0.4594134537
 40
1.0
 40
1.0
 40
1.0
 40
1.0
 10
171.2547323441
 20
211.1815930537
 30
0.0
 10
171.2547883251
 20
211.0578877145
 30
0.0
 10
171.168336881
 20
210.7864945422
 30
0.0
 10
170.9695097685
 20
210.5935629191
 30
0.0
 10
170.8525811869
 20
210.5068669117
 30
0.0
  0
SPLINE
  5
363
100
AcDbEntity
  8
0
100
AcDbSpline
 62
7
  6
CONTINUOUS
 70
0
 71
3
 72
8
 73
4
 74
0
 42
0.0000001
 43
0.0000001
 44
0.0000000001
 40
0.0
 40
0.0
 40
0.0
 40
0.0
 40
1.0
 40
1.0
 40
1.0
 40
1.0
 10
170.8525811869
 20
210.5068669117
 30
0.0
 10
170.8032092908
 20
210.4702604105
 30
0.0
 10
170.7514996705
 20
210.4366665676
 30
0.0
 10
170.6982716376
 20
210.4059355319
 30
0.0
  0
SPLINE
  5
364
100
AcDbEntity
  8
0
100
AcDbSpline
 62
7
  6
CONTINUOUS
 70
0
 71
3
 72
11
 73
7
 74
0
 42
0.0000001
 43
0.0000001
 44
0.0000000001
 40
0.0
 40
0.0
 40
0.0
 40
0.0
 40
0.2379725696
 40
0.5000011455
 40
0.762029055
 40
1.0
 40
1.0
 40
1.0
 40
1.0
 10
209.5731306169
 20
254.5028645155
 30
0.0
 10
206.2616657836
 20
256.414696377
 30
0.0
 10
198.5882499164
 20
259.2053018766
 30
0.0
 10
186.3249489672
 20
260.5401652276
 30
0.0
 10
174.0616818677
 20
259.2052345677
 30
0.0
 10
166.3883176439
 20
256.414593879
 30
0.0
 10
163.0768892037
 20
254.5027511898
 30
0.0
  0
SPLINE
  5
365
100
AcDbEntity
  8
0
100
AcDbSpline
 62
7
  6
CONTINUOUS
 70
0
 71
3
 72
9
 73
5
 74
0
 42
0.0000001
 43
0.0000001
 44
0.0000000001
 40
0.0
 40
0.0
 40
0.0
 40
0.0
 40
0.5703384821
 40
1.0
 40
1.0
 40
1.0
 40
1.0
 10
387.6777151485
 20
403.6152920938
 30
0.0
 10
387.7153671863
 20
403.8013998545
 30
0.0
 10
387.7439420402
 20
404.1439739656
 30
0.0
 10
387.5535373248
 20
404.4642905455
 30
0.0
 10
387.4296404532
 20
404.5357825352
 30
0.0
  0
SPLINE
  5
366
100
AcDbEntity
  8
0
100
AcDbSpline
 62
7
  6
CONTINUOUS
 70
0
 71
3
 72
9
 73
5
 74
0
 42
0.0000001
 43
0.0000001
 44
0.0000000001
 40
0.0
 40
0.0
 40
0.0
 40
0.0
 40
0.2333600364
 40
1.0
 40
1.0
 40
1.0
 40
1.0
 10
198.1912339974
 20
287.5571346051
 30
0.0
 10
198.1887825827
 20
287.6944509029
 30
0.0
 10
198.1605470412
 20
288.2825219102
 30
0.0
 10
198.0676617904
 20
288.8667074491
 30
0.0
 10
197.9685514271
 20
289.3068739388
 30
0.0
  0
SPLINE
  5
367
100
AcDbEntity
  8
0
100
AcDbSpline
 62
7
  6
CONTINUOUS
 70
0
 71
3
 72
11
 73
7
 74
0
 42
0.0000001
 43
0.0000001
 44
0.0000000001
 40
0.0
 40
0.0
 40
0.0
 40
0.0
 40
0.2781798604
 40
0.5654161198
 40
0.8197079531
 40
1.0
 40
1.0
 40
1.0
 40
1.0
 10
197.9685514271
 20
289.3068739388
 30
0.0
 10
197.7398233472
 20
290.3226954208
 30
0.0
 10
196.9784708186
 20
292.3242113635
 30
0.0
 10
195.2632898315
 20
294.9016116093
 30
0.0
 10
193.2734472001
 20
296.7560335165
 30
0.0
 10
191.7546108456
 20
297.4907975692
 30
0.0
 10
191.0860347128
 20
297.582607735
 30
0.0
  0
SPLINE
  5
368
100
AcDbEntity
  8
0
100
AcDbSpline
 62
7
  6
CONTINUOUS
 70
0
 71
3
 72
9
 73
5
 74
0
 42
0.0000001
 43
0.0000001
 44
0.0000000001
 40
0.0
 40
0.0
 40
0.0
 40
0.0
 40
0.7432005841
 40
1.0
 40
1.0
 40
1.0
 40
1.0
 10
191.5974299641
 20
295.9423290823
 30
0.0
 10
191.7553819973
 20
296.0335260489
 30
0.0
 10
191.9899117576
 20
296.1223282693
 30
0.0
 10
192.2321809721
 20
296.1620195661
 30
0.0
 10
192.2947741193
 20
296.1693521647
 30
0.0
  0
SPLINE
  5
369
100
AcDbEntity
  8
0
100
AcDbSpline
 62
7
  6
CONTINUOUS
 70
0
 71
3
 72
9
 73
5
 74
0
 42
0.0000001
 43
0.0000001
 44
0.0000000001
 40
0.0
 40
0.0
 40
0.0
 40
0.0
 40
0.2172352373
 40
1.0
 40
1.0
 40
1.0
 40
1.0
 10
192.2947741193
 20
296.1693521647
 30
0.0
 10
192.4811445977
 20
296.1911849044
 30
0.0
 10
193.3543455226
 20
296.170707914
 30
0.0
 10
194.1670760683
 20
295.7375269861
 30
0.0
 10
194.7082051746
 20
295.3321294439
 30
0.0
  0
SPLINE
  5
36A
100
AcDbEntity
  8
0
100
AcDbSpline
 62
7
  6
CONTINUOUS
 70
0
 71
3
 72
9
 73
5
 74
0
 42
0.0000001
 43
0.0000001
 44
0.0000000001
 40
0.0
 40
0.0
 40
0.0
 40
0.0
 40
0.2230031377
 40
1.0
 40
1.0
 40
1.0
 40
1.0
 10
191.8114537416
 20
295.9273149727
 30
0.0
 10
191.7156810285
 20
295.809644009
 30
0.0
 10
191.3476565796
 20
295.2309472687
 30
0.0
 10
191.2378014113
 20
294.5217872397
 30
0.0
 10
191.2378014113
 20
293.9931591028
 30
0.0
  0
SPLINE
  5
36B
100
AcDbEntity
  8
0
100
AcDbSpline
 62
7
  6
CONTINUOUS
 70
0
 71
3
 72
8
 73
4
 74
0
 42
0.0000001
 43
0.0000001
 44
0.0000000001
 40
0.0
 40
0.0
 40
0.0
 40
0.0
 40
1.0
 40
1.0
 40
1.0
 40
1.0
 10
246.9416769283
 20
110.4231986105
 30
0.0
 10
246.6635345247
 20
110.5318169468
 30
0.0
 10
246.3667927292
 20
110.5992116787
 30
0.0
 10
246.0695700705
 20
110.6278443663
 30
0.0
  0
SPLINE
  5
36C
100
AcDbEntity
  8
0
100
AcDbSpline
 62
7
  6
CONTINUOUS
 70
0
 71
3
 72
11
 73
7
 74
0
 42
0.0000001
 43
0.0000001
 44
0.0000000001
 40
0.0
 40
0.0
 40
0.0
 40
0.0
 40
0.1937596546
 40
0.420694941
 40
0.6920302723
 40
1.0
 40
1.0
 40
1.0
 40
1.0
 10
251.5837116222
 20
130.2241161084
 30
0.0
 10
251.583789365
 20
130.4878931882
 30
0.0
 10
251.4014412079
 20
131.0653343673
 30
0.0
 10
250.716747132
 20
131.7451201302
 30
0.0
 10
249.7308954596
 20
132.2528899068
 30
0.0
 10
248.9593259555
 20
132.4464685408
 30
0.0
 10
248.5449958849
 20
132.510563642
 30
0.0
  0
SPLINE
  5
36D
100
AcDbEntity
  8
0
100
AcDbSpline
 62
7
  6
CONTINUOUS
 70
0
 71
3
 72
9
 73
5
 74
0
 42
0.0000001
 43
0.0000001
 44
0.0000000001
 40
0.0
 40
0.0
 40
0.0
 40
0.0
 40
0.4491621921
 40
1.0
 40
1.0
 40
1.0
 40
1.0
 10
251.5837116222
 20
120.9976387948
 30
0.0
 10
251.5836175154
 20
120.6783394476
 30
0.0
 10
251.3048286189
 20
119.9656707535
 30
0.0
 10
250.7221214081
 20
119.5196397398
 30
0.0
 10
250.3830041611
 20
119.3238514746
 30
0.0
  0
SPLINE
  5
36E
100
AcDbEntity
  8
0
100
AcDbSpline
 62
7
  6
CONTINUOUS
 70
0
 71
3
 72
8
 73
4
 74
0
 42
0.0000001
 43
0.0000001
 44
0.0000000001
 40
0.0
 40
0.0
 40
0.0
 40
0.0
 40
1.0
 40
1.0
 40
1.0
 40
1.0
 10
63.4938390375
 20
426.8565312863
 30
0.0
 10
63.6788816161
 20
427.2626250895
 30
0.0
 10
63.7866275104
 20
427.7166543979
 30
0.0
 10
63.7866275013
 20
428.1629199386
 30
0.0
  0
SPLINE
  5
36F
100
AcDbEntity
  8
0
100
AcDbSpline
 62
7
  6
CONTINUOUS
 70
0
 71
3
 72
9
 73
5
 74
0
 42
0.0000001
 43
0.0000001
 44
0.0000000001
 40
0.0
 40
0.0
 40
0.0
 40
0.0
 40
0.2356907202
 40
1.0
 40
1.0
 40
1.0
 40
1.0
 10
250.083733577
 20
130.2241152536
 30
0.0
 10
250.0837772904
 20
130.1615462399
 30
0.0
 10
250.055297015
 20
129.8955392198
 30
0.0
 10
249.9062854959
 20
129.6534652749
 30
0.0
 10
249.76690079
 20
129.5060167232
 30
0.0
  0
SPLINE
  5
370
100
AcDbEntity
  8
0
100
AcDbSpline
 62
7
  6
CONTINUOUS
 70
0
 71
3
 72
9
 73
5
 74
0
 42
0.0000001
 43
0.0000001
 44
0.0000000001
 40
0.0
 40
0.0
 40
0.0
 40
0.0
 40
0.2360105062
 40
1.0
 40
1.0
 40
1.0
 40
1.0
 10
249.76690079
 20
129.5060167232
 30
0.0
 10
249.7364834626
 20
129.4738396573
 30
0.0
 10
249.601689326
 20
129.3431109502
 30
0.0
 10
249.4464703072
 20
129.2343564047
 30
0.0
 10
249.3223395733
 20
129.1626899199
 30
0.0
  0
SPLINE
  5
371
100
AcDbEntity
  8
0
100
AcDbSpline
 62
7
  6
CONTINUOUS
 70
0
 71
3
 72
11
 73
7
 74
0
 42
0.0000001
 43
0.0000001
 44
0.0000000001
 40
0.0
 40
0.0
 40
0.0
 40
0.0
 40
0.1937596546
 40
0.420694941
 40
0.6920302723
 40
1.0
 40
1.0
 40
1.0
 40
1.0
 10
251.5837116222
 20
160.1897548171
 30
0.0
 10
251.583789365
 20
160.4535318968
 30
0.0
 10
251.4014412079
 20
161.030973076
 30
0.0
 10
250.716747132
 20
161.7107588388
 30
0.0
 10
249.7308954596
 20
162.2185286155
 30
0.0
 10
248.9593259555
 20
162.4121072494
 30
0.0
 10
248.5449958849
 20
162.4762023507
 30
0.0
  0
SPLINE
  5
372
100
AcDbEntity
  8
0
100
AcDbSpline
 62
7
  6
CONTINUOUS
 70
0
 71
3
 72
9
 73
5
 74
0
 42
0.0000001
 43
0.0000001
 44
0.0000000001
 40
0.0
 40
0.0
 40
0.0
 40
0.0
 40
0.4491621921
 40
1.0
 40
1.0
 40
1.0
 40
1.0
 10
251.5837116222
 20
150.9632775035
 30
0.0
 10
251.5836175154
 20
150.6439781562
 30
0.0
 10
251.3048286189
 20
149.9313094621
 30
0.0
 10
250.7221214081
 20
149.4852784484
 30
0.0
 10
250.3830041611
 20
149.2894901832
 30
0.0
  0
SPLINE
  5
373
100
AcDbEntity
  8
0
100
AcDbSpline
 62
7
  6
CONTINUOUS
 70
0
 71
3
 72
9
 73
5
 74
0
 42
0.0000001
 43
0.0000001
 44
0.0000000001
 40
0.0
 40
0.0
 40
0.0
 40
0.0
 40
0.4491582048
 40
1.0
 40
1.0
 40
1.0
 40
1.0
 10
250.083733577
 20
160.1897539623
 30
0.0
 10
250.0838750381
 20
159.987274232
 30
0.0
 10
249.9068153792
 20
159.5353189006
 30
0.0
 10
249.5373900884
 20
159.2524873602
 30
0.0
 10
249.3223395733
 20
159.1283286286
 30
0.0
  0
SPLINE
  5
374
100
AcDbEntity
  8
0
100
AcDbSpline
 62
7
  6
CONTINUOUS
 70
0
 71
3
 72
9
 73
5
 74
0
 42
0.0000001
 43
0.0000001
 44
0.0000000001
 40
0.0
 40
0.0
 40
0.0
 40
0.0
 40
0.2658171101
 40
1.0
 40
1.0
 40
1.0
 40
1.0
 10
63.4938331496
 20
429.4693215124
 30
0.0
 10
63.579403507
 20
429.3493695052
 30
0.0
 10
63.8733894068
 20
428.8777936516
 30
0.0
 10
64.0663217836
 20
428.3508634069
 30
0.0
 10
64.1773833007
 20
427.9593442056
 30
0.0
  0
SPLINE
  5
375
100
AcDbEntity
  8
0
100
AcDbSpline
 62
7
  6
CONTINUOUS
 70
0
 71
3
 72
9
 73
5
 74
0
 42
0.0000001
 43
0.0000001
 44
0.0000000001
 40
0.0
 40
0.0
 40
0.0
 40
0.0
 40
0.262200154
 40
1.0
 40
1.0
 40
1.0
 40
1.0
 10
64.1773833007
 20
427.9593442056
 30
0.0
 10
64.1856824549
 20
427.9300876432
 30
0.0
 10
64.2167944676
 20
427.8183526786
 30
0.0
 10
64.2461690465
 20
427.7061451991
 30
0.0
 10
64.2677773894
 20
427.6233457341
 30
0.0
  0
SPLINE
  5
376
100
AcDbEntity
  8
0
100
AcDbSpline
 62
7
  6
CONTINUOUS
 70
0
 71
3
 72
8
 73
4
 74
0
 42
0.0000001
 43
0.0000001
 44
0.0000000001
 40
0.0
 40
0.0
 40
0.0
 40
0.0
 40
1.0
 40
1.0
 40
1.0
 40
1.0
 10
386.7536489519
 20
404.4688520714
 30
0.0
 10
386.8604016146
 20
404.4072197872
 30
0.0
 10
386.9618235194
 20
404.3358426928
 30
0.0
 10
387.0577152397
 20
404.2583865927
 30
0.0
  0
SPLINE
  5
377
100
AcDbEntity
  8
0
100
AcDbSpline
 62
7
  6
CONTINUOUS
 70
0
 71
3
 72
9
 73
5
 74
0
 42
0.0000001
 43
0.0000001
 44
0.0000000001
 40
0.0
 40
0.0
 40
0.0
 40
0.0
 40
0.2437783658
 40
1.0
 40
1.0
 40
1.0
 40
1.0
 10
387.2824380626
 20
404.0564981045
 30
0.0
 10
387.3314447625
 20
404.0078154626
 30
0.0
 10
387.5257720735
 20
403.8014317656
 30
0.0
 10
387.6941353509
 20
403.5709876381
 30
0.0
 10
387.8058295605
 20
403.3881167126
 30
0.0
  0
SPLINE
  5
378
100
AcDbEntity
  8
0
100
AcDbSpline
 62
7
  6
CONTINUOUS
 70
0
 71
3
 72
9
 73
5
 74
0
 42
0.0000001
 43
0.0000001
 44
0.0000000001
 40
0.0
 40
0.0
 40
0.0
 40
0.0
 40
0.2594052142
 40
1.0
 40
1.0
 40
1.0
 40
1.0
 10
387.9000561434
 20
403.224846803
 30
0.0
 10
387.9476086582
 20
403.1375007748
 30
0.0
 10
388.117571061
 20
402.793917988
 30
0.0
 10
388.2351917787
 20
402.4226674212
 30
0.0
 10
388.2791799168
 20
402.1421646874
 30
0.0
  0
SPLINE
  5
379
100
AcDbEntity
  8
0
100
AcDbSpline
 62
7
  6
CONTINUOUS
 70
0
 71
3
 72
8
 73
4
 74
0
 42
0.0000001
 43
0.0000001
 44
0.0000000001
 40
0.0
 40
0.0
 40
0.0
 40
0.0
 40
1.0
 40
1.0
 40
1.0
 40
1.0
 10
388.2791799168
 20
402.1421646874
 30
0.0
 10
388.2982346314
 20
402.0206569413
 30
0.0
 10
388.3092903473
 20
401.8974098355
 30
0.0
 10
388.3092903473
 20
401.7744170938
 30
0.0
  0
SPLINE
  5
37A
100
AcDbEntity
  8
0
100
AcDbSpline
 62
7
  6
CONTINUOUS
 70
0
 71
3
 72
9
 73
5
 74
0
 42
0.0000001
 43
0.0000001
 44
0.0000000001
 40
0.0
 40
0.0
 40
0.0
 40
0.0
 40
0.2379500985
 40
1.0
 40
1.0
 40
1.0
 40
1.0
 10
252.9286287787
 20
150.1465704098
 30
0.0
 10
253.0224505458
 20
150.0923973076
 30
0.0
 10
253.4088713793
 20
149.8511743213
 30
0.0
 10
253.7640265812
 20
149.5614288151
 30
0.0
 10
254.0160137056
 20
149.3229242327
 30
0.0
  0
SPLINE
  5
37B
100
AcDbEntity
  8
0
100
AcDbSpline
 62
7
  6
CONTINUOUS
 70
0
 71
3
 72
9
 73
5
 74
0
 42
0.0000001
 43
0.0000001
 44
0.0000000001
 40
0.0
 40
0.0
 40
0.0
 40
0.0
 40
0.5161888598
 40
1.0
 40
1.0
 40
1.0
 40
1.0
 10
254.0160137056
 20
149.3229242327
 30
0.0
 10
254.767772671
 20
148.6113880441
 30
0.0
 10
255.9354510854
 20
146.9276183036
 30
0.0
 10
256.4994414603
 20
144.9318892616
 30
0.0
 10
256.4994414603
 20
143.9617184972
 30
0.0
  0
SPLINE
  5
37C
100
AcDbEntity
  8
0
100
AcDbSpline
 62
7
  6
CONTINUOUS
 70
0
 71
3
 72
9
 73
5
 74
0
 42
0.0000001
 43
0.0000001
 44
0.0000000001
 40
0.0
 40
0.0
 40
0.0
 40
0.0
 40
0.4728757475
 40
1.0
 40
1.0
 40
1.0
 40
1.0
 10
251.6710771899
 20
149.9159729192
 30
0.0
 10
251.8450054666
 20
150.0162189901
 30
0.0
 10
252.2665350899
 20
150.1423802809
 30
0.0
 10
252.6976876472
 20
150.0912912166
 30
0.0
 10
252.9144538135
 20
150.0357063966
 30
0.0
  0
SPLINE
  5
37D
100
AcDbEntity
  8
0
100
AcDbSpline
 62
7
  6
CONTINUOUS
 70
0
 71
3
 72
8
 73
4
 74
0
 42
0.0000001
 43
0.0000001
 44
0.0000000001
 40
0.0
 40
0.0
 40
0.0
 40
0.0
 40
1.0
 40
1.0
 40
1.0
 40
1.0
 10
252.9144538135
 20
150.0357063966
 30
0.0
 10
253.009558233
 20
150.011319002
 30
0.0
 10
253.1033015356
 20
149.9811045069
 30
0.0
 10
253.1950698145
 20
149.9462020912
 30
0.0
  0
SPLINE
  5
37E
100
AcDbEntity
  8
0
100
AcDbSpline
 62
7
  6
CONTINUOUS
 70
0
 71
3
 72
9
 73
5
 74
0
 42
0.0000001
 43
0.0000001
 44
0.0000000001
 40
0.0
 40
0.0
 40
0.0
 40
0.0
 40
0.2375811959
 40
1.0
 40
1.0
 40
1.0
 40
1.0
 10
252.3533086071
 20
149.8449521441
 30
0.0
 10
252.3304450575
 20
149.7991654581
 30
0.0
 10
252.2424021402
 20
149.6023711882
 30
0.0
 10
252.1863681412
 20
149.3920200244
 30
0.0
 10
252.1585926129
 20
149.2301519051
 30
0.0
  0
SPLINE
  5
37F
100
AcDbEntity
  8
0
100
AcDbSpline
 62
7
  6
CONTINUOUS
 70
0
 71
3
 72
11
 73
7
 74
0
 42
0.0000001
 43
0.0000001
 44
0.0000000001
 40
0.0
 40
0.0
 40
0.0
 40
0.0
 40
0.2253732336
 40
0.4875930485
 40
0.7566895807
 40
1.0
 40
1.0
 40
1.0
 40
1.0
 10
252.1585926129
 20
149.2301519051
 30
0.0
 10
252.0801870869
 20
148.7732261225
 30
0.0
 10
252.1518149359
 20
147.745687579
 30
0.0
 10
252.6970911359
 20
146.2732210633
 30
0.0
 10
253.5955481451
 20
144.9401051862
 30
0.0
 10
254.4042681538
 20
144.232305773
 30
0.0
 10
254.8377177088
 20
143.982059217
 30
0.0
  0
SPLINE
  5
380
100
AcDbEntity
  8
0
100
AcDbSpline
 62
7
  6
CONTINUOUS
 70
0
 71
3
 72
9
 73
5
 74
0
 42
0.0000001
 43
0.0000001
 44
0.0000000001
 40
0.0
 40
0.0
 40
0.0
 40
0.0
 40
0.2321189384
 40
1.0
 40
1.0
 40
1.0
 40
1.0
 10
263.5351614402
 20
88.3783556865
 30
0.0
 10
263.4678057586
 20
88.3394680977
 30
0.0
 10
263.1680456003
 20
88.1886782167
 30
0.0
 10
262.8402427171
 20
88.0976450084
 30
0.0
 10
262.5864025843
 20
88.055640525
 30
0.0
  0
SPLINE
  5
381
100
AcDbEntity
  8
0
100
AcDbSpline
 62
7
  6
CONTINUOUS
 70
0
 71
3
 72
9
 73
5
 74
0
 42
0.0000001
 43
0.0000001
 44
0.0000000001
 40
0.0
 40
0.0
 40
0.0
 40
0.0
 40
0.2662389656
 40
1.0
 40
1.0
 40
1.0
 40
1.0
 10
261.3726462808
 20
88.055639069
 30
0.0
 10
261.2846560409
 20
88.0701991257
 30
0.0
 10
260.9566904939
 20
88.1375279593
 30
0.0
 10
260.6367625966
 20
88.2554498628
 30
0.0
 10
260.423891603
 20
88.3783482079
 30
0.0
  0
SPLINE
  5
382
100
AcDbEntity
  8
0
100
AcDbSpline
 62
7
  6
CONTINUOUS
 70
0
 71
3
 72
9
 73
5
 74
0
 42
0.0000001
 43
0.0000001
 44
0.0000000001
 40
0.0
 40
0.0
 40
0.0
 40
0.0
 40
0.2375811959
 40
1.0
 40
1.0
 40
1.0
 40
1.0
 10
252.3533086071
 20
282.1183437191
 30
0.0
 10
252.3304450575
 20
282.0725570331
 30
0.0
 10
252.2424021402
 20
281.8757627631
 30
0.0
 10
252.1863681412
 20
281.6654115994
 30
0.0
 10
252.1585926129
 20
281.5035434801
 30
0.0
  0
SPLINE
  5
383
100
AcDbEntity
  8
0
100
AcDbSpline
 62
7
  6
CONTINUOUS
 70
0
 71
3
 72
11
 73
7
 74
0
 42
0.0000001
 43
0.0000001
 44
0.0000000001
 40
0.0
 40
0.0
 40
0.0
 40
0.0
 40
0.2253732336
 40
0.4875930485
 40
0.7566895807
 40
1.0
 40
1.0
 40
1.0
 40
1.0
 10
252.1585926129
 20
281.5035434801
 30
0.0
 10
252.0801870869
 20
281.0466176975
 30
0.0
 10
252.1518149359
 20
280.019079154
 30
0.0
 10
252.6970911359
 20
278.5466126383
 30
0.0
 10
253.5955481451
 20
277.2134967611
 30
0.0
 10
254.4042681538
 20
276.505697348
 30
0.0
 10
254.8377177088
 20
276.255450792
 30
0.0
  0
SPLINE
  5
384
100
AcDbEntity
  8
0
100
AcDbSpline
 62
7
  6
CONTINUOUS
 70
0
 71
3
 72
9
 73
5
 74
0
 42
0.0000001
 43
0.0000001
 44
0.0000000001
 40
0.0
 40
0.0
 40
0.0
 40
0.0
 40
0.4739620061
 40
1.0
 40
1.0
 40
1.0
 40
1.0
 10
251.6710771899
 20
282.1893644942
 30
0.0
 10
251.8406264325
 20
282.2870866456
 30
0.0
 10
252.2491741621
 20
282.4121494662
 30
0.0
 10
252.6689075999
 20
282.3684690344
 30
0.0
 10
252.8800740245
 20
282.3176437826
 30
0.0
  0
SPLINE
  5
385
100
AcDbEntity
  8
0
100
AcDbSpline
 62
7
  6
CONTINUOUS
 70
0
 71
3
 72
8
 73
4
 74
0
 42
0.0000001
 43
0.0000001
 44
0.0000000001
 40
0.0
 40
0.0
 40
0.0
 40
0.0
 40
1.0
 40
1.0
 40
1.0
 40
1.0
 10
252.8800740245
 20
282.3176437826
 30
0.0
 10
252.9817243784
 20
282.2931777491
 30
0.0
 10
253.0819073136
 20
282.2619403996
 30
0.0
 10
253.1798431166
 20
282.2253349393
 30
0.0
  0
SPLINE
  5
386
100
AcDbEntity
  8
0
100
AcDbSpline
 62
7
  6
CONTINUOUS
 70
0
 71
3
 72
9
 73
5
 74
0
 42
0.0000001
 43
0.0000001
 44
0.0000000001
 40
0.0
 40
0.0
 40
0.0
 40
0.0
 40
0.2379500985
 40
1.0
 40
1.0
 40
1.0
 40
1.0
 10
252.9286287787
 20
282.4199619848
 30
0.0
 10
253.0224505458
 20
282.3657888826
 30
0.0
 10
253.4088713793
 20
282.1245658963
 30
0.0
 10
253.7640265812
 20
281.8348203901
 30
0.0
 10
254.0160137056
 20
281.5963158077
 30
0.0
  0
SPLINE
  5
387
100
AcDbEntity
  8
0
100
AcDbSpline
 62
7
  6
CONTINUOUS
 70
0
 71
3
 72
9
 73
5
 74
0
 42
0.0000001
 43
0.0000001
 44
0.0000000001
 40
0.0
 40
0.0
 40
0.0
 40
0.0
 40
0.5161888598
 40
1.0
 40
1.0
 40
1.0
 40
1.0
 10
254.0160137056
 20
281.5963158077
 30
0.0
 10
254.767772671
 20
280.8847796191
 30
0.0
 10
255.9354510854
 20
279.2010098786
 30
0.0
 10
256.4994414603
 20
277.2052808366
 30
0.0
 10
256.4994414603
 20
276.2351100722
 30
0.0
  0
SPLINE
  5
388
100
AcDbEntity
  8
0
100
AcDbSpline
 62
7
  6
CONTINUOUS
 70
0
 71
3
 72
9
 73
5
 74
0
 42
0.0000001
 43
0.0000001
 44
0.0000000001
 40
0.0
 40
0.0
 40
0.0
 40
0.0
 40
0.2844325093
 40
1.0
 40
1.0
 40
1.0
 40
1.0
 10
240.7946116896
 20
102.6214139584
 30
0.0
 10
240.752087275
 20
102.5472456706
 30
0.0
 10
240.5934830343
 20
102.2927390969
 30
0.0
 10
240.3892834037
 20
102.0600603271
 30
0.0
 10
240.2123533336
 20
101.937762021
 30
0.0
  0
SPLINE
  5
389
100
AcDbEntity
  8
0
100
AcDbSpline
 62
7
  6
CONTINUOUS
 70
0
 71
3
 72
11
 73
7
 74
0
 42
0.0000001
 43
0.0000001
 44
0.0000000001
 40
0.0
 40
0.0
 40
0.0
 40
0.0
 40
0.1937596546
 40
0.420694941
 40
0.6920302723
 40
1.0
 40
1.0
 40
1.0
 40
1.0
 10
251.5837116222
 20
262.4975076834
 30
0.0
 10
251.583789365
 20
262.7612847632
 30
0.0
 10
251.4014412079
 20
263.3387259423
 30
0.0
 10
250.716747132
 20
264.0185117051
 30
0.0
 10
249.7308954596
 20
264.5262814818
 30
0.0
 10
248.9593259555
 20
264.7198601158
 30
0.0
 10
248.5449958849
 20
264.783955217
 30
0.0
  0
SPLINE
  5
38A
100
AcDbEntity
  8
0
100
AcDbSpline
 62
7
  6
CONTINUOUS
 70
0
 71
3
 72
9
 73
5
 74
0
 42
0.0000001
 43
0.0000001
 44
0.0000000001
 40
0.0
 40
0.0
 40
0.0
 40
0.0
 40
0.4491621921
 40
1.0
 40
1.0
 40
1.0
 40
1.0
 10
251.5837116222
 20
253.2710303698
 30
0.0
 10
251.5836175154
 20
252.9517310226
 30
0.0
 10
251.3048286189
 20
252.2390623285
 30
0.0
 10
250.7221214081
 20
251.7930313148
 30
0.0
 10
250.3830041611
 20
251.5972430496
 30
0.0
  0
SPLINE
  5
38B
100
AcDbEntity
  8
0
100
AcDbSpline
 62
7
  6
CONTINUOUS
 70
0
 71
3
 72
9
 73
5
 74
0
 42
0.0000001
 43
0.0000001
 44
0.0000000001
 40
0.0
 40
0.0
 40
0.0
 40
0.0
 40
0.2356907202
 40
1.0
 40
1.0
 40
1.0
 40
1.0
 10
250.083733577
 20
262.4975068286
 30
0.0
 10
250.0837772904
 20
262.4349378149
 30
0.0
 10
250.055297015
 20
262.1689307948
 30
0.0
 10
249.9062854959
 20
261.9268568499
 30
0.0
 10
249.76690079
 20
261.7794082982
 30
0.0
  0
SPLINE
  5
38C
100
AcDbEntity
  8
0
100
AcDbSpline
 62
7
  6
CONTINUOUS
 70
0
 71
3
 72
9
 73
5
 74
0
 42
0.0000001
 43
0.0000001
 44
0.0000000001
 40
0.0
 40
0.0
 40
0.0
 40
0.0
 40
0.2360105062
 40
1.0
 40
1.0
 40
1.0
 40
1.0
 10
249.76690079
 20
261.7794082982
 30
0.0
 10
249.7364834626
 20
261.7472312323
 30
0.0
 10
249.601689326
 20
261.6165025252
 30
0.0
 10
249.4464703072
 20
261.5077479797
 30
0.0
 10
249.3223395733
 20
261.4360814949
 30
0.0
  0
SPLINE
  5
38D
100
AcDbEntity
  8
0
100
AcDbSpline
 62
7
  6
CONTINUOUS
 70
0
 71
3
 72
9
 73
5
 74
0
 42
0.0000001
 43
0.0000001
 44
0.0000000001
 40
0.0
 40
0.0
 40
0.0
 40
0.0
 40
0.2351550249
 40
1.0
 40
1.0
 40
1.0
 40
1.0
 10
248.332315303
 20
322.7551882808
 30
0.0
 10
248.3189949499
 20
322.7413364583
 30
0.0
 10
248.2619705948
 20
322.682795764
 30
0.0
 10
248.2038891232
 20
322.6252990037
 30
0.0
 10
248.1594210428
 20
322.5813739712
 30
0.0
  0
LINE
  5
38E
100
AcDbEntity
  8
0
100
AcDbLine
 62
7
  6
CONTINUOUS
 10
248.1594210428
 20
322.5813739712
 11
248.1298198491
 21
322.5521494071
  0
SPLINE
  5
38F
100
AcDbEntity
  8
0
100
AcDbSpline
 62
7
  6
CONTINUOUS
 70
0
 71
3
 72
11
 73
7
 74
0
 42
0.0000001
 43
0.0000001
 44
0.0000000001
 40
0.0
 40
0.0
 40
0.0
 40
0.0
 40
0.1937596546
 40
0.420694941
 40
0.6920302723
 40
1.0
 40
1.0
 40
1.0
 40
1.0
 10
251.5837116222
 20
292.463146392
 30
0.0
 10
251.583789365
 20
292.7269234718
 30
0.0
 10
251.4014412079
 20
293.304364651
 30
0.0
 10
250.716747132
 20
293.9841504138
 30
0.0
 10
249.7308954596
 20
294.4919201905
 30
0.0
 10
248.9593259555
 20
294.6854988244
 30
0.0
 10
248.5449958849
 20
294.7495939256
 30
0.0
  0
SPLINE
  5
390
100
AcDbEntity
  8
0
100
AcDbSpline
 62
7
  6
CONTINUOUS
 70
0
 71
3
 72
9
 73
5
 74
0
 42
0.0000001
 43
0.0000001
 44
0.0000000001
 40
0.0
 40
0.0
 40
0.0
 40
0.0
 40
0.4491621921
 40
1.0
 40
1.0
 40
1.0
 40
1.0
 10
251.5837116222
 20
283.2366690785
 30
0.0
 10
251.5836175154
 20
282.9173697312
 30
0.0
 10
251.3048286189
 20
282.2047010371
 30
0.0
 10
250.7221214081
 20
281.7586700234
 30
0.0
 10
250.3830041611
 20
281.5628817582
 30
0.0
  0
SPLINE
  5
391
100
AcDbEntity
  8
0
100
AcDbSpline
 62
7
  6
CONTINUOUS
 70
0
 71
3
 72
10
 73
6
 74
0
 42
0.0000001
 43
0.0000001
 44
0.0000000001
 40
0.0
 40
0.0
 40
0.0
 40
0.0
 40
0.296082849
 40
0.5657070786
 40
1.0
 40
1.0
 40
1.0
 40
1.0
 10
243.3737244692
 20
255.4616875381
 30
0.0
 10
243.0513920127
 20
255.5167805965
 30
0.0
 10
242.4401330421
 20
255.6707242169
 30
0.0
 10
241.4363564591
 20
256.1196059114
 30
0.0
 10
240.8103856018
 20
256.6844221703
 30
0.0
 10
240.622885289
 20
257.1259079814
 30
0.0
  0
SPLINE
  5
392
100
AcDbEntity
  8
0
100
AcDbSpline
 62
7
  6
CONTINUOUS
 70
0
 71
3
 72
13
 73
9
 74
0
 42
0.0000001
 43
0.0000001
 44
0.0000000001
 40
0.0
 40
0.0
 40
0.0
 40
0.0
 40
0.2698956012
 40
0.5613257437
 40
0.6954661216
 40
0.8131446799
 40
0.9128555334
 40
1.0
 40
1.0
 40
1.0
 40
1.0
 10
250.3830041611
 20
251.5972430496
 30
0.0
 10
249.7487364978
 20
251.2310506294
 30
0.0
 10
248.2325510085
 20
250.8206440223
 30
0.0
 10
246.3154807565
 20
250.9177855889
 30
0.0
 10
244.907755513
 20
251.3867483287
 30
0.0
 10
244.0845125968
 20
251.8886260467
 30
0.0
 10
243.526703719
 20
252.5228308878
 30
0.0
 10
243.3840425616
 20
253.0345554039
 30
0.0
 10
243.3840334306
 20
253.2710304396
 30
0.0
  0
SPLINE
  5
393
100
AcDbEntity
  8
0
100
AcDbSpline
 62
7
  6
CONTINUOUS
 70
0
 71
3
 72
9
 73
5
 74
0
 42
0.0000001
 43
0.0000001
 44
0.0000000001
 40
0.0
 40
0.0
 40
0.0
 40
0.0
 40
0.4491582048
 40
1.0
 40
1.0
 40
1.0
 40
1.0
 10
250.083733577
 20
292.4631455373
 30
0.0
 10
250.0838750381
 20
292.260665807
 30
0.0
 10
249.9068153792
 20
291.8087104756
 30
0.0
 10
249.5373900884
 20
291.5258789352
 30
0.0
 10
249.3223395733
 20
291.4017202036
 30
0.0
  0
SPLINE
  5
394
100
AcDbEntity
  8
0
100
AcDbSpline
 62
7
  6
CONTINUOUS
 70
0
 71
3
 72
11
 73
7
 74
0
 42
0.0000001
 43
0.0000001
 44
0.0000000001
 40
0.0
 40
0.0
 40
0.0
 40
0.0
 40
0.237265977
 40
0.500000526
 40
0.762734789
 40
1.0
 40
1.0
 40
1.0
 40
1.0
 10
249.6051128082
 20
301.0362428025
 30
0.0
 10
249.3541126874
 20
301.1811545115
 30
0.0
 10
248.7704786764
 20
301.3926283974
 30
0.0
 10
247.8373430764
 20
301.4937103279
 30
0.0
 10
246.9042088835
 20
301.392624139
 30
0.0
 10
246.3205771678
 20
301.1811473552
 30
0.0
 10
246.0695789023
 20
301.0362343041
 30
0.0
  0
SPLINE
  5
395
100
AcDbEntity
  8
0
100
AcDbSpline
 62
7
  6
CONTINUOUS
 70
0
 71
3
 72
11
 73
7
 74
0
 42
0.0000001
 43
0.0000001
 44
0.0000000001
 40
0.0
 40
0.0
 40
0.0
 40
0.0
 40
0.3079115431
 40
0.5793267346
 40
0.8062319001
 40
1.0
 40
1.0
 40
1.0
 40
1.0
 10
243.8604993573
 20
295.4742656318
 30
0.0
 10
243.6079092937
 20
295.5133402413
 30
0.0
 10
243.1374488765
 20
295.6314446832
 30
0.0
 10
242.5362814127
 20
295.9409152106
 30
0.0
 10
242.1187312751
 20
296.3555385118
 30
0.0
 10
242.0077653582
 20
296.7075966253
 30
0.0
 10
242.0076529849
 20
296.8684416993
 30
0.0
  0
SPLINE
  5
396
100
AcDbEntity
  8
0
100
AcDbSpline
 62
7
  6
CONTINUOUS
 70
0
 71
3
 72
9
 73
5
 74
0
 42
0.0000001
 43
0.0000001
 44
0.0000000001
 40
0.0
 40
0.0
 40
0.0
 40
0.0
 40
0.5508527107
 40
1.0
 40
1.0
 40
1.0
 40
1.0
 10
244.5847044149
 20
294.1369332589
 30
0.0
 10
244.2455785176
 20
293.9411399995
 30
0.0
 10
243.6628972524
 20
293.4951229654
 30
0.0
 10
243.3840287061
 20
292.7824345392
 30
0.0
 10
243.3840228861
 20
292.463146266
 30
0.0
  0
SPLINE
  5
397
100
AcDbEntity
  8
0
100
AcDbSpline
 62
7
  6
CONTINUOUS
 70
0
 71
3
 72
13
 73
9
 74
0
 42
0.0000001
 43
0.0000001
 44
0.0000000001
 40
0.0
 40
0.0
 40
0.0
 40
0.0
 40
0.2699040481
 40
0.5613092475
 40
0.6954524627
 40
0.8131377821
 40
0.9128550148
 40
1.0
 40
1.0
 40
1.0
 40
1.0
 10
249.3223395733
 20
291.4017202036
 30
0.0
 10
248.9201079455
 20
291.1694930512
 30
0.0
 10
247.9586395083
 20
290.9092488282
 30
0.0
 10
246.7429764611
 20
290.970900758
 30
0.0
 10
245.8502756282
 20
291.2682360612
 30
0.0
 10
245.3281852801
 20
291.5864547745
 30
0.0
 10
244.9743420188
 20
291.9886553722
 30
0.0
 10
244.8840794572
 20
292.3131854527
 30
0.0
 10
244.8839659144
 20
292.4631462755
 30
0.0
  0
SPLINE
  5
398
100
AcDbEntity
  8
0
100
AcDbSpline
 62
7
  6
CONTINUOUS
 70
0
 71
3
 72
9
 73
5
 74
0
 42
0.0000001
 43
0.0000001
 44
0.0000000001
 40
0.0
 40
0.0
 40
0.0
 40
0.0
 40
0.2802172908
 40
1.0
 40
1.0
 40
1.0
 40
1.0
 10
241.6790980162
 20
298.5014041135
 30
0.0
 10
241.5564914435
 20
298.4306175983
 30
0.0
 10
241.1351862347
 20
298.1551923396
 30
0.0
 10
240.771469766
 20
297.7622220261
 30
0.0
 10
240.6270021753
 20
297.4284950384
 30
0.0
  0
SPLINE
  5
399
100
AcDbEntity
  8
0
100
AcDbSpline
 62
7
  6
CONTINUOUS
 70
0
 71
3
 72
9
 73
5
 74
0
 42
0.0000001
 43
0.0000001
 44
0.0000000001
 40
0.0
 40
0.0
 40
0.0
 40
0.0
 40
0.2587699924
 40
1.0
 40
1.0
 40
1.0
 40
1.0
 10
243.3826156159
 20
285.4258363223
 30
0.0
 10
243.2795672362
 20
285.4432956017
 30
0.0
 10
242.8830907168
 20
285.5203188617
 30
0.0
 10
242.4937865318
 20
285.637037042
 30
0.0
 10
242.2161528549
 20
285.7490602154
 30
0.0
  0
SPLINE
  5
39A
100
AcDbEntity
  8
0
100
AcDbSpline
 62
7
  6
CONTINUOUS
 70
0
 71
3
 72
13
 73
9
 74
0
 42
0.0000001
 43
0.0000001
 44
0.0000000001
 40
0.0
 40
0.0
 40
0.0
 40
0.0
 40
0.2698956012
 40
0.5613257437
 40
0.6954661216
 40
0.8131446799
 40
0.9128555334
 40
1.0
 40
1.0
 40
1.0
 40
1.0
 10
250.3830041611
 20
281.5628817582
 30
0.0
 10
249.7487364978
 20
281.196689338
 30
0.0
 10
248.2325510085
 20
280.7862827309
 30
0.0
 10
246.3154807565
 20
280.8834242976
 30
0.0
 10
244.907755513
 20
281.3523870374
 30
0.0
 10
244.0845125968
 20
281.8542647553
 30
0.0
 10
243.526703719
 20
282.4884695964
 30
0.0
 10
243.3840425616
 20
283.0001941126
 30
0.0
 10
243.3840334306
 20
283.2366691483
 30
0.0
  0
SPLINE
  5
39B
100
AcDbEntity
  8
0
100
AcDbSpline
 62
7
  6
CONTINUOUS
 70
0
 71
3
 72
9
 73
5
 74
0
 42
0.0000001
 43
0.0000001
 44
0.0000000001
 40
0.0
 40
0.0
 40
0.0
 40
0.0
 40
0.2373993499
 40
1.0
 40
1.0
 40
1.0
 40
1.0
 10
247.1206166971
 20
110.9146999301
 30
0.0
 10
247.1402126993
 20
110.8953578901
 30
0.0
 10
247.222755567
 20
110.8138832172
 30
0.0
 10
247.3047789015
 20
110.73186864
 30
0.0
 10
247.3664007133
 20
110.6684200132
 30
0.0
  0
SPLINE
  5
39C
100
AcDbEntity
  8
0
100
AcDbSpline
 62
7
  6
CONTINUOUS
 70
0
 71
3
 72
9
 73
5
 74
0
 42
0.0000001
 43
0.0000001
 44
0.0000000001
 40
0.0
 40
0.0
 40
0.0
 40
0.0
 40
0.2369728275
 40
1.0
 40
1.0
 40
1.0
 40
1.0
 10
247.5750797074
 20
110.4452627393
 30
0.0
 10
247.6466491692
 20
110.365390653
 30
0.0
 10
247.9401814113
 20
110.0212385032
 30
0.0
 10
248.1891277425
 20
109.6356920634
 30
0.0
 10
248.332315303
 20
109.3214564431
 30
0.0
  0
SPLINE
  5
39D
100
AcDbEntity
  8
0
100
AcDbSpline
 62
7
  6
CONTINUOUS
 70
0
 71
3
 72
13
 73
9
 74
0
 42
0.0000001
 43
0.0000001
 44
0.0000000001
 40
0.0
 40
0.0
 40
0.0
 40
0.0
 40
0.2699040481
 40
0.5613092475
 40
0.6954524627
 40
0.8131377821
 40
0.9128550148
 40
1.0
 40
1.0
 40
1.0
 40
1.0
 10
249.3223395733
 20
261.4360814949
 30
0.0
 10
248.9201079455
 20
261.2038543425
 30
0.0
 10
247.9586395083
 20
260.9436101195
 30
0.0
 10
246.7429764611
 20
261.0052620493
 30
0.0
 10
245.8502756282
 20
261.3025973525
 30
0.0
 10
245.3281852801
 20
261.6208160658
 30
0.0
 10
244.9743420188
 20
262.0230166636
 30
0.0
 10
244.8840794572
 20
262.3475467441
 30
0.0
 10
244.8839659144
 20
262.4975075668
 30
0.0
  0
SPLINE
  5
39E
100
AcDbEntity
  8
0
100
AcDbSpline
 62
7
  6
CONTINUOUS
 70
0
 71
3
 72
9
 73
5
 74
0
 42
0.0000001
 43
0.0000001
 44
0.0000000001
 40
0.0
 40
0.0
 40
0.0
 40
0.0
 40
0.2590816813
 40
1.0
 40
1.0
 40
1.0
 40
1.0
 10
243.8604993569
 20
265.5086269232
 30
0.0
 10
243.7910334379
 20
265.5193730057
 30
0.0
 10
243.5240940911
 20
265.5678378565
 30
0.0
 10
243.2618395176
 20
265.6445194933
 30
0.0
 10
243.075421878
 20
265.7197376577
 30
0.0
  0
SPLINE
  5
39F
100
AcDbEntity
  8
0
100
AcDbSpline
 62
7
  6
CONTINUOUS
 70
0
 71
3
 72
9
 73
5
 74
0
 42
0.0000001
 43
0.0000001
 44
0.0000000001
 40
0.0
 40
0.0
 40
0.0
 40
0.0
 40
0.5508527107
 40
1.0
 40
1.0
 40
1.0
 40
1.0
 10
244.5847044149
 20
264.1712945502
 30
0.0
 10
244.2455785176
 20
263.9755012909
 30
0.0
 10
243.6628972524
 20
263.5294842568
 30
0.0
 10
243.3840287061
 20
262.8167958306
 30
0.0
 10
243.3840228861
 20
262.4975075574
 30
0.0
  0
SPLINE
  5
3A0
100
AcDbEntity
  8
0
100
AcDbSpline
 62
7
  6
CONTINUOUS
 70
0
 71
3
 72
9
 73
5
 74
0
 42
0.0000001
 43
0.0000001
 44
0.0000000001
 40
0.0
 40
0.0
 40
0.0
 40
0.0
 40
0.4295470595
 40
1.0
 40
1.0
 40
1.0
 40
1.0
 10
388.7045162086
 20
402.3255431791
 30
0.0
 10
388.7047912746
 20
402.4684282614
 30
0.0
 10
388.5223677466
 20
402.7931642314
 30
0.0
 10
388.2117834153
 20
402.9397327098
 30
0.0
 10
388.0317797291
 20
402.9997845187
 30
0.0
  0
SPLINE
  5
3A1
100
AcDbEntity
  8
0
100
AcDbSpline
 62
7
  6
CONTINUOUS
 70
0
 71
3
 72
9
 73
5
 74
0
 42
0.0000001
 43
0.0000001
 44
0.0000000001
 40
0.0
 40
0.0
 40
0.0
 40
0.0
 40
0.2591116875
 40
1.0
 40
1.0
 40
1.0
 40
1.0
 10
256.4754046798
 20
276.6833034906
 30
0.0
 10
256.4702115411
 20
276.6405794459
 30
0.0
 10
256.4467290863
 20
276.4761510804
 30
0.0
 10
256.4090470337
 20
276.3135821711
 30
0.0
 10
256.3717655475
 20
276.1963035648
 30
0.0
  0
SPLINE
  5
3A2
100
AcDbEntity
  8
0
100
AcDbSpline
 62
7
  6
CONTINUOUS
 70
0
 71
3
 72
9
 73
5
 74
0
 42
0.0000001
 43
0.0000001
 44
0.0000000001
 40
0.0
 40
0.0
 40
0.0
 40
0.0
 40
0.2668134522
 40
1.0
 40
1.0
 40
1.0
 40
1.0
 10
256.3717655475
 20
276.1963035648
 30
0.0
 10
256.3499207852
 20
276.1275851864
 30
0.0
 10
256.2562005396
 20
275.8742447801
 30
0.0
 10
256.1082772544
 20
275.6387476895
 30
0.0
 10
255.970631854
 20
275.496215933
 30
0.0
  0
SPLINE
  5
3A3
100
AcDbEntity
  8
0
100
AcDbSpline
 62
7
  6
CONTINUOUS
 70
0
 71
3
 72
8
 73
4
 74
0
 42
0.0000001
 43
0.0000001
 44
0.0000000001
 40
0.0
 40
0.0
 40
0.0
 40
0.0
 40
1.0
 40
1.0
 40
1.0
 40
1.0
 10
255.970631854
 20
275.496215933
 30
0.0
 10
255.8824674398
 20
275.4049217176
 30
0.0
 10
255.7808747043
 20
275.32477653
 30
0.0
 10
255.6709155648
 20
275.261399994
 30
0.0
  0
SPLINE
  5
3A4
100
AcDbEntity
  8
0
100
AcDbSpline
 62
7
  6
CONTINUOUS
 70
0
 71
3
 72
9
 73
5
 74
0
 42
0.0000001
 43
0.0000001
 44
0.0000000001
 40
0.0
 40
0.0
 40
0.0
 40
0.0
 40
0.264061731
 40
1.0
 40
1.0
 40
1.0
 40
1.0
 10
256.4715290391
 20
276.1855829298
 30
0.0
 10
256.4385938604
 20
276.1200466737
 30
0.0
 10
256.2994955472
 20
275.8796030908
 30
0.0
 10
256.0910544467
 20
275.6773742145
 30
0.0
 10
255.9141017025
 20
275.5750323933
 30
0.0
  0
SPLINE
  5
3A5
100
AcDbEntity
  8
0
100
AcDbSpline
 62
7
  6
CONTINUOUS
 70
0
 71
3
 72
9
 73
5
 74
0
 42
0.0000001
 43
0.0000001
 44
0.0000000001
 40
0.0
 40
0.0
 40
0.0
 40
0.0
 40
0.2782183801
 40
1.0
 40
1.0
 40
1.0
 40
1.0
 10
254.8377177088
 20
143.982059217
 30
0.0
 10
254.9491575841
 20
143.9177208305
 30
0.0
 10
255.3601215951
 20
143.7085813453
 30
0.0
 10
255.8320490124
 20
143.5921744323
 30
0.0
 10
256.16511778
 20
143.6147305336
 30
0.0
  0
SPLINE
  5
3A6
100
AcDbEntity
  8
0
100
AcDbSpline
 62
7
  6
CONTINUOUS
 70
0
 71
3
 72
8
 73
4
 74
0
 42
0.0000001
 43
0.0000001
 44
0.0000000001
 40
0.0
 40
0.0
 40
0.0
 40
0.0
 40
1.0
 40
1.0
 40
1.0
 40
1.0
 10
256.2564519556
 20
143.6236279205
 30
0.0
 10
256.3351329938
 20
143.633682247
 30
0.0
 10
256.4133170268
 20
143.6500519993
 30
0.0
 10
256.4892139878
 20
143.6731051242
 30
0.0
  0
SPLINE
  5
3A7
100
AcDbEntity
  8
0
100
AcDbSpline
 62
7
  6
CONTINUOUS
 70
0
 71
3
 72
9
 73
5
 74
0
 42
0.0000001
 43
0.0000001
 44
0.0000000001
 40
0.0
 40
0.0
 40
0.0
 40
0.0
 40
0.2782183801
 40
1.0
 40
1.0
 40
1.0
 40
1.0
 10
254.8377177088
 20
276.255450792
 30
0.0
 10
254.9491575841
 20
276.1911124055
 30
0.0
 10
255.3601215951
 20
275.9819729203
 30
0.0
 10
255.8320490124
 20
275.8655660073
 30
0.0
 10
256.16511778
 20
275.8881221086
 30
0.0
  0
SPLINE
  5
3A8
100
AcDbEntity
  8
0
100
AcDbSpline
 62
7
  6
CONTINUOUS
 70
0
 71
3
 72
8
 73
4
 74
0
 42
0.0000001
 43
0.0000001
 44
0.0000000001
 40
0.0
 40
0.0
 40
0.0
 40
0.0
 40
1.0
 40
1.0
 40
1.0
 40
1.0
 10
256.2564519556
 20
275.8970194955
 30
0.0
 10
256.3351329938
 20
275.907073822
 30
0.0
 10
256.4133170268
 20
275.9234435742
 30
0.0
 10
256.4892139878
 20
275.9464966992
 30
0.0
  0
SPLINE
  5
3A9
100
AcDbEntity
  8
0
100
AcDbSpline
 62
7
  6
CONTINUOUS
 70
0
 71
3
 72
9
 73
5
 74
0
 42
0.0000001
 43
0.0000001
 44
0.0000000001
 40
0.0
 40
0.0
 40
0.0
 40
0.0
 40
0.264061731
 40
1.0
 40
1.0
 40
1.0
 40
1.0
 10
256.4715290391
 20
143.9121913548
 30
0.0
 10
256.4385938604
 20
143.8466550987
 30
0.0
 10
256.2994955472
 20
143.6062115158
 30
0.0
 10
256.0910544467
 20
143.4039826395
 30
0.0
 10
255.9141017025
 20
143.3016408183
 30
0.0
  0
SPLINE
  5
3AA
100
AcDbEntity
  8
0
100
AcDbSpline
 62
7
  6
CONTINUOUS
 70
0
 71
3
 72
9
 73
5
 74
0
 42
0.0000001
 43
0.0000001
 44
0.0000000001
 40
0.0
 40
0.0
 40
0.0
 40
0.0
 40
0.2591116875
 40
1.0
 40
1.0
 40
1.0
 40
1.0
 10
256.4754046798
 20
144.4099119156
 30
0.0
 10
256.4702115411
 20
144.3671878709
 30
0.0
 10
256.4467290863
 20
144.2027595054
 30
0.0
 10
256.4090470337
 20
144.0401905962
 30
0.0
 10
256.3717655475
 20
143.9229119898
 30
0.0
  0
SPLINE
  5
3AB
100
AcDbEntity
  8
0
100
AcDbSpline
 62
7
  6
CONTINUOUS
 70
0
 71
3
 72
9
 73
5
 74
0
 42
0.0000001
 43
0.0000001
 44
0.0000000001
 40
0.0
 40
0.0
 40
0.0
 40
0.0
 40
0.2668134522
 40
1.0
 40
1.0
 40
1.0
 40
1.0
 10
256.3717655475
 20
143.9229119898
 30
0.0
 10
256.3499207852
 20
143.8541936114
 30
0.0
 10
256.2562005396
 20
143.6008532051
 30
0.0
 10
256.1082772544
 20
143.3653561145
 30
0.0
 10
255.970631854
 20
143.222824358
 30
0.0
  0
SPLINE
  5
3AC
100
AcDbEntity
  8
0
100
AcDbSpline
 62
7
  6
CONTINUOUS
 70
0
 71
3
 72
8
 73
4
 74
0
 42
0.0000001
 43
0.0000001
 44
0.0000000001
 40
0.0
 40
0.0
 40
0.0
 40
0.0
 40
1.0
 40
1.0
 40
1.0
 40
1.0
 10
255.970631854
 20
143.222824358
 30
0.0
 10
255.8824674398
 20
143.1315301426
 30
0.0
 10
255.7808747043
 20
143.0513849551
 30
0.0
 10
255.6709155648
 20
142.988008419
 30
0.0
  0
SPLINE
  5
3AD
100
AcDbEntity
  8
0
100
AcDbSpline
 62
7
  6
CONTINUOUS
 70
0
 71
3
 72
10
 73
6
 74
0
 42
0.0000001
 43
0.0000001
 44
0.0000000001
 40
0.0
 40
0.0
 40
0.0
 40
0.0
 40
0.296082849
 40
0.5657070786
 40
1.0
 40
1.0
 40
1.0
 40
1.0
 10
243.3737244692
 20
123.1882959631
 30
0.0
 10
243.0513920127
 20
123.2433890215
 30
0.0
 10
242.4401330421
 20
123.3973326419
 30
0.0
 10
241.4363564591
 20
123.8462143364
 30
0.0
 10
240.8103856018
 20
124.4110305953
 30
0.0
 10
240.622885289
 20
124.8525164064
 30
0.0
  0
SPLINE
  5
3AE
100
AcDbEntity
  8
0
100
AcDbSpline
 62
7
  6
CONTINUOUS
 70
0
 71
3
 72
13
 73
9
 74
0
 42
0.0000001
 43
0.0000001
 44
0.0000000001
 40
0.0
 40
0.0
 40
0.0
 40
0.0
 40
0.2698956012
 40
0.5613257437
 40
0.6954661216
 40
0.8131446799
 40
0.9128555334
 40
1.0
 40
1.0
 40
1.0
 40
1.0
 10
250.3830041611
 20
119.3238514746
 30
0.0
 10
249.7487364978
 20
118.9576590544
 30
0.0
 10
248.2325510085
 20
118.5472524473
 30
0.0
 10
246.3154807565
 20
118.644394014
 30
0.0
 10
244.907755513
 20
119.1133567538
 30
0.0
 10
244.0845125968
 20
119.6152344717
 30
0.0
 10
243.526703719
 20
120.2494393128
 30
0.0
 10
243.3840425616
 20
120.7611638289
 30
0.0
 10
243.3840334306
 20
120.9976388646
 30
0.0
  0
SPLINE
  5
3AF
100
AcDbEntity
  8
0
100
AcDbSpline
 62
7
  6
CONTINUOUS
 70
0
 71
3
 72
11
 73
7
 74
0
 42
0.0000001
 43
0.0000001
 44
0.0000000001
 40
0.0
 40
0.0
 40
0.0
 40
0.0
 40
0.237265977
 40
0.500000526
 40
0.762734789
 40
1.0
 40
1.0
 40
1.0
 40
1.0
 10
249.6051128082
 20
168.7628512275
 30
0.0
 10
249.3541126874
 20
168.9077629365
 30
0.0
 10
248.7704786764
 20
169.1192368224
 30
0.0
 10
247.8373430764
 20
169.2203187529
 30
0.0
 10
246.9042088835
 20
169.119232564
 30
0.0
 10
246.3205771678
 20
168.9077557802
 30
0.0
 10
246.0695789023
 20
168.7628427291
 30
0.0
  0
SPLINE
  5
3B0
100
AcDbEntity
  8
0
100
AcDbSpline
 62
7
  6
CONTINUOUS
 70
0
 71
3
 72
11
 73
7
 74
0
 42
0.0000001
 43
0.0000001
 44
0.0000000001
 40
0.0
 40
0.0
 40
0.0
 40
0.0
 40
0.3079115431
 40
0.5793267346
 40
0.8062319001
 40
1.0
 40
1.0
 40
1.0
 40
1.0
 10
243.8604993573
 20
163.2008740568
 30
0.0
 10
243.6079092937
 20
163.2399486663
 30
0.0
 10
243.1374488765
 20
163.3580531082
 30
0.0
 10
242.5362814127
 20
163.6675236356
 30
0.0
 10
242.1187312751
 20
164.0821469369
 30
0.0
 10
242.0077653582
 20
164.4342050503
 30
0.0
 10
242.0076529849
 20
164.5950501243
 30
0.0
  0
SPLINE
  5
3B1
100
AcDbEntity
  8
0
100
AcDbSpline
 62
7
  6
CONTINUOUS
 70
0
 71
3
 72
9
 73
5
 74
0
 42
0.0000001
 43
0.0000001
 44
0.0000000001
 40
0.0
 40
0.0
 40
0.0
 40
0.0
 40
0.5508527107
 40
1.0
 40
1.0
 40
1.0
 40
1.0
 10
244.5847044149
 20
161.8635416839
 30
0.0
 10
244.2455785176
 20
161.6677484245
 30
0.0
 10
243.6628972524
 20
161.2217313904
 30
0.0
 10
243.3840287061
 20
160.5090429642
 30
0.0
 10
243.3840228861
 20
160.189754691
 30
0.0
  0
SPLINE
  5
3B2
100
AcDbEntity
  8
0
100
AcDbSpline
 62
7
  6
CONTINUOUS
 70
0
 71
3
 72
13
 73
9
 74
0
 42
0.0000001
 43
0.0000001
 44
0.0000000001
 40
0.0
 40
0.0
 40
0.0
 40
0.0
 40
0.2699040481
 40
0.5613092475
 40
0.6954524627
 40
0.8131377821
 40
0.9128550148
 40
1.0
 40
1.0
 40
1.0
 40
1.0
 10
249.3223395733
 20
159.1283286286
 30
0.0
 10
248.9201079455
 20
158.8961014762
 30
0.0
 10
247.9586395083
 20
158.6358572532
 30
0.0
 10
246.7429764611
 20
158.697509183
 30
0.0
 10
245.8502756282
 20
158.9948444862
 30
0.0
 10
245.3281852801
 20
159.3130631995
 30
0.0
 10
244.9743420188
 20
159.7152637972
 30
0.0
 10
244.8840794572
 20
160.0397938777
 30
0.0
 10
244.8839659144
 20
160.1897547005
 30
0.0
  0
SPLINE
  5
3B3
100
AcDbEntity
  8
0
100
AcDbSpline
 62
7
  6
CONTINUOUS
 70
0
 71
3
 72
9
 73
5
 74
0
 42
0.0000001
 43
0.0000001
 44
0.0000000001
 40
0.0
 40
0.0
 40
0.0
 40
0.0
 40
0.2802172908
 40
1.0
 40
1.0
 40
1.0
 40
1.0
 10
241.6790980162
 20
166.2280125385
 30
0.0
 10
241.5564914435
 20
166.1572260233
 30
0.0
 10
241.1351862347
 20
165.8818007646
 30
0.0
 10
240.771469766
 20
165.4888304511
 30
0.0
 10
240.6270021753
 20
165.1551034634
 30
0.0
  0
SPLINE
  5
3B4
100
AcDbEntity
  8
0
100
AcDbSpline
 62
7
  6
CONTINUOUS
 70
0
 71
3
 72
9
 73
5
 74
0
 42
0.0000001
 43
0.0000001
 44
0.0000000001
 40
0.0
 40
0.0
 40
0.0
 40
0.0
 40
0.2587699924
 40
1.0
 40
1.0
 40
1.0
 40
1.0
 10
243.3826156159
 20
153.1524447473
 30
0.0
 10
243.2795672362
 20
153.1699040267
 30
0.0
 10
242.8830907168
 20
153.2469272867
 30
0.0
 10
242.4937865318
 20
153.363645467
 30
0.0
 10
242.2161528549
 20
153.4756686404
 30
0.0
  0
SPLINE
  5
3B5
100
AcDbEntity
  8
0
100
AcDbSpline
 62
7
  6
CONTINUOUS
 70
0
 71
3
 72
13
 73
9
 74
0
 42
0.0000001
 43
0.0000001
 44
0.0000000001
 40
0.0
 40
0.0
 40
0.0
 40
0.0
 40
0.2698956012
 40
0.5613257437
 40
0.6954661216
 40
0.8131446799
 40
0.9128555334
 40
1.0
 40
1.0
 40
1.0
 40
1.0
 10
250.3830041611
 20
149.2894901832
 30
0.0
 10
249.7487364978
 20
148.923297763
 30
0.0
 10
248.2325510085
 20
148.5128911559
 30
0.0
 10
246.3154807565
 20
148.6100327226
 30
0.0
 10
244.907755513
 20
149.0789954624
 30
0.0
 10
244.0845125968
 20
149.5808731803
 30
0.0
 10
243.526703719
 20
150.2150780214
 30
0.0
 10
243.3840425616
 20
150.7268025376
 30
0.0
 10
243.3840334306
 20
150.9632775733
 30
0.0
  0
SPLINE
  5
3B6
100
AcDbEntity
  8
0
100
AcDbSpline
 62
7
  6
CONTINUOUS
 70
0
 71
3
 72
13
 73
9
 74
0
 42
0.0000001
 43
0.0000001
 44
0.0000000001
 40
0.0
 40
0.0
 40
0.0
 40
0.0
 40
0.2699040481
 40
0.5613092475
 40
0.6954524627
 40
0.8131377821
 40
0.9128550148
 40
1.0
 40
1.0
 40
1.0
 40
1.0
 10
249.3223395733
 20
129.1626899199
 30
0.0
 10
248.9201079455
 20
128.9304627675
 30
0.0
 10
247.9586395083
 20
128.6702185446
 30
0.0
 10
246.7429764611
 20
128.7318704743
 30
0.0
 10
245.8502756282
 20
129.0292057775
 30
0.0
 10
245.3281852801
 20
129.3474244908
 30
0.0
 10
244.9743420188
 20
129.7496250886
 30
0.0
 10
244.8840794572
 20
130.0741551691
 30
0.0
 10
244.8839659144
 20
130.2241159918
 30
0.0
  0
SPLINE
  5
3B7
100
AcDbEntity
  8
0
100
AcDbSpline
 62
7
  6
CONTINUOUS
 70
0
 71
3
 72
9
 73
5
 74
0
 42
0.0000001
 43
0.0000001
 44
0.0000000001
 40
0.0
 40
0.0
 40
0.0
 40
0.0
 40
0.2590816813
 40
1.0
 40
1.0
 40
1.0
 40
1.0
 10
243.8604993569
 20
133.2352353482
 30
0.0
 10
243.7910334379
 20
133.2459814307
 30
0.0
 10
243.5240940911
 20
133.2944462815
 30
0.0
 10
243.2618395176
 20
133.3711279183
 30
0.0
 10
243.075421878
 20
133.4463460827
 30
0.0
  0
SPLINE
  5
3B8
100
AcDbEntity
  8
0
100
AcDbSpline
 62
7
  6
CONTINUOUS
 70
0
 71
3
 72
9
 73
5
 74
0
 42
0.0000001
 43
0.0000001
 44
0.0000000001
 40
0.0
 40
0.0
 40
0.0
 40
0.0
 40
0.5508527107
 40
1.0
 40
1.0
 40
1.0
 40
1.0
 10
244.5847044149
 20
131.8979029752
 30
0.0
 10
244.2455785176
 20
131.7021097159
 30
0.0
 10
243.6628972524
 20
131.2560926818
 30
0.0
 10
243.3840287061
 20
130.5434042556
 30
0.0
 10
243.3840228861
 20
130.2241159824
 30
0.0
  0
SPLINE
  5
3B9
100
AcDbEntity
  8
0
100
AcDbSpline
 62
7
  6
CONTINUOUS
 70
0
 71
3
 72
9
 73
5
 74
0
 42
0.0000001
 43
0.0000001
 44
0.0000000001
 40
0.0
 40
0.0
 40
0.0
 40
0.0
 40
0.4066323163
 40
1.0
 40
1.0
 40
1.0
 40
1.0
 10
174.6699715777
 20
280.9152787148
 30
0.0
 10
174.6699899692
 20
280.8477977512
 30
0.0
 10
174.7766559258
 20
280.6878607053
 30
0.0
 10
174.944735085
 20
280.6477770713
 30
0.0
 10
175.0411538372
 20
280.6277836663
 30
0.0
  0
SPLINE
  5
3BA
100
AcDbEntity
  8
0
100
AcDbSpline
 62
7
  6
CONTINUOUS
 70
0
 71
3
 72
9
 73
5
 74
0
 42
0.0000001
 43
0.0000001
 44
0.0000000001
 40
0.0
 40
0.0
 40
0.0
 40
0.0
 40
0.229773469
 40
1.0
 40
1.0
 40
1.0
 40
1.0
 10
175.0411538372
 20
280.6277836663
 30
0.0
 10
175.061536986
 20
280.623557014
 30
0.0
 10
175.150707565
 20
280.6073815679
 30
0.0
 10
175.2411613318
 20
280.5990093199
 30
0.0
 10
175.3108422533
 20
280.5952900475
 30
0.0
  0
SPLINE
  5
3BB
100
AcDbEntity
  8
0
100
AcDbSpline
 62
7
  6
CONTINUOUS
 70
0
 71
3
 72
9
 73
5
 74
0
 42
0.0000001
 43
0.0000001
 44
0.0000000001
 40
0.0
 40
0.0
 40
0.0
 40
0.0
 40
0.2331331019
 40
1.0
 40
1.0
 40
1.0
 40
1.0
 10
175.3108422533
 20
280.5952900475
 30
0.0
 10
175.3381174421
 20
280.5938342134
 30
0.0
 10
175.455210644
 20
280.5894778707
 30
0.0
 10
175.5724970062
 20
280.5917141423
 30
0.0
 10
175.6622351158
 20
280.5961278494
 30
0.0
  0
SPLINE
  5
3BC
100
AcDbEntity
  8
0
100
AcDbSpline
 62
7
  6
CONTINUOUS
 70
0
 71
3
 72
10
 73
6
 74
0
 42
0.0000001
 43
0.0000001
 44
0.0000000001
 40
0.0
 40
0.0
 40
0.0
 40
0.0
 40
0.1721387598
 40
0.5040381432
 40
1.0
 40
1.0
 40
1.0
 40
1.0
 10
175.2729637534
 20
279.8777430849
 30
0.0
 10
175.2342427985
 20
279.9001044094
 30
0.0
 10
175.1447893352
 20
280.0111746889
 30
0.0
 10
175.1758442003
 20
280.2892858275
 30
0.0
 10
175.2601922641
 20
280.4840090956
 30
0.0
 10
175.3189196444
 20
280.5986736599
 30
0.0
  0
SPLINE
  5
3BD
100
AcDbEntity
  8
0
100
AcDbSpline
 62
7
  6
CONTINUOUS
 70
0
 71
3
 72
9
 73
5
 74
0
 42
0.0000001
 43
0.0000001
 44
0.0000000001
 40
0.0
 40
0.0
 40
0.0
 40
0.0
 40
0.2332130152
 40
1.0
 40
1.0
 40
1.0
 40
1.0
 10
175.3189196444
 20
280.5986736599
 30
0.0
 10
175.3314816207
 20
280.6232007805
 30
0.0
 10
175.3870445047
 20
280.7275000712
 30
0.0
 10
175.4484769025
 20
280.8286095749
 30
0.0
 10
175.4977913738
 20
280.904618496
 30
0.0
  0
SPLINE
  5
3BE
100
AcDbEntity
  8
0
100
AcDbSpline
 62
7
  6
CONTINUOUS
 70
0
 71
3
 72
12
 73
8
 74
0
 42
0.0000001
 43
0.0000001
 44
0.0000000001
 40
0.0
 40
0.0
 40
0.0
 40
0.0
 40
0.2590914402
 40
0.5425883382
 40
0.6780475865
 40
0.8014447755
 40
1.0
 40
1.0
 40
1.0
 40
1.0
 10
191.2378014113
 20
293.9931591028
 30
0.0
 10
191.2378014113
 20
293.1739113381
 30
0.0
 10
191.6472271712
 20
291.4609272319
 30
0.0
 10
192.7386777266
 20
289.5843119031
 30
0.0
 10
193.9284311672
 20
288.332798416
 30
0.0
 10
195.0882414571
 20
287.4784151228
 30
0.0
 10
196.1368683635
 20
287.1301534258
 30
0.0
 10
196.7603143214
 20
287.2042364029
 30
0.0
  0
SPLINE
  5
3BF
100
AcDbEntity
  8
0
100
AcDbSpline
 62
7
  6
CONTINUOUS
 70
0
 71
3
 72
8
 73
4
 74
0
 42
0.0000001
 43
0.0000001
 44
0.0000000001
 40
0.0
 40
0.0
 40
0.0
 40
0.0
 40
1.0
 40
1.0
 40
1.0
 40
1.0
 10
196.7603143214
 20
287.2042364029
 30
0.0
 10
196.9047990031
 20
287.2214052613
 30
0.0
 10
197.0484973451
 20
287.2546637415
 30
0.0
 10
197.185054009
 20
287.3048919258
 30
0.0
  0
SPLINE
  5
3C0
100
AcDbEntity
  8
0
100
AcDbSpline
 62
7
  6
CONTINUOUS
 70
0
 71
3
 72
9
 73
5
 74
0
 42
0.0000001
 43
0.0000001
 44
0.0000000001
 40
0.0
 40
0.0
 40
0.0
 40
0.0
 40
0.2756794699
 40
1.0
 40
1.0
 40
1.0
 40
1.0
 10
197.8139277431
 20
289.3800351774
 30
0.0
 10
197.8139277431
 20
289.2218285886
 30
0.0
 10
197.7859943347
 20
288.6498646706
 30
0.0
 10
197.634150759
 20
288.0725530261
 30
0.0
 10
197.4247951715
 20
287.7134519523
 30
0.0
  0
SPLINE
  5
3C1
100
AcDbEntity
  8
0
100
AcDbSpline
 62
7
  6
CONTINUOUS
 70
0
 71
3
 72
8
 73
4
 74
0
 42
0.0000001
 43
0.0000001
 44
0.0000000001
 40
0.0
 40
0.0
 40
0.0
 40
0.0
 40
1.0
 40
1.0
 40
1.0
 40
1.0
 10
197.4247951715
 20
287.7134519523
 30
0.0
 10
197.3706773503
 20
287.6206253508
 30
0.0
 10
197.3096896949
 20
287.5313872097
 30
0.0
 10
197.2419753047
 20
287.4479589299
 30
0.0
  0
SPLINE
  5
3C2
100
AcDbEntity
  8
0
100
AcDbSpline
 62
7
  6
CONTINUOUS
 70
0
 71
3
 72
8
 73
4
 74
0
 42
0.0000001
 43
0.0000001
 44
0.0000000001
 40
0.0
 40
0.0
 40
0.0
 40
0.0
 40
1.0
 40
1.0
 40
1.0
 40
1.0
 10
197.1114479801
 20
287.3029367776
 30
0.0
 10
197.0031449592
 20
287.1945696097
 30
0.0
 10
196.8798770033
 20
287.0992276176
 30
0.0
 10
196.7471953531
 20
287.0226210441
 30
0.0
  0
LINE
  5
3C3
100
AcDbEntity
  8
0
100
AcDbLine
 62
7
  6
CONTINUOUS
 10
248.0552628289
 20
322.6813441644
 11
248.0953117436
 21
322.6923513476
  0
SPLINE
  5
3C4
100
AcDbEntity
  8
0
100
AcDbSpline
 62
7
  6
CONTINUOUS
 70
0
 71
3
 72
9
 73
5
 74
0
 42
0.0000001
 43
0.0000001
 44
0.0000000001
 40
0.0
 40
0.0
 40
0.0
 40
0.0
 40
0.2645270432
 40
1.0
 40
1.0
 40
1.0
 40
1.0
 10
248.0953117436
 20
322.6923513476
 30
0.0
 10
248.1161603852
 20
322.6980756737
 30
0.0
 10
248.1949890165
 20
322.7196595483
 30
0.0
 10
248.2739593655
 20
322.7407673902
 30
0.0
 10
248.332315303
 20
322.7551882808
 30
0.0
  0
SPLINE
  5
3C5
100
AcDbEntity
  8
0
100
AcDbSpline
 62
7
  6
CONTINUOUS
 70
0
 71
3
 72
9
 73
5
 74
0
 42
0.0000001
 43
0.0000001
 44
0.0000000001
 40
0.0
 40
0.0
 40
0.0
 40
0.0
 40
0.4402635813
 40
1.0
 40
1.0
 40
1.0
 40
1.0
 10
72.6520830633
 20
212.5122231693
 30
0.0
 10
72.413307632
 20
212.9876265265
 30
0.0
 10
71.4486993775
 20
213.8342360595
 30
0.0
 10
70.2852674567
 20
214.2141033082
 30
0.0
 10
69.6216150526
 20
214.3446204322
 30
0.0
  0
SPLINE
  5
3C6
100
AcDbEntity
  8
0
100
AcDbSpline
 62
7
  6
CONTINUOUS
 70
0
 71
3
 72
8
 73
4
 74
0
 42
0.0000001
 43
0.0000001
 44
0.0000000001
 40
0.0
 40
0.0
 40
0.0
 40
0.0
 40
1.0
 40
1.0
 40
1.0
 40
1.0
 10
168.011254682
 20
210.9774474985
 30
0.0
 10
167.9580278918
 20
210.9467171803
 30
0.0
 10
167.9063192125
 20
210.9131246384
 30
0.0
 10
167.8569478618
 20
210.8765198112
 30
0.0
  0
SPLINE
  5
3C7
100
AcDbEntity
  8
0
100
AcDbSpline
 62
7
  6
CONTINUOUS
 70
0
 71
3
 72
8
 73
4
 74
0
 42
0.0000001
 43
0.0000001
 44
0.0000000001
 40
0.0
 40
0.0
 40
0.0
 40
0.0
 40
1.0
 40
1.0
 40
1.0
 40
1.0
 10
167.8569478618
 20
210.8765198112
 30
0.0
 10
167.7975543823
 20
210.8324843936
 30
0.0
 10
167.7411687656
 20
210.7838251457
 30
0.0
 10
167.6901185843
 20
210.7303407329
 30
0.0
  0
SPLINE
  5
3C8
100
AcDbEntity
  8
0
100
AcDbSpline
 62
7
  6
CONTINUOUS
 70
0
 71
3
 72
8
 73
4
 74
0
 42
0.0000001
 43
0.0000001
 44
0.0000000001
 40
0.0
 40
0.0
 40
0.0
 40
0.0
 40
1.0
 40
1.0
 40
1.0
 40
1.0
 10
218.9227309614
 20
240.3710265773
 30
0.0
 10
218.8695041712
 20
240.3402962591
 30
0.0
 10
218.8177954919
 20
240.3067037171
 30
0.0
 10
218.7684241412
 20
240.2700988899
 30
0.0
  0
SPLINE
  5
3C9
100
AcDbEntity
  8
0
100
AcDbSpline
 62
7
  6
CONTINUOUS
 70
0
 71
3
 72
8
 73
4
 74
0
 42
0.0000001
 43
0.0000001
 44
0.0000000001
 40
0.0
 40
0.0
 40
0.0
 40
0.0
 40
1.0
 40
1.0
 40
1.0
 40
1.0
 10
218.7684241412
 20
240.2700988899
 30
0.0
 10
218.7090306617
 20
240.2260634723
 30
0.0
 10
218.652645045
 20
240.1774042244
 30
0.0
 10
218.6015948637
 20
240.1239198117
 30
0.0
  0
SPLINE
  5
3CA
100
AcDbEntity
  8
0
100
AcDbSpline
 62
7
  6
CONTINUOUS
 70
0
 71
3
 72
8
 73
4
 74
0
 42
0.0000001
 43
0.0000001
 44
0.0000000001
 40
0.0
 40
0.0
 40
0.0
 40
0.0
 40
1.0
 40
1.0
 40
1.0
 40
1.0
 10
159.5257260146
 20
245.2697932549
 30
0.0
 10
159.4724992245
 20
245.2390629367
 30
0.0
 10
159.4207905452
 20
245.2054703947
 30
0.0
 10
159.3714191944
 20
245.1688655676
 30
0.0
  0
SPLINE
  5
3CB
100
AcDbEntity
  8
0
100
AcDbSpline
 62
7
  6
CONTINUOUS
 70
0
 71
3
 72
8
 73
4
 74
0
 42
0.0000001
 43
0.0000001
 44
0.0000000001
 40
0.0
 40
0.0
 40
0.0
 40
0.0
 40
1.0
 40
1.0
 40
1.0
 40
1.0
 10
159.3714191944
 20
245.1688655676
 30
0.0
 10
159.3120257149
 20
245.1248301499
 30
0.0
 10
159.2556400982
 20
245.076170902
 30
0.0
 10
159.204589917
 20
245.0226864893
 30
0.0
  0
SPLINE
  5
3CC
100
AcDbEntity
  8
0
100
AcDbSpline
 62
7
  6
CONTINUOUS
 70
0
 71
3
 72
11
 73
7
 74
0
 42
0.0000001
 43
0.0000001
 44
0.0000000001
 40
0.0
 40
0.0
 40
0.0
 40
0.0
 40
0.2853971771
 40
0.5451514799
 40
0.781261382
 40
1.0
 40
1.0
 40
1.0
 40
1.0
 10
155.2124332344
 20
237.1457580483
 30
0.0
 10
154.5295059267
 20
236.751472137
 30
0.0
 10
153.2741463279
 20
235.9061393258
 30
0.0
 10
151.708117976
 20
234.4016552418
 30
0.0
 10
150.5925368691
 20
232.7522387834
 30
0.0
 10
150.1680927339
 20
231.549648528
 30
0.0
 10
150.0527397125
 20
230.9563662633
 30
0.0
  0
SPLINE
  5
3CD
100
AcDbEntity
  8
0
100
AcDbSpline
 62
7
  6
CONTINUOUS
 70
0
 71
3
 72
11
 73
7
 74
0
 42
0.0000001
 43
0.0000001
 44
0.0000000001
 40
0.0
 40
0.0
 40
0.0
 40
0.0
 40
0.237228705
 40
0.5000005261
 40
0.7627720609
 40
1.0
 40
1.0
 40
1.0
 40
1.0
 10
199.0529771244
 20
247.7601672373
 30
0.0
 10
197.2460500562
 20
248.8033734661
 30
0.0
 10
193.0439022998
 20
250.325820276
 30
0.0
 10
186.3250350522
 20
251.0550869956
 30
0.0
 10
179.6061779422
 20
250.3257896147
 30
0.0
 10
175.4040467134
 20
248.8033219396
 30
0.0
 10
173.5971330019
 20
247.760106049
 30
0.0
  0
SPLINE
  5
3CE
100
AcDbEntity
  8
0
100
AcDbSpline
 62
7
  6
CONTINUOUS
 70
0
 71
3
 72
9
 73
5
 74
0
 42
0.0000001
 43
0.0000001
 44
0.0000000001
 40
0.0
 40
0.0
 40
0.0
 40
0.0
 40
0.4997654627
 40
1.0
 40
1.0
 40
1.0
 40
1.0
 10
170.6982716376
 20
210.4059355319
 30
0.0
 10
170.3005316194
 20
210.176301596
 30
0.0
 10
169.3580067887
 20
209.9939585183
 30
0.0
 10
168.4154554134
 20
210.1744250906
 30
0.0
 10
168.016565153
 20
210.402923589
 30
0.0
  0
SPLINE
  5
3CF
100
AcDbEntity
  8
0
100
AcDbSpline
 62
7
  6
CONTINUOUS
 70
0
 71
3
 72
9
 73
5
 74
0
 42
0.0000001
 43
0.0000001
 44
0.0000000001
 40
0.0
 40
0.0
 40
0.0
 40
0.0
 40
0.5510880621
 40
1.0
 40
1.0
 40
1.0
 40
1.0
 10
168.016565153
 20
210.402923589
 30
0.0
 10
167.8580878839
 20
210.4937049933
 30
0.0
 10
167.5856997871
 20
210.7006913989
 30
0.0
 10
167.4548613012
 20
211.0328181729
 30
0.0
 10
167.4547939754
 20
211.1815928772
 30
0.0
  0
SPLINE
  5
3D0
100
AcDbEntity
  8
0
100
AcDbSpline
 62
7
  6
CONTINUOUS
 70
0
 71
3
 72
9
 73
5
 74
0
 42
0.0000001
 43
0.0000001
 44
0.0000000001
 40
0.0
 40
0.0
 40
0.0
 40
0.0
 40
0.4997654627
 40
1.0
 40
1.0
 40
1.0
 40
1.0
 10
221.6097479169
 20
239.7995146106
 30
0.0
 10
221.2120078988
 20
239.5698806748
 30
0.0
 10
220.2694830681
 20
239.387537597
 30
0.0
 10
219.3269316928
 20
239.5680041694
 30
0.0
 10
218.9280414324
 20
239.7965026678
 30
0.0
  0
SPLINE
  5
3D1
100
AcDbEntity
  8
0
100
AcDbSpline
 62
7
  6
CONTINUOUS
 70
0
 71
3
 72
9
 73
5
 74
0
 42
0.0000001
 43
0.0000001
 44
0.0000000001
 40
0.0
 40
0.0
 40
0.0
 40
0.0
 40
0.5510880621
 40
1.0
 40
1.0
 40
1.0
 40
1.0
 10
218.9280414324
 20
239.7965026678
 30
0.0
 10
218.7695641633
 20
239.8872840721
 30
0.0
 10
218.4971760665
 20
240.0942704777
 30
0.0
 10
218.3663375806
 20
240.4263972517
 30
0.0
 10
218.3662702548
 20
240.575171956
 30
0.0
  0
SPLINE
  5
3D2
100
AcDbEntity
  8
0
100
AcDbSpline
 62
7
  6
CONTINUOUS
 70
0
 71
3
 72
9
 73
5
 74
0
 42
0.0000001
 43
0.0000001
 44
0.0000000001
 40
0.0
 40
0.0
 40
0.0
 40
0.0
 40
0.4997654627
 40
1.0
 40
1.0
 40
1.0
 40
1.0
 10
162.2127429702
 20
244.6982812882
 30
0.0
 10
161.815002952
 20
244.4686473524
 30
0.0
 10
160.8724781214
 20
244.2863042746
 30
0.0
 10
159.9299267461
 20
244.466770847
 30
0.0
 10
159.5310364856
 20
244.6952693454
 30
0.0
  0
SPLINE
  5
3D3
100
AcDbEntity
  8
0
100
AcDbSpline
 62
7
  6
CONTINUOUS
 70
0
 71
3
 72
9
 73
5
 74
0
 42
0.0000001
 43
0.0000001
 44
0.0000000001
 40
0.0
 40
0.0
 40
0.0
 40
0.0
 40
0.5510880621
 40
1.0
 40
1.0
 40
1.0
 40
1.0
 10
159.5310364856
 20
244.6952693454
 30
0.0
 10
159.3725592166
 20
244.7860507497
 30
0.0
 10
159.1001711198
 20
244.9930371553
 30
0.0
 10
158.9693326338
 20
245.3251639293
 30
0.0
 10
158.9692653081
 20
245.4739386336
 30
0.0
  0
SPLINE
  5
3D4
100
AcDbEntity
  8
0
100
AcDbSpline
 62
7
  6
CONTINUOUS
 70
0
 71
3
 72
11
 73
7
 74
0
 42
0.0000001
 43
0.0000001
 44
0.0000000001
 40
0.0
 40
0.0
 40
0.0
 40
0.0
 40
0.2853972519
 40
0.5451517076
 40
0.7812616578
 40
1.0
 40
1.0
 40
1.0
 40
1.0
 10
155.2125392172
 20
223.4288325978
 30
0.0
 10
154.5296060066
 20
223.8231153509
 30
0.0
 10
153.2742341349
 20
224.6684422671
 30
0.0
 10
151.7081846479
 20
226.1729183169
 30
0.0
 10
150.592580173
 20
227.8223284498
 30
0.0
 10
150.1681181395
 20
229.0249171822
 30
0.0
 10
150.0527564281
 20
229.6181995779
 30
0.0
  0
SPLINE
  5
3D5
100
AcDbEntity
  8
0
100
AcDbSpline
 62
7
  6
CONTINUOUS
 70
0
 71
3
 72
9
 73
5
 74
0
 42
0.0000001
 43
0.0000001
 44
0.0000000001
 40
0.0
 40
0.0
 40
0.0
 40
0.0
 40
0.4491582048
 40
1.0
 40
1.0
 40
1.0
 40
1.0
 10
242.0076529849
 20
164.5950501243
 30
0.0
 10
242.0075169646
 20
164.7897421726
 30
0.0
 10
242.1777666366
 20
165.2243146066
 30
0.0
 10
242.5329832623
 20
165.4962680109
 30
0.0
 10
242.7397626038
 20
165.6156514067
 30
0.0
  0
SPLINE
  5
3D6
100
AcDbEntity
  8
0
100
AcDbSpline
 62
7
  6
CONTINUOUS
 70
0
 71
3
 72
13
 73
9
 74
0
 42
0.0000001
 43
0.0000001
 44
0.0000000001
 40
0.0
 40
0.0
 40
0.0
 40
0.0
 40
0.087138266
 40
0.1868454572
 40
0.3045198199
 40
0.4386548173
 40
0.7300925801
 40
1.0
 40
1.0
 40
1.0
 40
1.0
 10
243.3840228861
 20
160.189754691
 30
0.0
 10
243.384018576
 20
159.953296564
 30
0.0
 10
243.5266914582
 20
159.4416012574
 30
0.0
 10
244.0844449125
 20
158.8074103661
 30
0.0
 10
244.9076473753
 20
158.3055295863
 30
0.0
 10
246.3153546428
 20
157.8365365523
 30
0.0
 10
248.2324631522
 20
157.7393547227
 30
0.0
 10
249.7487089461
 20
158.1497591697
 30
0.0
 10
250.3830041611
 20
158.5159674968
 30
0.0
  0
SPLINE
  5
3D7
100
AcDbEntity
  8
0
100
AcDbSpline
 62
7
  6
CONTINUOUS
 70
0
 71
3
 72
9
 73
5
 74
0
 42
0.0000001
 43
0.0000001
 44
0.0000000001
 40
0.0
 40
0.0
 40
0.0
 40
0.0
 40
0.4491683742
 40
1.0
 40
1.0
 40
1.0
 40
1.0
 10
244.8839659144
 20
160.1897547005
 30
0.0
 10
244.883812603
 20
160.392239753
 30
0.0
 10
245.0609027712
 20
160.8441948956
 30
0.0
 10
245.4303216648
 20
161.1270236548
 30
0.0
 10
245.6453690026
 20
161.2511805521
 30
0.0
  0
SPLINE
  5
3D8
100
AcDbEntity
  8
0
100
AcDbSpline
 62
7
  6
CONTINUOUS
 70
0
 71
3
 72
9
 73
5
 74
0
 42
0.0000001
 43
0.0000001
 44
0.0000000001
 40
0.0
 40
0.0
 40
0.0
 40
0.0
 40
0.2599259172
 40
1.0
 40
1.0
 40
1.0
 40
1.0
 10
246.0695700705
 20
322.4285713697
 30
0.0
 10
246.1857103022
 20
322.417383101
 30
0.0
 10
246.634734863
 20
322.3966095508
 30
0.0
 10
247.0846913498
 20
322.4523551213
 30
0.0
 10
247.4099308683
 20
322.5200566432
 30
0.0
  0
SPLINE
  5
3D9
100
AcDbEntity
  8
0
100
AcDbSpline
 62
7
  6
CONTINUOUS
 70
0
 71
3
 72
9
 73
5
 74
0
 42
0.0000001
 43
0.0000001
 44
0.0000000001
 40
0.0
 40
0.0
 40
0.0
 40
0.0
 40
0.2622020079
 40
1.0
 40
1.0
 40
1.0
 40
1.0
 10
247.7190297125
 20
322.5916076633
 30
0.0
 10
247.7485210901
 20
322.5990503935
 30
0.0
 10
247.860860146
 20
322.6279806844
 30
0.0
 10
247.9727394838
 20
322.658652563
 30
0.0
 10
248.0552628289
 20
322.6813441644
 30
0.0
  0
SPLINE
  5
3DA
100
AcDbEntity
  8
0
100
AcDbSpline
 62
7
  6
CONTINUOUS
 70
0
 71
3
 72
10
 73
6
 74
0
 42
0.0000001
 43
0.0000001
 44
0.0000000001
 40
0.0
 40
0.0
 40
0.0
 40
0.0
 40
0.4335545536
 40
0.7037690239
 40
1.0
 40
1.0
 40
1.0
 40
1.0
 10
240.6229123374
 20
164.0445685535
 30
0.0
 10
240.8156585107
 20
163.5907887492
 30
0.0
 10
241.4679028818
 20
163.0143941775
 30
0.0
 10
242.5068444734
 20
162.5658078166
 30
0.0
 10
243.1393762077
 20
162.4158670889
 30
0.0
 10
243.4722768223
 20
162.3643687785
 30
0.0
  0
SPLINE
  5
3DB
100
AcDbEntity
  8
0
100
AcDbSpline
 62
7
  6
CONTINUOUS
 70
0
 71
3
 72
9
 73
5
 74
0
 42
0.0000001
 43
0.0000001
 44
0.0000000001
 40
0.0
 40
0.0
 40
0.0
 40
0.0
 40
0.2209367731
 40
1.0
 40
1.0
 40
1.0
 40
1.0
 10
218.3805776777
 20
240.7094976039
 30
0.0
 10
218.393743483
 20
240.7710606079
 30
0.0
 10
218.4940049798
 20
241.0418054541
 30
0.0
 10
218.7304807847
 20
241.2398344491
 30
0.0
 10
218.9227309614
 20
241.3508294778
 30
0.0
  0
SPLINE
  5
3DC
100
AcDbEntity
  8
0
100
AcDbSpline
 62
7
  6
CONTINUOUS
 70
0
 71
3
 72
9
 73
5
 74
0
 42
0.0000001
 43
0.0000001
 44
0.0000000001
 40
0.0
 40
0.0
 40
0.0
 40
0.0
 40
0.4547741413
 40
1.0
 40
1.0
 40
1.0
 40
1.0
 10
251.750128382
 20
149.9239098798
 30
0.0
 10
251.5498188537
 20
149.7398505189
 30
0.0
 10
251.2328229956
 20
149.1999568597
 30
0.0
 10
251.1607542035
 20
148.5948017743
 30
0.0
 10
251.1607542035
 20
148.2686635564
 30
0.0
  0
SPLINE
  5
3DD
100
AcDbEntity
  8
0
100
AcDbSpline
 62
7
  6
CONTINUOUS
 70
0
 71
3
 72
9
 73
5
 74
0
 42
0.0000001
 43
0.0000001
 44
0.0000000001
 40
0.0
 40
0.0
 40
0.0
 40
0.0
 40
0.4644450061
 40
1.0
 40
1.0
 40
1.0
 40
1.0
 10
255.6709155648
 20
142.988008419
 30
0.0
 10
255.4633610739
 20
142.8683813945
 30
0.0
 10
254.9376932759
 20
142.7386005106
 30
0.0
 10
254.4209053426
 20
142.8553228669
 30
0.0
 10
254.1621496381
 20
142.9520379738
 30
0.0
  0
SPLINE
  5
3DE
100
AcDbEntity
  8
0
100
AcDbSpline
 62
7
  6
CONTINUOUS
 70
0
 71
3
 72
11
 73
7
 74
0
 42
0.0000001
 43
0.0000001
 44
0.0000000001
 40
0.0
 40
0.0
 40
0.0
 40
0.0
 40
0.2256504414
 40
0.4879078103
 40
0.7568537167
 40
1.0
 40
1.0
 40
1.0
 40
1.0
 10
254.1621496381
 20
142.9520379738
 30
0.0
 10
253.7112033417
 20
143.1205881489
 30
0.0
 10
252.8265419839
 20
143.7201226122
 30
0.0
 10
251.7882331142
 20
144.9751055141
 30
0.0
 10
251.0582885866
 20
146.4734340347
 30
0.0
 10
250.8425574768
 20
147.5662106217
 30
0.0
 10
250.8425574768
 20
148.0849536872
 30
0.0
  0
SPLINE
  5
3DF
100
AcDbEntity
  8
0
100
AcDbSpline
 62
7
  6
CONTINUOUS
 70
0
 71
3
 72
9
 73
5
 74
0
 42
0.0000001
 43
0.0000001
 44
0.0000000001
 40
0.0
 40
0.0
 40
0.0
 40
0.0
 40
0.4531587509
 40
1.0
 40
1.0
 40
1.0
 40
1.0
 10
255.7181343565
 20
143.2093548181
 30
0.0
 10
255.464116145
 20
143.1147987116
 30
0.0
 10
254.8346743873
 20
143.0896976369
 30
0.0
 10
254.2724545731
 20
143.3286288467
 30
0.0
 10
253.9891931041
 20
143.4921662324
 30
0.0
  0
SPLINE
  5
3E0
100
AcDbEntity
  8
0
100
AcDbSpline
 62
7
  6
CONTINUOUS
 70
0
 71
3
 72
9
 73
5
 74
0
 42
0.0000001
 43
0.0000001
 44
0.0000000001
 40
0.0
 40
0.0
 40
0.0
 40
0.0
 40
0.4531587509
 40
1.0
 40
1.0
 40
1.0
 40
1.0
 10
255.7181343565
 20
275.4827463931
 30
0.0
 10
255.464116145
 20
275.3881902865
 30
0.0
 10
254.8346743873
 20
275.3630892119
 30
0.0
 10
254.2724545731
 20
275.6020204217
 30
0.0
 10
253.9891931041
 20
275.7655578074
 30
0.0
  0
SPLINE
  5
3E1
100
AcDbEntity
  8
0
100
AcDbSpline
 62
7
  6
CONTINUOUS
 70
0
 71
3
 72
9
 73
5
 74
0
 42
0.0000001
 43
0.0000001
 44
0.0000000001
 40
0.0
 40
0.0
 40
0.0
 40
0.0
 40
0.4644450061
 40
1.0
 40
1.0
 40
1.0
 40
1.0
 10
255.6709155648
 20
275.261399994
 30
0.0
 10
255.4633610739
 20
275.1417729695
 30
0.0
 10
254.9376932759
 20
275.0119920856
 30
0.0
 10
254.4209053426
 20
275.1287144419
 30
0.0
 10
254.1621496381
 20
275.2254295488
 30
0.0
  0
SPLINE
  5
3E2
100
AcDbEntity
  8
0
100
AcDbSpline
 62
7
  6
CONTINUOUS
 70
0
 71
3
 72
11
 73
7
 74
0
 42
0.0000001
 43
0.0000001
 44
0.0000000001
 40
0.0
 40
0.0
 40
0.0
 40
0.0
 40
0.2256504414
 40
0.4879078103
 40
0.7568537167
 40
1.0
 40
1.0
 40
1.0
 40
1.0
 10
254.1621496381
 20
275.2254295488
 30
0.0
 10
253.7112033417
 20
275.3939797239
 30
0.0
 10
252.8265419839
 20
275.9935141872
 30
0.0
 10
251.7882331142
 20
277.2484970891
 30
0.0
 10
251.0582885866
 20
278.7468256097
 30
0.0
 10
250.8425574768
 20
279.8396021967
 30
0.0
 10
250.8425574768
 20
280.3583452622
 30
0.0
  0
SPLINE
  5
3E3
100
AcDbEntity
  8
0
100
AcDbSpline
 62
7
  6
CONTINUOUS
 70
0
 71
3
 72
9
 73
5
 74
0
 42
0.0000001
 43
0.0000001
 44
0.0000000001
 40
0.0
 40
0.0
 40
0.0
 40
0.0
 40
0.2197553679
 40
1.0
 40
1.0
 40
1.0
 40
1.0
 10
239.0531968934
 20
101.7585474336
 30
0.0
 10
239.1075759391
 20
101.7961355336
 30
0.0
 10
239.3415379538
 20
101.9869149703
 30
0.0
 10
239.518712221
 20
102.2385838694
 30
0.0
 10
239.6354552461
 20
102.4421993773
 30
0.0
  0
SPLINE
  5
3E4
100
AcDbEntity
  8
0
100
AcDbSpline
 62
7
  6
CONTINUOUS
 70
0
 71
3
 72
9
 73
5
 74
0
 42
0.0000001
 43
0.0000001
 44
0.0000000001
 40
0.0
 40
0.0
 40
0.0
 40
0.0
 40
0.2209367731
 40
1.0
 40
1.0
 40
1.0
 40
1.0
 10
167.4691013983
 20
211.3159185252
 30
0.0
 10
167.4822672036
 20
211.3774815292
 30
0.0
 10
167.5825287004
 20
211.6482263753
 30
0.0
 10
167.8190045053
 20
211.8462553704
 30
0.0
 10
168.011254682
 20
211.9572503991
 30
0.0
  0
SPLINE
  5
3E5
100
AcDbEntity
  8
0
100
AcDbSpline
 62
7
  6
CONTINUOUS
 70
0
 71
3
 72
9
 73
5
 74
0
 42
0.0000001
 43
0.0000001
 44
0.0000000001
 40
0.0
 40
0.0
 40
0.0
 40
0.0
 40
0.4547741413
 40
1.0
 40
1.0
 40
1.0
 40
1.0
 10
251.750128382
 20
282.1973014548
 30
0.0
 10
251.5498188537
 20
282.0132420939
 30
0.0
 10
251.2328229956
 20
281.4733484347
 30
0.0
 10
251.1607542035
 20
280.8681933492
 30
0.0
 10
251.1607542035
 20
280.5420551314
 30
0.0
  0
SPLINE
  5
3E6
100
AcDbEntity
  8
0
100
AcDbSpline
 62
7
  6
CONTINUOUS
 70
0
 71
3
 72
13
 73
9
 74
0
 42
0.0000001
 43
0.0000001
 44
0.0000000001
 40
0.0
 40
0.0
 40
0.0
 40
0.0
 40
0.087138266
 40
0.1868454572
 40
0.3045198199
 40
0.4386548173
 40
0.7300925801
 40
1.0
 40
1.0
 40
1.0
 40
1.0
 10
243.3840228861
 20
262.4975075574
 30
0.0
 10
243.384018576
 20
262.2610494303
 30
0.0
 10
243.5266914582
 20
261.7493541238
 30
0.0
 10
244.0844449125
 20
261.1151632324
 30
0.0
 10
244.9076473753
 20
260.6132824526
 30
0.0
 10
246.3153546428
 20
260.1442894187
 30
0.0
 10
248.2324631522
 20
260.047107589
 30
0.0
 10
249.7487089461
 20
260.457512036
 30
0.0
 10
250.3830041611
 20
260.8237203631
 30
0.0
  0
SPLINE
  5
3E7
100
AcDbEntity
  8
0
100
AcDbSpline
 62
7
  6
CONTINUOUS
 70
0
 71
3
 72
9
 73
5
 74
0
 42
0.0000001
 43
0.0000001
 44
0.0000000001
 40
0.0
 40
0.0
 40
0.0
 40
0.0
 40
0.4491683742
 40
1.0
 40
1.0
 40
1.0
 40
1.0
 10
244.8839659144
 20
262.4975075668
 30
0.0
 10
244.883812603
 20
262.6999926194
 30
0.0
 10
245.0609027712
 20
263.1519477619
 30
0.0
 10
245.4303216648
 20
263.4347765212
 30
0.0
 10
245.6453690026
 20
263.5589334184
 30
0.0
  0
SPLINE
  5
3E8
100
AcDbEntity
  8
0
100
AcDbSpline
 62
7
  6
CONTINUOUS
 70
0
 71
3
 72
13
 73
9
 74
0
 42
0.0000001
 43
0.0000001
 44
0.0000000001
 40
0.0
 40
0.0
 40
0.0
 40
0.0
 40
0.087138266
 40
0.1868454572
 40
0.3045198199
 40
0.4386548173
 40
0.7300925801
 40
1.0
 40
1.0
 40
1.0
 40
1.0
 10
243.3840228861
 20
292.463146266
 30
0.0
 10
243.384018576
 20
292.226688139
 30
0.0
 10
243.5266914582
 20
291.7149928324
 30
0.0
 10
244.0844449125
 20
291.0808019411
 30
0.0
 10
244.9076473753
 20
290.5789211613
 30
0.0
 10
246.3153546428
 20
290.1099281273
 30
0.0
 10
248.2324631522
 20
290.0127462977
 30
0.0
 10
249.7487089461
 20
290.4231507447
 30
0.0
 10
250.3830041611
 20
290.7893590718
 30
0.0
  0
SPLINE
  5
3E9
100
AcDbEntity
  8
0
100
AcDbSpline
 62
7
  6
CONTINUOUS
 70
0
 71
3
 72
9
 73
5
 74
0
 42
0.0000001
 43
0.0000001
 44
0.0000000001
 40
0.0
 40
0.0
 40
0.0
 40
0.0
 40
0.4491683742
 40
1.0
 40
1.0
 40
1.0
 40
1.0
 10
244.8839659144
 20
292.4631462755
 30
0.0
 10
244.883812603
 20
292.665631328
 30
0.0
 10
245.0609027712
 20
293.1175864705
 30
0.0
 10
245.4303216648
 20
293.4004152298
 30
0.0
 10
245.6453690026
 20
293.5245721271
 30
0.0
  0
SPLINE
  5
3EA
100
AcDbEntity
  8
0
100
AcDbSpline
 62
7
  6
CONTINUOUS
 70
0
 71
3
 72
9
 73
5
 74
0
 42
0.0000001
 43
0.0000001
 44
0.0000000001
 40
0.0
 40
0.0
 40
0.0
 40
0.0
 40
0.4999994563
 40
1.0
 40
1.0
 40
1.0
 40
1.0
 10
247.13024349
 20
300.4238731723
 30
0.0
 10
247.3401225929
 20
300.5450462056
 30
0.0
 10
247.8373495791
 20
300.6408765377
 30
0.0
 10
248.3345766192
 20
300.545048355
 30
0.0
 10
248.5444570524
 20
300.4238765717
 30
0.0
  0
SPLINE
  5
3EB
100
AcDbEntity
  8
0
100
AcDbSpline
 62
7
  6
CONTINUOUS
 70
0
 71
3
 72
9
 73
5
 74
0
 42
0.0000001
 43
0.0000001
 44
0.0000000001
 40
0.0
 40
0.0
 40
0.0
 40
0.0
 40
0.5508378079
 40
1.0
 40
1.0
 40
1.0
 40
1.0
 10
250.3830041611
 20
290.7893590718
 30
0.0
 10
250.7221214081
 20
290.985147337
 30
0.0
 10
251.3048286189
 20
291.4311783507
 30
0.0
 10
251.5836175154
 20
292.1438470448
 30
0.0
 10
251.5837116222
 20
292.463146392
 30
0.0
  0
SPLINE
  5
3EC
100
AcDbEntity
  8
0
100
AcDbSpline
 62
7
  6
CONTINUOUS
 70
0
 71
3
 72
9
 73
5
 74
0
 42
0.0000001
 43
0.0000001
 44
0.0000000001
 40
0.0
 40
0.0
 40
0.0
 40
0.0
 40
0.4492452415
 40
1.0
 40
1.0
 40
1.0
 40
1.0
 10
163.0768892037
 20
254.5027511899
 30
0.0
 10
163.1645865416
 20
254.5533829474
 30
0.0
 10
163.4045290046
 20
254.5897194835
 30
0.0
 10
163.6193728076
 20
254.500441163
 30
0.0
 10
163.7268862937
 20
254.4383696271
 30
0.0
  0
SPLINE
  5
3ED
100
AcDbEntity
  8
0
100
AcDbSpline
 62
7
  6
CONTINUOUS
 70
0
 71
3
 72
11
 73
7
 74
0
 42
0.0000001
 43
0.0000001
 44
0.0000000001
 40
0.0
 40
0.0
 40
0.0
 40
0.0
 40
0.3079115431
 40
0.5793267346
 40
0.8062319001
 40
1.0
 40
1.0
 40
1.0
 40
1.0
 10
248.1567733497
 20
293.9130886474
 30
0.0
 10
248.4194670159
 20
293.8724510535
 30
0.0
 10
248.9087458498
 20
293.7496224339
 30
0.0
 10
249.533960012
 20
293.4277730855
 30
0.0
 10
249.9682121552
 20
292.9965648522
 30
0.0
 10
250.0836167087
 20
292.6304244142
 30
0.0
 10
250.083733577
 20
292.4631455373
 30
0.0
  0
SPLINE
  5
3EE
100
AcDbEntity
  8
0
100
AcDbSpline
 62
7
  6
CONTINUOUS
 70
0
 71
3
 72
9
 73
5
 74
0
 42
0.0000001
 43
0.0000001
 44
0.0000000001
 40
0.0
 40
0.0
 40
0.0
 40
0.0
 40
0.2436231232
 40
1.0
 40
1.0
 40
1.0
 40
1.0
 10
251.4339414148
 20
263.0698071261
 30
0.0
 10
251.4679203881
 20
263.0401859155
 30
0.0
 10
251.6047517835
 20
262.9155855841
 30
0.0
 10
251.7309424505
 20
262.7794311619
 30
0.0
 10
251.8202527937
 20
262.6716799635
 30
0.0
  0
SPLINE
  5
3EF
100
AcDbEntity
  8
0
100
AcDbSpline
 62
7
  6
CONTINUOUS
 70
0
 71
3
 72
8
 73
4
 74
0
 42
0.0000001
 43
0.0000001
 44
0.0000000001
 40
0.0
 40
0.0
 40
0.0
 40
0.0
 40
1.0
 40
1.0
 40
1.0
 40
1.0
 10
251.8202527937
 20
262.6716799635
 30
0.0
 10
252.121537292
 20
262.3081860548
 30
0.0
 10
252.3614863627
 20
261.8841685671
 30
0.0
 10
252.5163423633
 20
261.4381643187
 30
0.0
  0
SPLINE
  5
3F0
100
AcDbEntity
  8
0
100
AcDbSpline
 62
7
  6
CONTINUOUS
 70
0
 71
3
 72
11
 73
7
 74
0
 42
0.0000001
 43
0.0000001
 44
0.0000000001
 40
0.0
 40
0.0
 40
0.0
 40
0.0
 40
0.3154017466
 40
0.5833338213
 40
0.8015022272
 40
1.0
 40
1.0
 40
1.0
 40
1.0
 10
252.5163423633
 20
261.4381643187
 30
0.0
 10
252.6032914866
 20
261.187740194
 30
0.0
 10
252.7159767569
 20
260.7047385402
 30
0.0
 10
252.6868506608
 20
260.0212197602
 30
0.0
 10
252.4209545782
 20
259.4787763716
 30
0.0
 10
252.0810038546
 20
259.3107014778
 30
0.0
 10
251.9161360967
 20
259.2851647834
 30
0.0
  0
SPLINE
  5
3F1
100
AcDbEntity
  8
0
100
AcDbSpline
 62
7
  6
CONTINUOUS
 70
0
 71
3
 72
13
 73
9
 74
0
 42
0.0000001
 43
0.0000001
 44
0.0000000001
 40
0.0
 40
0.0
 40
0.0
 40
0.0
 40
0.2793006939
 40
0.5759325216
 40
0.7072178645
 40
0.8184969766
 40
0.9119851237
 40
1.0
 40
1.0
 40
1.0
 40
1.0
 10
251.0193410904
 20
295.4283711898
 30
0.0
 10
250.6163445493
 20
295.6610360877
 30
0.0
 10
249.9276122449
 20
296.3772181484
 30
0.0
 10
249.4228580642
 20
297.4702626238
 30
0.0
 10
249.3170313065
 20
298.3705096131
 30
0.0
 10
249.4075236423
 20
298.933353826
 30
0.0
 10
249.6831939929
 20
299.3607276219
 30
0.0
 10
249.9776341617
 20
299.4903413607
 30
0.0
 10
250.1225460841
 20
299.512787056
 30
0.0
  0
SPLINE
  5
3F2
100
AcDbEntity
  8
0
100
AcDbSpline
 62
7
  6
CONTINUOUS
 70
0
 71
3
 72
13
 73
9
 74
0
 42
0.0000001
 43
0.0000001
 44
0.0000000001
 40
0.0
 40
0.0
 40
0.0
 40
0.0
 40
0.3178487461
 40
0.4619922619
 40
0.5856862574
 40
0.6888830612
 40
0.7821621479
 40
1.0
 40
1.0
 40
1.0
 40
1.0
 10
251.9161360967
 20
298.4772808057
 30
0.0
 10
252.2184158228
 20
298.0814254326
 30
0.0
 10
252.5598069105
 20
297.416602537
 30
0.0
 10
252.7181992519
 20
296.5064342786
 30
0.0
 10
252.6691582396
 20
295.9187439613
 30
0.0
 10
252.4416020371
 20
295.4506533066
 30
0.0
 10
251.8598578758
 20
295.0853441007
 30
0.0
 10
251.3149632613
 20
295.257697511
 30
0.0
 10
251.0193410904
 20
295.4283711898
 30
0.0
  0
SPLINE
  5
3F3
100
AcDbEntity
  8
0
100
AcDbSpline
 62
7
  6
CONTINUOUS
 70
0
 71
3
 72
13
 73
9
 74
0
 42
0.0000001
 43
0.0000001
 44
0.0000000001
 40
0.0
 40
0.0
 40
0.0
 40
0.0
 40
0.3085600486
 40
0.5950480201
 40
0.7131997229
 40
0.8130449486
 40
0.9036168909
 40
1.0
 40
1.0
 40
1.0
 40
1.0
 10
251.630146724
 20
290.644756259
 30
0.0
 10
251.9532531231
 20
290.3124518064
 30
0.0
 10
252.4535215937
 20
289.550727694
 30
0.0
 10
252.7424128915
 20
288.4860243695
 30
0.0
 10
252.6564786653
 20
287.7230624508
 30
0.0
 10
252.4409465125
 20
287.2957938122
 30
0.0
 10
252.0676013163
 20
287.0425259564
 30
0.0
 10
251.7745379222
 20
287.0258434835
 30
0.0
 10
251.6308883101
 20
287.0438840993
 30
0.0
  0
SPLINE
  5
3F4
100
AcDbEntity
  8
0
100
AcDbSpline
 62
7
  6
CONTINUOUS
 70
0
 71
3
 72
14
 73
10
 74
0
 42
0.0000001
 43
0.0000001
 44
0.0000000001
 40
0.0
 40
0.0
 40
0.0
 40
0.0
 40
0.2907821441
 40
0.4448234713
 40
0.5838972937
 40
0.6984789327
 40
0.7919404408
 40
0.8854097328
 40
1.0
 40
1.0
 40
1.0
 40
1.0
 10
251.0193410904
 20
267.6672890074
 30
0.0
 10
250.5223011485
 20
267.9542486598
 30
0.0
 10
249.9142158332
 20
268.6577150104
 30
0.0
 10
249.4476459904
 20
269.7141764724
 30
0.0
 10
249.3062039867
 20
270.5163370268
 30
0.0
 10
249.4001363722
 20
271.2134061162
 30
0.0
 10
249.798838058
 20
271.7147138663
 30
0.0
 10
250.4319340985
 20
271.8101381417
 30
0.0
 10
250.8234695732
 20
271.6476887358
 30
0.0
 10
251.0193410904
 20
271.534604821
 30
0.0
  0
SPLINE
  5
3F5
100
AcDbEntity
  8
0
100
AcDbSpline
 62
7
  6
CONTINUOUS
 70
0
 71
3
 72
14
 73
10
 74
0
 42
0.0000001
 43
0.0000001
 44
0.0000000001
 40
0.0
 40
0.0
 40
0.0
 40
0.0
 40
0.2907821441
 40
0.4448234713
 40
0.5838972937
 40
0.6984789327
 40
0.7919404408
 40
0.8854097328
 40
1.0
 40
1.0
 40
1.0
 40
1.0
 10
251.0193410904
 20
271.534604821
 30
0.0
 10
251.5163810323
 20
271.2476451686
 30
0.0
 10
252.1244663476
 20
270.544178818
 30
0.0
 10
252.5910361904
 20
269.4877173559
 30
0.0
 10
252.7324781941
 20
268.6855568015
 30
0.0
 10
252.6385458086
 20
267.9884877121
 30
0.0
 10
252.2398441228
 20
267.487179962
 30
0.0
 10
251.6067480822
 20
267.3917556866
 30
0.0
 10
251.2152126076
 20
267.5542050925
 30
0.0
 10
251.0193410904
 20
267.6672890074
 30
0.0
  0
SPLINE
  5
3F6
100
AcDbEntity
  8
0
100
AcDbSpline
 62
7
  6
CONTINUOUS
 70
0
 71
3
 72
9
 73
5
 74
0
 42
0.0000001
 43
0.0000001
 44
0.0000000001
 40
0.0
 40
0.0
 40
0.0
 40
0.0
 40
0.260740384
 40
1.0
 40
1.0
 40
1.0
 40
1.0
 10
256.4986219434
 20
276.1479013652
 30
0.0
 10
256.4972647978
 20
276.0760199457
 30
0.0
 10
256.4855374218
 20
275.8005528845
 30
0.0
 10
256.447012413
 20
275.5258193194
 30
0.0
 10
256.4001121005
 20
275.3274514143
 30
0.0
  0
SPLINE
  5
3F7
100
AcDbEntity
  8
0
100
AcDbSpline
 62
7
  6
CONTINUOUS
 70
0
 71
3
 72
8
 73
4
 74
0
 42
0.0000001
 43
0.0000001
 44
0.0000000001
 40
0.0
 40
0.0
 40
0.0
 40
0.0
 40
1.0
 40
1.0
 40
1.0
 40
1.0
 10
256.4001121005
 20
275.3274514143
 30
0.0
 10
256.3695042574
 20
275.197993562
 30
0.0
 10
256.3308543581
 20
275.0700523924
 30
0.0
 10
256.2828748871
 20
274.9459792448
 30
0.0
  0
SPLINE
  5
3F8
100
AcDbEntity
  8
0
100
AcDbSpline
 62
7
  6
CONTINUOUS
 70
0
 71
3
 72
16
 73
12
 74
0
 42
0.0000001
 43
0.0000001
 44
0.0000000001
 40
0.0
 40
0.0
 40
0.0
 40
0.0
 40
0.0946895335
 40
0.1393420039
 40
0.1853299737
 40
0.2890105079
 40
0.4148600726
 40
0.5594987542
 40
0.7132062495
 40
0.8638200618
 40
1.0
 40
1.0
 40
1.0
 40
1.0
 10
256.2828748871
 20
274.9459792448
 30
0.0
 10
256.1533552029
 20
274.6110461039
 30
0.0
 10
255.8452044588
 20
274.1402990199
 30
0.0
 10
255.2264090523
 20
273.7858333069
 30
0.0
 10
254.496539817
 20
273.6242086002
 30
0.0
 10
253.4333060515
 20
273.8383348192
 30
0.0
 10
252.211132317
 20
274.5912215943
 30
0.0
 10
251.0748638305
 20
275.7488283452
 30
0.0
 10
250.1477066086
 20
277.1903591137
 30
0.0
 10
249.5295949616
 20
278.7531446451
 30
0.0
 10
249.3576332363
 20
279.8418882372
 30
0.0
 10
249.3576332363
 20
280.3583416929
 30
0.0
  0
SPLINE
  5
3F9
100
AcDbEntity
  8
0
100
AcDbSpline
 62
7
  6
CONTINUOUS
 70
0
 71
3
 72
9
 73
5
 74
0
 42
0.0000001
 43
0.0000001
 44
0.0000000001
 40
0.0
 40
0.0
 40
0.0
 40
0.0
 40
0.2659991328
 40
1.0
 40
1.0
 40
1.0
 40
1.0
 10
249.3576332363
 20
280.3583416929
 30
0.0
 10
249.3576332363
 20
280.4628007527
 30
0.0
 10
249.3707720945
 20
280.8551330719
 30
0.0
 10
249.4383474589
 20
281.2476125804
 30
0.0
 10
249.5289611467
 20
281.5212448168
 30
0.0
  0
SPLINE
  5
3FA
100
AcDbEntity
  8
0
100
AcDbSpline
 62
7
  6
CONTINUOUS
 70
0
 71
3
 72
8
 73
4
 74
0
 42
0.0000001
 43
0.0000001
 44
0.0000000001
 40
0.0
 40
0.0
 40
0.0
 40
0.0
 40
1.0
 40
1.0
 40
1.0
 40
1.0
 10
251.9129634779
 20
282.8360578843
 30
0.0
 10
252.0206498401
 20
282.8107471112
 30
0.0
 10
252.1270310349
 20
282.7793443309
 30
0.0
 10
252.2315164917
 20
282.7430155935
 30
0.0
  0
SPLINE
  5
3FB
100
AcDbEntity
  8
0
100
AcDbSpline
 62
7
  6
CONTINUOUS
 70
0
 71
3
 72
9
 73
5
 74
0
 42
0.0000001
 43
0.0000001
 44
0.0000000001
 40
0.0
 40
0.0
 40
0.0
 40
0.0
 40
0.2401559378
 40
1.0
 40
1.0
 40
1.0
 40
1.0
 10
252.2315164917
 20
282.7430155935
 30
0.0
 10
252.2896609685
 20
282.7227992352
 30
0.0
 10
252.5295209756
 20
282.6321890966
 30
0.0
 10
252.7599573668
 20
282.5173536022
 30
0.0
 10
252.9286287787
 20
282.4199619848
 30
0.0
  0
SPLINE
  5
3FC
100
AcDbEntity
  8
0
100
AcDbSpline
 62
7
  6
CONTINUOUS
 70
0
 71
3
 72
10
 73
6
 74
0
 42
0.0000001
 43
0.0000001
 44
0.0000000001
 40
0.0
 40
0.0
 40
0.0
 40
0.0
 40
0.4335545536
 40
0.7037690239
 40
1.0
 40
1.0
 40
1.0
 40
1.0
 10
240.6229123374
 20
296.3179601285
 30
0.0
 10
240.8156585107
 20
295.8641803242
 30
0.0
 10
241.4679028818
 20
295.2877857525
 30
0.0
 10
242.5068444734
 20
294.8391993916
 30
0.0
 10
243.1393762077
 20
294.6892586639
 30
0.0
 10
243.4722768223
 20
294.6377603535
 30
0.0
  0
SPLINE
  5
3FD
100
AcDbEntity
  8
0
100
AcDbSpline
 62
7
  6
CONTINUOUS
 70
0
 71
3
 72
9
 73
5
 74
0
 42
0.0000001
 43
0.0000001
 44
0.0000000001
 40
0.0
 40
0.0
 40
0.0
 40
0.0
 40
0.4491582048
 40
1.0
 40
1.0
 40
1.0
 40
1.0
 10
242.0076529849
 20
296.8684416993
 30
0.0
 10
242.0075169646
 20
297.0631337476
 30
0.0
 10
242.1777666366
 20
297.4977061816
 30
0.0
 10
242.5329832623
 20
297.7696595858
 30
0.0
 10
242.7397626038
 20
297.8890429817
 30
0.0
  0
SPLINE
  5
3FE
100
AcDbEntity
  8
0
100
AcDbSpline
 62
7
  6
CONTINUOUS
 70
0
 71
3
 72
9
 73
5
 74
0
 42
0.0000001
 43
0.0000001
 44
0.0000000001
 40
0.0
 40
0.0
 40
0.0
 40
0.0
 40
0.2373981345
 40
1.0
 40
1.0
 40
1.0
 40
1.0
 10
248.1298198491
 20
322.5521494071
 30
0.0
 10
248.1102222197
 20
322.5328057617
 30
0.0
 10
248.0276720458
 20
322.4513239393
 30
0.0
 10
247.9456414395
 20
322.3693021728
 30
0.0
 10
247.8840141753
 20
322.3058477776
 30
0.0
  0
SPLINE
  5
3FF
100
AcDbEntity
  8
0
100
AcDbSpline
 62
7
  6
CONTINUOUS
 70
0
 71
3
 72
9
 73
5
 74
0
 42
0.0000001
 43
0.0000001
 44
0.0000000001
 40
0.0
 40
0.0
 40
0.0
 40
0.0
 40
0.2372142364
 40
1.0
 40
1.0
 40
1.0
 40
1.0
 10
247.6674880842
 20
322.0739163627
 30
0.0
 10
247.5966075981
 20
321.9945232945
 30
0.0
 10
247.3062491588
 20
321.6527804417
 30
0.0
 10
247.0600086033
 20
321.270307874
 30
0.0
 10
246.9181017406
 20
320.9588795638
 30
0.0
  0
SPLINE
  5
400
100
AcDbEntity
  8
0
100
AcDbSpline
 62
7
  6
CONTINUOUS
 70
0
 71
3
 72
15
 73
11
 74
0
 42
0.0000001
 43
0.0000001
 44
0.0000000001
 40
0.0
 40
0.0
 40
0.0
 40
0.0
 40
0.1449013374
 40
0.2745266093
 40
0.3911156993
 40
0.5000009703
 40
0.6088860667
 40
0.7254746929
 40
0.8550993318
 40
1.0
 40
1.0
 40
1.0
 40
1.0
 10
142.7524359856
 20
213.7855243326
 30
0.0
 10
141.1888517495
 20
214.68823969
 30
0.0
 10
138.3526169545
 20
216.6408183824
 30
0.0
 10
134.9646051268
 20
220.2025823809
 30
0.0
 10
132.8199349359
 20
224.1451967791
 30
0.0
 10
132.0773257002
 20
228.327630995
 30
0.0
 10
132.8198729778
 20
232.5100708301
 30
0.0
 10
134.9644872505
 20
236.452698655
 30
0.0
 10
138.3524493242
 20
240.0144805208
 30
0.0
 10
141.188655744
 20
241.9670723465
 30
0.0
 10
142.7522262498
 20
242.8697948104
 30
0.0
  0
SPLINE
  5
401
100
AcDbEntity
  8
0
100
AcDbSpline
 62
7
  6
CONTINUOUS
 70
0
 71
3
 72
11
 73
7
 74
0
 42
0.0000001
 43
0.0000001
 44
0.0000000001
 40
0.0
 40
0.0
 40
0.0
 40
0.0
 40
0.3079115431
 40
0.5793267346
 40
0.8062319001
 40
1.0
 40
1.0
 40
1.0
 40
1.0
 10
248.1567733497
 20
263.9474499387
 30
0.0
 10
248.4194670159
 20
263.9068123449
 30
0.0
 10
248.9087458498
 20
263.7839837253
 30
0.0
 10
249.533960012
 20
263.4621343768
 30
0.0
 10
249.9682121552
 20
263.0309261435
 30
0.0
 10
250.0836167087
 20
262.6647857056
 30
0.0
 10
250.083733577
 20
262.4975068286
 30
0.0
  0
SPLINE
  5
402
100
AcDbEntity
  8
0
100
AcDbSpline
 62
7
  6
CONTINUOUS
 70
0
 71
3
 72
9
 73
5
 74
0
 42
0.0000001
 43
0.0000001
 44
0.0000000001
 40
0.0
 40
0.0
 40
0.0
 40
0.0
 40
0.2401955314
 40
1.0
 40
1.0
 40
1.0
 40
1.0
 10
242.2162703563
 20
265.0099958878
 30
0.0
 10
242.3129648145
 20
264.9709803758
 30
0.0
 10
242.7207205166
 20
264.8215107745
 30
0.0
 10
243.1463223749
 20
264.7225454127
 30
0.0
 10
243.4722768227
 20
264.6721216448
 30
0.0
  0
SPLINE
  5
403
100
AcDbEntity
  8
0
100
AcDbSpline
 62
7
  6
CONTINUOUS
 70
0
 71
3
 72
9
 73
5
 74
0
 42
0.0000001
 43
0.0000001
 44
0.0000000001
 40
0.0
 40
0.0
 40
0.0
 40
0.0
 40
0.5508378079
 40
1.0
 40
1.0
 40
1.0
 40
1.0
 10
250.3830041611
 20
260.8237203631
 30
0.0
 10
250.7221214081
 20
261.0195086283
 30
0.0
 10
251.3048286189
 20
261.465539642
 30
0.0
 10
251.5836175154
 20
262.1782083361
 30
0.0
 10
251.5837116222
 20
262.4975076834
 30
0.0
  0
SPLINE
  5
404
100
AcDbEntity
  8
0
100
AcDbSpline
 62
7
  6
CONTINUOUS
 70
0
 71
3
 72
9
 73
5
 74
0
 42
0.0000001
 43
0.0000001
 44
0.0000000001
 40
0.0
 40
0.0
 40
0.0
 40
0.0
 40
0.2654545432
 40
1.0
 40
1.0
 40
1.0
 40
1.0
 10
250.8833117536
 20
298.9164984546
 30
0.0
 10
250.809094685
 20
298.9593467429
 30
0.0
 10
250.5351698819
 20
299.1306196083
 30
0.0
 10
250.2880703329
 20
299.3429763879
 30
0.0
 10
250.1225460841
 20
299.512787056
 30
0.0
  0
SPLINE
  5
405
100
AcDbEntity
  8
0
100
AcDbSpline
 62
7
  6
CONTINUOUS
 70
0
 71
3
 72
9
 73
5
 74
0
 42
0.0000001
 43
0.0000001
 44
0.0000000001
 40
0.0
 40
0.0
 40
0.0
 40
0.0
 40
0.2601393662
 40
1.0
 40
1.0
 40
1.0
 40
1.0
 10
251.9161360967
 20
298.4772808057
 30
0.0
 10
251.8234957385
 20
298.5073799914
 30
0.0
 10
251.469366502
 20
298.6284386832
 30
0.0
 10
251.1232330186
 20
298.7779829392
 30
0.0
 10
250.8833117536
 20
298.9164984546
 30
0.0
  0
SPLINE
  5
406
100
AcDbEntity
  8
0
100
AcDbSpline
 62
7
  6
CONTINUOUS
 70
0
 71
3
 72
14
 73
10
 74
0
 42
0.0000001
 43
0.0000001
 44
0.0000000001
 40
0.0
 40
0.0
 40
0.0
 40
0.0
 40
0.1145379078
 40
0.20805593
 40
0.3015126601
 40
0.4160809333
 40
0.5551540249
 40
0.7091747312
 40
1.0
 40
1.0
 40
1.0
 40
1.0
 10
250.4609355859
 20
296.3401745127
 30
0.0
 10
250.5317528015
 20
296.2992890991
 30
0.0
 10
250.6733674162
 20
296.240622216
 30
0.0
 10
250.9024328363
 20
296.2749368905
 30
0.0
 10
251.0465272345
 20
296.4564234893
 30
0.0
 10
251.0806280078
 20
296.7084917281
 30
0.0
 10
251.0293812888
 20
296.998627677
 30
0.0
 10
250.8607680277
 20
297.3808293051
 30
0.0
 10
250.6407486772
 20
297.6352835987
 30
0.0
 10
250.4609354095
 20
297.7390964946
 30
0.0
  0
SPLINE
  5
407
100
AcDbEntity
  8
0
100
AcDbSpline
 62
7
  6
CONTINUOUS
 70
0
 71
3
 72
14
 73
10
 74
0
 42
0.0000001
 43
0.0000001
 44
0.0000000001
 40
0.0
 40
0.0
 40
0.0
 40
0.0
 40
0.114537891
 40
0.2080559083
 40
0.3015126414
 40
0.4160809179
 40
0.5551540085
 40
0.7091747125
 40
1.0
 40
1.0
 40
1.0
 40
1.0
 10
250.4609354095
 20
297.7390964946
 30
0.0
 10
250.3901182184
 20
297.7799818963
 30
0.0
 10
250.2485036115
 20
297.8386487055
 30
0.0
 10
250.01943827
 20
297.8043339604
 30
0.0
 10
249.8753439312
 20
297.6228473777
 30
0.0
 10
249.8412431694
 20
297.3707791849
 30
0.0
 10
249.8924898665
 20
297.080643286
 30
0.0
 10
250.0611030898
 20
296.6984417226
 30
0.0
 10
250.2811223373
 20
296.4439873916
 30
0.0
 10
250.4609355859
 20
296.3401745127
 30
0.0
  0
SPLINE
  5
408
100
AcDbEntity
  8
0
100
AcDbSpline
 62
7
  6
CONTINUOUS
 70
0
 71
3
 72
14
 73
10
 74
0
 42
0.0000001
 43
0.0000001
 44
0.0000000001
 40
0.0
 40
0.0
 40
0.0
 40
0.0
 40
0.1145379092
 40
0.2080559335
 40
0.3015126609
 40
0.416080926
 40
0.5551540097
 40
0.7091747115
 40
1.0
 40
1.0
 40
1.0
 40
1.0
 10
250.4609355859
 20
268.5790923303
 30
0.0
 10
250.5317527959
 20
268.53820692
 30
0.0
 10
250.6733673981
 20
268.4795400416
 30
0.0
 10
250.9024327968
 20
268.5138546914
 30
0.0
 10
251.0465272065
 20
268.6953412433
 30
0.0
 10
251.0806280084
 20
268.9474094418
 30
0.0
 10
251.0293813323
 20
269.2375453577
 30
0.0
 10
250.8607681144
 20
269.6197469599
 30
0.0
 10
250.6407488518
 20
269.8742013214
 30
0.0
 10
250.4609355859
 20
269.9780142103
 30
0.0
  0
SPLINE
  5
409
100
AcDbEntity
  8
0
100
AcDbSpline
 62
7
  6
CONTINUOUS
 70
0
 71
3
 72
14
 73
10
 74
0
 42
0.0000001
 43
0.0000001
 44
0.0000000001
 40
0.0
 40
0.0
 40
0.0
 40
0.0
 40
0.1145379092
 40
0.2080559335
 40
0.3015126609
 40
0.416080926
 40
0.5551540097
 40
0.7091747115
 40
1.0
 40
1.0
 40
1.0
 40
1.0
 10
250.4609355859
 20
269.9780142103
 30
0.0
 10
250.390118376
 20
270.0188996206
 30
0.0
 10
250.2485037737
 20
270.0775664989
 30
0.0
 10
250.019438375
 20
270.0432518492
 30
0.0
 10
249.8753439654
 20
269.8617652972
 30
0.0
 10
249.8412431635
 20
269.6096970987
 30
0.0
 10
249.8924898396
 20
269.3195611829
 30
0.0
 10
250.0611030575
 20
268.9373595807
 30
0.0
 10
250.2811223201
 20
268.6829052191
 30
0.0
 10
250.4609355859
 20
268.5790923303
 30
0.0
  0
SPLINE
  5
40A
100
AcDbEntity
  8
0
100
AcDbSpline
 62
7
  6
CONTINUOUS
 70
0
 71
3
 72
9
 73
5
 74
0
 42
0.0000001
 43
0.0000001
 44
0.0000000001
 40
0.0
 40
0.0
 40
0.0
 40
0.0
 40
0.2690533786
 40
1.0
 40
1.0
 40
1.0
 40
1.0
 10
250.8425574768
 20
280.3583452622
 30
0.0
 10
250.8425574768
 20
280.4548619075
 30
0.0
 10
250.8565792579
 20
280.8130316892
 30
0.0
 10
250.9291896131
 20
281.1720264804
 30
0.0
 10
251.0281569653
 20
281.4148424696
 30
0.0
  0
SPLINE
  5
40B
100
AcDbEntity
  8
0
100
AcDbSpline
 62
7
  6
CONTINUOUS
 70
0
 71
3
 72
9
 73
5
 74
0
 42
0.0000001
 43
0.0000001
 44
0.0000000001
 40
0.0
 40
0.0
 40
0.0
 40
0.0
 40
0.2656402056
 40
1.0
 40
1.0
 40
1.0
 40
1.0
 10
251.0281569653
 20
281.4148424696
 30
0.0
 10
251.0555397214
 20
281.4820259483
 30
0.0
 10
251.1716010951
 20
281.7291290324
 30
0.0
 10
251.3475314649
 20
281.9505423651
 30
0.0
 10
251.5042864749
 20
282.0756550379
 30
0.0
  0
SPLINE
  5
40C
100
AcDbEntity
  8
0
100
AcDbSpline
 62
7
  6
CONTINUOUS
 70
0
 71
3
 72
11
 73
7
 74
0
 42
0.0000001
 43
0.0000001
 44
0.0000000001
 40
0.0
 40
0.0
 40
0.0
 40
0.0
 40
0.2418469678
 40
0.5094498461
 40
0.771862029
 40
1.0
 40
1.0
 40
1.0
 40
1.0
 10
251.1607542035
 20
280.5420551314
 30
0.0
 10
251.1607542035
 20
280.0346189484
 30
0.0
 10
251.3675781193
 20
278.9653536747
 30
0.0
 10
252.0716586751
 20
277.4915910995
 30
0.0
 10
253.0791499528
 20
276.2431645077
 30
0.0
 10
253.9383776144
 20
275.6327655681
 30
0.0
 10
254.3802641047
 20
275.4487450057
 30
0.0
  0
SPLINE
  5
40D
100
AcDbEntity
  8
0
100
AcDbSpline
 62
7
  6
CONTINUOUS
 70
0
 71
3
 72
9
 73
5
 74
0
 42
0.0000001
 43
0.0000001
 44
0.0000000001
 40
0.0
 40
0.0
 40
0.0
 40
0.0
 40
0.2792985908
 40
1.0
 40
1.0
 40
1.0
 40
1.0
 10
254.3802641047
 20
275.4487450057
 30
0.0
 10
254.4972271667
 20
275.4000365502
 30
0.0
 10
254.9242119814
 20
275.2514907341
 30
0.0
 10
255.4094833584
 20
275.2283842045
 30
0.0
 10
255.7210949302
 20
275.3273058798
 30
0.0
  0
SPLINE
  5
40E
100
AcDbEntity
  8
0
100
AcDbSpline
 62
7
  6
CONTINUOUS
 70
0
 71
3
 72
13
 73
9
 74
0
 42
0.0000001
 43
0.0000001
 44
0.0000000001
 40
0.0
 40
0.0
 40
0.0
 40
0.0
 40
0.2651694568
 40
0.5532236909
 40
0.6880174512
 40
0.8081714076
 40
0.9111971036
 40
1.0
 40
1.0
 40
1.0
 40
1.0
 10
253.9891931041
 20
275.7655578074
 30
0.0
 10
253.4208189382
 20
276.0937013615
 30
0.0
 10
252.4116155003
 20
277.07725449
 30
0.0
 10
251.5946025814
 20
278.6012447729
 30
0.0
 10
251.2747817817
 20
279.9141681132
 30
0.0
 10
251.2452958129
 20
280.8075741741
 30
0.0
 10
251.4257202466
 20
281.5707767125
 30
0.0
 10
251.7112734958
 20
281.9725772643
 30
0.0
 10
251.8797218451
 20
282.1137584178
 30
0.0
  0
SPLINE
  5
40F
100
AcDbEntity
  8
0
100
AcDbSpline
 62
7
  6
CONTINUOUS
 70
0
 71
3
 72
9
 73
5
 74
0
 42
0.0000001
 43
0.0000001
 44
0.0000000001
 40
0.0
 40
0.0
 40
0.0
 40
0.0
 40
0.2568210107
 40
1.0
 40
1.0
 40
1.0
 40
1.0
 10
198.7758497201
 20
286.446822382
 30
0.0
 10
198.7740990231
 20
286.3609563449
 30
0.0
 10
198.762107967
 20
286.0267555229
 30
0.0
 10
198.7290239193
 20
285.6931901213
 30
0.0
 10
198.6909069646
 20
285.4476029846
 30
0.0
  0
SPLINE
  5
410
100
AcDbEntity
  8
0
100
AcDbSpline
 62
7
  6
CONTINUOUS
 70
0
 71
3
 72
11
 73
7
 74
0
 42
0.0000001
 43
0.0000001
 44
0.0000000001
 40
0.0
 40
0.0
 40
0.0
 40
0.0
 40
0.2692577467
 40
0.5036116883
 40
0.7358270646
 40
1.0
 40
1.0
 40
1.0
 40
1.0
 10
198.6693496005
 20
285.3172630806
 30
0.0
 10
198.563668155
 20
284.7158697576
 30
0.0
 10
198.2086155533
 20
283.599639927
 30
0.0
 10
197.0267111633
 20
282.3240166237
 30
0.0
 10
195.3659511531
 20
281.8420854399
 30
0.0
 10
194.2257832896
 20
282.0423677803
 30
0.0
 10
193.6560329077
 20
282.2275110735
 30
0.0
  0
SPLINE
  5
411
100
AcDbEntity
  8
0
100
AcDbSpline
 62
7
  6
CONTINUOUS
 70
0
 71
3
 72
11
 73
7
 74
0
 42
0.0000001
 43
0.0000001
 44
0.0000000001
 40
0.0
 40
0.0
 40
0.0
 40
0.0
 40
0.2639677691
 40
0.4959758321
 40
0.730422864
 40
1.0
 40
1.0
 40
1.0
 40
1.0
 10
185.8991447714
 20
295.6629039826
 30
0.0
 10
186.0244286772
 20
296.2507572521
 30
0.0
 10
186.422421271
 20
297.3420814913
 30
0.0
 10
187.6786840428
 20
298.5407204426
 30
0.0
 10
189.3839354699
 20
298.9197893742
 30
0.0
 10
190.5324137184
 20
298.6626557175
 30
0.0
 10
191.1082171273
 20
298.4499702519
 30
0.0
  0
SPLINE
  5
412
100
AcDbEntity
  8
0
100
AcDbSpline
 62
7
  6
CONTINUOUS
 70
0
 71
3
 72
9
 73
5
 74
0
 42
0.0000001
 43
0.0000001
 44
0.0000000001
 40
0.0
 40
0.0
 40
0.0
 40
0.0
 40
0.2434460737
 40
1.0
 40
1.0
 40
1.0
 40
1.0
 10
191.19881616
 20
298.4157465594
 30
0.0
 10
191.2690153566
 20
298.3886422451
 30
0.0
 10
191.5554833702
 20
298.272446579
 30
0.0
 10
191.8342525413
 20
298.1375087323
 30
0.0
 10
192.0402109931
 20
298.0267450471
 30
0.0
  0
SPLINE
  5
413
100
AcDbEntity
  8
0
100
AcDbSpline
 62
7
  6
CONTINUOUS
 70
0
 71
3
 72
11
 73
7
 74
0
 42
0.0000001
 43
0.0000001
 44
0.0000000001
 40
0.0
 40
0.0
 40
0.0
 40
0.0
 40
0.2274331562
 40
0.4798917907
 40
0.7429596422
 40
1.0
 40
1.0
 40
1.0
 40
1.0
 10
192.0402109931
 20
298.0267450471
 30
0.0
 10
192.762568189
 20
297.6382640485
 30
0.0
 10
194.1687703875
 20
296.5954889275
 30
0.0
 10
195.9583641384
 20
294.5824575596
 30
0.0
 10
197.4175222499
 20
292.1928144956
 30
0.0
 10
198.1043700072
 20
290.4335264257
 30
0.0
 10
198.3517371708
 20
289.5401755922
 30
0.0
  0
SPLINE
  5
414
100
AcDbEntity
  8
0
100
AcDbSpline
 62
7
  6
CONTINUOUS
 70
0
 71
3
 72
9
 73
5
 74
0
 42
0.0000001
 43
0.0000001
 44
0.0000000001
 40
0.0
 40
0.0
 40
0.0
 40
0.0
 40
0.2577576025
 40
1.0
 40
1.0
 40
1.0
 40
1.0
 10
198.3517371708
 20
289.5401755922
 30
0.0
 10
198.3972159518
 20
289.3759318569
 30
0.0
 10
198.5614301766
 20
288.7354634918
 30
0.0
 10
198.6754721742
 20
288.0816960631
 30
0.0
 10
198.7258711696
 20
287.5935356288
 30
0.0
  0
SPLINE
  5
415
100
AcDbEntity
  8
0
100
AcDbSpline
 62
7
  6
CONTINUOUS
 70
0
 71
3
 72
11
 73
7
 74
0
 42
0.0000001
 43
0.0000001
 44
0.0000000001
 40
0.0
 40
0.0
 40
0.0
 40
0.0
 40
0.2418469678
 40
0.5094498461
 40
0.771862029
 40
1.0
 40
1.0
 40
1.0
 40
1.0
 10
251.1607542035
 20
148.2686635564
 30
0.0
 10
251.1607542035
 20
147.7612273734
 30
0.0
 10
251.3675781193
 20
146.6919620997
 30
0.0
 10
252.0716586751
 20
145.2181995245
 30
0.0
 10
253.0791499528
 20
143.9697729327
 30
0.0
 10
253.9383776144
 20
143.3593739931
 30
0.0
 10
254.3802641047
 20
143.1753534307
 30
0.0
  0
SPLINE
  5
416
100
AcDbEntity
  8
0
100
AcDbSpline
 62
7
  6
CONTINUOUS
 70
0
 71
3
 72
9
 73
5
 74
0
 42
0.0000001
 43
0.0000001
 44
0.0000000001
 40
0.0
 40
0.0
 40
0.0
 40
0.0
 40
0.2792985908
 40
1.0
 40
1.0
 40
1.0
 40
1.0
 10
254.3802641047
 20
143.1753534307
 30
0.0
 10
254.4972271667
 20
143.1266449752
 30
0.0
 10
254.9242119814
 20
142.9780991591
 30
0.0
 10
255.4094833584
 20
142.9549926295
 30
0.0
 10
255.7210949302
 20
143.0539143048
 30
0.0
  0
SPLINE
  5
417
100
AcDbEntity
  8
0
100
AcDbSpline
 62
7
  6
CONTINUOUS
 70
0
 71
3
 72
13
 73
9
 74
0
 42
0.0000001
 43
0.0000001
 44
0.0000000001
 40
0.0
 40
0.0
 40
0.0
 40
0.0
 40
0.2651694568
 40
0.5532236909
 40
0.6880174512
 40
0.8081714076
 40
0.9111971036
 40
1.0
 40
1.0
 40
1.0
 40
1.0
 10
253.9891931041
 20
143.4921662324
 30
0.0
 10
253.4208189382
 20
143.8203097865
 30
0.0
 10
252.4116155003
 20
144.803862915
 30
0.0
 10
251.5946025814
 20
146.3278531979
 30
0.0
 10
251.2747817817
 20
147.6407765382
 30
0.0
 10
251.2452958129
 20
148.5341825991
 30
0.0
 10
251.4257202466
 20
149.2973851376
 30
0.0
 10
251.7112734958
 20
149.6991856893
 30
0.0
 10
251.8797218451
 20
149.8403668428
 30
0.0
  0
SPLINE
  5
418
100
AcDbEntity
  8
0
100
AcDbSpline
 62
7
  6
CONTINUOUS
 70
0
 71
3
 72
9
 73
5
 74
0
 42
0.0000001
 43
0.0000001
 44
0.0000000001
 40
0.0
 40
0.0
 40
0.0
 40
0.0
 40
0.2690533786
 40
1.0
 40
1.0
 40
1.0
 40
1.0
 10
250.8425574768
 20
148.0849536872
 30
0.0
 10
250.8425574768
 20
148.1814703325
 30
0.0
 10
250.8565792579
 20
148.5396401142
 30
0.0
 10
250.9291896131
 20
148.8986349054
 30
0.0
 10
251.0281569653
 20
149.1414508946
 30
0.0
  0
SPLINE
  5
419
100
AcDbEntity
  8
0
100
AcDbSpline
 62
7
  6
CONTINUOUS
 70
0
 71
3
 72
9
 73
5
 74
0
 42
0.0000001
 43
0.0000001
 44
0.0000000001
 40
0.0
 40
0.0
 40
0.0
 40
0.0
 40
0.2656402056
 40
1.0
 40
1.0
 40
1.0
 40
1.0
 10
251.0281569653
 20
149.1414508946
 30
0.0
 10
251.0555397214
 20
149.2086343733
 30
0.0
 10
251.1716010951
 20
149.4557374574
 30
0.0
 10
251.3475314649
 20
149.6771507901
 30
0.0
 10
251.5042864749
 20
149.802263463
 30
0.0
  0
SPLINE
  5
41A
100
AcDbEntity
  8
0
100
AcDbSpline
 62
7
  6
CONTINUOUS
 70
0
 71
3
 72
9
 73
5
 74
0
 42
0.0000001
 43
0.0000001
 44
0.0000000001
 40
0.0
 40
0.0
 40
0.0
 40
0.0
 40
0.2436231232
 40
1.0
 40
1.0
 40
1.0
 40
1.0
 10
251.4339414148
 20
130.7964155511
 30
0.0
 10
251.4679203881
 20
130.7667943405
 30
0.0
 10
251.6047517835
 20
130.6421940091
 30
0.0
 10
251.7309424505
 20
130.5060395869
 30
0.0
 10
251.8202527937
 20
130.3982883885
 30
0.0
  0
SPLINE
  5
41B
100
AcDbEntity
  8
0
100
AcDbSpline
 62
7
  6
CONTINUOUS
 70
0
 71
3
 72
8
 73
4
 74
0
 42
0.0000001
 43
0.0000001
 44
0.0000000001
 40
0.0
 40
0.0
 40
0.0
 40
0.0
 40
1.0
 40
1.0
 40
1.0
 40
1.0
 10
251.8202527937
 20
130.3982883885
 30
0.0
 10
252.121537292
 20
130.0347944799
 30
0.0
 10
252.3614863627
 20
129.6107769921
 30
0.0
 10
252.5163423633
 20
129.1647727437
 30
0.0
  0
SPLINE
  5
41C
100
AcDbEntity
  8
0
100
AcDbSpline
 62
7
  6
CONTINUOUS
 70
0
 71
3
 72
11
 73
7
 74
0
 42
0.0000001
 43
0.0000001
 44
0.0000000001
 40
0.0
 40
0.0
 40
0.0
 40
0.0
 40
0.3154017466
 40
0.5833338213
 40
0.8015022272
 40
1.0
 40
1.0
 40
1.0
 40
1.0
 10
252.5163423633
 20
129.1647727437
 30
0.0
 10
252.6032914866
 20
128.914348619
 30
0.0
 10
252.7159767569
 20
128.4313469652
 30
0.0
 10
252.6868506608
 20
127.7478281853
 30
0.0
 10
252.4209545782
 20
127.2053847966
 30
0.0
 10
252.0810038546
 20
127.0373099028
 30
0.0
 10
251.9161360967
 20
127.0117732084
 30
0.0
  0
SPLINE
  5
41D
100
AcDbEntity
  8
0
100
AcDbSpline
 62
7
  6
CONTINUOUS
 70
0
 71
3
 72
13
 73
9
 74
0
 42
0.0000001
 43
0.0000001
 44
0.0000000001
 40
0.0
 40
0.0
 40
0.0
 40
0.0
 40
0.2793006939
 40
0.5759325216
 40
0.7072178645
 40
0.8184969766
 40
0.9119851237
 40
1.0
 40
1.0
 40
1.0
 40
1.0
 10
251.0193410904
 20
163.1549796148
 30
0.0
 10
250.6163445493
 20
163.3876445127
 30
0.0
 10
249.9276122449
 20
164.1038265734
 30
0.0
 10
249.4228580642
 20
165.1968710488
 30
0.0
 10
249.3170313065
 20
166.0971180381
 30
0.0
 10
249.4075236423
 20
166.659962251
 30
0.0
 10
249.6831939929
 20
167.0873360469
 30
0.0
 10
249.9776341617
 20
167.2169497857
 30
0.0
 10
250.1225460841
 20
167.239395481
 30
0.0
  0
SPLINE
  5
41E
100
AcDbEntity
  8
0
100
AcDbSpline
 62
7
  6
CONTINUOUS
 70
0
 71
3
 72
13
 73
9
 74
0
 42
0.0000001
 43
0.0000001
 44
0.0000000001
 40
0.0
 40
0.0
 40
0.0
 40
0.0
 40
0.3178487461
 40
0.4619922619
 40
0.5856862574
 40
0.6888830612
 40
0.7821621479
 40
1.0
 40
1.0
 40
1.0
 40
1.0
 10
251.9161360967
 20
166.2038892307
 30
0.0
 10
252.2184158228
 20
165.8080338576
 30
0.0
 10
252.5598069104
 20
165.143210962
 30
0.0
 10
252.7181992519
 20
164.2330427036
 30
0.0
 10
252.6691582396
 20
163.6453523863
 30
0.0
 10
252.4416020371
 20
163.1772617316
 30
0.0
 10
251.8598578758
 20
162.8119525257
 30
0.0
 10
251.3149632613
 20
162.984305936
 30
0.0
 10
251.0193410904
 20
163.1549796148
 30
0.0
  0
SPLINE
  5
41F
100
AcDbEntity
  8
0
100
AcDbSpline
 62
7
  6
CONTINUOUS
 70
0
 71
3
 72
13
 73
9
 74
0
 42
0.0000001
 43
0.0000001
 44
0.0000000001
 40
0.0
 40
0.0
 40
0.0
 40
0.0
 40
0.3085600486
 40
0.5950480201
 40
0.7131997229
 40
0.8130449486
 40
0.9036168909
 40
1.0
 40
1.0
 40
1.0
 40
1.0
 10
251.630146724
 20
158.371364684
 30
0.0
 10
251.9532531231
 20
158.0390602314
 30
0.0
 10
252.4535215937
 20
157.277336119
 30
0.0
 10
252.7424128915
 20
156.2126327945
 30
0.0
 10
252.6564786653
 20
155.4496708758
 30
0.0
 10
252.4409465125
 20
155.0224022372
 30
0.0
 10
252.0676013163
 20
154.7691343814
 30
0.0
 10
251.7745379222
 20
154.7524519085
 30
0.0
 10
251.6308883101
 20
154.7704925243
 30
0.0
  0
SPLINE
  5
420
100
AcDbEntity
  8
0
100
AcDbSpline
 62
7
  6
CONTINUOUS
 70
0
 71
3
 72
14
 73
10
 74
0
 42
0.0000001
 43
0.0000001
 44
0.0000000001
 40
0.0
 40
0.0
 40
0.0
 40
0.0
 40
0.2907821441
 40
0.4448234713
 40
0.5838972937
 40
0.6984789327
 40
0.7919404408
 40
0.8854097328
 40
1.0
 40
1.0
 40
1.0
 40
1.0
 10
251.0193410904
 20
135.3938974324
 30
0.0
 10
250.5223011485
 20
135.6808570848
 30
0.0
 10
249.9142158332
 20
136.3843234354
 30
0.0
 10
249.4476459904
 20
137.4407848974
 30
0.0
 10
249.3062039867
 20
138.2429454518
 30
0.0
 10
249.4001363722
 20
138.9400145413
 30
0.0
 10
249.798838058
 20
139.4413222913
 30
0.0
 10
250.4319340985
 20
139.5367465667
 30
0.0
 10
250.8234695732
 20
139.3742971608
 30
0.0
 10
251.0193410904
 20
139.261213246
 30
0.0
  0
SPLINE
  5
421
100
AcDbEntity
  8
0
100
AcDbSpline
 62
7
  6
CONTINUOUS
 70
0
 71
3
 72
14
 73
10
 74
0
 42
0.0000001
 43
0.0000001
 44
0.0000000001
 40
0.0
 40
0.0
 40
0.0
 40
0.0
 40
0.2907821441
 40
0.4448234713
 40
0.5838972937
 40
0.6984789327
 40
0.7919404408
 40
0.8854097328
 40
1.0
 40
1.0
 40
1.0
 40
1.0
 10
251.0193410904
 20
139.261213246
 30
0.0
 10
251.5163810323
 20
138.9742535936
 30
0.0
 10
252.1244663476
 20
138.270787243
 30
0.0
 10
252.5910361904
 20
137.2143257809
 30
0.0
 10
252.7324781941
 20
136.4121652266
 30
0.0
 10
252.6385458086
 20
135.7150961371
 30
0.0
 10
252.2398441228
 20
135.213788387
 30
0.0
 10
251.6067480822
 20
135.1183641116
 30
0.0
 10
251.2152126076
 20
135.2808135175
 30
0.0
 10
251.0193410904
 20
135.3938974324
 30
0.0
  0
SPLINE
  5
422
100
AcDbEntity
  8
0
100
AcDbSpline
 62
7
  6
CONTINUOUS
 70
0
 71
3
 72
9
 73
5
 74
0
 42
0.0000001
 43
0.0000001
 44
0.0000000001
 40
0.0
 40
0.0
 40
0.0
 40
0.0
 40
0.260740384
 40
1.0
 40
1.0
 40
1.0
 40
1.0
 10
256.4986219434
 20
143.8745097902
 30
0.0
 10
256.4972647978
 20
143.8026283707
 30
0.0
 10
256.4855374218
 20
143.5271613095
 30
0.0
 10
256.447012413
 20
143.2524277444
 30
0.0
 10
256.4001121005
 20
143.0540598393
 30
0.0
  0
SPLINE
  5
423
100
AcDbEntity
  8
0
100
AcDbSpline
 62
7
  6
CONTINUOUS
 70
0
 71
3
 72
8
 73
4
 74
0
 42
0.0000001
 43
0.0000001
 44
0.0000000001
 40
0.0
 40
0.0
 40
0.0
 40
0.0
 40
1.0
 40
1.0
 40
1.0
 40
1.0
 10
256.4001121005
 20
143.0540598393
 30
0.0
 10
256.3695042574
 20
142.924601987
 30
0.0
 10
256.3308543581
 20
142.7966608174
 30
0.0
 10
256.2828748871
 20
142.6725876698
 30
0.0
  0
SPLINE
  5
424
100
AcDbEntity
  8
0
100
AcDbSpline
 62
7
  6
CONTINUOUS
 70
0
 71
3
 72
16
 73
12
 74
0
 42
0.0000001
 43
0.0000001
 44
0.0000000001
 40
0.0
 40
0.0
 40
0.0
 40
0.0
 40
0.0946895335
 40
0.1393420039
 40
0.1853299737
 40
0.2890105079
 40
0.4148600726
 40
0.5594987542
 40
0.7132062495
 40
0.8638200618
 40
1.0
 40
1.0
 40
1.0
 40
1.0
 10
256.2828748871
 20
142.6725876698
 30
0.0
 10
256.1533552029
 20
142.3376545289
 30
0.0
 10
255.8452044588
 20
141.8669074449
 30
0.0
 10
255.2264090523
 20
141.512441732
 30
0.0
 10
254.496539817
 20
141.3508170252
 30
0.0
 10
253.4333060515
 20
141.5649432442
 30
0.0
 10
252.211132317
 20
142.3178300193
 30
0.0
 10
251.0748638305
 20
143.4754367702
 30
0.0
 10
250.1477066086
 20
144.9169675388
 30
0.0
 10
249.5295949616
 20
146.4797530701
 30
0.0
 10
249.3576332363
 20
147.5684966623
 30
0.0
 10
249.3576332363
 20
148.0849501179
 30
0.0
  0
SPLINE
  5
425
100
AcDbEntity
  8
0
100
AcDbSpline
 62
7
  6
CONTINUOUS
 70
0
 71
3
 72
9
 73
5
 74
0
 42
0.0000001
 43
0.0000001
 44
0.0000000001
 40
0.0
 40
0.0
 40
0.0
 40
0.0
 40
0.2659991328
 40
1.0
 40
1.0
 40
1.0
 40
1.0
 10
249.3576332363
 20
148.0849501179
 30
0.0
 10
249.3576332363
 20
148.1894091777
 30
0.0
 10
249.3707720945
 20
148.581741497
 30
0.0
 10
249.4383474589
 20
148.9742210054
 30
0.0
 10
249.5289611467
 20
149.2478532418
 30
0.0
  0
SPLINE
  5
426
100
AcDbEntity
  8
0
100
AcDbSpline
 62
7
  6
CONTINUOUS
 70
0
 71
3
 72
8
 73
4
 74
0
 42
0.0000001
 43
0.0000001
 44
0.0000000001
 40
0.0
 40
0.0
 40
0.0
 40
0.0
 40
1.0
 40
1.0
 40
1.0
 40
1.0
 10
251.9129634779
 20
150.5626663093
 30
0.0
 10
252.0206498401
 20
150.5373555362
 30
0.0
 10
252.1270310349
 20
150.5059527559
 30
0.0
 10
252.2315164917
 20
150.4696240185
 30
0.0
  0
SPLINE
  5
427
100
AcDbEntity
  8
0
100
AcDbSpline
 62
7
  6
CONTINUOUS
 70
0
 71
3
 72
9
 73
5
 74
0
 42
0.0000001
 43
0.0000001
 44
0.0000000001
 40
0.0
 40
0.0
 40
0.0
 40
0.0
 40
0.2401559378
 40
1.0
 40
1.0
 40
1.0
 40
1.0
 10
252.2315164917
 20
150.4696240185
 30
0.0
 10
252.2896609685
 20
150.4494076602
 30
0.0
 10
252.5295209756
 20
150.3587975216
 30
0.0
 10
252.7599573668
 20
150.2439620272
 30
0.0
 10
252.9286287787
 20
150.1465704098
 30
0.0
  0
SPLINE
  5
428
100
AcDbEntity
  8
0
100
AcDbSpline
 62
7
  6
CONTINUOUS
 70
0
 71
3
 72
9
 73
5
 74
0
 42
0.0000001
 43
0.0000001
 44
0.0000000001
 40
0.0
 40
0.0
 40
0.0
 40
0.0
 40
0.5014197465
 40
1.0
 40
1.0
 40
1.0
 40
1.0
 10
190.8690657205
 20
283.8365406017
 30
0.0
 10
191.3351355753
 20
283.5675127412
 30
0.0
 10
192.2724495369
 20
283.0445527776
 30
0.0
 10
193.1940091748
 20
282.4943057948
 30
0.0
 10
193.6573995053
 20
282.2267317576
 30
0.0
  0
SPLINE
  5
429
100
AcDbEntity
  8
0
100
AcDbSpline
 62
7
  6
CONTINUOUS
 70
0
 71
3
 72
9
 73
5
 74
0
 42
0.0000001
 43
0.0000001
 44
0.0000000001
 40
0.0
 40
0.0
 40
0.0
 40
0.0
 40
0.4999994563
 40
1.0
 40
1.0
 40
1.0
 40
1.0
 10
247.13024349
 20
168.1504815973
 30
0.0
 10
247.3401225929
 20
168.2716546306
 30
0.0
 10
247.8373495791
 20
168.3674849628
 30
0.0
 10
248.3345766192
 20
168.27165678
 30
0.0
 10
248.5444570524
 20
168.1504849967
 30
0.0
  0
SPLINE
  5
42A
100
AcDbEntity
  8
0
100
AcDbSpline
 62
7
  6
CONTINUOUS
 70
0
 71
3
 72
9
 73
5
 74
0
 42
0.0000001
 43
0.0000001
 44
0.0000000001
 40
0.0
 40
0.0
 40
0.0
 40
0.0
 40
0.5508378079
 40
1.0
 40
1.0
 40
1.0
 40
1.0
 10
250.3830041611
 20
158.5159674968
 30
0.0
 10
250.7221214081
 20
158.711755762
 30
0.0
 10
251.3048286189
 20
159.1577867757
 30
0.0
 10
251.5836175154
 20
159.8704554698
 30
0.0
 10
251.5837116222
 20
160.1897548171
 30
0.0
  0
SPLINE
  5
42B
100
AcDbEntity
  8
0
100
AcDbSpline
 62
7
  6
CONTINUOUS
 70
0
 71
3
 72
11
 73
7
 74
0
 42
0.0000001
 43
0.0000001
 44
0.0000000001
 40
0.0
 40
0.0
 40
0.0
 40
0.0
 40
0.3079115431
 40
0.5793267346
 40
0.8062319001
 40
1.0
 40
1.0
 40
1.0
 40
1.0
 10
248.1567733497
 20
161.6396970724
 30
0.0
 10
248.4194670159
 20
161.5990594786
 30
0.0
 10
248.9087458498
 20
161.4762308589
 30
0.0
 10
249.533960012
 20
161.1543815105
 30
0.0
 10
249.9682121552
 20
160.7231732772
 30
0.0
 10
250.0836167087
 20
160.3570328392
 30
0.0
 10
250.083733577
 20
160.1897539623
 30
0.0
  0
SPLINE
  5
42C
100
AcDbEntity
  8
0
100
AcDbSpline
 62
7
  6
CONTINUOUS
 70
0
 71
3
 72
16
 73
12
 74
0
 42
0.0000001
 43
0.0000001
 44
0.0000000001
 40
0.0
 40
0.0
 40
0.0
 40
0.0
 40
0.0964455445
 40
0.141251014
 40
0.1869000577
 40
0.2890057343
 40
0.4132653463
 40
0.55704609
 40
0.7108338154
 40
0.8623578047
 40
1.0
 40
1.0
 40
1.0
 40
1.0
 10
198.0020048634
 20
285.9972787672
 30
0.0
 10
197.8290740058
 20
285.4818841567
 30
0.0
 10
197.4063042397
 20
284.7497029326
 30
0.0
 10
196.5127828239
 20
284.1626849823
 30
0.0
 10
195.4516040445
 20
283.8655495799
 30
0.0
 10
193.8754780762
 20
284.1178315093
 30
0.0
 10
192.0511061919
 20
285.1835188581
 30
0.0
 10
190.3420806242
 20
286.8657027496
 30
0.0
 10
188.9331879085
 20
288.9893664479
 30
0.0
 10
187.9774955379
 20
291.3121775955
 30
0.0
 10
187.6949935569
 20
292.9391187582
 30
0.0
 10
187.6811451238
 20
293.7148404318
 30
0.0
  0
SPLINE
  5
42D
100
AcDbEntity
  8
0
100
AcDbSpline
 62
7
  6
CONTINUOUS
 70
0
 71
3
 72
8
 73
4
 74
0
 42
0.0000001
 43
0.0000001
 44
0.0000000001
 40
0.0
 40
0.0
 40
0.0
 40
0.0
 40
1.0
 40
1.0
 40
1.0
 40
1.0
 10
63.7866275013
 20
428.1629199386
 30
0.0
 10
63.7866274923
 20
428.6091901114
 30
0.0
 10
63.6788792605
 20
429.0632242285
 30
0.0
 10
63.4938331496
 20
429.4693215124
 30
0.0
  0
SPLINE
  5
42E
100
AcDbEntity
  8
0
100
AcDbSpline
 62
7
  6
CONTINUOUS
 70
0
 71
3
 72
11
 73
7
 74
0
 42
0.0000001
 43
0.0000001
 44
0.0000000001
 40
0.0
 40
0.0
 40
0.0
 40
0.0
 40
0.3079115431
 40
0.5793267346
 40
0.8062319001
 40
1.0
 40
1.0
 40
1.0
 40
1.0
 10
248.1567733497
 20
131.6740583637
 30
0.0
 10
248.4194670159
 20
131.6334207699
 30
0.0
 10
248.9087458498
 20
131.5105921503
 30
0.0
 10
249.533960012
 20
131.1887428018
 30
0.0
 10
249.9682121552
 20
130.7575345685
 30
0.0
 10
250.0836167087
 20
130.3913941306
 30
0.0
 10
250.083733577
 20
130.2241152536
 30
0.0
  0
SPLINE
  5
42F
100
AcDbEntity
  8
0
100
AcDbSpline
 62
7
  6
CONTINUOUS
 70
0
 71
3
 72
9
 73
5
 74
0
 42
0.0000001
 43
0.0000001
 44
0.0000000001
 40
0.0
 40
0.0
 40
0.0
 40
0.0
 40
0.2401955314
 40
1.0
 40
1.0
 40
1.0
 40
1.0
 10
242.2162703563
 20
132.7366043128
 30
0.0
 10
242.3129648145
 20
132.6975888008
 30
0.0
 10
242.7207205166
 20
132.5481191995
 30
0.0
 10
243.1463223749
 20
132.4491538377
 30
0.0
 10
243.4722768227
 20
132.3987300698
 30
0.0
  0
SPLINE
  5
430
100
AcDbEntity
  8
0
100
AcDbSpline
 62
7
  6
CONTINUOUS
 70
0
 71
3
 72
9
 73
5
 74
0
 42
0.0000001
 43
0.0000001
 44
0.0000000001
 40
0.0
 40
0.0
 40
0.0
 40
0.0
 40
0.2582384456
 40
1.0
 40
1.0
 40
1.0
 40
1.0
 10
191.5567063109
 20
297.4732481812
 30
0.0
 10
191.4769499966
 20
297.4700714066
 30
0.0
 10
191.1688381116
 20
297.444996335
 30
0.0
 10
190.8644825577
 20
297.3648168151
 30
0.0
 10
190.6542466602
 20
297.2733458816
 30
0.0
  0
SPLINE
  5
431
100
AcDbEntity
  8
0
100
AcDbSpline
 62
7
  6
CONTINUOUS
 70
0
 71
3
 72
11
 73
7
 74
0
 42
0.0000001
 43
0.0000001
 44
0.0000000001
 40
0.0
 40
0.0
 40
0.0
 40
0.0
 40
0.2184701966
 40
0.4498222089
 40
0.7084204058
 40
1.0
 40
1.0
 40
1.0
 40
1.0
 10
190.6542466602
 20
297.2733458816
 30
0.0
 10
190.3994140096
 20
297.1624714747
 30
0.0
 10
189.9135362492
 20
296.8316910446
 30
0.0
 10
189.3887742836
 20
296.0795349238
 30
0.0
 10
189.0787107593
 20
295.1234092862
 30
0.0
 10
189.0184225314
 20
294.4206745518
 30
0.0
 10
189.0184225314
 20
294.0497668454
 30
0.0
  0
SPLINE
  5
432
100
AcDbEntity
  8
0
100
AcDbSpline
 62
7
  6
CONTINUOUS
 70
0
 71
3
 72
9
 73
5
 74
0
 42
0.0000001
 43
0.0000001
 44
0.0000000001
 40
0.0
 40
0.0
 40
0.0
 40
0.0
 40
0.5508378079
 40
1.0
 40
1.0
 40
1.0
 40
1.0
 10
250.3830041611
 20
128.5503287881
 30
0.0
 10
250.7221214081
 20
128.7461170533
 30
0.0
 10
251.3048286189
 20
129.192148067
 30
0.0
 10
251.5836175154
 20
129.9048167612
 30
0.0
 10
251.5837116222
 20
130.2241161084
 30
0.0
  0
SPLINE
  5
433
100
AcDbEntity
  8
0
100
AcDbSpline
 62
7
  6
CONTINUOUS
 70
0
 71
3
 72
9
 73
5
 74
0
 42
0.0000001
 43
0.0000001
 44
0.0000000001
 40
0.0
 40
0.0
 40
0.0
 40
0.0
 40
0.2601393662
 40
1.0
 40
1.0
 40
1.0
 40
1.0
 10
251.9161360967
 20
166.2038892307
 30
0.0
 10
251.8234957386
 20
166.2339884165
 30
0.0
 10
251.469366502
 20
166.3550471082
 30
0.0
 10
251.1232330186
 20
166.5045913642
 30
0.0
 10
250.8833117536
 20
166.6431068796
 30
0.0
  0
SPLINE
  5
434
100
AcDbEntity
  8
0
100
AcDbSpline
 62
7
  6
CONTINUOUS
 70
0
 71
3
 72
9
 73
5
 74
0
 42
0.0000001
 43
0.0000001
 44
0.0000000001
 40
0.0
 40
0.0
 40
0.0
 40
0.0
 40
0.2654545432
 40
1.0
 40
1.0
 40
1.0
 40
1.0
 10
250.8833117536
 20
166.6431068796
 30
0.0
 10
250.809094685
 20
166.6859551679
 30
0.0
 10
250.5351698819
 20
166.8572280333
 30
0.0
 10
250.2880703329
 20
167.0695848129
 30
0.0
 10
250.1225460841
 20
167.239395481
 30
0.0
  0
SPLINE
  5
435
100
AcDbEntity
  8
0
100
AcDbSpline
 62
7
  6
CONTINUOUS
 70
0
 71
3
 72
14
 73
10
 74
0
 42
0.0000001
 43
0.0000001
 44
0.0000000001
 40
0.0
 40
0.0
 40
0.0
 40
0.0
 40
0.114537891
 40
0.2080559083
 40
0.3015126414
 40
0.4160809179
 40
0.5551540085
 40
0.7091747125
 40
1.0
 40
1.0
 40
1.0
 40
1.0
 10
250.4609354095
 20
165.4657049196
 30
0.0
 10
250.3901182184
 20
165.5065903213
 30
0.0
 10
250.2485036115
 20
165.5652571305
 30
0.0
 10
250.01943827
 20
165.5309423854
 30
0.0
 10
249.8753439312
 20
165.3494558027
 30
0.0
 10
249.8412431694
 20
165.0973876099
 30
0.0
 10
249.8924898665
 20
164.807251711
 30
0.0
 10
250.0611030898
 20
164.4250501476
 30
0.0
 10
250.2811223373
 20
164.1705958166
 30
0.0
 10
250.4609355859
 20
164.0667829377
 30
0.0
  0
SPLINE
  5
436
100
AcDbEntity
  8
0
100
AcDbSpline
 62
7
  6
CONTINUOUS
 70
0
 71
3
 72
14
 73
10
 74
0
 42
0.0000001
 43
0.0000001
 44
0.0000000001
 40
0.0
 40
0.0
 40
0.0
 40
0.0
 40
0.1145379078
 40
0.20805593
 40
0.3015126601
 40
0.4160809333
 40
0.5551540249
 40
0.7091747312
 40
1.0
 40
1.0
 40
1.0
 40
1.0
 10
250.4609355859
 20
164.0667829377
 30
0.0
 10
250.5317528015
 20
164.0258975241
 30
0.0
 10
250.6733674162
 20
163.967230641
 30
0.0
 10
250.9024328363
 20
164.0015453155
 30
0.0
 10
251.0465272345
 20
164.1830319143
 30
0.0
 10
251.0806280078
 20
164.4351001531
 30
0.0
 10
251.0293812888
 20
164.725236102
 30
0.0
 10
250.8607680277
 20
165.1074377301
 30
0.0
 10
250.6407486772
 20
165.3618920237
 30
0.0
 10
250.4609354095
 20
165.4657049196
 30
0.0
  0
SPLINE
  5
437
100
AcDbEntity
  8
0
100
AcDbSpline
 62
7
  6
CONTINUOUS
 70
0
 71
3
 72
14
 73
10
 74
0
 42
0.0000001
 43
0.0000001
 44
0.0000000001
 40
0.0
 40
0.0
 40
0.0
 40
0.0
 40
0.1145379092
 40
0.2080559335
 40
0.3015126609
 40
0.416080926
 40
0.5551540097
 40
0.7091747115
 40
1.0
 40
1.0
 40
1.0
 40
1.0
 10
250.4609355859
 20
136.3057007553
 30
0.0
 10
250.5317527959
 20
136.264815345
 30
0.0
 10
250.6733673981
 20
136.2061484666
 30
0.0
 10
250.9024327968
 20
136.2404631164
 30
0.0
 10
251.0465272065
 20
136.4219496683
 30
0.0
 10
251.0806280084
 20
136.6740178668
 30
0.0
 10
251.0293813323
 20
136.9641537827
 30
0.0
 10
250.8607681144
 20
137.3463553849
 30
0.0
 10
250.6407488518
 20
137.6008097464
 30
0.0
 10
250.4609355859
 20
137.7046226353
 30
0.0
  0
SPLINE
  5
438
100
AcDbEntity
  8
0
100
AcDbSpline
 62
7
  6
CONTINUOUS
 70
0
 71
3
 72
14
 73
10
 74
0
 42
0.0000001
 43
0.0000001
 44
0.0000000001
 40
0.0
 40
0.0
 40
0.0
 40
0.0
 40
0.1145379092
 40
0.2080559335
 40
0.3015126609
 40
0.416080926
 40
0.5551540097
 40
0.7091747115
 40
1.0
 40
1.0
 40
1.0
 40
1.0
 10
250.4609355859
 20
137.7046226353
 30
0.0
 10
250.390118376
 20
137.7455080456
 30
0.0
 10
250.2485037737
 20
137.8041749239
 30
0.0
 10
250.019438375
 20
137.7698602742
 30
0.0
 10
249.8753439654
 20
137.5883737222
 30
0.0
 10
249.8412431635
 20
137.3363055237
 30
0.0
 10
249.8924898396
 20
137.0461696079
 30
0.0
 10
250.0611030575
 20
136.6639680057
 30
0.0
 10
250.2811223201
 20
136.4095136441
 30
0.0
 10
250.4609355859
 20
136.3057007553
 30
0.0
  0
SPLINE
  5
439
100
AcDbEntity
  8
0
100
AcDbSpline
 62
7
  6
CONTINUOUS
 70
0
 71
3
 72
14
 73
10
 74
0
 42
0.0000001
 43
0.0000001
 44
0.0000000001
 40
0.0
 40
0.0
 40
0.0
 40
0.0
 40
0.0870458263
 40
0.1866462649
 40
0.3041936191
 40
0.4381832305
 40
0.5828755969
 40
0.7303837097
 40
1.0
 40
1.0
 40
1.0
 40
1.0
 10
196.7471953531
 20
287.0226210441
 30
0.0
 10
196.4899708766
 20
286.8741070204
 30
0.0
 10
195.8437384676
 20
286.7079417322
 30
0.0
 10
194.8035102679
 20
286.9163050905
 30
0.0
 10
193.7407227729
 20
287.4968098036
 30
0.0
 10
192.721834606
 20
288.3987929018
 30
0.0
 10
191.8213524721
 20
289.5518365214
 30
0.0
 10
190.9088012082
 20
291.2391877322
 30
0.0
 10
190.5306975741
 20
292.6649235077
 30
0.0
 10
190.5306975741
 20
293.584914949
 30
0.0
  0
SPLINE
  5
43A
100
AcDbEntity
  8
0
100
AcDbSpline
 62
7
  6
CONTINUOUS
 70
0
 71
3
 72
8
 73
4
 74
0
 42
0.0000001
 43
0.0000001
 44
0.0000000001
 40
0.0
 40
0.0
 40
0.0
 40
0.0
 40
1.0
 40
1.0
 40
1.0
 40
1.0
 10
248.332315303
 20
109.3214564431
 30
0.0
 10
248.0731433229
 20
109.6847621506
 30
0.0
 10
247.7338061423
 20
110.005092957
 30
0.0
 10
247.3473187
 20
110.2282265701
 30
0.0
  0
SPLINE
  5
43B
100
AcDbEntity
  8
0
100
AcDbSpline
 62
7
  6
CONTINUOUS
 70
0
 71
3
 72
8
 73
4
 74
0
 42
0.0000001
 43
0.0000001
 44
0.0000000001
 40
0.0
 40
0.0
 40
0.0
 40
0.0
 40
1.0
 40
1.0
 40
1.0
 40
1.0
 10
178.6944345645
 20
282.3803129307
 30
0.0
 10
178.7394390987
 20
282.4589546222
 30
0.0
 10
178.7829738813
 20
282.538494429
 30
0.0
 10
178.823733726
 20
282.619417595
 30
0.0
  0
SPLINE
  5
43C
100
AcDbEntity
  8
0
100
AcDbSpline
 62
7
  6
CONTINUOUS
 70
0
 71
3
 72
11
 73
7
 74
0
 42
0.0000001
 43
0.0000001
 44
0.0000000001
 40
0.0
 40
0.0
 40
0.0
 40
0.0
 40
0.220059825
 40
0.4541880558
 40
0.7125507985
 40
1.0
 40
1.0
 40
1.0
 40
1.0
 10
149.9405406012
 20
230.7772273676
 30
0.0
 10
149.9405405929
 20
231.4260552833
 30
0.0
 10
150.1656725748
 20
232.7735182569
 30
0.0
 10
151.1355981249
 20
234.6670403471
 30
0.0
 10
152.6780560834
 20
236.3989789009
 30
0.0
 10
153.9784858421
 20
237.3644493242
 30
0.0
 10
154.6963681621
 20
237.8149322237
 30
0.0
  0
SPLINE
  5
43D
100
AcDbEntity
  8
0
100
AcDbSpline
 62
7
  6
CONTINUOUS
 70
0
 71
3
 72
9
 73
5
 74
0
 42
0.0000001
 43
0.0000001
 44
0.0000000001
 40
0.0
 40
0.0
 40
0.0
 40
0.0
 40
0.2209367731
 40
1.0
 40
1.0
 40
1.0
 40
1.0
 10
158.9835727309
 20
245.6082642815
 30
0.0
 10
158.9967385362
 20
245.6698272855
 30
0.0
 10
159.097000033
 20
245.9405721317
 30
0.0
 10
159.333475838
 20
246.1386011267
 30
0.0
 10
159.5257260146
 20
246.2495961554
 30
0.0
  0
SPLINE
  5
43E
100
AcDbEntity
  8
0
100
AcDbSpline
 62
7
  6
CONTINUOUS
 70
0
 71
3
 72
9
 73
5
 74
0
 42
0.0000001
 43
0.0000001
 44
0.0000000001
 40
0.0
 40
0.0
 40
0.0
 40
0.0
 40
0.5000005437
 40
1.0
 40
1.0
 40
1.0
 40
1.0
 10
260.423891603
 20
329.7364627114
 30
0.0
 10
260.885628556
 20
329.4698847881
 30
0.0
 10
261.9795280443
 20
329.259062786
 30
0.0
 10
263.0734274138
 20
329.4698895168
 30
0.0
 10
263.5351614402
 20
329.73647019
 30
0.0
  0
SPLINE
  5
43F
100
AcDbEntity
  8
0
100
AcDbSpline
 62
7
  6
CONTINUOUS
 70
0
 71
3
 72
9
 73
5
 74
0
 42
0.0000001
 43
0.0000001
 44
0.0000000001
 40
0.0
 40
0.0
 40
0.0
 40
0.0
 40
0.2617835819
 40
1.0
 40
1.0
 40
1.0
 40
1.0
 10
192.9838689017
 20
296.8055916818
 30
0.0
 10
192.9116196106
 20
296.8226323919
 30
0.0
 10
192.6337076155
 20
296.87883253
 30
0.0
 10
192.347393307
 20
296.8972026259
 30
0.0
 10
192.1384907299
 20
296.8838380879
 30
0.0
  0
SPLINE
  5
440
100
AcDbEntity
  8
0
100
AcDbSpline
 62
7
  6
CONTINUOUS
 70
0
 71
3
 72
11
 73
7
 74
0
 42
0.0000001
 43
0.0000001
 44
0.0000000001
 40
0.0
 40
0.0
 40
0.0
 40
0.0
 40
0.234803337
 40
0.4651653418
 40
0.7149425694
 40
1.0
 40
1.0
 40
1.0
 40
1.0
 10
192.1384907299
 20
296.8838380879
 30
0.0
 10
191.8635303752
 20
296.8662475049
 30
0.0
 10
191.3163505093
 20
296.7342514739
 30
0.0
 10
190.6363165747
 20
296.2032582207
 30
0.0
 10
190.1845460529
 20
295.4063828641
 30
0.0
 10
190.0500882396
 20
294.7851449132
 30
0.0
 10
190.0136743443
 20
294.4526413754
 30
0.0
  0
SPLINE
  5
441
100
AcDbEntity
  8
0
100
AcDbSpline
 62
7
  6
CONTINUOUS
 70
0
 71
3
 72
8
 73
4
 74
0
 42
0.0000001
 43
0.0000001
 44
0.0000000001
 40
0.0
 40
0.0
 40
0.0
 40
0.0
 40
1.0
 40
1.0
 40
1.0
 40
1.0
 10
190.0136743443
 20
294.4526413754
 30
0.0
 10
189.9936043799
 20
294.2693779782
 30
0.0
 10
189.9843494353
 20
294.084701154
 30
0.0
 10
189.9843494353
 20
293.9003420581
 30
0.0
  0
SPLINE
  5
442
100
AcDbEntity
  8
0
100
AcDbSpline
 62
7
  6
CONTINUOUS
 70
0
 71
3
 72
15
 73
11
 74
0
 42
0.0000001
 43
0.0000001
 44
0.0000000001
 40
0.0
 40
0.0
 40
0.0
 40
0.0
 40
0.1341049936
 40
0.2806242747
 40
0.4309732078
 40
0.5757469186
 40
0.7066767762
 40
0.8187632322
 40
0.9131707734
 40
1.0
 40
1.0
 40
1.0
 40
1.0
 10
189.9881217034
 20
293.6933362699
 30
0.0
 10
190.0077064412
 20
293.1522625384
 30
0.0
 10
190.1996589686
 20
292.0240720501
 30
0.0
 10
190.8233748007
 20
290.3905039515
 30
0.0
 10
191.7445533677
 20
288.8529594753
 30
0.0
 10
192.8816982761
 20
287.549083203
 30
0.0
 10
194.1377131374
 20
286.5923092412
 30
0.0
 10
195.4161951869
 20
286.0648846561
 30
0.0
 10
196.6421878931
 20
286.045221297
 30
0.0
 10
197.3122827288
 20
286.4334748084
 30
0.0
 10
197.5589992818
 20
286.6825187945
 30
0.0
  0
SPLINE
  5
443
100
AcDbEntity
  8
0
100
AcDbSpline
 62
7
  6
CONTINUOUS
 70
0
 71
3
 72
9
 73
5
 74
0
 42
0.0000001
 43
0.0000001
 44
0.0000000001
 40
0.0
 40
0.0
 40
0.0
 40
0.0
 40
0.2441614627
 40
1.0
 40
1.0
 40
1.0
 40
1.0
 10
197.5589992818
 20
286.6825187945
 30
0.0
 10
197.5931685294
 20
286.7170103822
 30
0.0
 10
197.7282219599
 20
286.8630879009
 30
0.0
 10
197.8431608024
 20
287.0273715217
 30
0.0
 10
197.918304305
 20
287.1575356151
 30
0.0
  0
SPLINE
  5
444
100
AcDbEntity
  8
0
100
AcDbSpline
 62
7
  6
CONTINUOUS
 70
0
 71
3
 72
9
 73
5
 74
0
 42
0.0000001
 43
0.0000001
 44
0.0000000001
 40
0.0
 40
0.0
 40
0.0
 40
0.0
 40
0.2582644623
 40
1.0
 40
1.0
 40
1.0
 40
1.0
 10
190.5306975741
 20
293.584914949
 30
0.0
 10
190.5306975741
 20
293.6446704317
 30
0.0
 10
190.5350424699
 20
293.8760038544
 30
0.0
 10
190.5571184276
 20
294.1071544165
 30
0.0
 10
190.5851535633
 20
294.2764667971
 30
0.0
  0
SPLINE
  5
445
100
AcDbEntity
  8
0
100
AcDbSpline
 62
7
  6
CONTINUOUS
 70
0
 71
3
 72
9
 73
5
 74
0
 42
0.0000001
 43
0.0000001
 44
0.0000000001
 40
0.0
 40
0.0
 40
0.0
 40
0.0
 40
0.5359998943
 40
1.0
 40
1.0
 40
1.0
 40
1.0
 10
190.5851535633
 20
294.2764667971
 30
0.0
 10
190.6434953623
 20
294.6288099788
 30
0.0
 10
190.8452908121
 20
295.282800671
 30
0.0
 10
191.3296861729
 20
295.7877415084
 30
0.0
 10
191.5974299641
 20
295.9423290823
 30
0.0
  0
SPLINE
  5
446
100
AcDbEntity
  8
0
100
AcDbSpline
 62
7
  6
CONTINUOUS
 70
0
 71
3
 72
15
 73
11
 74
0
 42
0.0000001
 43
0.0000001
 44
0.0000000001
 40
0.0
 40
0.0
 40
0.0
 40
0.0
 40
0.1332741567
 40
0.2796021719
 40
0.4302188002
 40
0.5754233353
 40
0.7066648334
 40
0.8187703673
 40
0.9130149522
 40
1.0
 40
1.0
 40
1.0
 40
1.0
 10
189.0195051699
 20
293.9314248959
 30
0.0
 10
189.0308678242
 20
293.307195289
 30
0.0
 10
189.2361930223
 20
291.999362675
 30
0.0
 10
189.9425457298
 20
290.1008671383
 30
0.0
 10
191.0022929665
 20
288.3082743542
 30
0.0
 10
192.3192219902
 20
286.78654692
 30
0.0
 10
193.7778756909
 20
285.6715999196
 30
0.0
 10
195.2637389593
 20
285.0614292084
 30
0.0
 10
196.6888655257
 20
285.051916033
 30
0.0
 10
197.4578734421
 20
285.5196458341
 30
0.0
 10
197.7382216651
 20
285.815367749
 30
0.0
  0
SPLINE
  5
447
100
AcDbEntity
  8
0
100
AcDbSpline
 62
7
  6
CONTINUOUS
 70
0
 71
3
 72
8
 73
4
 74
0
 42
0.0000001
 43
0.0000001
 44
0.0000000001
 40
0.0
 40
0.0
 40
0.0
 40
0.0
 40
1.0
 40
1.0
 40
1.0
 40
1.0
 10
197.9033087626
 20
286.0081904826
 30
0.0
 10
198.0121675975
 20
286.1489061832
 30
0.0
 10
198.1069776363
 20
286.301276055
 30
0.0
 10
198.187847465
 20
286.4597412724
 30
0.0
  0
SPLINE
  5
448
100
AcDbEntity
  8
0
100
AcDbSpline
 62
7
  6
CONTINUOUS
 70
0
 71
3
 72
9
 73
5
 74
0
 42
0.0000001
 43
0.0000001
 44
0.0000000001
 40
0.0
 40
0.0
 40
0.0
 40
0.0
 40
0.2426078307
 40
1.0
 40
1.0
 40
1.0
 40
1.0
 10
198.187847465
 20
286.4597412724
 30
0.0
 10
198.2118392266
 20
286.5067533629
 30
0.0
 10
198.3058592031
 20
286.7030010698
 30
0.0
 10
198.3805986087
 20
286.9083050915
 30
0.0
 10
198.4272541653
 20
287.0663349704
 30
0.0
  0
SPLINE
  5
449
100
AcDbEntity
  8
0
100
AcDbSpline
 62
7
  6
CONTINUOUS
 70
0
 71
3
 72
11
 73
7
 74
0
 42
0.0000001
 43
0.0000001
 44
0.0000000001
 40
0.0
 40
0.0
 40
0.0
 40
0.0
 40
0.2915414809
 40
0.5376477191
 40
0.7612669729
 40
1.0
 40
1.0
 40
1.0
 40
1.0
 10
187.6799979386
 20
293.8427113522
 30
0.0
 10
187.6799979386
 20
294.4070878576
 30
0.0
 10
187.8003285956
 20
295.4574149892
 30
0.0
 10
188.4913322744
 20
296.8134565316
 30
0.0
 10
189.6903603313
 20
297.6068575192
 30
0.0
 10
190.6247633101
 20
297.647268434
 30
0.0
 10
191.0826621539
 20
297.5847430768
 30
0.0
  0
SPLINE
  5
44A
100
AcDbEntity
  8
0
100
AcDbSpline
 62
7
  6
CONTINUOUS
 70
0
 71
3
 72
9
 73
5
 74
0
 42
0.0000001
 43
0.0000001
 44
0.0000000001
 40
0.0
 40
0.0
 40
0.0
 40
0.0
 40
0.2376502787
 40
1.0
 40
1.0
 40
1.0
 40
1.0
 10
178.8249924699
 20
282.621917675
 30
0.0
 10
178.7813354105
 20
282.6243811082
 30
0.0
 10
178.5975172088
 20
282.6327520767
 30
0.0
 10
178.413319588
 20
282.6312827936
 30
0.0
 10
178.273142013
 20
282.6262282203
 30
0.0
  0
SPLINE
  5
44B
100
AcDbEntity
  8
0
100
AcDbSpline
 62
7
  6
CONTINUOUS
 70
0
 71
3
 72
9
 73
5
 74
0
 42
0.0000001
 43
0.0000001
 44
0.0000000001
 40
0.0
 40
0.0
 40
0.0
 40
0.0
 40
0.5000011283
 40
1.0
 40
1.0
 40
1.0
 40
1.0
 10
263.5351614402
 20
329.73647019
 30
0.0
 10
263.5351614402
 20
330.2696364447
 30
0.0
 10
263.1707952264
 20
331.3223979605
 30
0.0
 10
262.4412560933
 20
332.1643277666
 30
0.0
 10
261.9795200449
 20
332.4309051676
 30
0.0
  0
SPLINE
  5
44C
100
AcDbEntity
  8
0
100
AcDbSpline
 62
7
  6
CONTINUOUS
 70
0
 71
3
 72
9
 73
5
 74
0
 42
0.0000001
 43
0.0000001
 44
0.0000000001
 40
0.0
 40
0.0
 40
0.0
 40
0.0
 40
0.4999985249
 40
1.0
 40
1.0
 40
1.0
 40
1.0
 10
190.8706156751
 20
283.8356288996
 30
0.0
 10
189.5825662895
 20
284.9152345673
 30
0.0
 10
187.427315385
 20
287.5881196648
 30
0.0
 10
186.1901100114
 20
290.791047842
 30
0.0
 10
185.8991447699
 20
292.4463400154
 30
0.0
  0
SPLINE
  5
44D
100
AcDbEntity
  8
0
100
AcDbSpline
 62
7
  6
CONTINUOUS
 70
0
 71
3
 72
9
 73
5
 74
0
 42
0.0000001
 43
0.0000001
 44
0.0000000001
 40
0.0
 40
0.0
 40
0.0
 40
0.0
 40
0.4824449961
 40
1.0
 40
1.0
 40
1.0
 40
1.0
 10
261.9795200449
 20
332.4309051676
 30
0.0
 10
261.6250119672
 20
332.2262310552
 30
0.0
 10
261.0094450833
 20
331.6026551846
 30
0.0
 10
260.6288576903
 20
330.8251280814
 30
0.0
 10
260.516607627
 20
330.4005761254
 30
0.0
  0
SPLINE
  5
44E
100
AcDbEntity
  8
0
100
AcDbSpline
 62
7
  6
CONTINUOUS
 70
0
 71
3
 72
9
 73
5
 74
0
 42
0.0000001
 43
0.0000001
 44
0.0000000001
 40
0.0
 40
0.0
 40
0.0
 40
0.0
 40
0.2633923651
 40
1.0
 40
1.0
 40
1.0
 40
1.0
 10
260.516607627
 20
330.4005761254
 30
0.0
 10
260.5015366799
 20
330.3435748209
 30
0.0
 10
260.4504965113
 20
330.1256664758
 30
0.0
 10
260.423891603
 20
329.9013512784
 30
0.0
 10
260.423891603
 20
329.7364627114
 30
0.0
  0
SPLINE
  5
44F
100
AcDbEntity
  8
0
100
AcDbSpline
 62
7
  6
CONTINUOUS
 70
0
 71
3
 72
13
 73
9
 74
0
 42
0.0000001
 43
0.0000001
 44
0.0000000001
 40
0.0
 40
0.0
 40
0.0
 40
0.0
 40
0.087138266
 40
0.1868454572
 40
0.3045198199
 40
0.4386548173
 40
0.7300925801
 40
1.0
 40
1.0
 40
1.0
 40
1.0
 10
243.3840228861
 20
130.2241159824
 30
0.0
 10
243.384018576
 20
129.9876578554
 30
0.0
 10
243.5266914582
 20
129.4759625488
 30
0.0
 10
244.0844449125
 20
128.8417716574
 30
0.0
 10
244.9076473753
 20
128.3398908776
 30
0.0
 10
246.3153546428
 20
127.8708978437
 30
0.0
 10
248.2324631522
 20
127.773716014
 30
0.0
 10
249.7487089461
 20
128.184120461
 30
0.0
 10
250.3830041611
 20
128.5503287881
 30
0.0
  0
SPLINE
  5
450
100
AcDbEntity
  8
0
100
AcDbSpline
 62
7
  6
CONTINUOUS
 70
0
 71
3
 72
9
 73
5
 74
0
 42
0.0000001
 43
0.0000001
 44
0.0000000001
 40
0.0
 40
0.0
 40
0.0
 40
0.0
 40
0.2844313988
 40
1.0
 40
1.0
 40
1.0
 40
1.0
 10
53.18773027
 20
425.3773393062
 30
0.0
 10
53.1022381403
 20
425.3775927987
 30
0.0
 10
52.8025321287
 20
425.3674783259
 30
0.0
 10
52.4989339409
 20
425.3069598172
 30
0.0
 10
52.3045641266
 20
425.2148720562
 30
0.0
  0
SPLINE
  5
451
100
AcDbEntity
  8
0
100
AcDbSpline
 62
7
  6
CONTINUOUS
 70
0
 71
3
 72
9
 73
5
 74
0
 42
0.0000001
 43
0.0000001
 44
0.0000000001
 40
0.0
 40
0.0
 40
0.0
 40
0.0
 40
0.5000016731
 40
1.0
 40
1.0
 40
1.0
 40
1.0
 10
180.8806440254
 20
204.2006449386
 30
0.0
 10
180.8806440254
 20
204.6126389622
 30
0.0
 10
181.1621607825
 20
205.4261553704
 30
0.0
 10
181.7259251306
 20
206.0767194152
 30
0.0
 10
182.0827205688
 20
206.2827141209
 30
0.0
  0
SPLINE
  5
452
100
AcDbEntity
  8
0
100
AcDbSpline
 62
7
  6
CONTINUOUS
 70
0
 71
3
 72
9
 73
5
 74
0
 42
0.0000001
 43
0.0000001
 44
0.0000000001
 40
0.0
 40
0.0
 40
0.0
 40
0.0
 40
0.2894835019
 40
1.0
 40
1.0
 40
1.0
 40
1.0
 10
177.840097517
 20
203.8332491812
 30
0.0
 10
177.9061018764
 20
203.871356589
 30
0.0
 10
178.1402240127
 20
203.9869456094
 30
0.0
 10
178.4322146783
 20
204.023063946
 30
0.0
 10
178.6071311724
 20
203.9567510676
 30
0.0
  0
SPLINE
  5
453
100
AcDbEntity
  8
0
100
AcDbSpline
 62
7
  6
CONTINUOUS
 70
0
 71
3
 72
9
 73
5
 74
0
 42
0.0000001
 43
0.0000001
 44
0.0000000001
 40
0.0
 40
0.0
 40
0.0
 40
0.0
 40
0.520188901
 40
1.0
 40
1.0
 40
1.0
 40
1.0
 10
180.3423013478
 20
202.9237795846
 30
0.0
 10
180.5061454898
 20
203.1044938825
 30
0.0
 10
180.7602857489
 20
203.5080986075
 30
0.0
 10
180.8806440254
 20
203.9756477792
 30
0.0
 10
180.8806440254
 20
204.2006449386
 30
0.0
  0
SPLINE
  5
454
100
AcDbEntity
  8
0
100
AcDbSpline
 62
7
  6
CONTINUOUS
 70
0
 71
3
 72
9
 73
5
 74
0
 42
0.0000001
 43
0.0000001
 44
0.0000000001
 40
0.0
 40
0.0
 40
0.0
 40
0.0
 40
0.4875300985
 40
1.0
 40
1.0
 40
1.0
 40
1.0
 10
180.8806440254
 20
204.2006449386
 30
0.0
 10
180.6487826133
 20
204.3345071589
 30
0.0
 10
180.0942468125
 20
204.4652975034
 30
0.0
 10
179.5343305388
 20
204.401366546
 30
0.0
 10
179.2697627547
 20
204.3054301685
 30
0.0
  0
SPLINE
  5
455
100
AcDbEntity
  8
0
100
AcDbSpline
 62
7
  6
CONTINUOUS
 70
0
 71
3
 72
9
 73
5
 74
0
 42
0.0000001
 43
0.0000001
 44
0.0000000001
 40
0.0
 40
0.0
 40
0.0
 40
0.0
 40
0.2886147997
 40
1.0
 40
1.0
 40
1.0
 40
1.0
 10
179.2697627547
 20
204.3054301685
 30
0.0
 10
179.2060143901
 20
204.2823140238
 30
0.0
 10
178.9919221035
 20
204.1897403917
 30
0.0
 10
178.7916699415
 20
204.0318835266
 30
0.0
 10
178.7152182212
 20
203.8832532987
 30
0.0
  0
SPLINE
  5
456
100
AcDbEntity
  8
0
100
AcDbSpline
 62
7
  6
CONTINUOUS
 70
0
 71
3
 72
15
 73
11
 74
0
 42
0.0000001
 43
0.0000001
 44
0.0000000001
 40
0.0
 40
0.0
 40
0.0
 40
0.0
 40
0.1384332352
 40
0.2631592344
 40
0.3774782828
 40
0.4870288983
 40
0.5988328292
 40
0.7192349171
 40
0.8524117991
 40
1.0
 40
1.0
 40
1.0
 40
1.0
 10
142.8950620081
 20
242.2380587569
 30
0.0
 10
141.7523769857
 20
241.4057674874
 30
0.0
 10
139.7040861708
 20
239.6357900544
 30
0.0
 10
137.3780180729
 20
236.5164679075
 30
0.0
 10
136.0625922495
 20
233.1535943321
 30
0.0
 10
135.8543133552
 20
229.6723783066
 30
0.0
 10
136.7723212919
 20
226.2480409504
 30
0.0
 10
138.7407402888
 20
223.0284095107
 30
0.0
 10
141.653532889
 20
220.1062812889
 30
0.0
 10
144.0371367896
 20
218.4838868789
 30
0.0
 10
145.3423746964
 20
217.73032447
 30
0.0
  0
SPLINE
  5
457
100
AcDbEntity
  8
0
100
AcDbSpline
 62
7
  6
CONTINUOUS
 70
0
 71
3
 72
13
 73
9
 74
0
 42
0.0000001
 43
0.0000001
 44
0.0000000001
 40
0.0
 40
0.0
 40
0.0
 40
0.0
 40
0.1142569126
 40
0.2375387748
 40
0.5000005406
 40
0.7624620106
 40
0.8857435248
 40
1.0
 40
1.0
 40
1.0
 40
1.0
 10
208.9231416455
 20
254.4384782655
 30
0.0
 10
207.3761108872
 20
255.3316366844
 30
0.0
 10
203.9931017987
 20
256.907233512
 30
0.0
 10
196.495179548
 20
259.184051253
 30
0.0
 10
186.3249778599
 20
260.2906522851
 30
0.0
 10
176.1547862189
 20
259.1840039657
 30
0.0
 10
168.6568926379
 20
256.9071493955
 30
0.0
 10
165.2739046884
 20
255.3315357823
 30
0.0
 10
163.7268862934
 20
254.438369627
 30
0.0
  0
SPLINE
  5
458
100
AcDbEntity
  8
0
100
AcDbSpline
 62
7
  6
CONTINUOUS
 70
0
 71
3
 72
13
 73
9
 74
0
 42
0.0000001
 43
0.0000001
 44
0.0000000001
 40
0.0
 40
0.0
 40
0.0
 40
0.0
 40
0.2699335874
 40
0.5613258182
 40
0.6954698829
 40
0.8131403132
 40
0.9128521763
 40
1.0
 40
1.0
 40
1.0
 40
1.0
 10
168.011254682
 20
211.9572503991
 30
0.0
 10
168.305220431
 20
212.1269705903
 30
0.0
 10
169.0078464908
 20
212.3171076005
 30
0.0
 10
169.8962362142
 20
212.2721307224
 30
0.0
 10
170.548520386
 20
212.0547761715
 30
0.0
 10
170.9300035631
 20
211.8221764957
 30
0.0
 10
171.1884549918
 20
211.52827884
 30
0.0
 10
171.2546827515
 20
211.2911815651
 30
0.0
 10
171.2547323441
 20
211.1815930537
 30
0.0
  0
SPLINE
  5
459
100
AcDbEntity
  8
0
100
AcDbSpline
 62
7
  6
CONTINUOUS
 70
0
 71
3
 72
13
 73
9
 74
0
 42
0.0000001
 43
0.0000001
 44
0.0000000001
 40
0.0
 40
0.0
 40
0.0
 40
0.0
 40
0.2699335874
 40
0.5613258182
 40
0.6954698829
 40
0.8131403132
 40
0.9128521763
 40
1.0
 40
1.0
 40
1.0
 40
1.0
 10
218.9227309614
 20
241.3508294778
 30
0.0
 10
219.2166967104
 20
241.520549669
 30
0.0
 10
219.9193227702
 20
241.7106866792
 30
0.0
 10
220.8077124936
 20
241.6657098011
 30
0.0
 10
221.4599966654
 20
241.4483552502
 30
0.0
 10
221.8414798425
 20
241.2157555745
 30
0.0
 10
222.0999312712
 20
240.9218579187
 30
0.0
 10
222.1661590309
 20
240.6847606439
 30
0.0
 10
222.1662086235
 20
240.5751721325
 30
0.0
  0
SPLINE
  5
45A
100
AcDbEntity
  8
0
100
AcDbSpline
 62
7
  6
CONTINUOUS
 70
0
 71
3
 72
13
 73
9
 74
0
 42
0.0000001
 43
0.0000001
 44
0.0000000001
 40
0.0
 40
0.0
 40
0.0
 40
0.0
 40
0.2699335874
 40
0.5613258182
 40
0.6954698829
 40
0.8131403132
 40
0.9128521763
 40
1.0
 40
1.0
 40
1.0
 40
1.0
 10
159.5257260146
 20
246.2495961554
 30
0.0
 10
159.8196917636
 20
246.4193163466
 30
0.0
 10
160.5223178235
 20
246.6094533568
 30
0.0
 10
161.4107075469
 20
246.5644764787
 30
0.0
 10
162.0629917186
 20
246.3471219278
 30
0.0
 10
162.4444748958
 20
246.1145222521
 30
0.0
 10
162.7029263245
 20
245.8206245963
 30
0.0
 10
162.7691540841
 20
245.5835273215
 30
0.0
 10
162.7692036768
 20
245.4739388101
 30
0.0
  0
SPLINE
  5
45B
100
AcDbEntity
  8
0
100
AcDbSpline
 62
7
  6
CONTINUOUS
 70
0
 71
3
 72
11
 73
7
 74
0
 42
0.0000001
 43
0.0000001
 44
0.0000000001
 40
0.0
 40
0.0
 40
0.0
 40
0.0
 40
0.2372279391
 40
0.4999994739
 40
0.762771295
 40
1.0
 40
1.0
 40
1.0
 40
1.0
 10
173.5971330019
 20
248.7399089495
 30
0.0
 10
175.4040467134
 20
249.7831248401
 30
0.0
 10
179.6061779422
 20
251.3055925153
 30
0.0
 10
186.3250350522
 20
252.0348898961
 30
0.0
 10
193.0439022998
 20
251.3056231765
 30
0.0
 10
197.2460500562
 20
249.7831763666
 30
0.0
 10
199.0529771244
 20
248.7399701379
 30
0.0
  0
SPLINE
  5
45C
100
AcDbEntity
  8
0
100
AcDbSpline
 62
7
  6
CONTINUOUS
 70
0
 71
3
 72
15
 73
11
 74
0
 42
0.0000001
 43
0.0000001
 44
0.0000000001
 40
0.0
 40
0.0
 40
0.0
 40
0.0
 40
0.1112048431
 40
0.2031423475
 40
0.2976746681
 40
0.4139230568
 40
0.5538860849
 40
0.7079018913
 40
0.8613977289
 40
1.0
 40
1.0
 40
1.0
 40
1.0
 10
228.643312736
 20
233.2927524529
 30
0.0
 10
228.4126980567
 20
233.4408519329
 30
0.0
 10
228.0170640884
 20
233.7778140347
 30
0.0
 10
227.7878676471
 20
234.5331479601
 30
0.0
 10
228.1259311283
 20
235.2567304065
 30
0.0
 10
228.8396902262
 20
235.7786263197
 30
0.0
 10
229.8046610859
 20
236.1140317436
 30
0.0
 10
230.9115846796
 20
236.2239265354
 30
0.0
 10
232.0113966319
 20
236.0982187785
 30
0.0
 10
232.698363122
 20
235.8470889939
 30
0.0
 10
232.994196828
 20
235.676293188
 30
0.0
  0
SPLINE
  5
45D
100
AcDbEntity
  8
0
100
AcDbSpline
 62
7
  6
CONTINUOUS
 70
0
 71
3
 72
15
 73
11
 74
0
 42
0.0000001
 43
0.0000001
 44
0.0000000001
 40
0.0
 40
0.0
 40
0.0
 40
0.0
 40
0.1112048427
 40
0.203142347
 40
0.2976746678
 40
0.4139230568
 40
0.5538860852
 40
0.7079018917
 40
0.8613977292
 40
1.0
 40
1.0
 40
1.0
 40
1.0
 10
177.7318364604
 20
203.8991733814
 30
0.0
 10
177.5012217837
 20
204.0472728627
 30
0.0
 10
177.1055878195
 20
204.3842349649
 30
0.0
 10
176.8763913828
 20
205.1395688891
 30
0.0
 10
177.2144548696
 20
205.8631513321
 30
0.0
 10
177.9282139698
 20
206.3850472412
 30
0.0
 10
178.8931848303
 20
206.7204526607
 30
0.0
 10
180.0001084222
 20
206.8303474481
 30
0.0
 10
181.0999203707
 20
206.704639686
 30
0.0
 10
181.7868868565
 20
206.4535098991
 30
0.0
 10
182.0827205612
 20
206.2827140939
 30
0.0
  0
SPLINE
  5
45E
100
AcDbEntity
  8
0
100
AcDbSpline
 62
7
  6
CONTINUOUS
 70
0
 71
3
 72
9
 73
5
 74
0
 42
0.0000001
 43
0.0000001
 44
0.0000000001
 40
0.0
 40
0.0
 40
0.0
 40
0.0
 40
0.5507550368
 40
1.0
 40
1.0
 40
1.0
 40
1.0
 10
145.3421865261
 20
243.8240216265
 30
0.0
 10
145.2346720025
 20
243.8860937614
 30
0.0
 10
145.0198259385
 20
243.9753728607
 30
0.0
 10
144.7798811382
 20
243.9390334646
 30
0.0
 10
144.6921838199
 20
243.8883999466
 30
0.0
  0
SPLINE
  5
45F
100
AcDbEntity
  8
0
100
AcDbSpline
 62
7
  6
CONTINUOUS
 70
0
 71
3
 72
9
 73
5
 74
0
 42
0.0000001
 43
0.0000001
 44
0.0000000001
 40
0.0
 40
0.0
 40
0.0
 40
0.0
 40
0.2671453774
 40
1.0
 40
1.0
 40
1.0
 40
1.0
 10
144.6923774023
 20
217.0441581702
 30
0.0
 10
144.7347026024
 20
217.1174679743
 30
0.0
 10
144.9081831589
 20
217.3820466747
 30
0.0
 10
145.1412653417
 20
217.6142146233
 30
0.0
 10
145.3423746961
 20
217.7303244701
 30
0.0
  0
SPLINE
  5
460
100
AcDbEntity
  8
0
100
AcDbSpline
 62
7
  6
CONTINUOUS
 70
0
 71
3
 72
9
 73
5
 74
0
 42
0.0000001
 43
0.0000001
 44
0.0000000001
 40
0.0
 40
0.0
 40
0.0
 40
0.0
 40
0.254386417
 40
1.0
 40
1.0
 40
1.0
 40
1.0
 10
144.6921838199
 20
243.8883999466
 30
0.0
 10
144.5130655476
 20
243.7849865812
 30
0.0
 10
143.8130683675
 20
243.3713871916
 30
0.0
 10
143.1298939049
 20
242.9291684909
 30
0.0
 10
142.6323925713
 20
242.5827696742
 30
0.0
  0
SPLINE
  5
461
100
AcDbEntity
  8
0
100
AcDbSpline
 62
7
  6
CONTINUOUS
 70
0
 71
3
 72
15
 73
11
 74
0
 42
0.0000001
 43
0.0000001
 44
0.0000000001
 40
0.0
 40
0.0
 40
0.0
 40
0.0
 40
0.1397302773
 40
0.2653807213
 40
0.3800919567
 40
0.4894715951
 40
0.6006980243
 40
0.7203777647
 40
0.8528965815
 40
1.0
 40
1.0
 40
1.0
 40
1.0
 10
142.6323925713
 20
242.5827696742
 30
0.0
 10
141.4063392928
 20
241.7290967771
 30
0.0
 10
139.2029990519
 20
239.9090307205
 30
0.0
 10
136.672885032
 20
236.6806165393
 30
0.0
 10
135.2040317091
 20
233.1831877391
 30
0.0
 10
134.9049240666
 20
229.546265017
 30
0.0
 10
135.8043567993
 20
225.9588162767
 30
0.0
 10
137.823276672
 20
222.5847444442
 30
0.0
 10
140.8460649503
 20
219.5251370608
 30
0.0
 10
143.3302775979
 20
217.8305490684
 30
0.0
 10
144.6923774023
 20
217.0441581702
 30
0.0
  0
SPLINE
  5
462
100
AcDbEntity
  8
0
100
AcDbSpline
 62
7
  6
CONTINUOUS
 70
0
 71
3
 72
9
 73
5
 74
0
 42
0.0000001
 43
0.0000001
 44
0.0000000001
 40
0.0
 40
0.0
 40
0.0
 40
0.0
 40
0.5507557757
 40
1.0
 40
1.0
 40
1.0
 40
1.0
 10
208.9231416455
 20
254.4384782655
 30
0.0
 10
209.0306550831
 20
254.5005508072
 30
0.0
 10
209.2454989117
 20
254.5898310529
 30
0.0
 10
209.4854424036
 20
254.5534927767
 30
0.0
 10
209.5731389393
 20
254.5028597105
 30
0.0
  0
SPLINE
  5
463
100
AcDbEntity
  8
0
100
AcDbSpline
 62
7
  6
CONTINUOUS
 70
0
 71
3
 72
9
 73
5
 74
0
 42
0.0000001
 43
0.0000001
 44
0.0000000001
 40
0.0
 40
0.0
 40
0.0
 40
0.0
 40
0.4491683742
 40
1.0
 40
1.0
 40
1.0
 40
1.0
 10
244.8839659144
 20
130.2241159918
 30
0.0
 10
244.883812603
 20
130.4266010444
 30
0.0
 10
245.0609027712
 20
130.8785561869
 30
0.0
 10
245.4303216648
 20
131.1613849462
 30
0.0
 10
245.6453690026
 20
131.2855418434
 30
0.0
  0
SPLINE
  5
464
100
AcDbEntity
  8
0
100
AcDbSpline
 62
7
  6
CONTINUOUS
 70
0
 71
3
 72
9
 73
5
 74
0
 42
0.0000001
 43
0.0000001
 44
0.0000000001
 40
0.0
 40
0.0
 40
0.0
 40
0.0
 40
0.2955062117
 40
1.0
 40
1.0
 40
1.0
 40
1.0
 10
161.136926017
 20
253.4841428109
 30
0.0
 10
161.1500899462
 20
253.4765427848
 30
0.0
 10
161.1957235337
 20
253.454061238
 30
0.0
 10
161.2555439254
 20
253.4511669378
 30
0.0
 10
161.2869266415
 20
253.4692862754
 30
0.0
  0
SPLINE
  5
465
100
AcDbEntity
  8
0
100
AcDbSpline
 62
7
  6
CONTINUOUS
 70
0
 71
3
 72
9
 73
5
 74
0
 42
0.0000001
 43
0.0000001
 44
0.0000000001
 40
0.0
 40
0.0
 40
0.0
 40
0.0
 40
0.2209108544
 40
1.0
 40
1.0
 40
1.0
 40
1.0
 10
211.3630809807
 20
253.4694066437
 30
0.0
 10
211.3729736687
 20
253.4636949343
 30
0.0
 10
211.422684093
 20
253.4456699104
 30
0.0
 10
211.4781913847
 20
253.4641208634
 30
0.0
 10
211.5130803561
 20
253.4842639002
 30
0.0
  0
SPLINE
  5
466
100
AcDbEntity
  8
0
100
AcDbSpline
 62
7
  6
CONTINUOUS
 70
0
 71
3
 72
9
 73
5
 74
0
 42
0.0000001
 43
0.0000001
 44
0.0000000001
 40
0.0
 40
0.0
 40
0.0
 40
0.0
 40
0.2291137404
 40
1.0
 40
1.0
 40
1.0
 40
1.0
 10
142.7524359854
 20
213.7855243327
 30
0.0
 10
142.766954391
 20
213.793906488
 30
0.0
 10
142.8270342587
 20
213.8361038896
 30
0.0
 10
142.8742323802
 20
213.8950211351
 30
0.0
 10
142.9024353609
 20
213.9438704019
 30
0.0
  0
SPLINE
  5
467
100
AcDbEntity
  8
0
100
AcDbSpline
 62
7
  6
CONTINUOUS
 70
0
 71
3
 72
9
 73
5
 74
0
 42
0.0000001
 43
0.0000001
 44
0.0000000001
 40
0.0
 40
0.0
 40
0.0
 40
0.0
 40
0.2209111999
 40
1.0
 40
1.0
 40
1.0
 40
1.0
 10
142.902226874
 20
242.8549382748
 30
0.0
 10
142.892334098
 20
242.8492265146
 30
0.0
 10
142.842623364
 20
242.8312012884
 30
0.0
 10
142.7871156062
 20
242.8496518864
 30
0.0
 10
142.7522262495
 20
242.8697948102
 30
0.0
  0
SPLINE
  5
468
100
AcDbEntity
  8
0
100
AcDbSpline
 62
7
  6
CONTINUOUS
 70
0
 71
3
 72
15
 73
11
 74
0
 42
0.0000001
 43
0.0000001
 44
0.0000000001
 40
0.0
 40
0.0
 40
0.0
 40
0.0
 40
0.1449005941
 40
0.2745257867
 40
0.3911153034
 40
0.5000009561
 40
0.6088864352
 40
0.7254754903
 40
0.8551000616
 40
1.0
 40
1.0
 40
1.0
 40
1.0
 10
142.9024353609
 20
213.9438704019
 30
0.0
 10
141.3481675078
 20
214.8412070648
 30
0.0
 10
138.5288213035
 20
216.7821474399
 30
0.0
 10
135.1609665083
 20
220.3226872313
 30
0.0
 10
133.0290340601
 20
224.2418249849
 30
0.0
 10
132.290832207
 20
228.3993753935
 30
0.0
 10
133.0289721418
 20
232.5569314717
 30
0.0
 10
135.1608487927
 20
236.4760829185
 30
0.0
 10
138.5286543095
 20
240.0166407945
 30
0.0
 10
141.3479725246
 20
241.9575944642
 30
0.0
 10
142.902226874
 20
242.8549382748
 30
0.0
  0
SPLINE
  5
469
100
AcDbEntity
  8
0
100
AcDbSpline
 62
7
  6
CONTINUOUS
 70
0
 71
3
 72
9
 73
5
 74
0
 42
0.0000001
 43
0.0000001
 44
0.0000000001
 40
0.0
 40
0.0
 40
0.0
 40
0.0
 40
0.4875300985
 40
1.0
 40
1.0
 40
1.0
 40
1.0
 10
231.7921203048
 20
233.5942240173
 30
0.0
 10
231.5602588927
 20
233.7280862376
 30
0.0
 10
231.0057230919
 20
233.8588765821
 30
0.0
 10
230.4458068182
 20
233.7949456247
 30
0.0
 10
230.1812390341
 20
233.6990092472
 30
0.0
  0
SPLINE
  5
46A
100
AcDbEntity
  8
0
100
AcDbSpline
 62
7
  6
CONTINUOUS
 70
0
 71
3
 72
9
 73
5
 74
0
 42
0.0000001
 43
0.0000001
 44
0.0000000001
 40
0.0
 40
0.0
 40
0.0
 40
0.0
 40
0.2881559006
 40
1.0
 40
1.0
 40
1.0
 40
1.0
 10
230.1812390341
 20
233.6990092472
 30
0.0
 10
230.1180551305
 20
233.6760977849
 30
0.0
 10
229.905429928
 20
233.5842559654
 30
0.0
 10
229.7065735954
 20
233.428511487
 30
0.0
 10
229.6291862422
 20
233.2816187006
 30
0.0
  0
SPLINE
  5
46B
100
AcDbEntity
  8
0
100
AcDbSpline
 62
7
  6
CONTINUOUS
 70
0
 71
3
 72
9
 73
5
 74
0
 42
0.0000001
 43
0.0000001
 44
0.0000000001
 40
0.0
 40
0.0
 40
0.0
 40
0.0
 40
0.520188901
 40
1.0
 40
1.0
 40
1.0
 40
1.0
 10
231.2537776272
 20
232.3173586633
 30
0.0
 10
231.4176217692
 20
232.4980729613
 30
0.0
 10
231.6717620283
 20
232.9016776863
 30
0.0
 10
231.7921203048
 20
233.369226858
 30
0.0
 10
231.7921203048
 20
233.5942240173
 30
0.0
  0
SPLINE
  5
46C
100
AcDbEntity
  8
0
100
AcDbSpline
 62
7
  6
CONTINUOUS
 70
0
 71
3
 72
9
 73
5
 74
0
 42
0.0000001
 43
0.0000001
 44
0.0000000001
 40
0.0
 40
0.0
 40
0.0
 40
0.0
 40
0.5000016709
 40
1.0
 40
1.0
 40
1.0
 40
1.0
 10
231.7921203048
 20
233.5942240173
 30
0.0
 10
231.7921203048
 20
234.0062180308
 30
0.0
 10
232.0736370507
 20
234.8197344237
 30
0.0
 10
232.6374013772
 20
235.4702984596
 30
0.0
 10
232.9941968031
 20
235.6762931737
 30
0.0
  0
ENDSEC
  0
SECTION
  2
OBJECTS
  0
DICTIONARY
  5
C
100
AcDbDictionary
280
0
281
1
  3
ACAD_GROUP
350
D
  3
ACAD_MLINESTYLE
350
17
  3
ACAD_LAYOUT
350
1A
  3
ACAD_PLOTSETTINGS
350
19
  3
ACAD_PLOTSTYLENAME
350
E
  0
DICTIONARY
  5
D
102
{ACAD_REACTORS
330
C
102
}
100
AcDbDictionary
280
0
281
1
  0
ACDBDICTIONARYWDFLT
  5
E
102
{ACAD_REACTORS
330
C
102
}
100
AcDbDictionary
281
1
  3
Normal
350
F
100
AcDbDictionaryWithDefault
340
F
  0
DICTIONARY
  5
17
102
{ACAD_REACTORS
330
C
102
}
100
AcDbDictionary
280
0
281
1
  3
Standard
350
18
  0
DICTIONARY
  5
19
102
{ACAD_REACTORS
330
C
102
}
100
AcDbDictionary
281
1
  0
DICTIONARY
  5
1A
102
{ACAD_REACTORS
330
C
102
}
100
AcDbDictionary
281
1
  3
Model
350
46D
  3
Layout1
350
46E
  0
ACDBPLACEHOLDER
  5
F
102
{ACAD_REACTORS
330
E
102
}
  0
MLINESTYLE
  5
18
102
{ACAD_REACTORS
330
17
102
}
100
AcDbMlineStyle
  2
STANDARD
 70
0
  3

 62
256
 51
90.0
 52
90.0
 71
2
 49
0.5
 62
256
  6
BYLAYER
 49
-0.5
 62
256
  6
BYLAYER
  0
LAYOUT
  5
46D
102
{ACAD_REACTORS
330
1A
102
}
100
AcDbPlotSettings
  1

  2
none_device
  4

  6

 40
0.0
 41
0.0
 42
0.0
 43
0.0
 44
210.0
 45
297.0
 46
0.0
 47
0.0
 48
0.0
 49
0.0
140
0.0
141
0.0
142
1.0
143
1.0
 70
1024
 72
1
 73
0
 74
0
  7

 75
0
147
1.0
148
0.0
149
0.0
100
AcDbLayout
  1
Model
 70
0
 71
0
 10
0.0
 20
0.0
 11
210.0
 21
297.0
 12
0.0
 22
0.0
 32
0.0
 14
0.0
 24
0.0
 34
0.0
 15
0.0
 25
0.0
 35
0.0
146
0.0
 13
0.0
 23
0.0
 33
0.0
 16
1.0
 26
0.0
 36
0.0
 17
0.0
 27
1.0
 37
0.0
 76
0
330
210
345
0
346
0
  0
LAYOUT
  5
46E
102
{ACAD_REACTORS
330
1A
102
}
100
AcDbPlotSettings
  1

  2
none_device
  4

  6

 40
0.0
 41
0.0
 42
0.0
 43
0.0
 44
210.0
 45
297.0
 46
0.0
 47
0.0
 48
0.0
 49
0.0
140
0.0
141
0.0
142
1.0
143
1.0
 70
0
 72
1
 73
0
 74
0
  7

 75
0
147
1.0
148
0.0
149
0.0
100
AcDbLayout
  1
Layout1
 70
0
 71
1
 10
0.0
 20
0.0
 11
210.0
 21
297.0
 12
0.0
 22
0.0
 32
0.0
 14
0.0
 24
0.0
 34
0.0
 15
0.0
 25
0.0
 35
0.0
146
0.0
 13
0.0
 23
0.0
 33
0.0
 16
1.0
 26
0.0
 36
0.0
 17
0.0
 27
1.0
 37
0.0
 76
0
330
211
345
0
346
0
  0
ENDSEC
  0
EOF
