999
DXF file: Y:\001_SCHNEIDER_PARIS\78_2020_429_Grey Project M580\TRAVAIL LUCAS SANTANA G3\CAD3D\2D-Views\BMXNOR0200H_2D-Views\BMXNOR0200H_2D-REAR.dxf
999
Pro/ENGINEER 2018260 by Parametric Technology Corporation
  0
SECTION
  2
HEADER
  9
$ACADVER
  1
AC1027
  9
$DWGCODEPAGE
  3
ANSI_1252
  9
$EXTMAX
 10
558.8
 20
431.8
 30
0.0
  9
$EXTMIN
 10
0.0
 20
0.0
 30
0.0
  9
$LIMMIN
 10
0.0
 20
0.0
  9
$LIMMAX
 10
558.8
 20
431.8
  9
$VIEWCTR
 10
279.4
 20
215.9
  9
$VIEWSIZE
 40
431.8
  9
$CLAYER
  8
0
  9
$LTSCALE
 40
30.734
  9
$CELTYPE
  6
BYLAYER
  9
$DIMSCALE
 40
1.0
  9
$DIMASZ
 40
3.5
  9
$DIMEXO
 40
1.0
  9
$DIMDLI
 40
21.2344
  9
$DIMEXE
 40
3.0
  9
$DIMCEN
 40
5.0292
  9
$DIMLFAC
 40
1.0
  9
$DIMBLK
  1
_FILLED
  9
$DIMALT
 70
0
  9
$DIMALTF
 40
0.0393700787
  9
$DIMTXT
 40
4.0
  9
$DIMTOL
 70
1
  9
$DIMLIM
 70
0
  9
$DIMTFAC
 40
1.0
  9
$DIMTP
 40
0.0001
  9
$DIMTM
 40
0.0001
  9
$DIMGAP
 40
0.625
  9
$DIMDSEP
 70
46
  9
$AUNITS
 70
0
  9
$PDMODE
 70
0
  9
$PDSIZE
 40
0.01
  9
$HANDSEED
  5
411
  9
$TILEMODE
 70
1
  9
$MEASUREMENT
 70
1
  9
$INSUNITS
 70
4
  0
ENDSEC
  0
SECTION
  2
CLASSES
  0
CLASS
  1
ACDBDICTIONARYWDFLT
  2
AcDbDictionaryWithDefault
  3
AutoCAD 2000
 90
0
 91
1
280
0
281
0
  0
CLASS
  1
ACDBPLACEHOLDER
  2
AcDbPlaceHolder
  3
AutoCAD 2000
 90
0
 91
1
280
0
281
0
  0
CLASS
  1
LAYOUT
  2
AcDbLayout
  3
AutoCAD 2000
 90
0
 91
0
280
0
281
0
  0
ENDSEC
  0
SECTION
  2
TABLES
  0
TABLE
  2
VPORT
  5
8
100
AcDbSymbolTable
 70
2
  0
VPORT
  5
1F4
100
AcDbSymbolTableRecord
100
AcDbViewportTableRecord
  2
*ACTIVE
 70
0
 10
0.0
 20
0.0
 11
1.0
 21
1.0
 12
279.4
 22
215.9
 13
0.0
 23
0.0
 14
1.0
 24
1.0
 15
0.0
 25
0.0
 16
0.0
 26
0.0
 36
1.0
 17
0.0
 27
0.0
 37
0.0
 40
431.8
 41
1.2941176471
 42
50.0
 43
0.0
 44
0.0
 50
0.0
 51
0.0
 71
0
 72
100
 73
1
 74
1
 75
0
 76
0
 77
0
 78
0
  0
ENDTAB
  0
TABLE
  2
LTYPE
  5
5
100
AcDbSymbolTable
 70
6
  0
LTYPE
  5
14
100
AcDbSymbolTableRecord
100
AcDbLinetypeTableRecord
  2
BYBLOCK
 70
0
  3

 72
65
 73
0
 40
0.0
  0
LTYPE
  5
15
100
AcDbSymbolTableRecord
100
AcDbLinetypeTableRecord
  2
BYLAYER
 70
0
  3

 72
65
 73
0
 40
0.0
  0
LTYPE
  5
16
100
AcDbSymbolTableRecord
100
AcDbLinetypeTableRecord
  2
CONTINUOUS
 70
64
  3
Solid line
 72
65
 73
0
 40
0.0
  0
LTYPE
  5
1F5
100
AcDbSymbolTableRecord
100
AcDbLinetypeTableRecord
  2
CENTER
 70
64
  3
____ _ ____ _ ____ _ ____ _ ____ _ ____ _ ____
 72
65
 73
4
 40
0.6
 49
0.375
 74
0
 49
-0.075
 74
0
 49
0.075
 74
0
 49
-0.075
 74
0
  0
LTYPE
  5
1F6
100
AcDbSymbolTableRecord
100
AcDbLinetypeTableRecord
  2
HIDDEN
 70
64
  3
- - - - - - - - - - - - - - - - - - - -
 72
65
 73
2
 40
0.2
 49
0.1
 74
0
 49
-0.1
 74
0
  0
LTYPE
  5
1F7
100
AcDbSymbolTableRecord
100
AcDbLinetypeTableRecord
  2
PHANTOM
 70
64
  3
_____ _ _ _____ _ _ _____ _ _ _____
 72
65
 73
6
 40
0.8
 49
0.45
 74
0
 49
-0.05
 74
0
 49
0.1
 74
0
 49
-0.05
 74
0
 49
0.1
 74
0
 49
-0.05
 74
0
  0
LTYPE
  5
1F8
100
AcDbSymbolTableRecord
100
AcDbLinetypeTableRecord
  2
DOT
 70
64
  3
. . . . . . . . . . . . . . . . . . . .
 72
65
 73
2
 40
0.2
 49
0.1
 74
0
 49
-0.1
 74
0
  0
LTYPE
  5
1F9
100
AcDbSymbolTableRecord
100
AcDbLinetypeTableRecord
  2
DASHED
 70
64
  3
- - - - - - - - - - - - - - - - - - - -
 72
65
 73
2
 40
0.2
 49
0.1
 74
0
 49
-0.1
 74
0
  0
ENDTAB
  0
TABLE
  2
LAYER
  5
2
100
AcDbSymbolTable
 70
36
  0
LAYER
  5
10
100
AcDbSymbolTableRecord
100
AcDbLayerTableRecord
  2
0
 70
0
 62
7
  6
CONTINUOUS
370
-3
390
F
  0
LAYER
  5
1FA
100
AcDbSymbolTableRecord
100
AcDbLayerTableRecord
  2
DEFAULT_1
 70
0
 62
7
  6
CENTER
370
-3
390
F
  0
LAYER
  5
1FB
100
AcDbSymbolTableRecord
100
AcDbLayerTableRecord
  2
DEFAULT_2
 70
0
 62
8
  6
HIDDEN
370
-3
390
F
  0
LAYER
  5
1FC
100
AcDbSymbolTableRecord
100
AcDbLayerTableRecord
  2
DEFAULT_3
 70
0
 62
7
  6
PHANTOM
370
-3
390
F
  0
LAYER
  5
1FD
100
AcDbSymbolTableRecord
100
AcDbLayerTableRecord
  2
01_ALL_DTM_PLN
 70
0
 62
7
  6
CONTINUOUS
370
-3
390
F
  0
LAYER
  5
1FE
100
AcDbSymbolTableRecord
100
AcDbLayerTableRecord
  2
01__ASM_ALL_DTM_PLN
 70
0
 62
7
  6
CONTINUOUS
370
-3
390
F
  0
LAYER
  5
1FF
100
AcDbSymbolTableRecord
100
AcDbLayerTableRecord
  2
01__ASM_DEF_DTM_PLN
 70
0
 62
7
  6
CONTINUOUS
370
-3
390
F
  0
LAYER
  5
200
100
AcDbSymbolTableRecord
100
AcDbLayerTableRecord
  2
01___PRT_ALL_DTM_PLN
 70
0
 62
7
  6
CONTINUOUS
370
-3
390
F
  0
LAYER
  5
201
100
AcDbSymbolTableRecord
100
AcDbLayerTableRecord
  2
01___PRT_DEF_DTM_PLN
 70
0
 62
7
  6
CONTINUOUS
370
-3
390
F
  0
LAYER
  5
202
100
AcDbSymbolTableRecord
100
AcDbLayerTableRecord
  2
02_ALL_AXES
 70
0
 62
7
  6
CONTINUOUS
370
-3
390
F
  0
LAYER
  5
203
100
AcDbSymbolTableRecord
100
AcDbLayerTableRecord
  2
02__ASM_ALL_AXES
 70
0
 62
7
  6
CONTINUOUS
370
-3
390
F
  0
LAYER
  5
204
100
AcDbSymbolTableRecord
100
AcDbLayerTableRecord
  2
02___PRT_ALL_AXES
 70
0
 62
7
  6
CONTINUOUS
370
-3
390
F
  0
LAYER
  5
205
100
AcDbSymbolTableRecord
100
AcDbLayerTableRecord
  2
03_ALL_CURVES
 70
0
 62
7
  6
CONTINUOUS
370
-3
390
F
  0
LAYER
  5
206
100
AcDbSymbolTableRecord
100
AcDbLayerTableRecord
  2
03__ASM_ALL_CURVES
 70
0
 62
7
  6
CONTINUOUS
370
-3
390
F
  0
LAYER
  5
207
100
AcDbSymbolTableRecord
100
AcDbLayerTableRecord
  2
03___PRT_ALL_CURVES
 70
0
 62
7
  6
CONTINUOUS
370
-3
390
F
  0
LAYER
  5
208
100
AcDbSymbolTableRecord
100
AcDbLayerTableRecord
  2
04_ALL_DTM_PNT
 70
0
 62
7
  6
CONTINUOUS
370
-3
390
F
  0
LAYER
  5
209
100
AcDbSymbolTableRecord
100
AcDbLayerTableRecord
  2
04__ASM_ALL_DTM_PNT
 70
0
 62
7
  6
CONTINUOUS
370
-3
390
F
  0
LAYER
  5
20A
100
AcDbSymbolTableRecord
100
AcDbLayerTableRecord
  2
04___PRT_ALL_DTM_PNT
 70
0
 62
7
  6
CONTINUOUS
370
-3
390
F
  0
LAYER
  5
20B
100
AcDbSymbolTableRecord
100
AcDbLayerTableRecord
  2
05_ALL_DTM_CSYS
 70
0
 62
7
  6
CONTINUOUS
370
-3
390
F
  0
LAYER
  5
20C
100
AcDbSymbolTableRecord
100
AcDbLayerTableRecord
  2
05__ASM_ALL_DTM_CSYS
 70
0
 62
7
  6
CONTINUOUS
370
-3
390
F
  0
LAYER
  5
20D
100
AcDbSymbolTableRecord
100
AcDbLayerTableRecord
  2
05__ASM_DEF_DTM_CSYS
 70
0
 62
7
  6
CONTINUOUS
370
-3
390
F
  0
LAYER
  5
20E
100
AcDbSymbolTableRecord
100
AcDbLayerTableRecord
  2
05___PRT_ALL_DTM_CSYS
 70
0
 62
7
  6
CONTINUOUS
370
-3
390
F
  0
LAYER
  5
20F
100
AcDbSymbolTableRecord
100
AcDbLayerTableRecord
  2
05___PRT_DEF_DTM_CSYS
 70
0
 62
7
  6
CONTINUOUS
370
-3
390
F
  0
LAYER
  5
210
100
AcDbSymbolTableRecord
100
AcDbLayerTableRecord
  2
06_ALL_SURFS
 70
0
 62
7
  6
CONTINUOUS
370
-3
390
F
  0
LAYER
  5
211
100
AcDbSymbolTableRecord
100
AcDbLayerTableRecord
  2
06__ASM_ALL_SURFS
 70
0
 62
7
  6
CONTINUOUS
370
-3
390
F
  0
LAYER
  5
212
100
AcDbSymbolTableRecord
100
AcDbLayerTableRecord
  2
06___PRT_ALL_SURFS
 70
0
 62
7
  6
CONTINUOUS
370
-3
390
F
  0
LAYER
  5
213
100
AcDbSymbolTableRecord
100
AcDbLayerTableRecord
  2
07__ASM_ALL_SKELETONS
 70
0
 62
7
  6
CONTINUOUS
370
-3
390
F
  0
ENDTAB
  0
TABLE
  2
STYLE
  5
3
100
AcDbSymbolTable
 70
1
  0
STYLE
  5
11
100
AcDbSymbolTableRecord
100
AcDbTextStyleTableRecord
  2
STANDARD
 70
0
 40
0.0
 41
0.6
 50
0.0
 71
0
 42
0.2
  3
txt
  4

  0
STYLE
  5
214
100
AcDbSymbolTableRecord
100
AcDbTextStyleTableRecord
  2
TEXTSTYLE_1
 70
0
 40
0.0
 41
0.8
 50
0.0
 71
0
 42
0.2
  3
gdt
  4

  0
ENDTAB
  0
TABLE
  2
VIEW
  5
6
100
AcDbSymbolTable
 70
0
  0
ENDTAB
  0
TABLE
  2
UCS
  5
7
100
AcDbSymbolTable
 70
0
  0
ENDTAB
  0
TABLE
  2
APPID
  5
9
100
AcDbSymbolTable
 70
1
  0
APPID
  5
215
100
AcDbSymbolTableRecord
100
AcDbRegAppTableRecord
  2
ACAD
 70
0
  0
ENDTAB
  0
TABLE
  2
BLOCK_RECORD
  5
1
100
AcDbSymbolTable
 70
0
  0
BLOCK_RECORD
  5
216
100
AcDbSymbolTableRecord
100
AcDbBlockTableRecord
  2
*Model_Space
  0
BLOCK_RECORD
  5
217
100
AcDbSymbolTableRecord
100
AcDbBlockTableRecord
  2
*Paper_Space
  0
BLOCK_RECORD
  5
218
100
AcDbSymbolTableRecord
100
AcDbBlockTableRecord
  2
_FILLED
  0
ENDTAB
  0
TABLE
  2
DIMSTYLE
  5
A
100
AcDbSymbolTable
 70
1
100
AcDbDimStyleTable
 71
0
  0
DIMSTYLE
105
219
100
AcDbSymbolTableRecord
100
AcDbDimStyleTableRecord
  2
STANDARD
 70
0
  3

  4

 40
1.0
 41
3.5
 42
1.0
 43
0.38
 44
3.0
 45
0.0
 46
0.0
 47
0.0001
 48
0.0001
140
4.0
141
0.09
142
0.0
143
25.4
144
1.0
145
0.0
146
1.0
147
0.625
 71
1.0
 72
0.0
 73
0
 74
0
 75
0
 76
0
 77
1
 78
8
 79
2
170
0
171
3
172
0
173
0
174
0
175
0
176
0
177
0
178
0
270
2
179
4
271
4
272
4
273
2
274
2
275
0
280
0
281
0
282
0
283
1
284
8
285
0
286
0
287
3
288
0
340
11
278
46
341
218
342
218
343
218
344
218
  0
ENDTAB
  0
ENDSEC
  0
SECTION
  2
BLOCKS
  0
BLOCK
  5
20
100
AcDbEntity
  8
0
100
AcDbBlockBegin
  2
*Model_Space
 70
0
 10
0.0
 20
0.0
 30
0.0
  3
*Model_Space
  1

  0
ENDBLK
  5
21
100
AcDbEntity
  8
0
100
AcDbBlockEnd
  0
BLOCK
  5
1C
100
AcDbEntity
  8
0
100
AcDbBlockBegin
  2
*Paper_Space
 70
0
 10
0.0
 20
0.0
 30
0.0
  3
*Paper_Space
  1

  0
ENDBLK
  5
1D
100
AcDbEntity
  8
0
100
AcDbBlockEnd
  0
BLOCK
  5
21A
100
AcDbEntity
  8
0
100
AcDbBlockBegin
  2
_FILLED
 70
64
 10
0.0
 20
0.0
  3
_FILLED
  1

  0
SOLID
  5
21B
100
AcDbEntity
  8
0
  6
BYBLOCK
 62
0
100
AcDbTrace
 10
0.0
 20
0.0
 11
-1.0
 21
0.2857142857
 12
-1.0
 22
-0.2857142857
 13
-1.0
 23
-0.2857142857
  0
ENDBLK
  5
21C
100
AcDbEntity
  8
0
  6
BYBLOCK
 62
0
100
AcDbBlockEnd
  0
ENDSEC
  0
SECTION
  2
ENTITIES
  0
LINE
  5
21D
100
AcDbEntity
  8
0
100
AcDbLine
 62
7
  6
CONTINUOUS
 10
341.4437011593
 20
120.3413553587
 11
309.4437011593
 21
120.3413553587
  0
LINE
  5
21E
100
AcDbEntity
  8
0
100
AcDbLine
 62
7
  6
CONTINUOUS
 10
309.4437011593
 20
120.5071658467
 11
341.4437011593
 21
120.5071658467
  0
LINE
  5
21F
100
AcDbEntity
  8
0
100
AcDbLine
 62
7
  6
CONTINUOUS
 10
315.2083182521
 20
220.5071658467
 11
321.4437011593
 21
224.1071658467
  0
LINE
  5
220
100
AcDbEntity
  8
0
100
AcDbLine
 62
7
  6
CONTINUOUS
 10
309.4437011593
 20
122.9071658467
 11
314.1875395609
 21
122.9071658467
  0
LINE
  5
221
100
AcDbEntity
  8
0
100
AcDbLine
 62
7
  6
CONTINUOUS
 10
336.6998627578
 20
122.9071658467
 11
341.4437011593
 21
122.9071658467
  0
LINE
  5
222
100
AcDbEntity
  8
0
100
AcDbLine
 62
7
  6
CONTINUOUS
 10
313.9187691782
 20
124.9071658467
 11
336.9686331405
 21
124.9071658467
  0
LINE
  5
223
100
AcDbEntity
  8
0
100
AcDbLine
 62
7
  6
CONTINUOUS
 10
311.3029047217
 20
220.5071580052
 11
310.7953444069
 21
220.0071658467
  0
LINE
  5
224
100
AcDbEntity
  8
0
100
AcDbLine
 62
7
  6
CONTINUOUS
 10
313.9213605651
 20
126.2457204261
 11
314.4437011593
 21
126.2978231457
  0
LINE
  5
225
100
AcDbEntity
  8
0
100
AcDbLine
 62
7
  6
CONTINUOUS
 10
314.6937011593
 20
125.9071658467
 11
309.4437011593
 21
125.9071658467
  0
LINE
  5
226
100
AcDbEntity
  8
0
100
AcDbLine
 62
7
  6
CONTINUOUS
 10
336.1937011593
 20
125.9071658467
 11
341.4437011593
 21
125.9071658467
  0
LINE
  5
227
100
AcDbEntity
  8
0
100
AcDbLine
 62
7
  6
CONTINUOUS
 10
311.4322557387
 20
126.2457204261
 11
313.9213605651
 21
126.2457204261
  0
LINE
  5
228
100
AcDbEntity
  8
0
100
AcDbLine
 62
7
  6
CONTINUOUS
 10
336.9660417536
 20
126.2457204261
 11
339.45514658
 21
126.2457204261
  0
LINE
  5
229
100
AcDbEntity
  8
0
100
AcDbLine
 62
7
  6
CONTINUOUS
 10
314.4437011593
 20
126.2978231457
 11
336.4437011593
 21
126.2978231457
  0
LINE
  5
22A
100
AcDbEntity
  8
0
100
AcDbLine
 62
7
  6
CONTINUOUS
 10
318.5437011593
 20
126.3354681763
 11
320.4437011593
 21
126.3354681763
  0
LINE
  5
22B
100
AcDbEntity
  8
0
100
AcDbLine
 62
7
  6
CONTINUOUS
 10
330.4437011593
 20
126.3354681763
 11
331.9937011593
 21
126.3354681763
  0
LINE
  5
22C
100
AcDbEntity
  8
0
100
AcDbLine
 62
7
  6
CONTINUOUS
 10
318.5437011593
 20
126.3571658467
 11
311.5437011593
 21
126.3571658467
  0
LINE
  5
22D
100
AcDbEntity
  8
0
100
AcDbLine
 62
7
  6
CONTINUOUS
 10
331.9937011593
 20
126.3571658467
 11
339.3437011593
 21
126.3571658467
  0
LINE
  5
22E
100
AcDbEntity
  8
0
100
AcDbLine
 62
7
  6
CONTINUOUS
 10
314.9437011593
 20
127.1071658467
 11
335.9437011593
 21
127.1071658467
  0
LINE
  5
22F
100
AcDbEntity
  8
0
100
AcDbLine
 62
7
  6
CONTINUOUS
 10
312.7437011593
 20
128.9671658467
 11
314.9437011593
 21
128.9671658467
  0
LINE
  5
230
100
AcDbEntity
  8
0
100
AcDbLine
 62
7
  6
CONTINUOUS
 10
312.7437011593
 20
129.1671658467
 11
314.9437011593
 21
129.1671658467
  0
LINE
  5
231
100
AcDbEntity
  8
0
100
AcDbLine
 62
7
  6
CONTINUOUS
 10
313.4437011593
 20
129.2571658467
 11
314.9437011593
 21
129.2571658467
  0
LINE
  5
232
100
AcDbEntity
  8
0
100
AcDbLine
 62
7
  6
CONTINUOUS
 10
336.4437011593
 20
126.2978231457
 11
336.9660417536
 21
126.2457204261
  0
LINE
  5
233
100
AcDbEntity
  8
0
100
AcDbLine
 62
7
  6
CONTINUOUS
 10
317.4437011593
 20
216.2330895965
 11
317.5623956008
 21
216.2924322974
  0
LINE
  5
234
100
AcDbEntity
  8
0
100
AcDbLine
 62
7
  6
CONTINUOUS
 10
337.8368409538
 20
130.4253056412
 11
339.1873956008
 21
130.4758602882
  0
LINE
  5
235
100
AcDbEntity
  8
0
100
AcDbLine
 62
7
  6
CONTINUOUS
 10
313.0505613648
 20
131.5890260522
 11
311.7000067178
 21
131.5384714052
  0
LINE
  5
236
100
AcDbEntity
  8
0
100
AcDbLine
 62
7
  6
CONTINUOUS
 10
314.9437011593
 20
130.2571658467
 11
323.9437011593
 21
130.2571658467
  0
LINE
  5
237
100
AcDbEntity
  8
0
100
AcDbLine
 62
7
  6
CONTINUOUS
 10
326.9437011593
 20
130.2571658467
 11
335.9437011593
 21
130.2571658467
  0
LINE
  5
238
100
AcDbEntity
  8
0
100
AcDbLine
 62
7
  6
CONTINUOUS
 10
311.5437011593
 20
130.3571658467
 11
313.1187011593
 21
130.3571658467
  0
LINE
  5
239
100
AcDbEntity
  8
0
100
AcDbLine
 62
7
  6
CONTINUOUS
 10
337.7687011593
 20
130.3571658467
 11
339.3437011593
 21
130.3571658467
  0
LINE
  5
23A
100
AcDbEntity
  8
0
100
AcDbLine
 62
7
  6
CONTINUOUS
 10
311.4843584584
 20
130.4758602882
 11
311.7000067178
 21
130.4758602882
  0
LINE
  5
23B
100
AcDbEntity
  8
0
100
AcDbLine
 62
7
  6
CONTINUOUS
 10
339.1873956008
 20
130.4758602882
 11
339.4030438603
 21
130.4758602882
  0
LINE
  5
23C
100
AcDbEntity
  8
0
100
AcDbLine
 62
7
  6
CONTINUOUS
 10
331.2580781612
 20
131.3121658467
 11
331.6736556757
 21
131.3121658467
  0
LINE
  5
23D
100
AcDbEntity
  8
0
100
AcDbLine
 62
7
  6
CONTINUOUS
 10
339.4030438603
 20
131.5384714052
 11
339.1873956008
 21
131.5384714052
  0
LINE
  5
23E
100
AcDbEntity
  8
0
100
AcDbLine
 62
7
  6
CONTINUOUS
 10
311.7000067178
 20
131.5384714052
 11
311.4843584584
 21
131.5384714052
  0
LINE
  5
23F
100
AcDbEntity
  8
0
100
AcDbLine
 62
7
  6
CONTINUOUS
 10
339.3437011593
 20
131.6571658467
 11
337.7687011593
 21
131.6571658467
  0
LINE
  5
240
100
AcDbEntity
  8
0
100
AcDbLine
 62
7
  6
CONTINUOUS
 10
311.5437011593
 20
131.6571658467
 11
313.1187011593
 21
131.6571658467
  0
LINE
  5
241
100
AcDbEntity
  8
0
100
AcDbLine
 62
7
  6
CONTINUOUS
 10
314.9437011593
 20
131.7571658467
 11
323.9437011593
 21
131.7571658467
  0
LINE
  5
242
100
AcDbEntity
  8
0
100
AcDbLine
 62
7
  6
CONTINUOUS
 10
326.9437011593
 20
131.7571658467
 11
335.9437011593
 21
131.7571658467
  0
LINE
  5
243
100
AcDbEntity
  8
0
100
AcDbLine
 62
7
  6
CONTINUOUS
 10
314.9437011593
 20
132.3571658467
 11
313.4437011593
 21
132.3571658467
  0
LINE
  5
244
100
AcDbEntity
  8
0
100
AcDbLine
 62
7
  6
CONTINUOUS
 10
313.0505613648
 20
130.4253056412
 11
311.7000067178
 21
130.4758602882
  0
LINE
  5
245
100
AcDbEntity
  8
0
100
AcDbLine
 62
7
  6
CONTINUOUS
 10
337.8368409538
 20
131.5890260522
 11
339.1873956008
 21
131.5384714052
  0
LINE
  5
246
100
AcDbEntity
  8
0
100
AcDbLine
 62
7
  6
CONTINUOUS
 10
317.4437011593
 20
218.5571658467
 11
317.5623956008
 21
218.6758602882
  0
LINE
  5
247
100
AcDbEntity
  8
0
100
AcDbLine
 62
7
  6
CONTINUOUS
 10
313.0505613648
 20
212.0890260522
 11
313.1187011593
 21
212.1571658467
  0
LINE
  5
248
100
AcDbEntity
  8
0
100
AcDbLine
 62
7
  6
CONTINUOUS
 10
314.4037011593
 20
133.2071658467
 11
314.9437011593
 21
133.2071658467
  0
LINE
  5
249
100
AcDbEntity
  8
0
100
AcDbLine
 62
7
  6
CONTINUOUS
 10
314.4037011593
 20
134.0071658467
 11
314.9437011593
 21
134.0071658467
  0
LINE
  5
24A
100
AcDbEntity
  8
0
100
AcDbLine
 62
7
  6
CONTINUOUS
 10
341.4437011593
 20
134.1210927038
 11
339.4491337175
 21
134.1210927038
  0
LINE
  5
24B
100
AcDbEntity
  8
0
100
AcDbLine
 62
7
  6
CONTINUOUS
 10
311.4382686012
 20
134.1210927038
 11
309.4437011593
 21
134.1210927038
  0
LINE
  5
24C
100
AcDbEntity
  8
0
100
AcDbLine
 62
7
  6
CONTINUOUS
 10
314.4037011593
 20
134.2271658467
 11
314.9437011593
 21
134.2271658467
  0
LINE
  5
24D
100
AcDbEntity
  8
0
100
AcDbLine
 62
7
  6
CONTINUOUS
 10
335.9437011593
 20
134.9071658467
 11
314.9437011593
 21
134.9071658467
  0
LINE
  5
24E
100
AcDbEntity
  8
0
100
AcDbLine
 62
7
  6
CONTINUOUS
 10
314.4037011593
 20
135.0271658467
 11
316.9437011593
 21
135.0271658467
  0
LINE
  5
24F
100
AcDbEntity
  8
0
100
AcDbLine
 62
7
  6
CONTINUOUS
 10
314.4037011593
 20
135.2471658467
 11
316.9437011593
 21
135.2471658467
  0
LINE
  5
250
100
AcDbEntity
  8
0
100
AcDbLine
 62
7
  6
CONTINUOUS
 10
311.4799950263
 20
135.7071658467
 11
309.4437011593
 21
135.7071658467
  0
LINE
  5
251
100
AcDbEntity
  8
0
100
AcDbLine
 62
7
  6
CONTINUOUS
 10
339.4074072942
 20
135.7071658467
 11
341.4437011593
 21
135.7071658467
  0
LINE
  5
252
100
AcDbEntity
  8
0
100
AcDbLine
 62
7
  6
CONTINUOUS
 10
339.3437011593
 20
135.873381535
 11
339.2814010464
 21
135.873381535
  0
LINE
  5
253
100
AcDbEntity
  8
0
100
AcDbLine
 62
7
  6
CONTINUOUS
 10
311.5437011593
 20
135.873381535
 11
311.6060012723
 21
135.873381535
  0
LINE
  5
254
100
AcDbEntity
  8
0
100
AcDbLine
 62
7
  6
CONTINUOUS
 10
311.6350616019
 20
135.9379652753
 11
320.4437011593
 21
135.9379652753
  0
LINE
  5
255
100
AcDbEntity
  8
0
100
AcDbLine
 62
7
  6
CONTINUOUS
 10
330.4437011593
 20
135.9379652753
 11
339.2523407168
 21
135.9379652753
  0
LINE
  5
256
100
AcDbEntity
  8
0
100
AcDbLine
 62
7
  6
CONTINUOUS
 10
320.4437011593
 20
135.9693843921
 11
330.4437011593
 21
135.9693843921
  0
LINE
  5
257
100
AcDbEntity
  8
0
100
AcDbLine
 62
7
  6
CONTINUOUS
 10
339.4030438603
 20
135.9920759765
 11
311.4843584584
 21
135.9920759766
  0
LINE
  5
258
100
AcDbEntity
  8
0
100
AcDbLine
 62
7
  6
CONTINUOUS
 10
313.1187011593
 20
130.3571658467
 11
313.0505613648
 21
130.4253056412
  0
LINE
  5
259
100
AcDbEntity
  8
0
100
AcDbLine
 62
7
  6
CONTINUOUS
 10
336.0937011593
 20
216.2330895965
 11
336.2123956008
 21
216.2924322974
  0
LINE
  5
25A
100
AcDbEntity
  8
0
100
AcDbLine
 62
7
  6
CONTINUOUS
 10
311.4437011593
 20
212.3090249116
 11
311.3084347086
 21
212.0384714052
  0
LINE
  5
25B
100
AcDbEntity
  8
0
100
AcDbLine
 62
7
  6
CONTINUOUS
 10
313.3594234931
 20
204.4728881805
 11
313.3437011593
 21
204.4571658467
  0
LINE
  5
25C
100
AcDbEntity
  8
0
100
AcDbLine
 62
7
  6
CONTINUOUS
 10
311.4843584584
 20
130.4758602882
 11
311.5437011593
 21
130.3571658467
  0
LINE
  5
25D
100
AcDbEntity
  8
0
100
AcDbLine
 62
7
  6
CONTINUOUS
 10
311.4843584584
 20
135.9920759765
 11
311.5437011593
 21
135.873381535
  0
LINE
  5
25E
100
AcDbEntity
  8
0
100
AcDbLine
 62
7
  6
CONTINUOUS
 10
311.3677774096
 20
207.2409501583
 11
311.3084347086
 21
207.1222557168
  0
LINE
  5
25F
100
AcDbEntity
  8
0
100
AcDbLine
 62
7
  6
CONTINUOUS
 10
336.0937011593
 20
218.5571658467
 11
336.2123956008
 21
218.6758602882
  0
LINE
  5
260
100
AcDbEntity
  8
0
100
AcDbLine
 62
7
  6
CONTINUOUS
 10
323.9728955945
 20
218.3238491793
 11
323.9184037063
 21
218.217299662
  0
LINE
  5
261
100
AcDbEntity
  8
0
100
AcDbLine
 62
7
  6
CONTINUOUS
 10
339.3437011593
 20
126.3571658467
 11
339.45514658
 21
126.2457204261
  0
LINE
  5
262
100
AcDbEntity
  8
0
100
AcDbLine
 62
7
  6
CONTINUOUS
 10
326.96190403
 20
220.1083879723
 11
326.9737011593
 21
220.1321658467
  0
LINE
  5
263
100
AcDbEntity
  8
0
100
AcDbLine
 62
7
  6
CONTINUOUS
 10
339.4437011593
 20
216.1571658467
 11
339.5789676101
 21
216.2924322975
  0
LINE
  5
264
100
AcDbEntity
  8
0
100
AcDbLine
 62
7
  6
CONTINUOUS
 10
337.8368409538
 20
210.9253056412
 11
337.7687011593
 21
210.8571658467
  0
LINE
  5
265
100
AcDbEntity
  8
0
100
AcDbLine
 62
7
  6
CONTINUOUS
 10
337.7687011593
 20
131.6571658467
 11
337.8368409538
 21
131.5890260522
  0
LINE
  5
266
100
AcDbEntity
  8
0
100
AcDbLine
 62
7
  6
CONTINUOUS
 10
309.4437011593
 20
120.3413553587
 11
309.4437011593
 21
220.5071658467
  0
LINE
  5
267
100
AcDbEntity
  8
0
100
AcDbLine
 62
7
  6
CONTINUOUS
 10
310.7953444069
 20
220.0071658467
 11
310.7953444069
 21
208.1571658467
  0
LINE
  5
268
100
AcDbEntity
  8
0
100
AcDbLine
 62
7
  6
CONTINUOUS
 10
311.3017749359
 20
204.4990920701
 11
311.3017749359
 21
168.6897121111
  0
LINE
  5
269
100
AcDbEntity
  8
0
100
AcDbLine
 62
7
  6
CONTINUOUS
 10
311.3029097413
 20
220.507163057
 11
311.3029018083
 21
208.1571658467
  0
LINE
  5
26A
100
AcDbEntity
  8
0
100
AcDbLine
 62
7
  6
CONTINUOUS
 10
311.3084347086
 20
220.5071658467
 11
311.3084347086
 21
216.2924322974
  0
LINE
  5
26B
100
AcDbEntity
  8
0
100
AcDbLine
 62
7
  6
CONTINUOUS
 10
311.3084347086
 20
208.1571658467
 11
311.3084347086
 21
207.1222557168
  0
LINE
  5
26C
100
AcDbEntity
  8
0
100
AcDbLine
 62
7
  6
CONTINUOUS
 10
311.3437011593
 20
168.6966936053
 11
311.3437011593
 21
204.4571658467
  0
LINE
  5
26D
100
AcDbEntity
  8
0
100
AcDbLine
 62
7
  6
CONTINUOUS
 10
311.3677774096
 20
210.8571658467
 11
311.3677774096
 21
207.2409501583
  0
LINE
  5
26E
100
AcDbEntity
  8
0
100
AcDbLine
 62
7
  6
CONTINUOUS
 10
311.4437011593
 20
216.1571658467
 11
311.4437011593
 21
212.3090249116
  0
LINE
  5
26F
100
AcDbEntity
  8
0
100
AcDbLine
 62
7
  6
CONTINUOUS
 10
311.4843584584
 20
135.9920759766
 11
311.4843584584
 21
135.7071658467
  0
LINE
  5
270
100
AcDbEntity
  8
0
100
AcDbLine
 62
7
  6
CONTINUOUS
 10
311.4843584584
 20
131.5384714052
 11
311.4843584584
 21
130.4758602882
  0
LINE
  5
271
100
AcDbEntity
  8
0
100
AcDbLine
 62
7
  6
CONTINUOUS
 10
311.5376702271
 20
216.1571658467
 11
311.5376702271
 21
212.3090249116
  0
LINE
  5
272
100
AcDbEntity
  8
0
100
AcDbLine
 62
7
  6
CONTINUOUS
 10
311.5437011593
 20
135.873381535
 11
311.5437011593
 21
131.6571658467
  0
LINE
  5
273
100
AcDbEntity
  8
0
100
AcDbLine
 62
7
  6
CONTINUOUS
 10
311.5437011593
 20
126.3571658467
 11
311.5437011593
 21
130.3571658467
  0
LINE
  5
274
100
AcDbEntity
  8
0
100
AcDbLine
 62
7
  6
CONTINUOUS
 10
311.6060012723
 20
210.8571658467
 11
311.6060012723
 21
207.2409501584
  0
LINE
  5
275
100
AcDbEntity
  8
0
100
AcDbLine
 62
7
  6
CONTINUOUS
 10
311.6060012723
 20
135.873381535
 11
311.6060012723
 21
131.6571658467
  0
LINE
  5
276
100
AcDbEntity
  8
0
100
AcDbLine
 62
7
  6
CONTINUOUS
 10
311.6060012723
 20
126.3571658467
 11
311.6060012723
 21
130.3571658467
  0
LINE
  5
277
100
AcDbEntity
  8
0
100
AcDbLine
 62
7
  6
CONTINUOUS
 10
311.7000067178
 20
212.0384714052
 11
311.7000067178
 21
210.9758602882
  0
LINE
  5
278
100
AcDbEntity
  8
0
100
AcDbLine
 62
7
  6
CONTINUOUS
 10
311.7000067178
 20
130.4758602882
 11
311.7000067178
 21
131.5384714052
  0
LINE
  5
279
100
AcDbEntity
  8
0
100
AcDbLine
 62
7
  6
CONTINUOUS
 10
311.7937011593
 20
210.0071658467
 11
311.7937011593
 21
210.8571658467
  0
LINE
  5
27A
100
AcDbEntity
  8
0
100
AcDbLine
 62
7
  6
CONTINUOUS
 10
311.7937011593
 20
212.1571658467
 11
311.7937011593
 21
212.7071658467
  0
LINE
  5
27B
100
AcDbEntity
  8
0
100
AcDbLine
 62
7
  6
CONTINUOUS
 10
312.5937011593
 20
216.1571658467
 11
312.5937011593
 21
212.6571658467
  0
LINE
  5
27C
100
AcDbEntity
  8
0
100
AcDbLine
 62
7
  6
CONTINUOUS
 10
312.7437011593
 20
129.1671658467
 11
312.7437011593
 21
128.9671658467
  0
LINE
  5
27D
100
AcDbEntity
  8
0
100
AcDbLine
 62
7
  6
CONTINUOUS
 10
313.0505613648
 20
212.0890260522
 11
313.0505613648
 21
210.9253056412
  0
LINE
  5
27E
100
AcDbEntity
  8
0
100
AcDbLine
 62
7
  6
CONTINUOUS
 10
313.0505613648
 20
130.4253056412
 11
313.0505613648
 21
131.5890260522
  0
LINE
  5
27F
100
AcDbEntity
  8
0
100
AcDbLine
 62
7
  6
CONTINUOUS
 10
313.1187011593
 20
212.1571658467
 11
313.1187011593
 21
210.8571658467
  0
LINE
  5
280
100
AcDbEntity
  8
0
100
AcDbLine
 62
7
  6
CONTINUOUS
 10
313.1187011593
 20
130.3571658467
 11
313.1187011593
 21
131.6571658467
  0
LINE
  5
281
100
AcDbEntity
  8
0
100
AcDbLine
 62
7
  6
CONTINUOUS
 10
313.3437011593
 20
168.6966936053
 11
313.3437011593
 21
204.4571658467
  0
LINE
  5
282
100
AcDbEntity
  8
0
100
AcDbLine
 62
7
  6
CONTINUOUS
 10
313.3594234931
 20
168.694075545
 11
313.3594234931
 21
204.4728881805
  0
LINE
  5
283
100
AcDbEntity
  8
0
100
AcDbLine
 62
7
  6
CONTINUOUS
 10
313.4437011593
 20
132.3571658467
 11
313.4437011593
 21
129.2571658467
  0
LINE
  5
284
100
AcDbEntity
  8
0
100
AcDbLine
 62
7
  6
CONTINUOUS
 10
313.9187691782
 20
124.9071658467
 11
313.9187691782
 21
122.9071658467
  0
LINE
  5
285
100
AcDbEntity
  8
0
100
AcDbLine
 62
7
  6
CONTINUOUS
 10
314.1687691782
 20
124.9071658467
 11
314.1687691782
 21
125.9071658467
  0
LINE
  5
286
100
AcDbEntity
  8
0
100
AcDbLine
 62
7
  6
CONTINUOUS
 10
314.4037011593
 20
135.9379652753
 11
314.4037011593
 21
135.2471658467
  0
LINE
  5
287
100
AcDbEntity
  8
0
100
AcDbLine
 62
7
  6
CONTINUOUS
 10
314.4037011593
 20
135.0271658467
 11
314.4037011593
 21
134.2271658467
  0
LINE
  5
288
100
AcDbEntity
  8
0
100
AcDbLine
 62
7
  6
CONTINUOUS
 10
314.4037011593
 20
134.0071658467
 11
314.4037011593
 21
133.2071658467
  0
LINE
  5
289
100
AcDbEntity
  8
0
100
AcDbLine
 62
7
  6
CONTINUOUS
 10
314.4437011593
 20
126.2978231457
 11
314.4437011593
 21
125.9071658467
  0
LINE
  5
28A
100
AcDbEntity
  8
0
100
AcDbLine
 62
7
  6
CONTINUOUS
 10
314.6937011593
 20
125.9071658467
 11
314.6937011593
 21
124.9071658467
  0
LINE
  5
28B
100
AcDbEntity
  8
0
100
AcDbLine
 62
7
  6
CONTINUOUS
 10
314.8250067178
 20
216.2924322975
 11
314.8250067178
 21
218.6758602882
  0
LINE
  5
28C
100
AcDbEntity
  8
0
100
AcDbLine
 62
7
  6
CONTINUOUS
 10
314.9279788256
 20
168.694075545
 11
314.9279788256
 21
204.4728881805
  0
LINE
  5
28D
100
AcDbEntity
  8
0
100
AcDbLine
 62
7
  6
CONTINUOUS
 10
314.9437011593
 20
127.1071658467
 11
314.9437011593
 21
130.2571658467
  0
LINE
  5
28E
100
AcDbEntity
  8
0
100
AcDbLine
 62
7
  6
CONTINUOUS
 10
314.9437011593
 20
131.7571658467
 11
314.9437011593
 21
134.9071658467
  0
LINE
  5
28F
100
AcDbEntity
  8
0
100
AcDbLine
 62
7
  6
CONTINUOUS
 10
314.9437011593
 20
168.6966936053
 11
314.9437011593
 21
204.4571658467
  0
LINE
  5
290
100
AcDbEntity
  8
0
100
AcDbLine
 62
7
  6
CONTINUOUS
 10
314.9437011593
 20
207.6071658467
 11
314.9437011593
 21
210.7571658467
  0
LINE
  5
291
100
AcDbEntity
  8
0
100
AcDbLine
 62
7
  6
CONTINUOUS
 10
314.9437011593
 20
212.2571658467
 11
314.9437011593
 21
215.4071658467
  0
LINE
  5
292
100
AcDbEntity
  8
0
100
AcDbLine
 62
7
  6
CONTINUOUS
 10
314.9437011593
 20
216.2330895965
 11
314.9437011593
 21
218.5571658467
  0
LINE
  5
293
100
AcDbEntity
  8
0
100
AcDbLine
 62
7
  6
CONTINUOUS
 10
311.4322557387
 20
126.2457204261
 11
311.4382686012
 21
134.1210927038
  0
LINE
  5
294
100
AcDbEntity
  8
0
100
AcDbLine
 62
7
  6
CONTINUOUS
 10
313.9187691782
 20
125.9071658467
 11
313.9213605651
 21
126.2457204261
  0
LINE
  5
295
100
AcDbEntity
  8
0
100
AcDbLine
 62
7
  6
CONTINUOUS
 10
326.6687011593
 20
221.1938309982
 11
327.4437011593
 21
223.7287417775
  0
LINE
  5
296
100
AcDbEntity
  8
0
100
AcDbLine
 62
7
  6
CONTINUOUS
 10
339.4356273828
 20
204.4990920701
 11
339.3937011593
 21
204.4571658467
  0
LINE
  5
297
100
AcDbEntity
  8
0
100
AcDbLine
 62
7
  6
CONTINUOUS
 10
315.2937011593
 20
216.1571658467
 11
315.2937011593
 21
215.4071658467
  0
LINE
  5
298
100
AcDbEntity
  8
0
100
AcDbLine
 62
7
  6
CONTINUOUS
 10
316.3305082683
 20
215.4071658467
 11
316.3305082683
 21
212.2571658467
  0
LINE
  5
299
100
AcDbEntity
  8
0
100
AcDbLine
 62
7
  6
CONTINUOUS
 10
316.3305082683
 20
210.7571658467
 11
316.3305082683
 21
207.6071658467
  0
LINE
  5
29A
100
AcDbEntity
  8
0
100
AcDbLine
 62
7
  6
CONTINUOUS
 10
316.3305082683
 20
134.9071658467
 11
316.3305082683
 21
131.7571658467
  0
LINE
  5
29B
100
AcDbEntity
  8
0
100
AcDbLine
 62
7
  6
CONTINUOUS
 10
316.3305082683
 20
130.2571658467
 11
316.3305082683
 21
127.1071658467
  0
LINE
  5
29C
100
AcDbEntity
  8
0
100
AcDbLine
 62
7
  6
CONTINUOUS
 10
316.4437011593
 20
135.2471658467
 11
316.4437011593
 21
135.0271658467
  0
LINE
  5
29D
100
AcDbEntity
  8
0
100
AcDbLine
 62
7
  6
CONTINUOUS
 10
316.8262474238
 20
204.4990920701
 11
316.8262474238
 21
206.4071658467
  0
LINE
  5
29E
100
AcDbEntity
  8
0
100
AcDbLine
 62
7
  6
CONTINUOUS
 10
316.833228918
 20
168.6966936053
 11
316.833228918
 21
204.4571658467
  0
LINE
  5
29F
100
AcDbEntity
  8
0
100
AcDbLine
 62
7
  6
CONTINUOUS
 10
316.8437011593
 20
204.4571658467
 11
316.8437011593
 21
206.4071658467
  0
LINE
  5
2A0
100
AcDbEntity
  8
0
100
AcDbLine
 62
7
  6
CONTINUOUS
 10
316.9437011593
 20
130.2571658467
 11
316.9437011593
 21
131.7571658467
  0
LINE
  5
2A1
100
AcDbEntity
  8
0
100
AcDbLine
 62
7
  6
CONTINUOUS
 10
316.9437011593
 20
134.9071658467
 11
316.9437011593
 21
135.9379652753
  0
LINE
  5
2A2
100
AcDbEntity
  8
0
100
AcDbLine
 62
7
  6
CONTINUOUS
 10
316.9437011593
 20
168.7071658467
 11
316.9437011593
 21
204.4571658467
  0
LINE
  5
2A3
100
AcDbEntity
  8
0
100
AcDbLine
 62
7
  6
CONTINUOUS
 10
317.4437011593
 20
218.5571658467
 11
317.4437011593
 21
216.2330895965
  0
LINE
  5
2A4
100
AcDbEntity
  8
0
100
AcDbLine
 62
7
  6
CONTINUOUS
 10
317.4437011593
 20
173.9289987721
 11
317.4437011593
 21
200.9753329213
  0
LINE
  5
2A5
100
AcDbEntity
  8
0
100
AcDbLine
 62
7
  6
CONTINUOUS
 10
317.5623956008
 20
218.6758602882
 11
317.5623956008
 21
216.2924322975
  0
LINE
  5
2A6
100
AcDbEntity
  8
0
100
AcDbLine
 62
7
  6
CONTINUOUS
 10
318.2737011593
 20
174.3898792753
 11
318.2737011593
 21
200.5144524181
  0
LINE
  5
2A7
100
AcDbEntity
  8
0
100
AcDbLine
 62
7
  6
CONTINUOUS
 10
318.5437011593
 20
126.3571658467
 11
318.5437011593
 21
126.3354681763
  0
LINE
  5
2A8
100
AcDbEntity
  8
0
100
AcDbLine
 62
7
  6
CONTINUOUS
 10
314.2512260996
 20
124.9071658467
 11
314.1875395609
 21
122.9071658467
  0
LINE
  5
2A9
100
AcDbEntity
  8
0
100
AcDbLine
 62
7
  6
CONTINUOUS
 10
320.1237011593
 20
200.3271658467
 11
320.1237011593
 21
174.5771658467
  0
LINE
  5
2AA
100
AcDbEntity
  8
0
100
AcDbLine
 62
7
  6
CONTINUOUS
 10
320.4437011593
 20
216.2810873693
 11
320.4437011593
 21
215.4071658467
  0
LINE
  5
2AB
100
AcDbEntity
  8
0
100
AcDbLine
 62
7
  6
CONTINUOUS
 10
320.4437011593
 20
212.2571658467
 11
320.4437011593
 21
210.7571658467
  0
LINE
  5
2AC
100
AcDbEntity
  8
0
100
AcDbLine
 62
7
  6
CONTINUOUS
 10
320.4437011593
 20
207.6071658467
 11
320.4437011593
 21
207.1449473012
  0
LINE
  5
2AD
100
AcDbEntity
  8
0
100
AcDbLine
 62
7
  6
CONTINUOUS
 10
320.4437011593
 20
126.3091680738
 11
320.4437011593
 21
127.1071658467
  0
LINE
  5
2AE
100
AcDbEntity
  8
0
100
AcDbLine
 62
7
  6
CONTINUOUS
 10
320.4437011593
 20
130.2571658467
 11
320.4437011593
 21
131.7571658467
  0
LINE
  5
2AF
100
AcDbEntity
  8
0
100
AcDbLine
 62
7
  6
CONTINUOUS
 10
320.4437011593
 20
134.9071658467
 11
320.4437011593
 21
135.9693843921
  0
LINE
  5
2B0
100
AcDbEntity
  8
0
100
AcDbLine
 62
7
  6
CONTINUOUS
 10
321.2917840882
 20
215.4071658467
 11
321.2917840882
 21
212.2571658467
  0
LINE
  5
2B1
100
AcDbEntity
  8
0
100
AcDbLine
 62
7
  6
CONTINUOUS
 10
321.2917840882
 20
210.7571658467
 11
321.2917840882
 21
207.6071658467
  0
LINE
  5
2B2
100
AcDbEntity
  8
0
100
AcDbLine
 62
7
  6
CONTINUOUS
 10
321.2917840882
 20
134.9071658467
 11
321.2917840882
 21
131.7571658467
  0
LINE
  5
2B3
100
AcDbEntity
  8
0
100
AcDbLine
 62
7
  6
CONTINUOUS
 10
321.2917840882
 20
130.2571658467
 11
321.2917840882
 21
127.1071658467
  0
LINE
  5
2B4
100
AcDbEntity
  8
0
100
AcDbLine
 62
7
  6
CONTINUOUS
 10
321.7237011593
 20
174.5771658467
 11
321.7237011593
 21
200.3271658467
  0
LINE
  5
2B5
100
AcDbEntity
  8
0
100
AcDbLine
 62
7
  6
CONTINUOUS
 10
339.3497320916
 20
212.3090249116
 11
339.2814010464
 21
212.1571658467
  0
LINE
  5
2B6
100
AcDbEntity
  8
0
100
AcDbLine
 62
7
  6
CONTINUOUS
 10
339.5196249091
 20
210.8571658467
 11
339.5789676101
 21
210.9758602882
  0
LINE
  5
2B7
100
AcDbEntity
  8
0
100
AcDbLine
 62
7
  6
CONTINUOUS
 10
316.833228918
 20
168.6966936053
 11
316.8437011593
 21
168.7071658467
  0
LINE
  5
2B8
100
AcDbEntity
  8
0
100
AcDbLine
 62
7
  6
CONTINUOUS
 10
337.3937011593
 20
168.6966936053
 11
337.3779788256
 21
168.694075545
  0
LINE
  5
2B9
100
AcDbEntity
  8
0
100
AcDbLine
 62
7
  6
CONTINUOUS
 10
311.3017749359
 20
168.6897121111
 11
339.4356273828
 21
168.6897121111
  0
LINE
  5
2BA
100
AcDbEntity
  8
0
100
AcDbLine
 62
7
  6
CONTINUOUS
 10
337.3779788256
 20
168.694075545
 11
335.8094234931
 21
168.694075545
  0
LINE
  5
2BB
100
AcDbEntity
  8
0
100
AcDbLine
 62
7
  6
CONTINUOUS
 10
314.9279788256
 20
168.694075545
 11
313.3594234931
 21
168.694075545
  0
LINE
  5
2BC
100
AcDbEntity
  8
0
100
AcDbLine
 62
7
  6
CONTINUOUS
 10
316.833228918
 20
168.6966936053
 11
314.9437011593
 21
168.6966936053
  0
LINE
  5
2BD
100
AcDbEntity
  8
0
100
AcDbLine
 62
7
  6
CONTINUOUS
 10
313.3437011593
 20
168.6966936053
 11
311.3437011593
 21
168.6966936053
  0
LINE
  5
2BE
100
AcDbEntity
  8
0
100
AcDbLine
 62
7
  6
CONTINUOUS
 10
316.8437011593
 20
168.7071658467
 11
333.8937011593
 21
168.7071658467
  0
LINE
  5
2BF
100
AcDbEntity
  8
0
100
AcDbLine
 62
7
  6
CONTINUOUS
 10
313.3594234931
 20
168.694075545
 11
313.3437011593
 21
168.6966936053
  0
LINE
  5
2C0
100
AcDbEntity
  8
0
100
AcDbLine
 62
7
  6
CONTINUOUS
 10
339.4030438603
 20
131.5384714052
 11
339.3437011593
 21
131.6571658467
  0
LINE
  5
2C1
100
AcDbEntity
  8
0
100
AcDbLine
 62
7
  6
CONTINUOUS
 10
316.833228918
 20
204.4571658467
 11
316.8262474238
 21
204.4990920701
  0
LINE
  5
2C2
100
AcDbEntity
  8
0
100
AcDbLine
 62
7
  6
CONTINUOUS
 10
323.4437011593
 20
223.7287417775
 11
323.4437011593
 21
224.1071658467
  0
LINE
  5
2C3
100
AcDbEntity
  8
0
100
AcDbLine
 62
7
  6
CONTINUOUS
 10
323.5737011593
 20
201.4254796724
 11
323.5737011593
 21
173.478852021
  0
LINE
  5
2C4
100
AcDbEntity
  8
0
100
AcDbLine
 62
7
  6
CONTINUOUS
 10
323.9137011593
 20
220.2771658467
 11
323.9137011593
 21
220.1321658467
  0
LINE
  5
2C5
100
AcDbEntity
  8
0
100
AcDbLine
 62
7
  6
CONTINUOUS
 10
323.9437011593
 20
130.2571658467
 11
323.9437011593
 21
131.7571658467
  0
LINE
  5
2C6
100
AcDbEntity
  8
0
100
AcDbLine
 62
7
  6
CONTINUOUS
 10
323.9437011593
 20
210.7571658467
 11
323.9437011593
 21
212.2571658467
  0
LINE
  5
2C7
100
AcDbEntity
  8
0
100
AcDbLine
 62
7
  6
CONTINUOUS
 10
324.4437011593
 20
169.7871658467
 11
324.4437011593
 21
204.4571658467
  0
LINE
  5
2C8
100
AcDbEntity
  8
0
100
AcDbLine
 62
7
  6
CONTINUOUS
 10
324.4437011593
 20
216.2924322975
 11
324.4437011593
 21
217.1791934809
  0
LINE
  5
2C9
100
AcDbEntity
  8
0
100
AcDbLine
 62
7
  6
CONTINUOUS
 10
339.2814010464
 20
207.2409501583
 11
339.2499844738
 21
207.1711298986
  0
LINE
  5
2CA
100
AcDbEntity
  8
0
100
AcDbLine
 62
7
  6
CONTINUOUS
 10
314.9437011593
 20
168.6966936053
 11
314.9279788256
 21
168.694075545
  0
LINE
  5
2CB
100
AcDbEntity
  8
0
100
AcDbLine
 62
7
  6
CONTINUOUS
 10
311.3017749359
 20
168.6897121111
 11
311.3437011593
 21
168.6966936053
  0
LINE
  5
2CC
100
AcDbEntity
  8
0
100
AcDbLine
 62
7
  6
CONTINUOUS
 10
316.9437011593
 20
169.7071658467
 11
316.8437011593
 21
169.7071658467
  0
LINE
  5
2CD
100
AcDbEntity
  8
0
100
AcDbLine
 62
7
  6
CONTINUOUS
 10
316.9437011593
 20
169.7871658467
 11
324.4437011593
 21
169.7871658467
  0
LINE
  5
2CE
100
AcDbEntity
  8
0
100
AcDbLine
 62
7
  6
CONTINUOUS
 10
331.6736556757
 20
170.1921658467
 11
331.2580781612
 21
170.1921658467
  0
LINE
  5
2CF
100
AcDbEntity
  8
0
100
AcDbLine
 62
7
  6
CONTINUOUS
 10
316.8437011593
 20
170.5571658467
 11
316.9437011593
 21
170.5571658467
  0
LINE
  5
2D0
100
AcDbEntity
  8
0
100
AcDbLine
 62
7
  6
CONTINUOUS
 10
316.8437011593
 20
171.3571658467
 11
316.9437011593
 21
171.3571658467
  0
LINE
  5
2D1
100
AcDbEntity
  8
0
100
AcDbLine
 62
7
  6
CONTINUOUS
 10
316.8437011593
 20
171.5771658467
 11
316.9437011593
 21
171.5771658467
  0
LINE
  5
2D2
100
AcDbEntity
  8
0
100
AcDbLine
 62
7
  6
CONTINUOUS
 10
316.8437011593
 20
172.3771658467
 11
316.9437011593
 21
172.3771658467
  0
LINE
  5
2D3
100
AcDbEntity
  8
0
100
AcDbLine
 62
7
  6
CONTINUOUS
 10
316.8437011593
 20
172.5971658467
 11
316.9437011593
 21
172.5971658467
  0
LINE
  5
2D4
100
AcDbEntity
  8
0
100
AcDbLine
 62
7
  6
CONTINUOUS
 10
322.1778268781
 20
171.2793050305
 11
318.7778268782
 21
172.1903322847
  0
LINE
  5
2D5
100
AcDbEntity
  8
0
100
AcDbLine
 62
7
  6
CONTINUOUS
 10
318.9778230665
 20
173.4722497403
 11
322.3778230665
 21
172.5612224861
  0
LINE
  5
2D6
100
AcDbEntity
  8
0
100
AcDbLine
 62
7
  6
CONTINUOUS
 10
339.2814010464
 20
135.873381535
 11
339.2523407168
 21
135.9379652753
  0
LINE
  5
2D7
100
AcDbEntity
  8
0
100
AcDbLine
 62
7
  6
CONTINUOUS
 10
326.4437011593
 20
217.1791934809
 11
326.4437011593
 21
216.2924322975
  0
LINE
  5
2D8
100
AcDbEntity
  8
0
100
AcDbLine
 62
7
  6
CONTINUOUS
 10
326.9437011593
 20
212.2571658467
 11
326.9437011593
 21
210.7571658467
  0
LINE
  5
2D9
100
AcDbEntity
  8
0
100
AcDbLine
 62
7
  6
CONTINUOUS
 10
326.9437011593
 20
131.7571658467
 11
326.9437011593
 21
130.2571658467
  0
LINE
  5
2DA
100
AcDbEntity
  8
0
100
AcDbLine
 62
7
  6
CONTINUOUS
 10
326.9737011593
 20
220.1321658467
 11
326.9737011593
 21
220.2771658467
  0
LINE
  5
2DB
100
AcDbEntity
  8
0
100
AcDbLine
 62
7
  6
CONTINUOUS
 10
327.4437011593
 20
223.7287417775
 11
327.4437011593
 21
224.1071658467
  0
LINE
  5
2DC
100
AcDbEntity
  8
0
100
AcDbLine
 62
7
  6
CONTINUOUS
 10
327.5637011593
 20
183.887129617
 11
327.5637011593
 21
183.3502042961
  0
LINE
  5
2DD
100
AcDbEntity
  8
0
100
AcDbLine
 62
7
  6
CONTINUOUS
 10
329.0937011593
 20
183.3502042961
 11
329.0937011593
 21
183.887129617
  0
LINE
  5
2DE
100
AcDbEntity
  8
0
100
AcDbLine
 62
7
  6
CONTINUOUS
 10
333.9111548949
 20
204.4990920701
 11
333.9041734007
 21
204.4571658467
  0
LINE
  5
2DF
100
AcDbEntity
  8
0
100
AcDbLine
 62
7
  6
CONTINUOUS
 10
311.6060012723
 20
135.873381535
 11
311.6350616019
 21
135.9379652753
  0
LINE
  5
2E0
100
AcDbEntity
  8
0
100
AcDbLine
 62
7
  6
CONTINUOUS
 10
316.8437011593
 20
173.3971658467
 11
316.9437011593
 21
173.3971658467
  0
LINE
  5
2E1
100
AcDbEntity
  8
0
100
AcDbLine
 62
7
  6
CONTINUOUS
 10
316.8437011593
 20
173.6171658467
 11
316.9437011593
 21
173.6171658467
  0
LINE
  5
2E2
100
AcDbEntity
  8
0
100
AcDbLine
 62
7
  6
CONTINUOUS
 10
316.8437011593
 20
174.4171658467
 11
316.9437011593
 21
174.4171658467
  0
LINE
  5
2E3
100
AcDbEntity
  8
0
100
AcDbLine
 62
7
  6
CONTINUOUS
 10
320.1237011593
 20
174.5771658467
 11
321.7237011593
 21
174.5771658467
  0
LINE
  5
2E4
100
AcDbEntity
  8
0
100
AcDbLine
 62
7
  6
CONTINUOUS
 10
316.8437011593
 20
174.6371658467
 11
316.9437011593
 21
174.6371658467
  0
LINE
  5
2E5
100
AcDbEntity
  8
0
100
AcDbLine
 62
7
  6
CONTINUOUS
 10
316.8437011593
 20
175.1371658467
 11
316.9437011593
 21
175.1371658467
  0
LINE
  5
2E6
100
AcDbEntity
  8
0
100
AcDbLine
 62
7
  6
CONTINUOUS
 10
316.8437011593
 20
175.6371658467
 11
316.9437011593
 21
175.6371658467
  0
LINE
  5
2E7
100
AcDbEntity
  8
0
100
AcDbLine
 62
7
  6
CONTINUOUS
 10
316.8437011593
 20
175.6571658467
 11
316.9437011593
 21
175.6571658467
  0
LINE
  5
2E8
100
AcDbEntity
  8
0
100
AcDbLine
 62
7
  6
CONTINUOUS
 10
311.6060012723
 20
207.2409501583
 11
311.6374178448
 21
207.1711298986
  0
LINE
  5
2E9
100
AcDbEntity
  8
0
100
AcDbLine
 62
7
  6
CONTINUOUS
 10
311.5376702271
 20
212.3090249116
 11
311.6060012723
 21
212.1571658467
  0
LINE
  5
2EA
100
AcDbEntity
  8
0
100
AcDbLine
 62
7
  6
CONTINUOUS
 10
329.5956182304
 20
215.4071658467
 11
329.5956182304
 21
212.2571658467
  0
LINE
  5
2EB
100
AcDbEntity
  8
0
100
AcDbLine
 62
7
  6
CONTINUOUS
 10
329.5956182304
 20
210.7571658467
 11
329.5956182304
 21
207.6071658467
  0
LINE
  5
2EC
100
AcDbEntity
  8
0
100
AcDbLine
 62
7
  6
CONTINUOUS
 10
329.5956182304
 20
134.9071658467
 11
329.5956182304
 21
131.7571658467
  0
LINE
  5
2ED
100
AcDbEntity
  8
0
100
AcDbLine
 62
7
  6
CONTINUOUS
 10
329.5956182304
 20
130.2571658467
 11
329.5956182304
 21
127.1071658467
  0
LINE
  5
2EE
100
AcDbEntity
  8
0
100
AcDbLine
 62
7
  6
CONTINUOUS
 10
330.4437011593
 20
216.2810873693
 11
330.4437011593
 21
215.4071658467
  0
LINE
  5
2EF
100
AcDbEntity
  8
0
100
AcDbLine
 62
7
  6
CONTINUOUS
 10
330.4437011593
 20
212.2571658467
 11
330.4437011593
 21
210.7571658467
  0
LINE
  5
2F0
100
AcDbEntity
  8
0
100
AcDbLine
 62
7
  6
CONTINUOUS
 10
330.4437011593
 20
207.6071658467
 11
330.4437011593
 21
207.1449473012
  0
LINE
  5
2F1
100
AcDbEntity
  8
0
100
AcDbLine
 62
7
  6
CONTINUOUS
 10
330.4437011593
 20
126.3091680738
 11
330.4437011593
 21
127.1071658467
  0
LINE
  5
2F2
100
AcDbEntity
  8
0
100
AcDbLine
 62
7
  6
CONTINUOUS
 10
330.4437011593
 20
130.2571658467
 11
330.4437011593
 21
131.7571658467
  0
LINE
  5
2F3
100
AcDbEntity
  8
0
100
AcDbLine
 62
7
  6
CONTINUOUS
 10
330.4437011593
 20
134.9071658467
 11
330.4437011593
 21
135.9693843921
  0
LINE
  5
2F4
100
AcDbEntity
  8
0
100
AcDbLine
 62
7
  6
CONTINUOUS
 10
330.4837011593
 20
182.6971658467
 11
330.4837011593
 21
168.7071658467
  0
LINE
  5
2F5
100
AcDbEntity
  8
0
100
AcDbLine
 62
7
  6
CONTINUOUS
 10
330.4837011593
 20
135.9379652753
 11
330.4837011593
 21
134.9071658467
  0
LINE
  5
2F6
100
AcDbEntity
  8
0
100
AcDbLine
 62
7
  6
CONTINUOUS
 10
330.4837011593
 20
131.7571658467
 11
330.4837011593
 21
130.2571658467
  0
LINE
  5
2F7
100
AcDbEntity
  8
0
100
AcDbLine
 62
9
  6
CONTINUOUS
 10
330.626759475
 20
180.6445553959
 11
330.626759475
 21
178.5297762975
  0
LINE
  5
2F8
100
AcDbEntity
  8
0
100
AcDbLine
 62
9
  6
CONTINUOUS
 10
330.626759475
 20
170.4845553959
 11
330.626759475
 21
168.7071658467
  0
LINE
  5
2F9
100
AcDbEntity
  8
0
100
AcDbLine
 62
9
  6
CONTINUOUS
 10
330.626759475
 20
131.7571658467
 11
330.626759475
 21
131.0197762975
  0
LINE
  5
2FA
100
AcDbEntity
  8
0
100
AcDbLine
 62
7
  6
CONTINUOUS
 10
330.9437011593
 20
130.2571658467
 11
330.9437011593
 21
131.0279301655
  0
LINE
  5
2FB
100
AcDbEntity
  8
0
100
AcDbLine
 62
7
  6
CONTINUOUS
 10
330.9437011593
 20
134.9071658467
 11
330.9437011593
 21
135.9379652753
  0
LINE
  5
2FC
100
AcDbEntity
  8
0
100
AcDbLine
 62
7
  6
CONTINUOUS
 10
330.9437011593
 20
170.4766694356
 11
330.9437011593
 21
178.5379301655
  0
LINE
  5
2FD
100
AcDbEntity
  8
0
100
AcDbLine
 62
7
  6
CONTINUOUS
 10
330.9437011593
 20
180.6366694356
 11
330.9437011593
 21
183.4071658467
  0
LINE
  5
2FE
100
AcDbEntity
  8
0
100
AcDbLine
 62
9
  6
CONTINUOUS
 10
331.004143404
 20
180.5290476999
 11
331.004143404
 21
178.6452839934
  0
LINE
  5
2FF
100
AcDbEntity
  8
0
100
AcDbLine
 62
9
  6
CONTINUOUS
 10
331.004143404
 20
170.3690476999
 11
331.004143404
 21
168.7071658467
  0
LINE
  5
300
100
AcDbEntity
  8
0
100
AcDbLine
 62
9
  6
CONTINUOUS
 10
331.004143404
 20
131.7571658467
 11
331.004143404
 21
131.1352839934
  0
LINE
  5
301
100
AcDbEntity
  8
0
100
AcDbLine
 62
7
  6
CONTINUOUS
 10
331.1437013381
 20
204.2896450468
 11
331.1437012964
 21
204.4571658467
  0
LINE
  5
302
100
AcDbEntity
  8
0
100
AcDbLine
 62
7
  6
CONTINUOUS
 10
331.2580781612
 20
180.3521658467
 11
331.2580781612
 21
178.8221658467
  0
LINE
  5
303
100
AcDbEntity
  8
0
100
AcDbLine
 62
7
  6
CONTINUOUS
 10
331.2580781612
 20
170.1921658467
 11
331.2580781612
 21
168.7071658467
  0
LINE
  5
304
100
AcDbEntity
  8
0
100
AcDbLine
 62
7
  6
CONTINUOUS
 10
331.2580781612
 20
131.7571658467
 11
331.2580781612
 21
131.3121658467
  0
LINE
  5
305
100
AcDbEntity
  8
0
100
AcDbLine
 62
7
  6
CONTINUOUS
 10
331.4550397118
 20
180.3521658467
 11
331.4550397118
 21
178.8221658467
  0
LINE
  5
306
100
AcDbEntity
  8
0
100
AcDbLine
 62
7
  6
CONTINUOUS
 10
331.4550397118
 20
170.1921658467
 11
331.4550397118
 21
168.7071658467
  0
LINE
  5
307
100
AcDbEntity
  8
0
100
AcDbLine
 62
7
  6
CONTINUOUS
 10
331.4550397118
 20
131.7571658467
 11
331.4550397118
 21
131.3121658467
  0
LINE
  5
308
100
AcDbEntity
  8
0
100
AcDbLine
 62
9
  6
CONTINUOUS
 10
331.5521631834
 20
131.3121658467
 11
331.5521631834
 21
131.7571658467
  0
LINE
  5
309
100
AcDbEntity
  8
0
100
AcDbLine
 62
9
  6
CONTINUOUS
 10
331.5521631834
 20
168.7071658467
 11
331.5521631834
 21
170.1921658467
  0
LINE
  5
30A
100
AcDbEntity
  8
0
100
AcDbLine
 62
9
  6
CONTINUOUS
 10
331.5521631834
 20
178.8221658467
 11
331.5521631834
 21
180.3521658467
  0
LINE
  5
30B
100
AcDbEntity
  8
0
100
AcDbLine
 62
7
  6
CONTINUOUS
 10
331.6737011593
 20
131.3121658467
 11
331.6737011593
 21
131.7571658467
  0
LINE
  5
30C
100
AcDbEntity
  8
0
100
AcDbLine
 62
7
  6
CONTINUOUS
 10
331.6737011593
 20
168.7071658467
 11
331.6737011593
 21
170.1921658467
  0
LINE
  5
30D
100
AcDbEntity
  8
0
100
AcDbLine
 62
7
  6
CONTINUOUS
 10
331.6737011593
 20
178.8221658467
 11
331.6737011593
 21
180.3521658467
  0
LINE
  5
30E
100
AcDbEntity
  8
0
100
AcDbLine
 62
7
  6
CONTINUOUS
 10
331.9937011593
 20
126.3354681763
 11
331.9937011593
 21
126.3571658467
  0
LINE
  5
30F
100
AcDbEntity
  8
0
100
AcDbLine
 62
7
  6
CONTINUOUS
 10
332.1437056366
 20
204.4571658467
 11
332.143706744
 21
204.3211330135
  0
LINE
  5
310
100
AcDbEntity
  8
0
100
AcDbLine
 62
7
  6
CONTINUOUS
 10
332.3937011593
 20
202.4071658467
 11
332.3937011593
 21
203.1071658467
  0
LINE
  5
311
100
AcDbEntity
  8
0
100
AcDbLine
 62
7
  6
CONTINUOUS
 10
332.9750067178
 20
216.2924322975
 11
332.9750067178
 21
218.6758602882
  0
LINE
  5
312
100
AcDbEntity
  8
0
100
AcDbLine
 62
7
  6
CONTINUOUS
 10
333.0937011593
 20
168.7071658467
 11
333.0937011593
 21
191.6071658467
  0
LINE
  5
313
100
AcDbEntity
  8
0
100
AcDbLine
 62
7
  6
CONTINUOUS
 10
333.0937011593
 20
216.2330895965
 11
333.0937011593
 21
218.5571658467
  0
LINE
  5
314
100
AcDbEntity
  8
0
100
AcDbLine
 62
7
  6
CONTINUOUS
 10
311.5437011593
 20
131.6571658467
 11
311.4843584584
 21
131.5384714052
  0
LINE
  5
315
100
AcDbEntity
  8
0
100
AcDbLine
 62
7
  6
CONTINUOUS
 10
316.8437011593
 20
176.4071658467
 11
316.9437011593
 21
176.4071658467
  0
LINE
  5
316
100
AcDbEntity
  8
0
100
AcDbLine
 62
7
  6
CONTINUOUS
 10
316.8437011593
 20
176.9071658467
 11
316.9437011593
 21
176.9071658467
  0
LINE
  5
317
100
AcDbEntity
  8
0
100
AcDbLine
 62
7
  6
CONTINUOUS
 10
316.8437011593
 20
177.4621658467
 11
316.9437011593
 21
177.4621658467
  0
LINE
  5
318
100
AcDbEntity
  8
0
100
AcDbLine
 62
7
  6
CONTINUOUS
 10
316.8437011593
 20
177.6671658467
 11
316.9437011593
 21
177.6671658467
  0
LINE
  5
319
100
AcDbEntity
  8
0
100
AcDbLine
 62
7
  6
CONTINUOUS
 10
316.8437011593
 20
178.4671658467
 11
316.9437011593
 21
178.4671658467
  0
LINE
  5
31A
100
AcDbEntity
  8
0
100
AcDbLine
 62
7
  6
CONTINUOUS
 10
331.2580781612
 20
178.8221658467
 11
331.6736556757
 21
178.8221658467
  0
LINE
  5
31B
100
AcDbEntity
  8
0
100
AcDbLine
 62
7
  6
CONTINUOUS
 10
316.8437011593
 20
179.3071658467
 11
316.9437011593
 21
179.3071658467
  0
LINE
  5
31C
100
AcDbEntity
  8
0
100
AcDbLine
 62
7
  6
CONTINUOUS
 10
311.3084347086
 20
210.9758602882
 11
311.3677774096
 21
210.8571658467
  0
LINE
  5
31D
100
AcDbEntity
  8
0
100
AcDbLine
 62
7
  6
CONTINUOUS
 10
336.6998627578
 20
122.9071658467
 11
336.6361762191
 21
124.9071658467
  0
LINE
  5
31E
100
AcDbEntity
  8
0
100
AcDbLine
 62
7
  6
CONTINUOUS
 10
336.9660417536
 20
126.2457204261
 11
336.9686331405
 21
125.9071658467
  0
LINE
  5
31F
100
AcDbEntity
  8
0
100
AcDbLine
 62
7
  6
CONTINUOUS
 10
333.6020504338
 20
168.7071658467
 11
333.6020504338
 21
190.7988165722
  0
LINE
  5
320
100
AcDbEntity
  8
0
100
AcDbLine
 62
7
  6
CONTINUOUS
 10
333.6937011593
 20
168.7071658467
 11
333.6937011593
 21
190.7071658467
  0
LINE
  5
321
100
AcDbEntity
  8
0
100
AcDbLine
 62
7
  6
CONTINUOUS
 10
333.6937011593
 20
202.4071658467
 11
333.6937011593
 21
204.3642669619
  0
LINE
  5
322
100
AcDbEntity
  8
0
100
AcDbLine
 62
7
  6
CONTINUOUS
 10
333.7314826139
 20
193.9071658467
 11
333.7314826139
 21
191.6071658467
  0
LINE
  5
323
100
AcDbEntity
  8
0
100
AcDbLine
 62
7
  6
CONTINUOUS
 10
333.7437011593
 20
191.6193843921
 11
333.7437011593
 21
193.9071658467
  0
LINE
  5
324
100
AcDbEntity
  8
0
100
AcDbLine
 62
7
  6
CONTINUOUS
 10
333.8937011593
 20
204.4571658467
 11
333.8937011593
 21
206.4071658467
  0
LINE
  5
325
100
AcDbEntity
  8
0
100
AcDbLine
 62
7
  6
CONTINUOUS
 10
333.9041734007
 20
204.4571658467
 11
333.9041734007
 21
168.6966936053
  0
LINE
  5
326
100
AcDbEntity
  8
0
100
AcDbLine
 62
7
  6
CONTINUOUS
 10
333.9111548949
 20
206.4071658467
 11
333.9111548949
 21
204.4990920701
  0
LINE
  5
327
100
AcDbEntity
  8
0
100
AcDbLine
 62
7
  6
CONTINUOUS
 10
334.5568940504
 20
215.4071658467
 11
334.5568940504
 21
212.2571658467
  0
LINE
  5
328
100
AcDbEntity
  8
0
100
AcDbLine
 62
7
  6
CONTINUOUS
 10
334.5568940504
 20
210.7571658467
 11
334.5568940504
 21
207.6071658467
  0
LINE
  5
329
100
AcDbEntity
  8
0
100
AcDbLine
 62
7
  6
CONTINUOUS
 10
334.5568940504
 20
134.9071658467
 11
334.5568940504
 21
131.7571658467
  0
LINE
  5
32A
100
AcDbEntity
  8
0
100
AcDbLine
 62
7
  6
CONTINUOUS
 10
334.5568940504
 20
130.2571658467
 11
334.5568940504
 21
127.1071658467
  0
LINE
  5
32B
100
AcDbEntity
  8
0
100
AcDbLine
 62
7
  6
CONTINUOUS
 10
335.7437011593
 20
215.4071658467
 11
335.7437011593
 21
216.1571658467
  0
LINE
  5
32C
100
AcDbEntity
  8
0
100
AcDbLine
 62
7
  6
CONTINUOUS
 10
335.7937011593
 20
168.6966936053
 11
335.7937011593
 21
204.4571658467
  0
LINE
  5
32D
100
AcDbEntity
  8
0
100
AcDbLine
 62
7
  6
CONTINUOUS
 10
335.8094234931
 20
168.694075545
 11
335.8094234931
 21
204.4728881805
  0
LINE
  5
32E
100
AcDbEntity
  8
0
100
AcDbLine
 62
7
  6
CONTINUOUS
 10
335.9437011593
 20
215.4071658467
 11
335.9437011593
 21
212.2571658467
  0
LINE
  5
32F
100
AcDbEntity
  8
0
100
AcDbLine
 62
7
  6
CONTINUOUS
 10
335.9437011593
 20
210.7571658467
 11
335.9437011593
 21
207.6071658467
  0
LINE
  5
330
100
AcDbEntity
  8
0
100
AcDbLine
 62
7
  6
CONTINUOUS
 10
335.9437011593
 20
134.9071658467
 11
335.9437011593
 21
131.7571658467
  0
LINE
  5
331
100
AcDbEntity
  8
0
100
AcDbLine
 62
7
  6
CONTINUOUS
 10
335.9437011593
 20
130.2571658467
 11
335.9437011593
 21
127.1071658467
  0
LINE
  5
332
100
AcDbEntity
  8
0
100
AcDbLine
 62
7
  6
CONTINUOUS
 10
336.0937011593
 20
218.5571658467
 11
336.0937011593
 21
216.2330895965
  0
LINE
  5
333
100
AcDbEntity
  8
0
100
AcDbLine
 62
7
  6
CONTINUOUS
 10
336.1937011593
 20
124.9071658467
 11
336.1937011593
 21
125.9071658467
  0
LINE
  5
334
100
AcDbEntity
  8
0
100
AcDbLine
 62
7
  6
CONTINUOUS
 10
336.2123956008
 20
218.6758602882
 11
336.2123956008
 21
216.2924322975
  0
LINE
  5
335
100
AcDbEntity
  8
0
100
AcDbLine
 62
7
  6
CONTINUOUS
 10
336.4437011593
 20
126.2978231457
 11
336.4437011593
 21
125.9071658467
  0
LINE
  5
336
100
AcDbEntity
  8
0
100
AcDbLine
 62
7
  6
CONTINUOUS
 10
336.7186331405
 20
125.9071658467
 11
336.7186331405
 21
124.9071658467
  0
LINE
  5
337
100
AcDbEntity
  8
0
100
AcDbLine
 62
7
  6
CONTINUOUS
 10
331.6736556757
 20
180.3521658467
 11
331.2580781612
 21
180.3521658467
  0
LINE
  5
338
100
AcDbEntity
  8
0
100
AcDbLine
 62
7
  6
CONTINUOUS
 10
316.9437011593
 20
182.4071658467
 11
316.8437011593
 21
182.4071658467
  0
LINE
  5
339
100
AcDbEntity
  8
0
100
AcDbLine
 62
7
  6
CONTINUOUS
 10
316.8437011593
 20
182.4971658467
 11
316.9437011593
 21
182.4971658467
  0
LINE
  5
33A
100
AcDbEntity
  8
0
100
AcDbLine
 62
7
  6
CONTINUOUS
 10
316.8437011593
 20
182.6971658467
 11
316.9437011593
 21
182.6971658467
  0
LINE
  5
33B
100
AcDbEntity
  8
0
100
AcDbLine
 62
7
  6
CONTINUOUS
 10
324.4437011593
 20
182.6971658467
 11
330.4837011593
 21
182.6971658467
  0
LINE
  5
33C
100
AcDbEntity
  8
0
100
AcDbLine
 62
9
  6
CONTINUOUS
 10
329.3815680273
 20
182.8662984889
 11
327.2758342913
 21
182.8662984889
  0
LINE
  5
33D
100
AcDbEntity
  8
0
100
AcDbLine
 62
9
  6
CONTINUOUS
 10
329.2662449263
 20
183.2673143109
 11
327.3911573923
 21
183.2673143109
  0
LINE
  5
33E
100
AcDbEntity
  8
0
100
AcDbLine
 62
7
  6
CONTINUOUS
 10
329.0937011593
 20
183.3502042961
 11
327.5637011593
 21
183.3502042961
  0
LINE
  5
33F
100
AcDbEntity
  8
0
100
AcDbLine
 62
7
  6
CONTINUOUS
 10
330.9437011593
 20
183.4071658467
 11
329.301933902
 21
183.4071658467
  0
LINE
  5
340
100
AcDbEntity
  8
0
100
AcDbLine
 62
7
  6
CONTINUOUS
 10
327.355618714
 20
183.4071658467
 11
324.4437011593
 21
183.4071658467
  0
LINE
  5
341
100
AcDbEntity
  8
0
100
AcDbLine
 62
7
  6
CONTINUOUS
 10
316.9437011593
 20
183.4071658467
 11
316.8437011593
 21
183.4071658467
  0
LINE
  5
342
100
AcDbEntity
  8
0
100
AcDbLine
 62
7
  6
CONTINUOUS
 10
329.0937011593
 20
183.5471658467
 11
327.5637011593
 21
183.5471658467
  0
LINE
  5
343
100
AcDbEntity
  8
0
100
AcDbLine
 62
7
  6
CONTINUOUS
 10
339.4491337175
 20
134.1210927038
 11
339.45514658
 21
126.2457204261
  0
LINE
  5
344
100
AcDbEntity
  8
0
100
AcDbLine
 62
7
  6
CONTINUOUS
 10
336.9686331405
 20
122.9071658467
 11
336.9686331405
 21
124.9071658467
  0
LINE
  5
345
100
AcDbEntity
  8
0
100
AcDbLine
 62
7
  6
CONTINUOUS
 10
337.3779788256
 20
168.694075545
 11
337.3779788256
 21
204.4728881805
  0
LINE
  5
346
100
AcDbEntity
  8
0
100
AcDbLine
 62
7
  6
CONTINUOUS
 10
337.3937011593
 20
168.6966936053
 11
337.3937011593
 21
204.4571658467
  0
LINE
  5
347
100
AcDbEntity
  8
0
100
AcDbLine
 62
7
  6
CONTINUOUS
 10
337.7687011593
 20
212.1571658467
 11
337.7687011593
 21
210.8571658467
  0
LINE
  5
348
100
AcDbEntity
  8
0
100
AcDbLine
 62
7
  6
CONTINUOUS
 10
337.7687011593
 20
130.3571658467
 11
337.7687011593
 21
131.6571658467
  0
LINE
  5
349
100
AcDbEntity
  8
0
100
AcDbLine
 62
7
  6
CONTINUOUS
 10
337.8368409538
 20
212.0890260522
 11
337.8368409538
 21
210.9253056412
  0
LINE
  5
34A
100
AcDbEntity
  8
0
100
AcDbLine
 62
7
  6
CONTINUOUS
 10
337.8368409538
 20
131.5890260522
 11
337.8368409538
 21
130.4253056412
  0
LINE
  5
34B
100
AcDbEntity
  8
0
100
AcDbLine
 62
7
  6
CONTINUOUS
 10
338.2437011593
 20
212.6571658467
 11
338.2437011593
 21
216.1571658467
  0
LINE
  5
34C
100
AcDbEntity
  8
0
100
AcDbLine
 62
7
  6
CONTINUOUS
 10
339.0937011593
 20
210.0071658467
 11
339.0937011593
 21
210.8571658467
  0
LINE
  5
34D
100
AcDbEntity
  8
0
100
AcDbLine
 62
7
  6
CONTINUOUS
 10
339.0937011593
 20
212.1571658467
 11
339.0937011593
 21
212.7071658467
  0
LINE
  5
34E
100
AcDbEntity
  8
0
100
AcDbLine
 62
7
  6
CONTINUOUS
 10
339.1873956008
 20
212.0384714052
 11
339.1873956008
 21
210.9758602882
  0
LINE
  5
34F
100
AcDbEntity
  8
0
100
AcDbLine
 62
7
  6
CONTINUOUS
 10
339.1873956008
 20
131.5384714052
 11
339.1873956008
 21
130.4758602882
  0
LINE
  5
350
100
AcDbEntity
  8
0
100
AcDbLine
 62
7
  6
CONTINUOUS
 10
339.2814010464
 20
130.3571658467
 11
339.2814010464
 21
126.3571658467
  0
LINE
  5
351
100
AcDbEntity
  8
0
100
AcDbLine
 62
7
  6
CONTINUOUS
 10
339.2814010464
 20
131.6571658467
 11
339.2814010464
 21
135.873381535
  0
LINE
  5
352
100
AcDbEntity
  8
0
100
AcDbLine
 62
7
  6
CONTINUOUS
 10
339.2814010464
 20
207.2409501584
 11
339.2814010464
 21
210.8571658467
  0
LINE
  5
353
100
AcDbEntity
  8
0
100
AcDbLine
 62
7
  6
CONTINUOUS
 10
339.3437011593
 20
126.3571658467
 11
339.3437011593
 21
130.3571658467
  0
LINE
  5
354
100
AcDbEntity
  8
0
100
AcDbLine
 62
7
  6
CONTINUOUS
 10
339.3437011593
 20
131.6571658467
 11
339.3437011593
 21
135.873381535
  0
LINE
  5
355
100
AcDbEntity
  8
0
100
AcDbLine
 62
7
  6
CONTINUOUS
 10
339.3497320916
 20
212.3090249116
 11
339.3497320916
 21
216.1571658467
  0
LINE
  5
356
100
AcDbEntity
  8
0
100
AcDbLine
 62
7
  6
CONTINUOUS
 10
339.3937011593
 20
168.6966936053
 11
339.3937011593
 21
204.4571658467
  0
LINE
  5
357
100
AcDbEntity
  8
0
100
AcDbLine
 62
7
  6
CONTINUOUS
 10
339.4030438603
 20
135.9920759766
 11
339.4030438603
 21
135.7071658467
  0
LINE
  5
358
100
AcDbEntity
  8
0
100
AcDbLine
 62
7
  6
CONTINUOUS
 10
339.4030438603
 20
130.4758602882
 11
339.4030438603
 21
131.5384714052
  0
LINE
  5
359
100
AcDbEntity
  8
0
100
AcDbLine
 62
7
  6
CONTINUOUS
 10
339.4356273828
 20
168.6897121111
 11
339.4356273828
 21
204.4990920701
  0
LINE
  5
35A
100
AcDbEntity
  8
0
100
AcDbLine
 62
7
  6
CONTINUOUS
 10
339.4437011593
 20
212.3090249116
 11
339.4437011593
 21
216.1571658467
  0
LINE
  5
35B
100
AcDbEntity
  8
0
100
AcDbLine
 62
7
  6
CONTINUOUS
 10
339.5196249091
 20
207.2409501584
 11
339.5196249091
 21
210.8571658467
  0
LINE
  5
35C
100
AcDbEntity
  8
0
100
AcDbLine
 62
7
  6
CONTINUOUS
 10
339.5789676101
 20
208.1571658467
 11
339.5789676101
 21
207.1222557168
  0
LINE
  5
35D
100
AcDbEntity
  8
0
100
AcDbLine
 62
7
  6
CONTINUOUS
 10
339.5845003663
 20
220.507163057
 11
339.5845005104
 21
208.1571658467
  0
LINE
  5
35E
100
AcDbEntity
  8
0
100
AcDbLine
 62
7
  6
CONTINUOUS
 10
340.0920579118
 20
220.0071658467
 11
340.0920579118
 21
208.1571658467
  0
LINE
  5
35F
100
AcDbEntity
  8
0
100
AcDbLine
 62
9
  6
CONTINUOUS
 10
329.0937011593
 20
183.7913530021
 11
327.5637011593
 21
183.7913530021
  0
LINE
  5
360
100
AcDbEntity
  8
0
100
AcDbLine
 62
7
  6
CONTINUOUS
 10
327.5637011593
 20
183.8871658467
 11
329.0937011593
 21
183.8871658467
  0
LINE
  5
361
100
AcDbEntity
  8
0
100
AcDbLine
 62
7
  6
CONTINUOUS
 10
311.3437011593
 20
204.4571658467
 11
311.3017749359
 21
204.4990920701
  0
LINE
  5
362
100
AcDbEntity
  8
0
100
AcDbLine
 62
7
  6
CONTINUOUS
 10
323.4437011593
 20
223.7287417775
 11
324.2187011593
 21
221.1938309982
  0
LINE
  5
363
100
AcDbEntity
  8
0
100
AcDbLine
 62
7
  6
CONTINUOUS
 10
341.4437011593
 20
120.3413553587
 11
341.4437011593
 21
220.5071658467
  0
LINE
  5
364
100
AcDbEntity
  8
0
100
AcDbLine
 62
7
  6
CONTINUOUS
 10
333.8937011593
 20
190.7071658467
 11
333.6937011593
 21
190.7071658467
  0
LINE
  5
365
100
AcDbEntity
  8
0
100
AcDbLine
 62
7
  6
CONTINUOUS
 10
333.8937011593
 20
190.7988165722
 11
333.6020504338
 21
190.7988165722
  0
LINE
  5
366
100
AcDbEntity
  8
0
100
AcDbLine
 62
7
  6
CONTINUOUS
 10
314.9437011593
 20
204.4571658467
 11
314.9279788256
 21
204.4728881805
  0
LINE
  5
367
100
AcDbEntity
  8
0
100
AcDbLine
 62
7
  6
CONTINUOUS
 10
313.0505613648
 20
131.5890260522
 11
313.1187011593
 21
131.6571658467
  0
LINE
  5
368
100
AcDbEntity
  8
0
100
AcDbLine
 62
7
  6
CONTINUOUS
 10
333.0937011593
 20
191.4740012233
 11
333.8937011593
 21
191.4740012233
  0
LINE
  5
369
100
AcDbEntity
  8
0
100
AcDbLine
 62
7
  6
CONTINUOUS
 10
333.0937011593
 20
191.5071658467
 11
333.8937011593
 21
191.5071658467
  0
LINE
  5
36A
100
AcDbEntity
  8
0
100
AcDbLine
 62
7
  6
CONTINUOUS
 10
333.0937011593
 20
191.6071658467
 11
333.7314826139
 21
191.6071658467
  0
LINE
  5
36B
100
AcDbEntity
  8
0
100
AcDbLine
 62
7
  6
CONTINUOUS
 10
333.7437011593
 20
191.6193843921
 11
333.8937011593
 21
191.6193843921
  0
LINE
  5
36C
100
AcDbEntity
  8
0
100
AcDbLine
 62
7
  6
CONTINUOUS
 10
313.1187011593
 20
210.8571658467
 11
313.0505613648
 21
210.9253056412
  0
LINE
  5
36D
100
AcDbEntity
  8
0
100
AcDbLine
 62
7
  6
CONTINUOUS
 10
333.6020504338
 20
190.7988165722
 11
333.6937011593
 21
190.7071658467
  0
LINE
  5
36E
100
AcDbEntity
  8
0
100
AcDbLine
 62
7
  6
CONTINUOUS
 10
311.3084347086
 20
216.2924322974
 11
311.4437011593
 21
216.1571658467
  0
LINE
  5
36F
100
AcDbEntity
  8
0
100
AcDbLine
 62
7
  6
CONTINUOUS
 10
323.9137011593
 20
220.1321658467
 11
323.9254982265
 21
220.1083878646
  0
LINE
  5
370
100
AcDbEntity
  8
0
100
AcDbLine
 62
7
  6
CONTINUOUS
 10
311.5437011593
 20
126.3571658467
 11
311.4322557387
 21
126.2457204261
  0
LINE
  5
371
100
AcDbEntity
  8
0
100
AcDbLine
 62
7
  6
CONTINUOUS
 10
316.8437011593
 20
197.9971658467
 11
316.9437011593
 21
197.9971658467
  0
LINE
  5
372
100
AcDbEntity
  8
0
100
AcDbLine
 62
7
  6
CONTINUOUS
 10
314.9437011593
 20
218.5571658467
 11
314.8250067178
 21
218.6758602882
  0
LINE
  5
373
100
AcDbEntity
  8
0
100
AcDbLine
 62
7
  6
CONTINUOUS
 10
326.9689986124
 20
218.217299662
 11
326.9145067242
 21
218.3238491793
  0
LINE
  5
374
100
AcDbEntity
  8
0
100
AcDbLine
 62
7
  6
CONTINUOUS
 10
339.3437011593
 20
135.873381535
 11
339.4030438603
 21
135.9920759766
  0
LINE
  5
375
100
AcDbEntity
  8
0
100
AcDbLine
 62
7
  6
CONTINUOUS
 10
316.8437011593
 20
198.4971658467
 11
316.9437011593
 21
198.4971658467
  0
LINE
  5
376
100
AcDbEntity
  8
0
100
AcDbLine
 62
7
  6
CONTINUOUS
 10
316.8437011593
 20
199.2671658467
 11
316.9437011593
 21
199.2671658467
  0
LINE
  5
377
100
AcDbEntity
  8
0
100
AcDbLine
 62
7
  6
CONTINUOUS
 10
316.8437011593
 20
199.7671658467
 11
316.9437011593
 21
199.7671658467
  0
LINE
  5
378
100
AcDbEntity
  8
0
100
AcDbLine
 62
7
  6
CONTINUOUS
 10
321.7237011593
 20
200.3271658467
 11
320.1237011593
 21
200.3271658467
  0
LINE
  5
379
100
AcDbEntity
  8
0
100
AcDbLine
 62
7
  6
CONTINUOUS
 10
339.5789676101
 20
207.1222557168
 11
339.5196249091
 21
207.2409501584
  0
LINE
  5
37A
100
AcDbEntity
  8
0
100
AcDbLine
 62
7
  6
CONTINUOUS
 10
339.3437011593
 20
130.3571658467
 11
339.4030438603
 21
130.4758602882
  0
LINE
  5
37B
100
AcDbEntity
  8
0
100
AcDbLine
 62
7
  6
CONTINUOUS
 10
322.3778230666
 20
202.3431092074
 11
318.9778230664
 21
201.432081953
  0
LINE
  5
37C
100
AcDbEntity
  8
0
100
AcDbLine
 62
7
  6
CONTINUOUS
 10
318.7778268782
 20
202.7139994086
 11
322.1778268781
 21
203.6250266629
  0
LINE
  5
37D
100
AcDbEntity
  8
0
100
AcDbLine
 62
7
  6
CONTINUOUS
 10
332.3937011593
 20
202.4071658467
 11
333.6937011593
 21
202.4071658467
  0
LINE
  5
37E
100
AcDbEntity
  8
0
100
AcDbLine
 62
7
  6
CONTINUOUS
 10
332.3937011593
 20
203.1071658467
 11
324.4437011593
 21
203.1071658467
  0
LINE
  5
37F
100
AcDbEntity
  8
0
100
AcDbLine
 62
7
  6
CONTINUOUS
 10
339.3937011593
 20
204.4571658467
 11
337.3937011593
 21
204.4571658467
  0
LINE
  5
380
100
AcDbEntity
  8
0
100
AcDbLine
 62
7
  6
CONTINUOUS
 10
335.7937011593
 20
204.4571658467
 11
333.9041734007
 21
204.4571658467
  0
LINE
  5
381
100
AcDbEntity
  8
0
100
AcDbLine
 62
7
  6
CONTINUOUS
 10
316.833228918
 20
204.4571658467
 11
314.9437011593
 21
204.4571658467
  0
LINE
  5
382
100
AcDbEntity
  8
0
100
AcDbLine
 62
7
  6
CONTINUOUS
 10
313.3437011593
 20
204.4571658467
 11
311.3437011593
 21
204.4571658467
  0
LINE
  5
383
100
AcDbEntity
  8
0
100
AcDbLine
 62
7
  6
CONTINUOUS
 10
316.8437011593
 20
204.4571658467
 11
333.8937011593
 21
204.4571658467
  0
LINE
  5
384
100
AcDbEntity
  8
0
100
AcDbLine
 62
7
  6
CONTINUOUS
 10
337.3779788256
 20
204.4728881805
 11
335.8094234931
 21
204.4728881805
  0
LINE
  5
385
100
AcDbEntity
  8
0
100
AcDbLine
 62
7
  6
CONTINUOUS
 10
314.9279788256
 20
204.4728881805
 11
313.3594234931
 21
204.4728881805
  0
LINE
  5
386
100
AcDbEntity
  8
0
100
AcDbLine
 62
7
  6
CONTINUOUS
 10
339.4356273828
 20
204.4990920701
 11
333.9111548949
 21
204.4990920701
  0
LINE
  5
387
100
AcDbEntity
  8
0
100
AcDbLine
 62
7
  6
CONTINUOUS
 10
316.8262474238
 20
204.4990920701
 11
311.3017749359
 21
204.4990920701
  0
LINE
  5
388
100
AcDbEntity
  8
0
100
AcDbLine
 62
7
  6
CONTINUOUS
 10
339.5789676101
 20
212.0384714052
 11
339.4437011593
 21
212.3090249116
  0
LINE
  5
389
100
AcDbEntity
  8
0
100
AcDbLine
 62
7
  6
CONTINUOUS
 10
316.8262474238
 20
206.4071658467
 11
333.9111548949
 21
206.4071658467
  0
LINE
  5
38A
100
AcDbEntity
  8
0
100
AcDbLine
 62
7
  6
CONTINUOUS
 10
311.3084347086
 20
207.1222557168
 11
339.5789676101
 21
207.1222557168
  0
LINE
  5
38B
100
AcDbEntity
  8
0
100
AcDbLine
 62
7
  6
CONTINUOUS
 10
330.4437011593
 20
207.1449473012
 11
320.4437011593
 21
207.1449473012
  0
LINE
  5
38C
100
AcDbEntity
  8
0
100
AcDbLine
 62
7
  6
CONTINUOUS
 10
339.2499844738
 20
207.1711298986
 11
330.4437011593
 21
207.1711298986
  0
LINE
  5
38D
100
AcDbEntity
  8
0
100
AcDbLine
 62
7
  6
CONTINUOUS
 10
320.4437011593
 20
207.1711298986
 11
311.6374178448
 21
207.1711298986
  0
LINE
  5
38E
100
AcDbEntity
  8
0
100
AcDbLine
 62
7
  6
CONTINUOUS
 10
339.5196249091
 20
207.2409501583
 11
339.2814010464
 21
207.2409501584
  0
LINE
  5
38F
100
AcDbEntity
  8
0
100
AcDbLine
 62
7
  6
CONTINUOUS
 10
311.3677774096
 20
207.2409501583
 11
311.6060012723
 21
207.2409501583
  0
LINE
  5
390
100
AcDbEntity
  8
0
100
AcDbLine
 62
7
  6
CONTINUOUS
 10
314.9437011593
 20
207.6071658467
 11
335.9437011593
 21
207.6071658467
  0
LINE
  5
391
100
AcDbEntity
  8
0
100
AcDbLine
 62
7
  6
CONTINUOUS
 10
309.4437011593
 20
208.1571658467
 11
311.3029018083
 21
208.1571658467
  0
LINE
  5
392
100
AcDbEntity
  8
0
100
AcDbLine
 62
7
  6
CONTINUOUS
 10
339.5845005104
 20
208.1571658467
 11
341.4437011593
 21
208.1571658467
  0
LINE
  5
393
100
AcDbEntity
  8
0
100
AcDbLine
 62
7
  6
CONTINUOUS
 10
314.9437011593
 20
216.2330895965
 11
314.8250067178
 21
216.2924322975
  0
LINE
  5
394
100
AcDbEntity
  8
0
100
AcDbLine
 62
7
  6
CONTINUOUS
 10
337.8368409538
 20
130.4253056412
 11
337.7687011593
 21
130.3571658467
  0
LINE
  5
395
100
AcDbEntity
  8
0
100
AcDbLine
 62
7
  6
CONTINUOUS
 10
337.8368409538
 20
210.9253056412
 11
339.1873956008
 21
210.9758602882
  0
LINE
  5
396
100
AcDbEntity
  8
0
100
AcDbLine
 62
7
  6
CONTINUOUS
 10
313.0505613648
 20
212.0890260522
 11
311.7000067178
 21
212.0384714052
  0
LINE
  5
397
100
AcDbEntity
  8
0
100
AcDbLine
 62
7
  6
CONTINUOUS
 10
311.6060012723
 20
210.0071658467
 11
311.7937011593
 21
210.0071658467
  0
LINE
  5
398
100
AcDbEntity
  8
0
100
AcDbLine
 62
7
  6
CONTINUOUS
 10
339.0937011593
 20
210.0071658467
 11
339.2814010464
 21
210.0071658467
  0
LINE
  5
399
100
AcDbEntity
  8
0
100
AcDbLine
 62
7
  6
CONTINUOUS
 10
314.9437011593
 20
210.7571658467
 11
323.9437011593
 21
210.7571658467
  0
LINE
  5
39A
100
AcDbEntity
  8
0
100
AcDbLine
 62
7
  6
CONTINUOUS
 10
326.9437011593
 20
210.7571658467
 11
335.9437011593
 21
210.7571658467
  0
LINE
  5
39B
100
AcDbEntity
  8
0
100
AcDbLine
 62
7
  6
CONTINUOUS
 10
311.3677774096
 20
210.8571658467
 11
313.1187011593
 21
210.8571658467
  0
LINE
  5
39C
100
AcDbEntity
  8
0
100
AcDbLine
 62
7
  6
CONTINUOUS
 10
337.7687011593
 20
210.8571658467
 11
339.5196249091
 21
210.8571658467
  0
LINE
  5
39D
100
AcDbEntity
  8
0
100
AcDbLine
 62
7
  6
CONTINUOUS
 10
339.5789676101
 20
210.9758602882
 11
339.1873956008
 21
210.9758602882
  0
LINE
  5
39E
100
AcDbEntity
  8
0
100
AcDbLine
 62
7
  6
CONTINUOUS
 10
311.7000067178
 20
210.9758602882
 11
311.3084347086
 21
210.9758602882
  0
LINE
  5
39F
100
AcDbEntity
  8
0
100
AcDbLine
 62
7
  6
CONTINUOUS
 10
311.3084347086
 20
212.0384714052
 11
311.7000067178
 21
212.0384714052
  0
LINE
  5
3A0
100
AcDbEntity
  8
0
100
AcDbLine
 62
7
  6
CONTINUOUS
 10
339.1873956008
 20
212.0384714052
 11
339.5789676101
 21
212.0384714052
  0
LINE
  5
3A1
100
AcDbEntity
  8
0
100
AcDbLine
 62
7
  6
CONTINUOUS
 10
339.2814010464
 20
212.1571658467
 11
337.7687011593
 21
212.1571658467
  0
LINE
  5
3A2
100
AcDbEntity
  8
0
100
AcDbLine
 62
7
  6
CONTINUOUS
 10
313.1187011593
 20
212.1571658467
 11
311.6060012723
 21
212.1571658467
  0
LINE
  5
3A3
100
AcDbEntity
  8
0
100
AcDbLine
 62
7
  6
CONTINUOUS
 10
314.9437011593
 20
212.2571658467
 11
323.9437011593
 21
212.2571658467
  0
LINE
  5
3A4
100
AcDbEntity
  8
0
100
AcDbLine
 62
7
  6
CONTINUOUS
 10
326.9437011593
 20
212.2571658467
 11
335.9437011593
 21
212.2571658467
  0
LINE
  5
3A5
100
AcDbEntity
  8
0
100
AcDbLine
 62
7
  6
CONTINUOUS
 10
339.4437011593
 20
212.3090249116
 11
339.3497320916
 21
212.3090249116
  0
LINE
  5
3A6
100
AcDbEntity
  8
0
100
AcDbLine
 62
7
  6
CONTINUOUS
 10
311.4437011593
 20
212.3090249116
 11
311.5376702271
 21
212.3090249116
  0
LINE
  5
3A7
100
AcDbEntity
  8
0
100
AcDbLine
 62
7
  6
CONTINUOUS
 10
313.0505613648
 20
210.9253056412
 11
311.7000067178
 21
210.9758602882
  0
LINE
  5
3A8
100
AcDbEntity
  8
0
100
AcDbLine
 62
7
  6
CONTINUOUS
 10
337.8368409538
 20
212.0890260522
 11
339.1873956008
 21
212.0384714052
  0
LINE
  5
3A9
100
AcDbEntity
  8
0
100
AcDbLine
 62
7
  6
CONTINUOUS
 10
337.7687011593
 20
212.1571658467
 11
337.8368409538
 21
212.0890260522
  0
LINE
  5
3AA
100
AcDbEntity
  8
0
100
AcDbLine
 62
7
  6
CONTINUOUS
 10
333.0937011593
 20
218.5571658467
 11
332.9750067178
 21
218.6758602882
  0
LINE
  5
3AB
100
AcDbEntity
  8
0
100
AcDbLine
 62
7
  6
CONTINUOUS
 10
338.2437011593
 20
212.6571658467
 11
335.9437011593
 21
212.6571658467
  0
LINE
  5
3AC
100
AcDbEntity
  8
0
100
AcDbLine
 62
7
  6
CONTINUOUS
 10
312.5937011593
 20
212.6571658467
 11
314.9437011593
 21
212.6571658467
  0
LINE
  5
3AD
100
AcDbEntity
  8
0
100
AcDbLine
 62
7
  6
CONTINUOUS
 10
311.5376702271
 20
212.7071658467
 11
311.7937011593
 21
212.7071658467
  0
LINE
  5
3AE
100
AcDbEntity
  8
0
100
AcDbLine
 62
7
  6
CONTINUOUS
 10
339.0937011593
 20
212.7071658467
 11
339.3497320916
 21
212.7071658467
  0
LINE
  5
3AF
100
AcDbEntity
  8
0
100
AcDbLine
 62
7
  6
CONTINUOUS
 10
335.9437011593
 20
215.4071658467
 11
314.9437011593
 21
215.4071658467
  0
LINE
  5
3B0
100
AcDbEntity
  8
0
100
AcDbLine
 62
7
  6
CONTINUOUS
 10
333.0937011593
 20
216.2330895965
 11
332.9750067178
 21
216.2924322975
  0
LINE
  5
3B1
100
AcDbEntity
  8
0
100
AcDbLine
 62
7
  6
CONTINUOUS
 10
311.4437011593
 20
216.1571658467
 11
320.4437011593
 21
216.1571658467
  0
LINE
  5
3B2
100
AcDbEntity
  8
0
100
AcDbLine
 62
7
  6
CONTINUOUS
 10
330.4437011593
 20
216.1571658467
 11
339.4437011593
 21
216.1571658467
  0
LINE
  5
3B3
100
AcDbEntity
  8
0
100
AcDbLine
 62
7
  6
CONTINUOUS
 10
314.9437011593
 20
216.2330895965
 11
317.4437011593
 21
216.2330895965
  0
LINE
  5
3B4
100
AcDbEntity
  8
0
100
AcDbLine
 62
7
  6
CONTINUOUS
 10
333.0937011593
 20
216.2330895965
 11
336.0937011593
 21
216.2330895965
  0
LINE
  5
3B5
100
AcDbEntity
  8
0
100
AcDbLine
 62
7
  6
CONTINUOUS
 10
339.5789676101
 20
216.2924322975
 11
336.2123956008
 21
216.2924322975
  0
LINE
  5
3B6
100
AcDbEntity
  8
0
100
AcDbLine
 62
7
  6
CONTINUOUS
 10
332.9750067178
 20
216.2924322975
 11
326.4437011593
 21
216.2924322975
  0
LINE
  5
3B7
100
AcDbEntity
  8
0
100
AcDbLine
 62
7
  6
CONTINUOUS
 10
324.4437011593
 20
216.2924322975
 11
317.5623956008
 21
216.2924322975
  0
LINE
  5
3B8
100
AcDbEntity
  8
0
100
AcDbLine
 62
7
  6
CONTINUOUS
 10
314.8250067178
 20
216.2924322975
 11
311.3084347086
 21
216.2924322975
  0
LINE
  5
3B9
100
AcDbEntity
  8
0
100
AcDbLine
 62
7
  6
CONTINUOUS
 10
336.0937011593
 20
218.5571658467
 11
333.0937011593
 21
218.5571658467
  0
LINE
  5
3BA
100
AcDbEntity
  8
0
100
AcDbLine
 62
7
  6
CONTINUOUS
 10
317.4437011593
 20
218.5571658467
 11
314.9437011593
 21
218.5571658467
  0
LINE
  5
3BB
100
AcDbEntity
  8
0
100
AcDbLine
 62
7
  6
CONTINUOUS
 10
314.8250067178
 20
218.6758602882
 11
317.5623956008
 21
218.6758602882
  0
LINE
  5
3BC
100
AcDbEntity
  8
0
100
AcDbLine
 62
7
  6
CONTINUOUS
 10
332.9750067178
 20
218.6758602882
 11
336.2123956008
 21
218.6758602882
  0
LINE
  5
3BD
100
AcDbEntity
  8
0
100
AcDbLine
 62
7
  6
CONTINUOUS
 10
329.4437011593
 20
224.1071658467
 11
335.6790840666
 21
220.5071658467
  0
LINE
  5
3BE
100
AcDbEntity
  8
0
100
AcDbLine
 62
7
  6
CONTINUOUS
 10
339.5844925774
 20
220.507163057
 11
340.0920579118
 21
220.0071658467
  0
LINE
  5
3BF
100
AcDbEntity
  8
0
100
AcDbLine
 62
7
  6
CONTINUOUS
 10
309.4437011593
 20
220.0071658467
 11
310.7953444069
 21
220.0071658467
  0
LINE
  5
3C0
100
AcDbEntity
  8
0
100
AcDbLine
 62
7
  6
CONTINUOUS
 10
340.0920579118
 20
220.0071658467
 11
341.4437011593
 21
220.0071658467
  0
LINE
  5
3C1
100
AcDbEntity
  8
0
100
AcDbLine
 62
7
  6
CONTINUOUS
 10
309.4437011593
 20
220.5071658467
 11
311.3029047217
 21
220.5071580052
  0
LINE
  5
3C2
100
AcDbEntity
  8
0
100
AcDbLine
 62
7
  6
CONTINUOUS
 10
339.584497597
 20
220.5071580052
 11
341.4437011593
 21
220.5071658467
  0
LINE
  5
3C3
100
AcDbEntity
  8
0
100
AcDbLine
 62
7
  6
CONTINUOUS
 10
339.5789676101
 20
220.5071658467
 11
335.6790840666
 21
220.5071658467
  0
LINE
  5
3C4
100
AcDbEntity
  8
0
100
AcDbLine
 62
7
  6
CONTINUOUS
 10
315.2083182521
 20
220.5071658467
 11
311.3084347086
 21
220.5071658467
  0
LINE
  5
3C5
100
AcDbEntity
  8
0
100
AcDbLine
 62
7
  6
CONTINUOUS
 10
321.4437011593
 20
224.1071658467
 11
323.4437011593
 21
224.1071658467
  0
LINE
  5
3C6
100
AcDbEntity
  8
0
100
AcDbLine
 62
7
  6
CONTINUOUS
 10
327.4437011593
 20
224.1071658467
 11
329.4437011593
 21
224.1071658467
  0
CIRCLE
  5
3C7
100
AcDbEntity
  8
0
100
AcDbCircle
 62
7
  6
CONTINUOUS
 10
325.4437011593
 20
161.5071658467
 40
5.0
  0
ARC
  5
3C8
100
AcDbEntity
  8
0
100
AcDbCircle
 62
7
  6
CONTINUOUS
 10
325.4437011593
 20
219.2571658467
 40
3.75
100
AcDbArc
 50
63.6803788313
 51
116.3185984784
  0
CIRCLE
  5
3C9
100
AcDbEntity
  8
0
100
AcDbCircle
 62
7
  6
CONTINUOUS
 10
325.4437011593
 20
142.5571658467
 40
3.0
  0
ARC
  5
3CA
100
AcDbEntity
  8
0
100
AcDbCircle
 62
7
  6
CONTINUOUS
 10
322.6437011593
 20
201.8863601756
 40
1.8
100
AcDbArc
 50
0.0
 51
105.0000000022
  0
ARC
  5
3CB
100
AcDbEntity
  8
0
100
AcDbCircle
 62
7
  6
CONTINUOUS
 10
319.2437011593
 20
200.9753329213
 40
1.8
100
AcDbArc
 50
104.9999999986
 51
180.0
  0
ARC
  5
3CC
100
AcDbEntity
  8
0
100
AcDbCircle
 62
7
  6
CONTINUOUS
 10
319.2437011593
 20
173.9289987721
 40
1.8
100
AcDbArc
 50
180.0
 51
255.0000000024
  0
ARC
  5
3CD
100
AcDbEntity
  8
0
100
AcDbCircle
 62
7
  6
CONTINUOUS
 10
322.6437011593
 20
173.0179715178
 40
1.8
100
AcDbArc
 50
254.9999999991
 51
360.0
  0
CIRCLE
  5
3CE
100
AcDbEntity
  8
0
100
AcDbCircle
 62
7
  6
CONTINUOUS
 10
325.4437011593
 20
219.2571658467
 40
1.75
  0
ARC
  5
3CF
100
AcDbEntity
  8
0
100
AcDbCircle
 62
7
  6
CONTINUOUS
 10
325.4437011593
 20
220.2771658467
 40
1.53
100
AcDbArc
 50
0.0
 51
36.8074385379
  0
ARC
  5
3D0
100
AcDbEntity
  8
0
100
AcDbCircle
 62
7
  6
CONTINUOUS
 10
325.4437011593
 20
220.2771658467
 40
1.53
100
AcDbArc
 50
143.1925614619
 51
180.0000000001
  0
ARC
  5
3D1
100
AcDbEntity
  8
0
100
AcDbCircle
 62
7
  6
CONTINUOUS
 10
325.4437011593
 20
218.3371658467
 40
1.53
100
AcDbArc
 50
184.493379843
 51
355.5066201569
  0
ARC
  5
3D2
100
AcDbEntity
  8
0
100
AcDbCircle
 62
7
  6
CONTINUOUS
 10
322.6237011593
 20
173.478852021
 40
0.95
100
AcDbArc
 50
255.0
 51
359.9999999997
  0
ARC
  5
3D3
100
AcDbEntity
  8
0
100
AcDbCircle
 62
7
  6
CONTINUOUS
 10
319.2237011593
 20
174.3898792753
 40
0.95
100
AcDbArc
 50
180.0
 51
255.0000000009
  0
ARC
  5
3D4
100
AcDbEntity
  8
0
100
AcDbCircle
 62
7
  6
CONTINUOUS
 10
319.2237011593
 20
200.5144524181
 40
0.95
100
AcDbArc
 50
105.0000000027
 51
180.0000000005
  0
ARC
  5
3D5
100
AcDbEntity
  8
0
100
AcDbCircle
 62
7
  6
CONTINUOUS
 10
322.6237011593
 20
201.4254796724
 40
0.95
100
AcDbArc
 50
0.0
 51
104.9999999902
  0
CIRCLE
  5
3D6
100
AcDbEntity
  8
0
100
AcDbCircle
 62
7
  6
CONTINUOUS
 10
325.4437011593
 20
219.2571658467
 40
0.6
  0
CIRCLE
  5
3D7
100
AcDbEntity
  8
0
100
AcDbCircle
 62
7
  6
CONTINUOUS
 10
322.4437011593
 20
211.5071658467
 40
0.6
  0
CIRCLE
  5
3D8
100
AcDbEntity
  8
0
100
AcDbCircle
 62
7
  6
CONTINUOUS
 10
322.4437011593
 20
131.0071658467
 40
0.6
  0
CIRCLE
  5
3D9
100
AcDbEntity
  8
0
100
AcDbCircle
 62
7
  6
CONTINUOUS
 10
322.4437011593
 20
211.5071658467
 40
0.5037624701
  0
CIRCLE
  5
3DA
100
AcDbEntity
  8
0
100
AcDbCircle
 62
7
  6
CONTINUOUS
 10
322.4437011593
 20
131.0071658467
 40
0.5037624701
  0
CIRCLE
  5
3DB
100
AcDbEntity
  8
0
100
AcDbCircle
 62
7
  6
CONTINUOUS
 10
325.4437011593
 20
219.2571658467
 40
0.4
  0
ARC
  5
3DC
100
AcDbEntity
  8
0
100
AcDbCircle
 62
7
  6
CONTINUOUS
 10
325.4437011593
 20
401.2071658467
 40
197.015708362
100
AcDbArc
 50
269.709155674
 51
272.3999529676
  0
ARC
  5
3DD
100
AcDbEntity
  8
0
100
AcDbCircle
 62
7
  6
CONTINUOUS
 10
325.4437011593
 20
401.2071658467
 40
197.0104722413
100
AcDbArc
 50
267.4971888816
 51
267.5272088486
  0
ARC
  5
3DE
100
AcDbEntity
  8
0
100
AcDbCircle
 62
7
  6
CONTINUOUS
 10
325.4437011593
 20
401.2071658467
 40
197.0104722413
100
AcDbArc
 50
272.4000451583
 51
272.4592269799
  0
ARC
  5
3DF
100
AcDbEntity
  8
0
100
AcDbCircle
 62
7
  6
CONTINUOUS
 10
325.4437011593
 20
401.2071658467
 40
197.0
100
AcDbArc
 50
269.7091539073
 51
272.4000806173
  0
ARC
  5
3E0
100
AcDbEntity
  8
0
100
AcDbCircle
 62
7
  6
CONTINUOUS
 10
325.4437011593
 20
399.3571658467
 40
195.0
100
AcDbArc
 50
269.7061092884
 51
271.6751229687
  0
ARC
  5
3E1
100
AcDbEntity
  8
0
100
AcDbCircle
 62
7
  6
CONTINUOUS
 10
335.6437011593
 20
193.9071658467
 40
1.9122185454
100
AcDbArc
 50
157.373006573
 51
180.0
  0
ARC
  5
3E2
100
AcDbEntity
  8
0
100
AcDbCircle
 62
7
  6
CONTINUOUS
 10
335.6437011593
 20
193.9071658467
 40
1.9
100
AcDbArc
 50
158.2601297458
 51
180.0
  0
CIRCLE
  5
3E3
100
AcDbEntity
  8
0
100
AcDbCircle
 62
7
  6
CONTINUOUS
 10
328.4437011593
 20
211.5071658467
 40
0.6
  0
CIRCLE
  5
3E4
100
AcDbEntity
  8
0
100
AcDbCircle
 62
7
  6
CONTINUOUS
 10
328.4437011593
 20
131.0071658467
 40
0.6
  0
CIRCLE
  5
3E5
100
AcDbEntity
  8
0
100
AcDbCircle
 62
7
  6
CONTINUOUS
 10
328.4437011593
 20
211.5071658467
 40
0.5037624701
  0
CIRCLE
  5
3E6
100
AcDbEntity
  8
0
100
AcDbCircle
 62
7
  6
CONTINUOUS
 10
328.4437011593
 20
131.0071658467
 40
0.5037624701
  0
ELLIPSE
  5
3E7
100
AcDbEntity
  8
0
100
AcDbEllipse
 62
7
  6
CONTINUOUS
 10
323.6737011593
 20
131.706451561
 30
0.0
 11
8.0
 21
-0.0
 31
0.0
 40
0.2142857143
 41
-0.3487509169
 42
-0.2333174527
  0
ELLIPSE
  5
3E8
100
AcDbEntity
  8
0
100
AcDbEllipse
 62
7
  6
CONTINUOUS
 10
329.8105970385
 20
131.2282817897
 30
0.0
 11
1.47
 21
0.0
 31
0.0
 40
0.2142857143
 41
5.4103379096
 42
5.9344343903
  0
ELLIPSE
  5
3E9
100
AcDbEntity
  8
0
100
AcDbEllipse
 62
7
  6
CONTINUOUS
 10
331.2437011593
 20
130.8621658467
 30
0.0
 11
0.76
 21
0.0
 31
0.0
 40
0.2142857143
 41
2.268745256
 42
3.1415926536
  0
ELLIPSE
  5
3EA
100
AcDbEntity
  8
0
100
AcDbEllipse
 62
7
  6
CONTINUOUS
 10
329.8105970385
 20
131.2282817897
 30
0.0
 11
1.27
 21
0.0
 31
0.0
 40
0.2142857143
 41
-0.8728473976
 42
-0.3487509169
  0
ELLIPSE
  5
3EB
100
AcDbEntity
  8
0
100
AcDbEllipse
 62
7
  6
CONTINUOUS
 10
323.6737011593
 20
131.706451561
 30
0.0
 11
7.8
 21
0.0
 31
0.0
 40
0.2142857143
 41
-0.3487509169
 42
-0.2381419637
  0
ELLIPSE
  5
3EC
100
AcDbEntity
  8
0
100
AcDbEllipse
 62
7
  6
CONTINUOUS
 10
331.2437011593
 20
130.8621658467
 30
0.0
 11
0.96
 21
0.0
 31
0.0
 40
0.2142857143
 41
2.268745256
 42
2.4843285003
  0
ELLIPSE
  5
3ED
100
AcDbEntity
  8
0
100
AcDbEllipse
 62
7
  6
CONTINUOUS
 10
327.8679868736
 20
177.5804723953
 30
0.0
 11
0.0
 21
6.3066934514
 31
0.0
 40
0.2142857143
 41
6.5102901001
 42
6.6561605669
  0
ELLIPSE
  5
3EE
100
AcDbEntity
  8
0
100
AcDbEllipse
 62
7
  6
CONTINUOUS
 10
327.4903229139
 20
182.0846302134
 30
0.0
 11
-0.0
 21
1.47
 31
0.0
 40
0.2142857143
 41
0.3729752597
 42
0.9077928186
  0
ELLIPSE
  5
3EF
100
AcDbEntity
  8
0
100
AcDbEllipse
 62
7
  6
CONTINUOUS
 10
327.1137011593
 20
183.4571658467
 30
0.0
 11
0.0
 21
0.76
 31
0.0
 40
0.2142857143
 41
-3.1415926536
 42
-2.233799835
  0
ELLIPSE
  5
3F0
100
AcDbEntity
  8
0
100
AcDbEllipse
 62
7
  6
CONTINUOUS
 10
329.1670794048
 20
182.0846302134
 30
0.0
 11
0.0
 21
1.47
 31
0.0
 40
0.2142857143
 41
-0.9077928186
 42
-0.3729752597
  0
ELLIPSE
  5
3F1
100
AcDbEntity
  8
0
100
AcDbEllipse
 62
7
  6
CONTINUOUS
 10
328.789415445
 20
177.5804723953
 30
0.0
 11
-0.0
 21
6.3066934514
 31
0.0
 40
0.2142857143
 41
-0.3729752597
 42
-0.2271047929
  0
ELLIPSE
  5
3F2
100
AcDbEntity
  8
0
100
AcDbEllipse
 62
7
  6
CONTINUOUS
 10
329.5437011593
 20
183.4571658467
 30
0.0
 11
0.0
 21
0.76
 31
0.0
 40
0.2142857143
 41
-4.0493854722
 42
-3.1415926536
  0
ELLIPSE
  5
3F3
100
AcDbEntity
  8
0
100
AcDbEllipse
 62
7
  6
CONTINUOUS
 10
331.2437011593
 20
180.8021658467
 30
0.0
 11
0.76
 21
0.0
 31
0.0
 40
0.2142857143
 41
-3.1415926536
 42
-2.268745256
  0
ELLIPSE
  5
3F4
100
AcDbEntity
  8
0
100
AcDbEllipse
 62
7
  6
CONTINUOUS
 10
331.2437011593
 20
178.3721658467
 30
0.0
 11
0.76
 21
0.0
 31
0.0
 40
0.2142857143
 41
2.268745256
 42
3.1415926536
  0
ELLIPSE
  5
3F5
100
AcDbEntity
  8
0
100
AcDbEllipse
 62
7
  6
CONTINUOUS
 10
323.6737011593
 20
179.216451561
 30
0.0
 11
8.0
 21
0.0
 31
0.0
 40
0.2142857143
 41
-0.3487509169
 42
-0.2333174527
  0
ELLIPSE
  5
3F6
100
AcDbEntity
  8
0
100
AcDbEllipse
 62
7
  6
CONTINUOUS
 10
323.6737011593
 20
179.9578801324
 30
0.0
 11
8.0
 21
0.0
 31
0.0
 40
0.2142857143
 41
0.2333174915
 42
0.3487509169
  0
ELLIPSE
  5
3F7
100
AcDbEntity
  8
0
100
AcDbEllipse
 62
7
  6
CONTINUOUS
 10
329.8105970385
 20
180.4360499037
 30
0.0
 11
1.47
 21
-0.0
 31
0.0
 40
0.2142857143
 41
0.3487509169
 42
0.8728473976
  0
ELLIPSE
  5
3F8
100
AcDbEntity
  8
0
100
AcDbEllipse
 62
7
  6
CONTINUOUS
 10
329.8105970385
 20
178.7382817897
 30
0.0
 11
1.47
 21
0.0
 31
0.0
 40
0.2142857143
 41
5.4103379096
 42
5.9344343903
  0
ELLIPSE
  5
3F9
100
AcDbEntity
  8
0
100
AcDbEllipse
 62
7
  6
CONTINUOUS
 10
323.6737011593
 20
169.7978801324
 30
0.0
 11
8.0
 21
0.0
 31
0.0
 40
0.2142857143
 41
0.2333174915
 42
0.3487509169
  0
ELLIPSE
  5
3FA
100
AcDbEntity
  8
0
100
AcDbEllipse
 62
7
  6
CONTINUOUS
 10
329.8105970385
 20
170.2760499037
 30
0.0
 11
1.47
 21
0.0
 31
0.0
 40
0.2142857143
 41
0.3487509169
 42
0.8728473976
  0
ELLIPSE
  5
3FB
100
AcDbEntity
  8
0
100
AcDbEllipse
 62
7
  6
CONTINUOUS
 10
331.2437011593
 20
170.6421658467
 30
0.0
 11
0.76
 21
0.0
 31
0.0
 40
0.2142857143
 41
-3.1415926536
 42
-2.268745256
  0
ELLIPSE
  5
3FC
100
AcDbEntity
  8
0
100
AcDbEllipse
 62
7
  6
CONTINUOUS
 10
323.6737011593
 20
179.216451561
 30
0.0
 11
7.8
 21
-0.0
 31
0.0
 40
0.2142857143
 41
-0.3487509169
 42
-0.2381419637
  0
ELLIPSE
  5
3FD
100
AcDbEntity
  8
0
100
AcDbEllipse
 62
7
  6
CONTINUOUS
 10
329.1670794048
 20
182.0846302134
 30
0.0
 11
-0.0
 21
1.27
 31
0.0
 40
0.2142857143
 41
-0.9077928186
 42
-0.3729752597
  0
ELLIPSE
  5
3FE
100
AcDbEntity
  8
0
100
AcDbEllipse
 62
7
  6
CONTINUOUS
 10
331.2437011593
 20
170.6421658467
 30
0.0
 11
0.96
 21
0.0
 31
0.0
 40
0.2142857143
 41
-2.4843285003
 42
-2.268745256
  0
ELLIPSE
  5
3FF
100
AcDbEntity
  8
0
100
AcDbEllipse
 62
7
  6
CONTINUOUS
 10
328.789415445
 20
177.5804723953
 30
0.0
 11
0.0
 21
6.1066934514
 31
0.0
 40
0.2142857143
 41
-0.3729752597
 42
-0.2346799611
  0
ELLIPSE
  5
400
100
AcDbEntity
  8
0
100
AcDbEllipse
 62
7
  6
CONTINUOUS
 10
329.8105970385
 20
170.2760499037
 30
0.0
 11
1.27
 21
-0.0
 31
0.0
 40
0.2142857143
 41
0.3487509169
 42
0.8728473976
  0
ELLIPSE
  5
401
100
AcDbEntity
  8
0
100
AcDbEllipse
 62
7
  6
CONTINUOUS
 10
323.6737011593
 20
169.7978801324
 30
0.0
 11
7.8
 21
0.0
 31
0.0
 40
0.2142857143
 41
0.2381419637
 42
0.3487509169
  0
ELLIPSE
  5
402
100
AcDbEntity
  8
0
100
AcDbEllipse
 62
7
  6
CONTINUOUS
 10
329.5437011593
 20
183.4571658467
 30
0.0
 11
-0.0
 21
0.96
 31
0.0
 40
0.2142857143
 41
-4.0493854722
 42
-3.7988568068
  0
ELLIPSE
  5
403
100
AcDbEntity
  8
0
100
AcDbEllipse
 62
7
  6
CONTINUOUS
 10
323.6737011593
 20
179.9578801324
 30
0.0
 11
7.8
 21
0.0
 31
0.0
 40
0.2142857143
 41
0.2381419637
 42
0.3487509169
  0
ELLIPSE
  5
404
100
AcDbEntity
  8
0
100
AcDbEllipse
 62
7
  6
CONTINUOUS
 10
329.8105970385
 20
180.4360499037
 30
0.0
 11
1.27
 21
0.0
 31
0.0
 40
0.2142857143
 41
0.3487509169
 42
0.8728473976
  0
ELLIPSE
  5
405
100
AcDbEntity
  8
0
100
AcDbEllipse
 62
7
  6
CONTINUOUS
 10
331.2437011593
 20
178.3721658467
 30
0.0
 11
0.96
 21
0.0
 31
0.0
 40
0.2142857143
 41
2.268745256
 42
2.4843285003
  0
ELLIPSE
  5
406
100
AcDbEntity
  8
0
100
AcDbEllipse
 62
7
  6
CONTINUOUS
 10
327.4903229139
 20
182.0846302134
 30
0.0
 11
0.0
 21
1.27
 31
0.0
 40
0.2142857143
 41
0.3729752597
 42
0.9077928186
  0
ELLIPSE
  5
407
100
AcDbEntity
  8
0
100
AcDbEllipse
 62
7
  6
CONTINUOUS
 10
327.8679868736
 20
177.5804723953
 30
0.0
 11
0.0
 21
6.1066934514
 31
0.0
 40
0.2142857143
 41
0.2346799611
 42
0.3729752597
  0
ELLIPSE
  5
408
100
AcDbEntity
  8
0
100
AcDbEllipse
 62
7
  6
CONTINUOUS
 10
331.2437011593
 20
180.8021658467
 30
0.0
 11
0.96
 21
0.0
 31
0.0
 40
0.2142857143
 41
-2.4843285003
 42
-2.268745256
  0
ELLIPSE
  5
409
100
AcDbEntity
  8
0
100
AcDbEllipse
 62
7
  6
CONTINUOUS
 10
327.1137011593
 20
183.4571658467
 30
0.0
 11
0.0
 21
0.96
 31
0.0
 40
0.2142857143
 41
-2.4843285003
 42
-2.233799835
  0
ELLIPSE
  5
40A
100
AcDbEntity
  8
0
100
AcDbEllipse
 62
7
  6
CONTINUOUS
 10
329.8105970385
 20
178.7382817897
 30
0.0
 11
1.27
 21
0.0
 31
0.0
 40
0.2142857143
 41
-0.8728473976
 42
-0.3487509169
  0
ELLIPSE
  5
40B
100
AcDbEntity
  8
0
100
AcDbEllipse
 62
7
  6
CONTINUOUS
 10
341.0050567172
 20
204.3571658467
 30
0.0
 11
-0.0
 21
96.4
 31
0.0
 40
0.0174550649
 41
7.7312632764
 42
7.7672511604
  0
ELLIPSE
  5
40C
100
AcDbEntity
  8
0
100
AcDbEllipse
 62
7
  6
CONTINUOUS
 10
309.8823456015
 20
204.3571658467
 30
0.0
 11
-0.0
 21
96.4
 31
0.0
 40
0.0174550649
 41
4.7991194539
 42
4.835107338
  0
ELLIPSE
  5
40D
100
AcDbEntity
  8
0
100
AcDbEllipse
 62
7
  6
CONTINUOUS
 10
311.4799950245
 20
127.7071658467
 30
0.0
 11
-0.0
 21
8.0
 31
0.0
 40
0.0087268678
 41
-0.0000000331
 42
0.6405940421
  0
ELLIPSE
  5
40E
100
AcDbEntity
  8
0
100
AcDbEllipse
 62
7
  6
CONTINUOUS
 10
339.4074072942
 20
127.7071658467
 30
0.0
 11
-0.0
 21
8.0
 31
0.0
 40
0.0087268678
 41
-0.6405940421
 42
-0.0
  0
ENDSEC
  0
SECTION
  2
OBJECTS
  0
DICTIONARY
  5
C
100
AcDbDictionary
280
0
281
1
  3
ACAD_GROUP
350
D
  3
ACAD_MLINESTYLE
350
17
  3
ACAD_LAYOUT
350
1A
  3
ACAD_PLOTSETTINGS
350
19
  3
ACAD_PLOTSTYLENAME
350
E
  0
DICTIONARY
  5
D
102
{ACAD_REACTORS
330
C
102
}
100
AcDbDictionary
280
0
281
1
  0
ACDBDICTIONARYWDFLT
  5
E
102
{ACAD_REACTORS
330
C
102
}
100
AcDbDictionary
281
1
  3
Normal
350
F
100
AcDbDictionaryWithDefault
340
F
  0
DICTIONARY
  5
17
102
{ACAD_REACTORS
330
C
102
}
100
AcDbDictionary
280
0
281
1
  3
Standard
350
18
  0
DICTIONARY
  5
19
102
{ACAD_REACTORS
330
C
102
}
100
AcDbDictionary
281
1
  0
DICTIONARY
  5
1A
102
{ACAD_REACTORS
330
C
102
}
100
AcDbDictionary
281
1
  3
Model
350
40F
  3
Layout1
350
410
  0
ACDBPLACEHOLDER
  5
F
102
{ACAD_REACTORS
330
E
102
}
  0
MLINESTYLE
  5
18
102
{ACAD_REACTORS
330
17
102
}
100
AcDbMlineStyle
  2
STANDARD
 70
0
  3

 62
256
 51
90.0
 52
90.0
 71
2
 49
0.5
 62
256
  6
BYLAYER
 49
-0.5
 62
256
  6
BYLAYER
  0
LAYOUT
  5
40F
102
{ACAD_REACTORS
330
1A
102
}
100
AcDbPlotSettings
  1

  2
none_device
  4
ANSI_C_(22.00_x_17.00_Inches)
  6

 40
0.0
 41
0.0
 42
0.0
 43
0.0
 44
558.8
 45
431.8
 46
0.0
 47
0.0
 48
0.0
 49
0.0
140
0.0
141
0.0
142
1.0
143
1.0
 70
1024
 72
1
 73
0
 74
0
  7

 75
0
147
1.0
148
0.0
149
0.0
100
AcDbLayout
  1
Model
 70
0
 71
0
 10
0.0
 20
0.0
 11
558.8
 21
431.8
 12
0.0
 22
0.0
 32
0.0
 14
0.0
 24
0.0
 34
0.0
 15
0.0
 25
0.0
 35
0.0
146
0.0
 13
0.0
 23
0.0
 33
0.0
 16
1.0
 26
0.0
 36
0.0
 17
0.0
 27
1.0
 37
0.0
 76
0
330
216
345
0
346
0
  0
LAYOUT
  5
410
102
{ACAD_REACTORS
330
1A
102
}
100
AcDbPlotSettings
  1

  2
none_device
  4
ANSI_C_(22.00_x_17.00_Inches)
  6

 40
0.0
 41
0.0
 42
0.0
 43
0.0
 44
558.8
 45
431.8
 46
0.0
 47
0.0
 48
0.0
 49
0.0
140
0.0
141
0.0
142
1.0
143
1.0
 70
0
 72
1
 73
0
 74
0
  7

 75
0
147
1.0
148
0.0
149
0.0
100
AcDbLayout
  1
Layout1
 70
0
 71
1
 10
0.0
 20
0.0
 11
558.8
 21
431.8
 12
0.0
 22
0.0
 32
0.0
 14
0.0
 24
0.0
 34
0.0
 15
0.0
 25
0.0
 35
0.0
146
0.0
 13
0.0
 23
0.0
 33
0.0
 16
1.0
 26
0.0
 36
0.0
 17
0.0
 27
1.0
 37
0.0
 76
0
330
217
345
0
346
0
  0
ENDSEC
  0
EOF
