999
DXF file: C:\Users\sesa63760\Dev\_Creo\CAD\MCADID0000156_3D-CAD\drw0001_2.dxf
999
Pro/ENGINEER 2019471 by Parametric Technology Corporation
  0
SECTION
  2
HEADER
  9
$ACADVER
  1
AC1024
  9
$DWGCODEPAGE
  3
ANSI_1252
  9
$EXTMAX
 10
222.057493846
 20
314.0527412965
 30
0.0
  9
$EXTMIN
 10
0.0
 20
0.0
 30
0.0
  9
$LIMMIN
 10
0.0
 20
0.0
  9
$LIMMAX
 10
222.057493846
 20
314.0527412965
  9
$VIEWCTR
 10
111.028746923
 20
157.0263706482
  9
$VIEWSIZE
 40
314.0527412965
  9
$CLAYER
  8
0
  9
$LTSCALE
 40
20.4715860993
  9
$CELTYPE
  6
BYLAYER
  9
$DIMSCALE
 40
1.0
  9
$DIMASZ
 40
2.6435415934
  9
$DIMEXO
 40
1.0
  9
$DIMDLI
 40
14.1440049414
  9
$DIMEXE
 40
1.0
  9
$DIMCEN
 40
3.3498959072
  9
$DIMLFAC
 40
1.0
  9
$DIMBLK
  1
_FILLED
  9
$DIMALT
 70
0
  9
$DIMALTF
 40
0.0393700787
  9
$DIMTXT
 40
3.7009582308
  9
$DIMTOL
 70
1
  9
$DIMLIM
 70
0
  9
$DIMTFAC
 40
1.0
  9
$DIMTP
 40
0.01
  9
$DIMTM
 40
0.01
  9
$DIMGAP
 40
0.625
  9
$DIMDSEP
 70
46
  9
$AUNITS
 70
0
  9
$PDMODE
 70
3
  9
$PDSIZE
 40
0.3125
  9
$HANDSEED
  5
293
  9
$TILEMODE
 70
1
  9
$MEASUREMENT
 70
1
  9
$INSUNITS
 70
4
  0
ENDSEC
  0
SECTION
  2
CLASSES
  0
CLASS
  1
ACDBDICTIONARYWDFLT
  2
AcDbDictionaryWithDefault
  3
AutoCAD 2000
 90
0
 91
1
280
0
281
0
  0
CLASS
  1
ACDBPLACEHOLDER
  2
AcDbPlaceHolder
  3
AutoCAD 2000
 90
0
 91
1
280
0
281
0
  0
CLASS
  1
LAYOUT
  2
AcDbLayout
  3
AutoCAD 2000
 90
0
 91
0
280
0
281
0
  0
ENDSEC
  0
SECTION
  2
TABLES
  0
TABLE
  2
VPORT
  5
8
100
AcDbSymbolTable
 70
2
  0
VPORT
  5
1F4
100
AcDbSymbolTableRecord
100
AcDbViewportTableRecord
  2
*ACTIVE
 70
0
 10
0.0
 20
0.0
 11
1.0
 21
1.0
 12
111.028746923
 22
157.0263706482
 13
0.0
 23
0.0
 14
1.0
 24
1.0
 15
0.0
 25
0.0
 16
0.0
 26
0.0
 36
1.0
 17
0.0
 27
0.0
 37
0.0
 40
314.0527412965
 41
0.7070707071
 42
50.0
 43
0.0
 44
0.0
 50
0.0
 51
0.0
 71
0
 72
100
 73
1
 74
1
 75
0
 76
0
 77
0
 78
0
  0
ENDTAB
  0
TABLE
  2
LTYPE
  5
5
100
AcDbSymbolTable
 70
6
  0
LTYPE
  5
14
100
AcDbSymbolTableRecord
100
AcDbLinetypeTableRecord
  2
BYBLOCK
 70
0
  3

 72
65
 73
0
 40
0.0
  0
LTYPE
  5
15
100
AcDbSymbolTableRecord
100
AcDbLinetypeTableRecord
  2
BYLAYER
 70
0
  3

 72
65
 73
0
 40
0.0
  0
LTYPE
  5
16
100
AcDbSymbolTableRecord
100
AcDbLinetypeTableRecord
  2
CONTINUOUS
 70
64
  3
Solid line
 72
65
 73
0
 40
0.0
  0
LTYPE
  5
1F5
100
AcDbSymbolTableRecord
100
AcDbLinetypeTableRecord
  2
CENTER
 70
64
  3
____ _ ____ _ ____ _ ____ _ ____ _ ____ _ ____
 72
65
 73
4
 40
0.6
 49
0.375
 74
0
 49
-0.075
 74
0
 49
0.075
 74
0
 49
-0.075
 74
0
  0
LTYPE
  5
1F6
100
AcDbSymbolTableRecord
100
AcDbLinetypeTableRecord
  2
HIDDEN
 70
64
  3
- - - - - - - - - - - - - - - - - - - -
 72
65
 73
2
 40
0.2
 49
0.1
 74
0
 49
-0.1
 74
0
  0
LTYPE
  5
1F7
100
AcDbSymbolTableRecord
100
AcDbLinetypeTableRecord
  2
PHANTOM
 70
64
  3
_____ _ _ _____ _ _ _____ _ _ _____
 72
65
 73
6
 40
0.8
 49
0.45
 74
0
 49
-0.05
 74
0
 49
0.1
 74
0
 49
-0.05
 74
0
 49
0.1
 74
0
 49
-0.05
 74
0
  0
LTYPE
  5
1F8
100
AcDbSymbolTableRecord
100
AcDbLinetypeTableRecord
  2
DOT
 70
64
  3
. . . . . . . . . . . . . . . . . . . .
 72
65
 73
2
 40
0.2
 49
0.1
 74
0
 49
-0.1
 74
0
  0
LTYPE
  5
1F9
100
AcDbSymbolTableRecord
100
AcDbLinetypeTableRecord
  2
DASHED
 70
64
  3
- - - - - - - - - - - - - - - - - - - -
 72
65
 73
2
 40
0.2
 49
0.1
 74
0
 49
-0.1
 74
0
  0
ENDTAB
  0
TABLE
  2
LAYER
  5
2
100
AcDbSymbolTable
 70
36
  0
LAYER
  5
10
100
AcDbSymbolTableRecord
100
AcDbLayerTableRecord
  2
0
 70
0
 62
7
  6
CONTINUOUS
370
-3
390
F
  0
LAYER
  5
1FA
100
AcDbSymbolTableRecord
100
AcDbLayerTableRecord
  2
DEFAULT_1
 70
0
 62
7
  6
CENTER
370
-3
390
F
  0
LAYER
  5
1FB
100
AcDbSymbolTableRecord
100
AcDbLayerTableRecord
  2
DEFAULT_2
 70
0
 62
8
  6
HIDDEN
370
-3
390
F
  0
LAYER
  5
1FC
100
AcDbSymbolTableRecord
100
AcDbLayerTableRecord
  2
DEFAULT_3
 70
0
 62
7
  6
PHANTOM
370
-3
390
F
  0
LAYER
  5
1FD
100
AcDbSymbolTableRecord
100
AcDbLayerTableRecord
  2
00_COMPONENTS
 70
0
 62
7
  6
CONTINUOUS
370
-3
390
F
  0
LAYER
  5
1FE
100
AcDbSymbolTableRecord
100
AcDbLayerTableRecord
  2
01_1_DEFAULT_DATUMS
 70
0
 62
7
  6
CONTINUOUS
370
-3
390
F
  0
LAYER
  5
1FF
100
AcDbSymbolTableRecord
100
AcDbLayerTableRecord
  2
01_PLANES
 70
0
 62
7
  6
CONTINUOUS
370
-3
390
F
  0
LAYER
  5
200
100
AcDbSymbolTableRecord
100
AcDbLayerTableRecord
  2
02_COORD_SYS
 70
0
 62
7
  6
CONTINUOUS
370
-3
390
F
  0
LAYER
  5
201
100
AcDbSymbolTableRecord
100
AcDbLayerTableRecord
  2
03_AXES
 70
0
 62
7
  6
CONTINUOUS
370
-3
390
F
  0
LAYER
  5
202
100
AcDbSymbolTableRecord
100
AcDbLayerTableRecord
  2
04_POINTS
 70
0
 62
7
  6
CONTINUOUS
370
-3
390
F
  0
LAYER
  5
203
100
AcDbSymbolTableRecord
100
AcDbLayerTableRecord
  2
05_CURVES
 70
0
 62
7
  6
CONTINUOUS
370
-3
390
F
  0
LAYER
  5
204
100
AcDbSymbolTableRecord
100
AcDbLayerTableRecord
  2
06_SURFS
 70
0
 62
7
  6
CONTINUOUS
370
-3
390
F
  0
LAYER
  5
205
100
AcDbSymbolTableRecord
100
AcDbLayerTableRecord
  2
07_COSMETICS
 70
0
 62
7
  6
CONTINUOUS
370
-3
390
F
  0
LAYER
  5
206
100
AcDbSymbolTableRecord
100
AcDbLayerTableRecord
  2
10_NOTES
 70
0
 62
7
  6
CONTINUOUS
370
-3
390
F
  0
LAYER
  5
207
100
AcDbSymbolTableRecord
100
AcDbLayerTableRecord
  2
11_NOTES_PUB
 70
0
 62
7
  6
CONTINUOUS
370
-3
390
F
  0
LAYER
  5
208
100
AcDbSymbolTableRecord
100
AcDbLayerTableRecord
  2
13_REF_GTOL
 70
0
 62
7
  6
CONTINUOUS
370
-3
390
F
  0
LAYER
  5
209
100
AcDbSymbolTableRecord
100
AcDbLayerTableRecord
  2
16_MISC
 70
0
 62
7
  6
CONTINUOUS
370
-3
390
F
  0
LAYER
  5
20A
100
AcDbSymbolTableRecord
100
AcDbLayerTableRecord
  2
17_NO_PRINT
 70
0
 62
7
  6
CONTINUOUS
370
-3
390
F
  0
LAYER
  5
20B
100
AcDbSymbolTableRecord
100
AcDbLayerTableRecord
  2
18_DATUM_CAMS_JOINTS
 70
0
 62
7
  6
CONTINUOUS
370
-3
390
F
  0
LAYER
  5
20C
100
AcDbSymbolTableRecord
100
AcDbLayerTableRecord
  2
19_DATUM_FUNCTIONAL
 70
0
 62
7
  6
CONTINUOUS
370
-3
390
F
  0
LAYER
  5
20D
100
AcDbSymbolTableRecord
100
AcDbLayerTableRecord
  2
20_DATUM_KINEMATIC_SCHEME
 70
0
 62
7
  6
CONTINUOUS
370
-3
390
F
  0
ENDTAB
  0
TABLE
  2
STYLE
  5
3
100
AcDbSymbolTable
 70
1
  0
STYLE
  5
11
100
AcDbSymbolTableRecord
100
AcDbTextStyleTableRecord
  2
STANDARD
 70
0
 40
0.0
 41
0.8
 50
0.0
 71
0
 42
0.2
  3
txt
  4

  0
STYLE
  5
20E
100
AcDbSymbolTableRecord
100
AcDbTextStyleTableRecord
  2
TEXTSTYLE_1
 70
0
 40
0.0
 41
0.8
 50
0.0
 71
0
 42
0.2
  3
gdt
  4

  0
ENDTAB
  0
TABLE
  2
VIEW
  5
6
100
AcDbSymbolTable
 70
0
  0
ENDTAB
  0
TABLE
  2
UCS
  5
7
100
AcDbSymbolTable
 70
0
  0
ENDTAB
  0
TABLE
  2
APPID
  5
9
100
AcDbSymbolTable
 70
1
  0
APPID
  5
20F
100
AcDbSymbolTableRecord
100
AcDbRegAppTableRecord
  2
ACAD
 70
0
  0
ENDTAB
  0
TABLE
  2
BLOCK_RECORD
  5
1
100
AcDbSymbolTable
 70
0
  0
BLOCK_RECORD
  5
210
100
AcDbSymbolTableRecord
100
AcDbBlockTableRecord
  2
*Model_Space
  0
BLOCK_RECORD
  5
211
100
AcDbSymbolTableRecord
100
AcDbBlockTableRecord
  2
*Paper_Space
  0
BLOCK_RECORD
  5
212
100
AcDbSymbolTableRecord
100
AcDbBlockTableRecord
  2
_FILLED
  0
ENDTAB
  0
TABLE
  2
DIMSTYLE
  5
A
100
AcDbSymbolTable
 70
1
100
AcDbDimStyleTable
 71
0
  0
DIMSTYLE
105
213
100
AcDbSymbolTableRecord
100
AcDbDimStyleTableRecord
  2
STANDARD
 70
0
  3

  4

 40
1.0
 41
2.6435415934
 42
1.0
 43
0.38
 44
1.0
 45
0.0
 46
0.0
 47
0.01
 48
0.01
140
3.7009582308
141
0.09
142
0.0
143
25.4
144
1.0
145
0.0
146
1.0
147
0.625
 71
1
 72
0
 73
0
 74
0
 75
0
 76
0
 77
1
 78
8
 79
2
170
0
171
1
172
0
173
0
174
0
175
0
176
0
177
0
178
0
270
2
179
2
271
2
272
2
273
2
274
2
275
0
280
0
281
0
282
0
283
1
284
8
285
0
286
0
287
3
288
0
340
11
278
46
341
212
342
212
343
212
344
212
  0
ENDTAB
  0
ENDSEC
  0
SECTION
  2
BLOCKS
  0
BLOCK
  5
20
100
AcDbEntity
  8
0
100
AcDbBlockBegin
  2
*Model_Space
 70
0
 10
0.0
 20
0.0
 30
0.0
  3
*Model_Space
  1

  0
ENDBLK
  5
21
100
AcDbEntity
  8
0
100
AcDbBlockEnd
  0
BLOCK
  5
1C
100
AcDbEntity
  8
0
100
AcDbBlockBegin
  2
*Paper_Space
 70
0
 10
0.0
 20
0.0
 30
0.0
  3
*Paper_Space
  1

  0
ENDBLK
  5
1D
100
AcDbEntity
  8
0
100
AcDbBlockEnd
  0
BLOCK
  5
214
100
AcDbEntity
  8
0
100
AcDbBlockBegin
  2
_FILLED
 70
64
 10
0.0
 20
0.0
  3
_FILLED
  1

  0
SOLID
  5
215
100
AcDbEntity
  8
0
  6
BYBLOCK
 62
0
100
AcDbTrace
 10
0.0
 20
0.0
 11
-1.0
 21
0.25
 12
-1.0
 22
-0.25
 13
-1.0
 23
-0.25
  0
ENDBLK
  5
216
100
AcDbEntity
  8
0
  6
BYBLOCK
 62
0
100
AcDbBlockEnd
  0
ENDSEC
  0
SECTION
  2
ENTITIES
  0
LINE
  5
217
100
AcDbEntity
  8
0
100
AcDbLine
 62
7
  6
CONTINUOUS
 10
123.0656672809
 20
20.9496626691
 11
102.0670057644
 21
20.9496626691
  0
LINE
  5
218
100
AcDbEntity
  8
0
100
AcDbLine
 62
7
  6
CONTINUOUS
 10
123.5663368437
 20
21.4496626691
 11
101.5663368437
 21
21.4496626691
  0
LINE
  5
219
100
AcDbEntity
  8
0
100
AcDbLine
 62
7
  6
CONTINUOUS
 10
102.0663368437
 20
20.9496626691
 11
101.5663368437
 21
21.4496626691
  0
LINE
  5
21A
100
AcDbEntity
  8
0
100
AcDbLine
 62
7
  6
CONTINUOUS
 10
58.0663368437
 20
69.9496626691
 11
57.5663368437
 21
70.4496626691
  0
LINE
  5
21B
100
AcDbEntity
  8
0
100
AcDbLine
 62
7
  6
CONTINUOUS
 10
101.5663368437
 20
66.4496626691
 11
123.5663368437
 21
66.4496626691
  0
LINE
  5
21C
100
AcDbEntity
  8
0
100
AcDbLine
 62
7
  6
CONTINUOUS
 10
147.5654244382
 20
67.9496626691
 11
77.5672492491
 21
67.9496626691
  0
LINE
  5
21D
100
AcDbEntity
  8
0
100
AcDbLine
 62
7
  6
CONTINUOUS
 10
77.5663368437
 20
68.6496626691
 11
147.5663368437
 21
68.6496626691
  0
LINE
  5
21E
100
AcDbEntity
  8
0
100
AcDbLine
 62
7
  6
CONTINUOUS
 10
148.5663368437
 20
69.6496626691
 11
76.5663368437
 21
69.6496626691
  0
LINE
  5
21F
100
AcDbEntity
  8
0
100
AcDbLine
 62
7
  6
CONTINUOUS
 10
167.0654440519
 20
69.9496626691
 11
58.0672296354
 21
69.9496626691
  0
LINE
  5
220
100
AcDbEntity
  8
0
100
AcDbLine
 62
7
  6
CONTINUOUS
 10
167.5663368437
 20
70.4496626691
 11
57.5663368437
 21
70.4496626691
  0
LINE
  5
221
100
AcDbEntity
  8
0
100
AcDbLine
 62
7
  6
CONTINUOUS
 10
177.5663368437
 20
75.9496626691
 11
47.5663368437
 21
75.9496626691
  0
LINE
  5
222
100
AcDbEntity
  8
0
100
AcDbLine
 62
7
  6
CONTINUOUS
 10
47.5663368437
 20
87.4496626691
 11
75.0663368437
 21
87.4496626691
  0
LINE
  5
223
100
AcDbEntity
  8
0
100
AcDbLine
 62
7
  6
CONTINUOUS
 10
150.0663368437
 20
87.4496626691
 11
177.5663368437
 21
87.4496626691
  0
LINE
  5
224
100
AcDbEntity
  8
0
100
AcDbLine
 62
7
  6
CONTINUOUS
 10
101.5663368437
 20
66.4496626691
 11
100.0663368437
 21
67.9496626691
  0
LINE
  5
225
100
AcDbEntity
  8
0
100
AcDbLine
 62
7
  6
CONTINUOUS
 10
47.5663368437
 20
75.9496626691
 11
47.5663368437
 21
251.2496626691
  0
LINE
  5
226
100
AcDbEntity
  8
0
100
AcDbLine
 62
7
  6
CONTINUOUS
 10
53.0663368437
 20
87.4496626691
 11
53.0663368437
 21
250.8744073541
  0
LINE
  5
227
100
AcDbEntity
  8
0
100
AcDbLine
 62
7
  6
CONTINUOUS
 10
55.5663368437
 20
75.9496626691
 11
55.5663368437
 21
87.4496626691
  0
LINE
  5
228
100
AcDbEntity
  8
0
100
AcDbLine
 62
7
  6
CONTINUOUS
 10
57.5663368437
 20
75.9496626691
 11
57.5663368437
 21
70.4496626691
  0
LINE
  5
229
100
AcDbEntity
  8
0
100
AcDbLine
 62
7
  6
CONTINUOUS
 10
62.0663368437
 20
250.8744073541
 11
62.0663368437
 21
87.4496626691
  0
LINE
  5
22A
100
AcDbEntity
  8
0
100
AcDbLine
 62
7
  6
CONTINUOUS
 10
69.5663368437
 20
87.4496626691
 11
69.5663368437
 21
250.8089558456
  0
LINE
  5
22B
100
AcDbEntity
  8
0
100
AcDbLine
 62
7
  6
CONTINUOUS
 10
72.0663368437
 20
251.0402178421
 11
72.0663368437
 21
251.9496626691
  0
LINE
  5
22C
100
AcDbEntity
  8
0
100
AcDbLine
 62
7
  6
CONTINUOUS
 10
72.0663368437
 20
251.9496626691
 11
72.4110862005
 21
291.4540261021
  0
LINE
  5
22D
100
AcDbEntity
  8
0
100
AcDbLine
 62
7
  6
CONTINUOUS
 10
73.911105239
 20
291.4496628388
 11
73.8849246356
 21
288.4496626691
  0
LINE
  5
22E
100
AcDbEntity
  8
0
100
AcDbLine
 62
7
  6
CONTINUOUS
 10
73.911105239
 20
291.449662754
 11
73.911105239
 21
291.9496626691
  0
LINE
  5
22F
100
AcDbEntity
  8
0
100
AcDbLine
 62
7
  6
CONTINUOUS
 10
74.3163368437
 20
288.4496626691
 11
74.3163368437
 21
291.1496626691
  0
LINE
  5
230
100
AcDbEntity
  8
0
100
AcDbLine
 62
7
  6
CONTINUOUS
 10
75.0663368437
 20
87.4496626691
 11
75.0663368437
 21
250.6824162627
  0
LINE
  5
231
100
AcDbEntity
  8
0
100
AcDbLine
 62
7
  6
CONTINUOUS
 10
75.0662797283
 20
251.9496626691
 11
75.0663368437
 21
251.0140372387
  0
LINE
  5
232
100
AcDbEntity
  8
0
100
AcDbLine
 62
7
  6
CONTINUOUS
 10
76.5663368437
 20
69.9496626691
 11
76.5663368437
 21
69.6496626691
  0
LINE
  5
233
100
AcDbEntity
  8
0
100
AcDbLine
 62
7
  6
CONTINUOUS
 10
77.0663368437
 20
291.9496626691
 11
77.0663368437
 21
291.449662754
  0
LINE
  5
234
100
AcDbEntity
  8
0
100
AcDbLine
 62
7
  6
CONTINUOUS
 10
77.5663368437
 20
68.6496626691
 11
77.5663368437
 21
67.9496626691
  0
LINE
  5
235
100
AcDbEntity
  8
0
100
AcDbLine
 62
7
  6
CONTINUOUS
 10
79.8163368437
 20
288.4496626691
 11
79.8163368437
 21
291.1496626691
  0
LINE
  5
236
100
AcDbEntity
  8
0
100
AcDbLine
 62
7
  6
CONTINUOUS
 10
80.3163368437
 20
288.449662669
 11
80.3163368437
 21
291.4496628681
  0
LINE
  5
237
100
AcDbEntity
  8
0
100
AcDbLine
 62
7
  6
CONTINUOUS
 10
81.4447755527
 20
291.4531978428
 11
81.442690155
 21
288.4496886072
  0
LINE
  5
238
100
AcDbEntity
  8
0
100
AcDbLine
 62
7
  6
CONTINUOUS
 10
84.0330029228
 20
250.9988355981
 11
84.0360835223
 21
251.9496626691
  0
LINE
  5
239
100
AcDbEntity
  8
0
100
AcDbLine
 62
7
  6
CONTINUOUS
 10
79.8058423419
 20
251.0140372387
 11
79.9516202078
 21
288.4496626678
  0
LINE
  5
23A
100
AcDbEntity
  8
0
100
AcDbLine
 62
7
  6
CONTINUOUS
 10
75.3847532872
 20
288.4496626691
 11
75.0662797283
 21
251.9496626691
  0
LINE
  5
23B
100
AcDbEntity
  8
0
100
AcDbLine
 62
7
  6
CONTINUOUS
 10
101.5663368437
 20
21.4496626691
 11
101.5663368437
 21
66.4496626691
  0
LINE
  5
23C
100
AcDbEntity
  8
0
100
AcDbLine
 62
7
  6
CONTINUOUS
 10
123.5663368437
 20
21.4496626691
 11
123.5663368437
 21
66.4496626691
  0
LINE
  5
23D
100
AcDbEntity
  8
0
100
AcDbLine
 62
7
  6
CONTINUOUS
 10
141.0996707645
 20
250.9988355981
 11
141.0965859432
 21
251.9496626691
  0
LINE
  5
23E
100
AcDbEntity
  8
0
100
AcDbLine
 62
7
  6
CONTINUOUS
 10
143.6899903885
 20
288.4496888739
 11
143.6879055326
 21
291.4532373645
  0
LINE
  5
23F
100
AcDbEntity
  8
0
100
AcDbLine
 62
7
  6
CONTINUOUS
 10
150.0663939591
 20
251.9496626691
 11
149.7479204001
 21
288.4496626691
  0
LINE
  5
240
100
AcDbEntity
  8
0
100
AcDbLine
 62
7
  6
CONTINUOUS
 10
151.2477490517
 20
288.4496626691
 11
151.2215684483
 21
291.4496628388
  0
LINE
  5
241
100
AcDbEntity
  8
0
100
AcDbLine
 62
7
  6
CONTINUOUS
 10
153.0663368437
 20
251.9496626691
 11
152.7215874868
 21
291.4540261021
  0
LINE
  5
242
100
AcDbEntity
  8
0
100
AcDbLine
 62
7
  6
CONTINUOUS
 10
145.1810534799
 20
288.4496626678
 11
145.3268313454
 21
251.0140372387
  0
LINE
  5
243
100
AcDbEntity
  8
0
100
AcDbLine
 62
7
  6
CONTINUOUS
 10
144.8163368437
 20
291.4496628681
 11
144.8163368437
 21
288.449662669
  0
LINE
  5
244
100
AcDbEntity
  8
0
100
AcDbLine
 62
7
  6
CONTINUOUS
 10
145.3163368437
 20
288.4496626691
 11
145.3163368437
 21
291.1496626691
  0
LINE
  5
245
100
AcDbEntity
  8
0
100
AcDbLine
 62
7
  6
CONTINUOUS
 10
147.5663368437
 20
68.6496626691
 11
147.5663368437
 21
67.9496626691
  0
LINE
  5
246
100
AcDbEntity
  8
0
100
AcDbLine
 62
7
  6
CONTINUOUS
 10
148.0663368437
 20
291.4496627539
 11
148.0663368437
 21
291.9496626691
  0
LINE
  5
247
100
AcDbEntity
  8
0
100
AcDbLine
 62
7
  6
CONTINUOUS
 10
148.5663368437
 20
69.9496626691
 11
148.5663368437
 21
69.6496626691
  0
LINE
  5
248
100
AcDbEntity
  8
0
100
AcDbLine
 62
7
  6
CONTINUOUS
 10
150.0663368437
 20
250.6824162627
 11
150.0663368437
 21
87.4496626691
  0
LINE
  5
249
100
AcDbEntity
  8
0
100
AcDbLine
 62
7
  6
CONTINUOUS
 10
150.8163368437
 20
288.4496626691
 11
150.8163368437
 21
291.1496626691
  0
LINE
  5
24A
100
AcDbEntity
  8
0
100
AcDbLine
 62
7
  6
CONTINUOUS
 10
151.2215684483
 20
291.9496626691
 11
151.2215684483
 21
291.4496627539
  0
LINE
  5
24B
100
AcDbEntity
  8
0
100
AcDbLine
 62
7
  6
CONTINUOUS
 10
153.0663368437
 20
251.9496626691
 11
153.0663368437
 21
251.0402178421
  0
LINE
  5
24C
100
AcDbEntity
  8
0
100
AcDbLine
 62
7
  6
CONTINUOUS
 10
150.0663368437
 20
251.0140372387
 11
150.0663939591
 21
251.9496626691
  0
LINE
  5
24D
100
AcDbEntity
  8
0
100
AcDbLine
 62
7
  6
CONTINUOUS
 10
155.5663368437
 20
87.4496626691
 11
155.5663368437
 21
250.8089558457
  0
LINE
  5
24E
100
AcDbEntity
  8
0
100
AcDbLine
 62
7
  6
CONTINUOUS
 10
163.0663368437
 20
87.4496626691
 11
163.0663368437
 21
250.8744073541
  0
LINE
  5
24F
100
AcDbEntity
  8
0
100
AcDbLine
 62
7
  6
CONTINUOUS
 10
167.5663368437
 20
75.9496626691
 11
167.5663368437
 21
70.4496626691
  0
LINE
  5
250
100
AcDbEntity
  8
0
100
AcDbLine
 62
7
  6
CONTINUOUS
 10
169.5663368437
 20
87.4496626691
 11
169.5663368437
 21
75.9496626691
  0
LINE
  5
251
100
AcDbEntity
  8
0
100
AcDbLine
 62
7
  6
CONTINUOUS
 10
172.0663368437
 20
250.8744073541
 11
172.0663368437
 21
87.4496626691
  0
LINE
  5
252
100
AcDbEntity
  8
0
100
AcDbLine
 62
7
  6
CONTINUOUS
 10
77.7709470742
 20
212.9496626691
 11
84.3617266131
 21
212.9496626691
  0
LINE
  5
253
100
AcDbEntity
  8
0
100
AcDbLine
 62
7
  6
CONTINUOUS
 10
140.7709470742
 20
212.9496626691
 11
147.3617266131
 21
212.9496626691
  0
LINE
  5
254
100
AcDbEntity
  8
0
100
AcDbLine
 62
7
  6
CONTINUOUS
 10
177.5663368437
 20
75.9496626691
 11
177.5663368437
 21
251.2496626691
  0
LINE
  5
255
100
AcDbEntity
  8
0
100
AcDbLine
 62
7
  6
CONTINUOUS
 10
123.5663368437
 20
66.4496626691
 11
125.0663368437
 21
67.9496626691
  0
LINE
  5
256
100
AcDbEntity
  8
0
100
AcDbLine
 62
7
  6
CONTINUOUS
 10
167.0663368437
 20
69.9496626691
 11
167.5663368437
 21
70.4496626691
  0
LINE
  5
257
100
AcDbEntity
  8
0
100
AcDbLine
 62
7
  6
CONTINUOUS
 10
150.0663368437
 20
250.6824162627
 11
75.0663368437
 21
250.6824162627
  0
LINE
  5
258
100
AcDbEntity
  8
0
100
AcDbLine
 62
7
  6
CONTINUOUS
 10
73.039659266
 20
250.7496626691
 11
80.0883789878
 21
250.7496626691
  0
LINE
  5
259
100
AcDbEntity
  8
0
100
AcDbLine
 62
7
  6
CONTINUOUS
 10
145.039659266
 20
250.7496626691
 11
152.0883789878
 21
250.7496626691
  0
LINE
  5
25A
100
AcDbEntity
  8
0
100
AcDbLine
 62
7
  6
CONTINUOUS
 10
53.0663368437
 20
250.8744073541
 11
62.0663368437
 21
250.8744073541
  0
LINE
  5
25B
100
AcDbEntity
  8
0
100
AcDbLine
 62
7
  6
CONTINUOUS
 10
163.0663368437
 20
250.8744073541
 11
172.0663368437
 21
250.8744073541
  0
LINE
  5
25C
100
AcDbEntity
  8
0
100
AcDbLine
 62
7
  6
CONTINUOUS
 10
150.0663368437
 20
251.0140372388
 11
145.3268313454
 21
251.0140372388
  0
LINE
  5
25D
100
AcDbEntity
  8
0
100
AcDbLine
 62
7
  6
CONTINUOUS
 10
79.8058423419
 20
251.0140372388
 11
75.0663368437
 21
251.0140372388
  0
LINE
  5
25E
100
AcDbEntity
  8
0
100
AcDbLine
 62
7
  6
CONTINUOUS
 10
177.5663368437
 20
251.2496626691
 11
153.0663368437
 21
251.2496626691
  0
LINE
  5
25F
100
AcDbEntity
  8
0
100
AcDbLine
 62
7
  6
CONTINUOUS
 10
72.0663368437
 20
251.2496626691
 11
47.5663368437
 21
251.2496626691
  0
LINE
  5
260
100
AcDbEntity
  8
0
100
AcDbLine
 62
7
  6
CONTINUOUS
 10
72.0663368442
 20
251.949662712
 11
153.0663368422
 21
251.9496628314
  0
LINE
  5
261
100
AcDbEntity
  8
0
100
AcDbLine
 62
7
  6
CONTINUOUS
 10
123.0663368437
 20
20.9496626691
 11
123.5663368437
 21
21.4496626691
  0
LINE
  5
262
100
AcDbEntity
  8
0
100
AcDbLine
 62
7
  6
CONTINUOUS
 10
82.8649412748
 20
291.4546652598
 11
81.4447755527
 21
291.4531978428
  0
LINE
  5
263
100
AcDbEntity
  8
0
100
AcDbLine
 62
7
  6
CONTINUOUS
 10
72.384867518
 20
288.4496626691
 11
81.4433907065
 21
288.4496626691
  0
LINE
  5
264
100
AcDbEntity
  8
0
100
AcDbLine
 62
7
  6
CONTINUOUS
 10
143.6892820877
 20
288.4496626691
 11
152.7478061693
 21
288.4496626691
  0
LINE
  5
265
100
AcDbEntity
  8
0
100
AcDbLine
 62
7
  6
CONTINUOUS
 10
74.3163368437
 20
291.1496626691
 11
79.8163368437
 21
291.1496626691
  0
LINE
  5
266
100
AcDbEntity
  8
0
100
AcDbLine
 62
7
  6
CONTINUOUS
 10
145.3163368437
 20
291.1496626691
 11
150.8163368437
 21
291.1496626691
  0
LINE
  5
267
100
AcDbEntity
  8
0
100
AcDbLine
 62
7
  6
CONTINUOUS
 10
144.8163368437
 20
291.4496626691
 11
152.7215874868
 21
291.4540261021
  0
LINE
  5
268
100
AcDbEntity
  8
0
100
AcDbLine
 62
7
  6
CONTINUOUS
 10
84.2016132222
 20
291.4540259368
 11
140.931058125
 21
291.4540259368
  0
LINE
  5
269
100
AcDbEntity
  8
0
100
AcDbLine
 62
7
  6
CONTINUOUS
 10
72.9110671606
 20
291.9496626691
 11
152.2216065267
 21
291.9496626691
  0
LINE
  5
26A
100
AcDbEntity
  8
0
100
AcDbLine
 62
7
  6
CONTINUOUS
 10
80.3163368437
 20
291.4496626691
 11
72.4110862014
 21
291.4540262092
  0
ARC
  5
26B
100
AcDbEntity
  8
0
100
AcDbCircle
 62
7
  6
CONTINUOUS
 10
144.0663368437
 20
210.6824162627
 40
4.0
100
AcDbArc
 50
34.5281869614
 51
145.4718130386
  0
ARC
  5
26C
100
AcDbEntity
  8
0
100
AcDbCircle
 62
7
  6
CONTINUOUS
 10
81.0663368437
 20
210.6824162627
 40
4.0
100
AcDbArc
 50
34.5281869614
 51
145.4718130386
  0
ARC
  5
26D
100
AcDbEntity
  8
0
100
AcDbCircle
 62
7
  6
CONTINUOUS
 10
148.5663368437
 20
68.6496626691
 40
1.0
100
AcDbArc
 50
90.0
 51
180.0
  0
ARC
  5
26E
100
AcDbEntity
  8
0
100
AcDbCircle
 62
7
  6
CONTINUOUS
 10
76.5663368437
 20
68.6496626691
 40
1.0
100
AcDbArc
 50
0.0
 51
90.0
  0
ARC
  5
26F
100
AcDbEntity
  8
0
100
AcDbCircle
 62
7
  6
CONTINUOUS
 10
144.3163368437
 20
291.4496626691
 40
0.5
100
AcDbArc
 50
0.0000114022
 51
90.0000302563
  0
ARC
  5
270
100
AcDbEntity
  8
0
100
AcDbCircle
 62
7
  6
CONTINUOUS
 10
152.2216065267
 20
291.4496626691
 40
0.5
100
AcDbArc
 50
0.5000189358
 51
90.0
  0
ARC
  5
271
100
AcDbEntity
  8
0
100
AcDbCircle
 62
7
  6
CONTINUOUS
 10
72.9110671606
 20
291.4496626691
 40
0.5
100
AcDbArc
 50
90.0
 51
179.4999810642
  0
ARC
  5
272
100
AcDbEntity
  8
0
100
AcDbCircle
 62
7
  6
CONTINUOUS
 10
80.8163368437
 20
291.4496626691
 40
0.5
100
AcDbArc
 50
90.0
 51
179.9999885997
  0
ARC
  5
273
100
AcDbEntity
  8
0
100
AcDbCircle
 62
7
  6
CONTINUOUS
 10
79.5163368437
 20
291.1496626691
 40
0.3
100
AcDbArc
 50
0.0
 51
90.0
  0
ARC
  5
274
100
AcDbEntity
  8
0
100
AcDbCircle
 62
7
  6
CONTINUOUS
 10
74.6163368437
 20
291.1496626691
 40
0.3
100
AcDbArc
 50
90.0
 51
180.0
  0
ARC
  5
275
100
AcDbEntity
  8
0
100
AcDbCircle
 62
7
  6
CONTINUOUS
 10
150.5163368437
 20
291.1496626691
 40
0.3
100
AcDbArc
 50
0.0
 51
90.0
  0
ARC
  5
276
100
AcDbEntity
  8
0
100
AcDbCircle
 62
7
  6
CONTINUOUS
 10
145.6163368437
 20
291.1496626691
 40
0.3
100
AcDbArc
 50
90.0
 51
180.0
  0
SPLINE
  5
277
100
AcDbEntity
  8
0
100
AcDbSpline
 62
7
  6
CONTINUOUS
 70
0
 71
3
 72
11
 73
7
 74
0
 42
0.0000001
 43
0.0000001
 44
0.0000000001
 40
0.0
 40
0.0
 40
0.0
 40
0.0
 40
0.62699397
 40
0.8622155273
 40
0.9493953531
 40
1.0
 40
1.0
 40
1.0
 40
1.0
 10
148.5663368437
 20
250.7269321886
 30
0.0
 10
147.8292389567
 20
250.7269321886
 30
0.0
 10
146.8155692073
 20
250.727308428
 30
0.0
 10
145.6995573686
 20
250.7395604454
 30
0.0
 10
145.2610150991
 20
250.7421634856
 30
0.0
 10
145.0991450565
 20
250.74893701
 30
0.0
 10
145.039659266
 20
250.7497338803
 30
0.0
  0
SPLINE
  5
278
100
AcDbEntity
  8
0
100
AcDbSpline
 62
7
  6
CONTINUOUS
 70
0
 71
3
 72
24
 73
20
 74
0
 42
0.0000001
 43
0.0000001
 44
0.0000000001
 40
0.0
 40
0.0
 40
0.0
 40
0.0
 40
0.0014986609
 40
0.0054526174
 40
0.0112049629
 40
0.0181410621
 40
0.0335880279
 40
0.0507202165
 40
0.06975177
 40
0.0904329147
 40
0.1363125969
 40
0.187862133
 40
0.2446299127
 40
0.3061779447
 40
0.3720567205
 40
0.5150312461
 40
0.6698745616
 40
0.8328926724
 40
1.0
 40
1.0
 40
1.0
 40
1.0
 10
152.0883789878
 20
250.7497223723
 30
0.0
 10
152.0880818399
 20
250.7479881094
 30
0.0
 10
152.0784628378
 20
250.7505302378
 30
0.0
 10
152.0680911085
 20
250.7474425998
 30
0.0
 10
152.047226642
 20
250.7481036981
 30
0.0
 10
152.0148139262
 20
250.746739912
 30
0.0
 10
151.9680835079
 20
250.7460478272
 30
0.0
 10
151.9076281174
 20
250.7447517376
 30
0.0
 10
151.8408580647
 20
250.7436585195
 30
0.0
 10
151.7403934285
 20
250.7421054017
 30
0.0
 10
151.601726769
 20
250.7402883566
 30
0.0
 10
151.4207025979
 20
250.7382804624
 30
0.0
 10
151.2212762652
 20
250.7364061186
 30
0.0
 10
151.0050257879
 20
250.7346736405
 30
0.0
 10
150.6875624413
 20
250.732510227
 30
0.0
 10
150.2605621395
 20
250.7302808139
 30
0.0
 10
149.719510875
 20
250.7283611059
 30
0.0
 10
149.1501238058
 20
250.7271942561
 30
0.0
 10
148.7625328249
 20
250.7269321886
 30
0.0
 10
148.5663368437
 20
250.7269321886
 30
0.0
  0
SPLINE
  5
279
100
AcDbEntity
  8
0
100
AcDbSpline
 62
7
  6
CONTINUOUS
 70
0
 71
3
 72
11
 73
7
 74
0
 42
0.0000001
 43
0.0000001
 44
0.0000000001
 40
0.0
 40
0.0
 40
0.0
 40
0.0
 40
0.62699397
 40
0.8622155273
 40
0.9493953531
 40
1.0
 40
1.0
 40
1.0
 40
1.0
 10
76.5663368437
 20
250.7269321886
 30
0.0
 10
75.8292389567
 20
250.7269321886
 30
0.0
 10
74.8155692073
 20
250.727308428
 30
0.0
 10
73.6995573686
 20
250.7395604454
 30
0.0
 10
73.2610150991
 20
250.7421634856
 30
0.0
 10
73.0991450565
 20
250.74893701
 30
0.0
 10
73.039659266
 20
250.7497338803
 30
0.0
  0
SPLINE
  5
27A
100
AcDbEntity
  8
0
100
AcDbSpline
 62
7
  6
CONTINUOUS
 70
0
 71
3
 72
24
 73
20
 74
0
 42
0.0000001
 43
0.0000001
 44
0.0000000001
 40
0.0
 40
0.0
 40
0.0
 40
0.0
 40
0.0014986609
 40
0.0054526174
 40
0.0112049629
 40
0.0181410621
 40
0.0335880279
 40
0.0507202165
 40
0.06975177
 40
0.0904329147
 40
0.1363125969
 40
0.187862133
 40
0.2446299127
 40
0.3061779447
 40
0.3720567205
 40
0.5150312461
 40
0.6698745616
 40
0.8328926724
 40
1.0
 40
1.0
 40
1.0
 40
1.0
 10
80.0883789878
 20
250.7497223723
 30
0.0
 10
80.0880818399
 20
250.7479881094
 30
0.0
 10
80.0784628378
 20
250.7505302378
 30
0.0
 10
80.0680911085
 20
250.7474425998
 30
0.0
 10
80.047226642
 20
250.7481036981
 30
0.0
 10
80.0148139262
 20
250.746739912
 30
0.0
 10
79.9680835079
 20
250.7460478272
 30
0.0
 10
79.9076281174
 20
250.7447517376
 30
0.0
 10
79.8408580647
 20
250.7436585195
 30
0.0
 10
79.7403934285
 20
250.7421054017
 30
0.0
 10
79.601726769
 20
250.7402883566
 30
0.0
 10
79.4207025979
 20
250.7382804624
 30
0.0
 10
79.2212762652
 20
250.7364061186
 30
0.0
 10
79.0050257879
 20
250.7346736405
 30
0.0
 10
78.6875624413
 20
250.732510227
 30
0.0
 10
78.2605621395
 20
250.7302808139
 30
0.0
 10
77.719510875
 20
250.7283611059
 30
0.0
 10
77.1501238058
 20
250.7271942561
 30
0.0
 10
76.7625328249
 20
250.7269321886
 30
0.0
 10
76.5663368437
 20
250.7269321886
 30
0.0
  0
SPLINE
  5
27B
100
AcDbEntity
  8
0
100
AcDbSpline
 62
7
  6
CONTINUOUS
 70
0
 71
3
 72
11
 73
7
 74
0
 42
0.0000001
 43
0.0000001
 44
0.0000000001
 40
0.0
 40
0.0
 40
0.0
 40
0.0
 40
0.287741784
 40
0.5553541255
 40
0.7906314118
 40
1.0
 40
1.0
 40
1.0
 40
1.0
 10
140.9310176873
 20
291.4540259368
 30
0.0
 10
140.9306329675
 20
291.5179400939
 30
0.0
 10
140.9130507607
 20
291.6418829711
 30
0.0
 10
140.8393371812
 20
291.8044021184
 30
0.0
 10
140.7241203368
 20
291.9193454094
 30
0.0
 10
140.6243104394
 20
291.9496626691
 30
0.0
 10
140.5778039533
 20
291.9496626691
 30
0.0
  0
SPLINE
  5
27C
100
AcDbEntity
  8
0
100
AcDbSpline
 62
7
  6
CONTINUOUS
 70
0
 71
3
 72
11
 73
7
 74
0
 42
0.0000001
 43
0.0000001
 44
0.0000000001
 40
0.0
 40
0.0
 40
0.0
 40
0.0
 40
0.2093716842
 40
0.4446539404
 40
0.7122631784
 40
1.0
 40
1.0
 40
1.0
 40
1.0
 10
84.554868606
 20
291.9496626691
 30
0.0
 10
84.5083614655
 20
291.9496626691
 30
0.0
 10
84.408550185
 20
291.9193430147
 30
0.0
 10
84.293333724
 20
291.8043985017
 30
0.0
 10
84.2196196912
 20
291.6418802646
 30
0.0
 10
84.2020399339
 20
291.5179389462
 30
0.0
 10
84.2016552477
 20
291.4540259368
 30
0.0
  0
SPLINE
  5
27D
100
AcDbEntity
  8
0
100
AcDbSpline
 62
7
  6
CONTINUOUS
 70
0
 71
3
 72
11
 73
7
 74
0
 42
0.0000001
 43
0.0000001
 44
0.0000000001
 40
0.0
 40
0.0
 40
0.0
 40
0.0
 40
0.6679073384
 40
0.7953093719
 40
0.8918403505
 40
1.0
 40
1.0
 40
1.0
 40
1.0
 10
143.6871107513
 20
291.453207716
 30
0.0
 10
143.6868976643
 20
291.5709017247
 30
0.0
 10
143.6788390703
 20
291.7120273881
 30
0.0
 10
143.6336425637
 20
291.8646551587
 30
0.0
 10
143.6114537429
 20
291.9162747251
 30
0.0
 10
143.582576856
 20
291.9496628513
 30
0.0
 10
143.5635176799
 20
291.9496626691
 30
0.0
  0
SPLINE
  5
27E
100
AcDbEntity
  8
0
100
AcDbSpline
 62
7
  6
CONTINUOUS
 70
0
 71
3
 72
16
 73
12
 74
0
 42
0.0000001
 43
0.0000001
 44
0.0000000001
 40
0.0
 40
0.0
 40
0.0
 40
0.0
 40
0.3981272932
 40
0.5702789284
 40
0.718073588
 40
0.8376737591
 40
0.9260173515
 40
0.9576113138
 40
0.9805525416
 40
0.994720178
 40
1.0
 40
1.0
 40
1.0
 40
1.0
 10
143.6871097928
 20
291.4537715396
 30
0.0
 10
143.8369012211
 20
291.4538586439
 30
0.0
 10
144.0514665378
 20
291.4538141693
 30
0.0
 10
144.3216263862
 20
291.4533668936
 30
0.0
 10
144.4870188702
 20
291.4529774309
 30
0.0
 10
144.6208116696
 20
291.4522549015
 30
0.0
 10
144.7110394426
 20
291.4519499055
 30
0.0
 10
144.7646465329
 20
291.4509067616
 30
0.0
 10
144.7907399334
 20
291.4512016778
 30
0.0
 10
144.8062277553
 20
291.4494784231
 30
0.0
 10
144.8140435097
 20
291.4506039637
 30
0.0
 10
144.8157927942
 20
291.4496626297
 30
0.0
  0
SPLINE
  5
27F
100
AcDbEntity
  8
0
100
AcDbSpline
 62
7
  6
CONTINUOUS
 70
0
 71
3
 72
16
 73
12
 74
0
 42
0.0000001
 43
0.0000001
 44
0.0000000001
 40
0.0
 40
0.0
 40
0.0
 40
0.0
 40
0.0052772316
 40
0.0194437737
 40
0.0423843491
 40
0.0739779792
 40
0.162321594
 40
0.2819220855
 40
0.4297170931
 40
0.6018695478
 40
1.0
 40
1.0
 40
1.0
 40
1.0
 10
80.3168810328
 20
291.4493631439
 30
0.0
 10
80.3186574581
 20
291.4502499932
 30
0.0
 10
80.3264134766
 20
291.4491761115
 30
0.0
 10
80.3419534618
 20
291.4508047737
 30
0.0
 10
80.3680173917
 20
291.4505183814
 30
0.0
 10
80.4216413252
 20
291.4514984153
 30
0.0
 10
80.5118564645
 20
291.4517754868
 30
0.0
 10
80.6456546425
 20
291.4524475703
 30
0.0
 10
80.8110446975
 20
291.4528053432
 30
0.0
 10
81.0812055679
 20
291.4532167373
 30
0.0
 10
81.2957707178
 20
291.4532548399
 30
0.0
 10
81.4455624596
 20
291.4531685023
 30
0.0
  0
SPLINE
  5
280
100
AcDbEntity
  8
0
100
AcDbSpline
 62
7
  6
CONTINUOUS
 70
0
 71
3
 72
11
 73
7
 74
0
 42
0.0000001
 43
0.0000001
 44
0.0000000001
 40
0.0
 40
0.0
 40
0.0
 40
0.0
 40
0.1081600496
 40
0.2046937083
 40
0.3320990924
 40
1.0
 40
1.0
 40
1.0
 40
1.0
 10
81.5691563729
 20
291.9496626691
 30
0.0
 10
81.5500957261
 20
291.9496628561
 30
0.0
 10
81.5212173415
 20
291.9162701111
 30
0.0
 10
81.4990279579
 20
291.8646454675
 30
0.0
 10
81.4538315523
 20
291.7120053322
 30
0.0
 10
81.4457741566
 20
291.5708699852
 30
0.0
 10
81.4455634112
 20
291.4531684594
 30
0.0
  0
SPLINE
  5
281
100
AcDbEntity
  8
0
100
AcDbSpline
 62
7
  6
CONTINUOUS
 70
0
 71
3
 72
9
 73
5
 74
0
 42
0.0000001
 43
0.0000001
 44
0.0000000001
 40
0.0
 40
0.0
 40
0.0
 40
0.0
 40
0.2297396841
 40
1.0
 40
1.0
 40
1.0
 40
1.0
 10
84.2016063602
 20
291.4529351392
 30
0.0
 10
84.0992446571
 20
291.4530404626
 30
0.0
 10
83.6536895953
 20
291.4535715523
 30
0.0
 10
83.2081349159
 20
291.4546154432
 30
0.0
 10
82.8649412748
 20
291.4546652598
 30
0.0
  0
SPLINE
  5
282
100
AcDbEntity
  8
0
100
AcDbSpline
 62
7
  6
CONTINUOUS
 70
0
 71
3
 72
8
 73
4
 74
0
 42
0.0000001
 43
0.0000001
 44
0.0000000001
 40
0.0
 40
0.0
 40
0.0
 40
0.0
 40
1.0
 40
1.0
 40
1.0
 40
1.0
 10
141.0926489502
 20
251.9495753424
 30
0.0
 10
141.0338733112
 20
265.1177046019
 30
0.0
 10
140.9851784106
 20
278.2858769309
 30
0.0
 10
140.9310590374
 20
291.4540261503
 30
0.0
  0
SPLINE
  5
283
100
AcDbEntity
  8
0
100
AcDbSpline
 62
7
  6
CONTINUOUS
 70
0
 71
3
 72
8
 73
4
 74
0
 42
0.0000001
 43
0.0000001
 44
0.0000000001
 40
0.0
 40
0.0
 40
0.0
 40
0.0
 40
1.0
 40
1.0
 40
1.0
 40
1.0
 10
84.2016063602
 20
291.4529351392
 30
0.0
 10
84.147491431
 20
278.2851683192
 30
0.0
 10
84.0972427318
 20
265.1173857994
 30
0.0
 10
84.0431265679
 20
251.9496189845
 30
0.0
  0
SPLINE
  5
284
100
AcDbEntity
  8
0
100
AcDbSpline
 62
7
  6
CONTINUOUS
 70
0
 71
3
 72
9
 73
5
 74
0
 42
0.0000001
 43
0.0000001
 44
0.0000000001
 40
0.0
 40
0.0
 40
0.0
 40
0.0
 40
0.2614153657
 40
1.0
 40
1.0
 40
1.0
 40
1.0
 10
143.6879055326
 20
291.4532373645
 30
0.0
 10
143.5415873104
 20
291.4534203146
 30
0.0
 10
142.9818717592
 20
291.454043633
 30
0.0
 10
142.4221558595
 20
291.4543824906
 30
0.0
 10
142.0087582977
 20
291.4544160367
 30
0.0
  0
SPLINE
  5
285
100
AcDbEntity
  8
0
100
AcDbSpline
 62
7
  6
CONTINUOUS
 70
0
 71
3
 72
9
 73
5
 74
0
 42
0.0000001
 43
0.0000001
 44
0.0000000001
 40
0.0
 40
0.0
 40
0.0
 40
0.0
 40
0.2665570022
 40
1.0
 40
1.0
 40
1.0
 40
1.0
 10
142.0087582977
 20
291.4544160367
 30
0.0
 10
141.9130021952
 20
291.4544216044
 30
0.0
 10
141.5537690716
 20
291.4544163491
 30
0.0
 10
141.1945360002
 20
291.4541905907
 30
0.0
 10
140.9310590374
 20
291.4540261503
 30
0.0
  0
ELLIPSE
  5
286
100
AcDbEntity
  8
0
100
AcDbEllipse
 62
7
  6
CONTINUOUS
 10
75.0663368437
 20
251.0402178421
 30
0.0
 11
3.0
 21
0.0
 31
0.0
 40
0.0087268678
 41
-3.1415926536
 42
-1.5707963268
  0
ELLIPSE
  5
287
100
AcDbEntity
  8
0
100
AcDbEllipse
 62
7
  6
CONTINUOUS
 10
79.8058423419
 20
250.961676032
 30
0.0
 11
6.0
 21
-0.0
 31
0.0
 40
0.0087268678
 41
7.0722255423
 42
7.853981634
  0
ELLIPSE
  5
288
100
AcDbEntity
  8
0
100
AcDbEllipse
 62
7
  6
CONTINUOUS
 10
112.5663368437
 20
251.2496626691
 30
0.0
 11
40.5
 21
-0.0
 31
0.0
 40
0.0087268678
 41
3.9306328887
 42
5.494145072
  0
ELLIPSE
  5
289
100
AcDbEntity
  8
0
100
AcDbEllipse
 62
7
  6
CONTINUOUS
 10
145.3268313454
 20
250.961676032
 30
0.0
 11
6.0
 21
-0.0
 31
0.0
 40
0.0087268678
 41
7.853981634
 42
8.6357377256
  0
ELLIPSE
  5
28A
100
AcDbEntity
  8
0
100
AcDbEllipse
 62
7
  6
CONTINUOUS
 10
150.0663368437
 20
251.0402178421
 30
0.0
 11
3.0
 21
-0.0
 31
0.0
 40
0.0087268678
 41
-1.5707963268
 42
0.0
  0
ELLIPSE
  5
28B
100
AcDbEntity
  8
0
100
AcDbEllipse
 62
7
  6
CONTINUOUS
 10
163.0663368437
 20
250.8089558457
 30
0.0
 11
7.5
 21
0.0
 31
0.0
 40
0.0087268678
 41
1.5707963268
 42
3.1415926536
  0
ELLIPSE
  5
28C
100
AcDbEntity
  8
0
100
AcDbEllipse
 62
7
  6
CONTINUOUS
 10
62.0663368437
 20
250.8089558457
 30
0.0
 11
7.5
 21
0.0
 31
0.0
 40
0.0087268678
 41
0.0
 42
1.5707963268
  0
ELLIPSE
  5
28D
100
AcDbEntity
  8
0
100
AcDbEllipse
 62
7
  6
CONTINUOUS
 10
53.0663368437
 20
250.9224051269
 30
0.0
 11
5.5
 21
0.0
 31
0.0
 40
0.0087268678
 41
-3.1415926536
 42
-1.5707963268
  0
ELLIPSE
  5
28E
100
AcDbEntity
  8
0
100
AcDbEllipse
 62
7
  6
CONTINUOUS
 10
75.0663368437
 20
250.7304140356
 30
0.0
 11
5.5
 21
0.0
 31
0.0
 40
0.0087268678
 41
-3.1415926536
 42
-1.5707963268
  0
ELLIPSE
  5
28F
100
AcDbEntity
  8
0
100
AcDbEllipse
 62
7
  6
CONTINUOUS
 10
150.0663368437
 20
250.7304140356
 30
0.0
 11
5.5
 21
0.0
 31
0.0
 40
0.0087268678
 41
-1.5707963268
 42
0.0
  0
ELLIPSE
  5
290
100
AcDbEntity
  8
0
100
AcDbEllipse
 62
7
  6
CONTINUOUS
 10
172.0663368437
 20
250.9224051269
 30
0.0
 11
5.5
 21
0.0
 31
0.0
 40
0.0087268678
 41
-1.5707963268
 42
0.0
  0
ENDSEC
  0
SECTION
  2
OBJECTS
  0
DICTIONARY
  5
C
100
AcDbDictionary
280
0
281
1
  3
ACAD_GROUP
350
D
  3
ACAD_MLINESTYLE
350
17
  3
ACAD_LAYOUT
350
1A
  3
ACAD_PLOTSETTINGS
350
19
  3
ACAD_PLOTSTYLENAME
350
E
  0
DICTIONARY
  5
D
102
{ACAD_REACTORS
330
C
102
}
100
AcDbDictionary
280
0
281
1
  0
ACDBDICTIONARYWDFLT
  5
E
102
{ACAD_REACTORS
330
C
102
}
100
AcDbDictionary
281
1
  3
Normal
350
F
100
AcDbDictionaryWithDefault
340
F
  0
DICTIONARY
  5
17
102
{ACAD_REACTORS
330
C
102
}
100
AcDbDictionary
280
0
281
1
  3
Standard
350
18
  0
DICTIONARY
  5
19
102
{ACAD_REACTORS
330
C
102
}
100
AcDbDictionary
281
1
  0
DICTIONARY
  5
1A
102
{ACAD_REACTORS
330
C
102
}
100
AcDbDictionary
281
1
  3
Model
350
291
  3
Layout1
350
292
  0
ACDBPLACEHOLDER
  5
F
102
{ACAD_REACTORS
330
E
102
}
  0
MLINESTYLE
  5
18
102
{ACAD_REACTORS
330
17
102
}
100
AcDbMlineStyle
  2
STANDARD
 70
0
  3

 62
256
 51
90.0
 52
90.0
 71
2
 49
0.5
 62
256
  6
BYLAYER
 49
-0.5
 62
256
  6
BYLAYER
  0
LAYOUT
  5
291
102
{ACAD_REACTORS
330
1A
102
}
100
AcDbPlotSettings
  1

  2
none_device
  4

  6

 40
0.0
 41
0.0
 42
0.0
 43
0.0
 44
210.0
 45
297.0
 46
0.0
 47
0.0
 48
0.0
 49
0.0
140
0.0
141
0.0
142
1.0
143
1.0
 70
1024
 72
1
 73
0
 74
0
  7

 75
0
147
1.0
148
0.0
149
0.0
100
AcDbLayout
  1
Model
 70
0
 71
0
 10
0.0
 20
0.0
 11
210.0
 21
297.0
 12
0.0
 22
0.0
 32
0.0
 14
0.0
 24
0.0
 34
0.0
 15
0.0
 25
0.0
 35
0.0
146
0.0
 13
0.0
 23
0.0
 33
0.0
 16
1.0
 26
0.0
 36
0.0
 17
0.0
 27
1.0
 37
0.0
 76
0
330
210
345
0
346
0
  0
LAYOUT
  5
292
102
{ACAD_REACTORS
330
1A
102
}
100
AcDbPlotSettings
  1

  2
none_device
  4

  6

 40
0.0
 41
0.0
 42
0.0
 43
0.0
 44
210.0
 45
297.0
 46
0.0
 47
0.0
 48
0.0
 49
0.0
140
0.0
141
0.0
142
1.0
143
1.0
 70
0
 72
1
 73
0
 74
0
  7

 75
0
147
1.0
148
0.0
149
0.0
100
AcDbLayout
  1
Layout1
 70
0
 71
1
 10
0.0
 20
0.0
 11
210.0
 21
297.0
 12
0.0
 22
0.0
 32
0.0
 14
0.0
 24
0.0
 34
0.0
 15
0.0
 25
0.0
 35
0.0
146
0.0
 13
0.0
 23
0.0
 33
0.0
 16
1.0
 26
0.0
 36
0.0
 17
0.0
 27
1.0
 37
0.0
 76
0
330
211
345
0
346
0
  0
ENDSEC
  0
EOF
