999
DXF file: C:\Users\sesa63760\Dev\_Creo\CAD\MCADPP0003468_3D-CAD\drw0001_1.dxf
999
Pro/ENGINEER 2019471 by Parametric Technology Corporation
  0
SECTION
  2
HEADER
  9
$ACADVER
  1
AC1024
  9
$DWGCODEPAGE
  3
ANSI_1252
  9
$EXTMAX
 10
121.8906767514
 20
172.3882428341
 30
0.0
  9
$EXTMIN
 10
0.0
 20
0.0
 30
0.0
  9
$LIMMIN
 10
0.0
 20
0.0
  9
$LIMMAX
 10
121.8906767514
 20
172.3882428341
  9
$VIEWCTR
 10
60.9453383757
 20
86.1941214171
  9
$VIEWSIZE
 40
172.3882428341
  9
$CLAYER
  8
0
  9
$LTSCALE
 40
11.2371595329
  9
$CELTYPE
  6
BYLAYER
  9
$DIMSCALE
 40
1.0
  9
$DIMASZ
 40
1.4510794851
  9
$DIMEXO
 40
1.0
  9
$DIMDLI
 40
7.7638556773
  9
$DIMEXE
 40
1.0
  9
$DIMCEN
 40
1.8388079236
  9
$DIMLFAC
 40
1.0
  9
$DIMBLK
  1
_FILLED
  9
$DIMALT
 70
0
  9
$DIMALTF
 40
0.0393700787
  9
$DIMTXT
 40
2.0315112792
  9
$DIMTOL
 70
1
  9
$DIMLIM
 70
0
  9
$DIMTFAC
 40
1.0
  9
$DIMTP
 40
0.01
  9
$DIMTM
 40
0.01
  9
$DIMGAP
 40
0.625
  9
$DIMDSEP
 70
46
  9
$AUNITS
 70
0
  9
$PDMODE
 70
3
  9
$PDSIZE
 40
0.3125
  9
$HANDSEED
  5
2A7
  9
$TILEMODE
 70
1
  9
$MEASUREMENT
 70
1
  9
$INSUNITS
 70
4
  0
ENDSEC
  0
SECTION
  2
CLASSES
  0
CLASS
  1
ACDBDICTIONARYWDFLT
  2
AcDbDictionaryWithDefault
  3
AutoCAD 2000
 90
0
 91
1
280
0
281
0
  0
CLASS
  1
ACDBPLACEHOLDER
  2
AcDbPlaceHolder
  3
AutoCAD 2000
 90
0
 91
1
280
0
281
0
  0
CLASS
  1
LAYOUT
  2
AcDbLayout
  3
AutoCAD 2000
 90
0
 91
0
280
0
281
0
  0
ENDSEC
  0
SECTION
  2
TABLES
  0
TABLE
  2
VPORT
  5
8
100
AcDbSymbolTable
 70
2
  0
VPORT
  5
1F4
100
AcDbSymbolTableRecord
100
AcDbViewportTableRecord
  2
*ACTIVE
 70
0
 10
0.0
 20
0.0
 11
1.0
 21
1.0
 12
60.9453383757
 22
86.1941214171
 13
0.0
 23
0.0
 14
1.0
 24
1.0
 15
0.0
 25
0.0
 16
0.0
 26
0.0
 36
1.0
 17
0.0
 27
0.0
 37
0.0
 40
172.3882428341
 41
0.7070707071
 42
50.0
 43
0.0
 44
0.0
 50
0.0
 51
0.0
 71
0
 72
100
 73
1
 74
1
 75
0
 76
0
 77
0
 78
0
  0
ENDTAB
  0
TABLE
  2
LTYPE
  5
5
100
AcDbSymbolTable
 70
6
  0
LTYPE
  5
14
100
AcDbSymbolTableRecord
100
AcDbLinetypeTableRecord
  2
BYBLOCK
 70
0
  3

 72
65
 73
0
 40
0.0
  0
LTYPE
  5
15
100
AcDbSymbolTableRecord
100
AcDbLinetypeTableRecord
  2
BYLAYER
 70
0
  3

 72
65
 73
0
 40
0.0
  0
LTYPE
  5
16
100
AcDbSymbolTableRecord
100
AcDbLinetypeTableRecord
  2
CONTINUOUS
 70
64
  3
Solid line
 72
65
 73
0
 40
0.0
  0
LTYPE
  5
1F5
100
AcDbSymbolTableRecord
100
AcDbLinetypeTableRecord
  2
CENTER
 70
64
  3
____ _ ____ _ ____ _ ____ _ ____ _ ____ _ ____
 72
65
 73
4
 40
0.6
 49
0.375
 74
0
 49
-0.075
 74
0
 49
0.075
 74
0
 49
-0.075
 74
0
  0
LTYPE
  5
1F6
100
AcDbSymbolTableRecord
100
AcDbLinetypeTableRecord
  2
HIDDEN
 70
64
  3
- - - - - - - - - - - - - - - - - - - -
 72
65
 73
2
 40
0.2
 49
0.1
 74
0
 49
-0.1
 74
0
  0
LTYPE
  5
1F7
100
AcDbSymbolTableRecord
100
AcDbLinetypeTableRecord
  2
PHANTOM
 70
64
  3
_____ _ _ _____ _ _ _____ _ _ _____
 72
65
 73
6
 40
0.8
 49
0.45
 74
0
 49
-0.05
 74
0
 49
0.1
 74
0
 49
-0.05
 74
0
 49
0.1
 74
0
 49
-0.05
 74
0
  0
LTYPE
  5
1F8
100
AcDbSymbolTableRecord
100
AcDbLinetypeTableRecord
  2
DOT
 70
64
  3
. . . . . . . . . . . . . . . . . . . .
 72
65
 73
2
 40
0.2
 49
0.1
 74
0
 49
-0.1
 74
0
  0
LTYPE
  5
1F9
100
AcDbSymbolTableRecord
100
AcDbLinetypeTableRecord
  2
DASHED
 70
64
  3
- - - - - - - - - - - - - - - - - - - -
 72
65
 73
2
 40
0.2
 49
0.1
 74
0
 49
-0.1
 74
0
  0
ENDTAB
  0
TABLE
  2
LAYER
  5
2
100
AcDbSymbolTable
 70
36
  0
LAYER
  5
10
100
AcDbSymbolTableRecord
100
AcDbLayerTableRecord
  2
0
 70
0
 62
7
  6
CONTINUOUS
370
-3
390
F
  0
LAYER
  5
1FA
100
AcDbSymbolTableRecord
100
AcDbLayerTableRecord
  2
DEFAULT_1
 70
0
 62
7
  6
CENTER
370
-3
390
F
  0
LAYER
  5
1FB
100
AcDbSymbolTableRecord
100
AcDbLayerTableRecord
  2
DEFAULT_2
 70
0
 62
8
  6
HIDDEN
370
-3
390
F
  0
LAYER
  5
1FC
100
AcDbSymbolTableRecord
100
AcDbLayerTableRecord
  2
DEFAULT_3
 70
0
 62
7
  6
PHANTOM
370
-3
390
F
  0
LAYER
  5
1FD
100
AcDbSymbolTableRecord
100
AcDbLayerTableRecord
  2
00_COMPONENTS
 70
0
 62
7
  6
CONTINUOUS
370
-3
390
F
  0
LAYER
  5
1FE
100
AcDbSymbolTableRecord
100
AcDbLayerTableRecord
  2
01_1_DEFAULT_DATUMS
 70
0
 62
7
  6
CONTINUOUS
370
-3
390
F
  0
LAYER
  5
1FF
100
AcDbSymbolTableRecord
100
AcDbLayerTableRecord
  2
01_PLANES
 70
0
 62
7
  6
CONTINUOUS
370
-3
390
F
  0
LAYER
  5
200
100
AcDbSymbolTableRecord
100
AcDbLayerTableRecord
  2
02_COORD_SYS
 70
0
 62
7
  6
CONTINUOUS
370
-3
390
F
  0
LAYER
  5
201
100
AcDbSymbolTableRecord
100
AcDbLayerTableRecord
  2
03_AXES
 70
0
 62
7
  6
CONTINUOUS
370
-3
390
F
  0
LAYER
  5
202
100
AcDbSymbolTableRecord
100
AcDbLayerTableRecord
  2
04_POINTS
 70
0
 62
7
  6
CONTINUOUS
370
-3
390
F
  0
LAYER
  5
203
100
AcDbSymbolTableRecord
100
AcDbLayerTableRecord
  2
05_CURVES
 70
0
 62
7
  6
CONTINUOUS
370
-3
390
F
  0
LAYER
  5
204
100
AcDbSymbolTableRecord
100
AcDbLayerTableRecord
  2
06_SURFS
 70
0
 62
7
  6
CONTINUOUS
370
-3
390
F
  0
LAYER
  5
205
100
AcDbSymbolTableRecord
100
AcDbLayerTableRecord
  2
07_COSMETICS
 70
0
 62
7
  6
CONTINUOUS
370
-3
390
F
  0
LAYER
  5
206
100
AcDbSymbolTableRecord
100
AcDbLayerTableRecord
  2
10_NOTES
 70
0
 62
7
  6
CONTINUOUS
370
-3
390
F
  0
LAYER
  5
207
100
AcDbSymbolTableRecord
100
AcDbLayerTableRecord
  2
11_NOTES_PUB
 70
0
 62
7
  6
CONTINUOUS
370
-3
390
F
  0
LAYER
  5
208
100
AcDbSymbolTableRecord
100
AcDbLayerTableRecord
  2
13_REF_GTOL
 70
0
 62
7
  6
CONTINUOUS
370
-3
390
F
  0
LAYER
  5
209
100
AcDbSymbolTableRecord
100
AcDbLayerTableRecord
  2
16_MISC
 70
0
 62
7
  6
CONTINUOUS
370
-3
390
F
  0
LAYER
  5
20A
100
AcDbSymbolTableRecord
100
AcDbLayerTableRecord
  2
17_NO_PRINT
 70
0
 62
7
  6
CONTINUOUS
370
-3
390
F
  0
LAYER
  5
20B
100
AcDbSymbolTableRecord
100
AcDbLayerTableRecord
  2
18_DATUM_CAMS_JOINTS
 70
0
 62
7
  6
CONTINUOUS
370
-3
390
F
  0
LAYER
  5
20C
100
AcDbSymbolTableRecord
100
AcDbLayerTableRecord
  2
19_DATUM_FUNCTIONAL
 70
0
 62
7
  6
CONTINUOUS
370
-3
390
F
  0
LAYER
  5
20D
100
AcDbSymbolTableRecord
100
AcDbLayerTableRecord
  2
20_DATUM_KINEMATIC_SCHEME
 70
0
 62
7
  6
CONTINUOUS
370
-3
390
F
  0
ENDTAB
  0
TABLE
  2
STYLE
  5
3
100
AcDbSymbolTable
 70
1
  0
STYLE
  5
11
100
AcDbSymbolTableRecord
100
AcDbTextStyleTableRecord
  2
STANDARD
 70
0
 40
0.0
 41
0.8
 50
0.0
 71
0
 42
0.2
  3
txt
  4

  0
STYLE
  5
20E
100
AcDbSymbolTableRecord
100
AcDbTextStyleTableRecord
  2
TEXTSTYLE_1
 70
0
 40
0.0
 41
0.8
 50
0.0
 71
0
 42
0.2
  3
gdt
  4

  0
ENDTAB
  0
TABLE
  2
VIEW
  5
6
100
AcDbSymbolTable
 70
0
  0
ENDTAB
  0
TABLE
  2
UCS
  5
7
100
AcDbSymbolTable
 70
0
  0
ENDTAB
  0
TABLE
  2
APPID
  5
9
100
AcDbSymbolTable
 70
1
  0
APPID
  5
20F
100
AcDbSymbolTableRecord
100
AcDbRegAppTableRecord
  2
ACAD
 70
0
  0
ENDTAB
  0
TABLE
  2
BLOCK_RECORD
  5
1
100
AcDbSymbolTable
 70
0
  0
BLOCK_RECORD
  5
210
100
AcDbSymbolTableRecord
100
AcDbBlockTableRecord
  2
*Model_Space
  0
BLOCK_RECORD
  5
211
100
AcDbSymbolTableRecord
100
AcDbBlockTableRecord
  2
*Paper_Space
  0
BLOCK_RECORD
  5
212
100
AcDbSymbolTableRecord
100
AcDbBlockTableRecord
  2
_FILLED
  0
ENDTAB
  0
TABLE
  2
DIMSTYLE
  5
A
100
AcDbSymbolTable
 70
1
100
AcDbDimStyleTable
 71
0
  0
DIMSTYLE
105
213
100
AcDbSymbolTableRecord
100
AcDbDimStyleTableRecord
  2
STANDARD
 70
0
  3

  4

 40
1.0
 41
1.4510794851
 42
1.0
 43
0.38
 44
1.0
 45
0.0
 46
0.0
 47
0.01
 48
0.01
140
2.0315112792
141
0.09
142
0.0
143
25.4
144
1.0
145
0.0
146
1.0
147
0.625
 71
1
 72
0
 73
0
 74
0
 75
0
 76
0
 77
1
 78
8
 79
2
170
0
171
1
172
0
173
0
174
0
175
0
176
0
177
0
178
0
270
2
179
2
271
2
272
2
273
2
274
2
275
0
280
0
281
0
282
0
283
1
284
8
285
0
286
0
287
3
288
0
340
11
278
46
341
212
342
212
343
212
344
212
  0
ENDTAB
  0
ENDSEC
  0
SECTION
  2
BLOCKS
  0
BLOCK
  5
20
100
AcDbEntity
  8
0
100
AcDbBlockBegin
  2
*Model_Space
 70
0
 10
0.0
 20
0.0
 30
0.0
  3
*Model_Space
  1

  0
ENDBLK
  5
21
100
AcDbEntity
  8
0
100
AcDbBlockEnd
  0
BLOCK
  5
1C
100
AcDbEntity
  8
0
100
AcDbBlockBegin
  2
*Paper_Space
 70
0
 10
0.0
 20
0.0
 30
0.0
  3
*Paper_Space
  1

  0
ENDBLK
  5
1D
100
AcDbEntity
  8
0
100
AcDbBlockEnd
  0
BLOCK
  5
214
100
AcDbEntity
  8
0
100
AcDbBlockBegin
  2
_FILLED
 70
64
 10
0.0
 20
0.0
  3
_FILLED
  1

  0
SOLID
  5
215
100
AcDbEntity
  8
0
  6
BYBLOCK
 62
0
100
AcDbTrace
 10
0.0
 20
0.0
 11
-1.0
 21
0.25
 12
-1.0
 22
-0.25
 13
-1.0
 23
-0.25
  0
ENDBLK
  5
216
100
AcDbEntity
  8
0
  6
BYBLOCK
 62
0
100
AcDbBlockEnd
  0
ENDSEC
  0
SECTION
  2
ENTITIES
  0
LINE
  5
217
100
AcDbEntity
  8
0
100
AcDbLine
 62
7
  6
CONTINUOUS
 10
17.3109124367
 20
141.19814267
 11
29.4023880531
 21
148.1791177012
  0
LINE
  5
218
100
AcDbEntity
  8
0
100
AcDbLine
 62
7
  6
CONTINUOUS
 10
22.1358908383
 20
140.7202333761
 11
24.0539470419
 21
141.8276170343
  0
LINE
  5
219
100
AcDbEntity
  8
0
100
AcDbLine
 62
7
  6
CONTINUOUS
 10
18.7293872769
 20
132.65945472
 11
25.0933218119
 21
136.3336521048
  0
LINE
  5
21A
100
AcDbEntity
  8
0
100
AcDbLine
 62
7
  6
CONTINUOUS
 10
26.3433162146
 20
136.2098414079
 11
19.9793816808
 21
132.5356440224
  0
LINE
  5
21B
100
AcDbEntity
  8
0
100
AcDbLine
 62
7
  6
CONTINUOUS
 10
18.211607368
 20
62.1122844099
 11
18.211607368
 21
131.5149898659
  0
LINE
  5
21C
100
AcDbEntity
  8
0
100
AcDbLine
 62
7
  6
CONTINUOUS
 10
80.0837083183
 20
24.3499623466
 11
19.9793816808
 21
59.0504264808
  0
LINE
  5
21D
100
AcDbEntity
  8
0
100
AcDbLine
 62
7
  6
CONTINUOUS
 10
35.8498352052
 20
65.4834792966
 11
31.7175355968
 21
67.8692200695
  0
LINE
  5
21E
100
AcDbEntity
  8
0
100
AcDbLine
 62
7
  6
CONTINUOUS
 10
31.7175355968
 20
67.8692200695
 11
31.7175326528
 21
74.2379301688
  0
LINE
  5
21F
100
AcDbEntity
  8
0
100
AcDbLine
 62
7
  6
CONTINUOUS
 10
31.7175355968
 20
73.421436506
 11
36.5258817278
 21
70.6453993753
  0
LINE
  5
220
100
AcDbEntity
  8
0
100
AcDbLine
 62
7
  6
CONTINUOUS
 10
31.7175326528
 20
74.2379301688
 11
37.232988509
 21
71.0536522835
  0
LINE
  5
221
100
AcDbEntity
  8
0
100
AcDbLine
 62
7
  6
CONTINUOUS
 10
36.5258817278
 20
70.6453993753
 11
36.5258817278
 21
66.4511675487
  0
LINE
  5
222
100
AcDbEntity
  8
0
100
AcDbLine
 62
7
  6
CONTINUOUS
 10
37.232988509
 20
71.0536522835
 11
37.232988509
 21
66.282066061
  0
LINE
  5
223
100
AcDbEntity
  8
0
100
AcDbLine
 62
7
  6
CONTINUOUS
 10
68.12927061
 20
114.1665439087
 11
66.4732392616
 21
113.2104394711
  0
LINE
  5
224
100
AcDbEntity
  8
0
100
AcDbLine
 62
7
  6
CONTINUOUS
 10
36.5258817278
 20
66.4511675487
 11
37.232988509
 21
66.282066061
  0
LINE
  5
225
100
AcDbEntity
  8
0
100
AcDbLine
 62
7
  6
CONTINUOUS
 10
68.5188357887
 20
112.0294404832
 11
69.9816345065
 21
112.7740411451
  0
LINE
  5
226
100
AcDbEntity
  8
0
100
AcDbLine
 62
7
  6
CONTINUOUS
 10
68.6593634041
 20
111.9483086621
 11
72.4582276271
 21
113.8820248222
  0
LINE
  5
227
100
AcDbEntity
  8
0
100
AcDbLine
 62
7
  6
CONTINUOUS
 10
47.4859941486
 20
76.9731925146
 11
41.9705382924
 21
80.1574703999
  0
LINE
  5
228
100
AcDbEntity
  8
0
100
AcDbLine
 62
7
  6
CONTINUOUS
 10
47.4859941486
 20
72.2016062921
 11
47.4859941486
 21
76.9731925146
  0
LINE
  5
229
100
AcDbEntity
  8
0
100
AcDbLine
 62
7
  6
CONTINUOUS
 10
41.9705382924
 20
80.1574703999
 11
31.7175326528
 21
74.2379301688
  0
LINE
  5
22A
100
AcDbEntity
  8
0
100
AcDbLine
 62
7
  6
CONTINUOUS
 10
48.0315539534
 20
81.9069099691
 11
43.4859905887
 21
79.2825434022
  0
LINE
  5
22B
100
AcDbEntity
  8
0
100
AcDbLine
 62
7
  6
CONTINUOUS
 10
86.4476428472
 20
101.5093772766
 11
80.0837083183
 21
97.8351798882
  0
LINE
  5
22C
100
AcDbEntity
  8
0
100
AcDbLine
 62
7
  6
CONTINUOUS
 10
90.7607713602
 20
103.5397336822
 11
98.9631758719
 21
107.8618343882
  0
LINE
  5
22D
100
AcDbEntity
  8
0
100
AcDbLine
 62
7
  6
CONTINUOUS
 10
108.1706213795
 20
104.6668209682
 11
107.9988660316
 21
104.6134524725
  0
LINE
  5
22E
100
AcDbEntity
  8
0
100
AcDbLine
 62
7
  6
CONTINUOUS
 10
47.4859941486
 20
76.9731925146
 11
36.5258817278
 21
70.6453993753
  0
LINE
  5
22F
100
AcDbEntity
  8
0
100
AcDbLine
 62
7
  6
CONTINUOUS
 10
88.2154171661
 20
98.4475193452
 11
81.8514826312
 21
94.7733219591
  0
LINE
  5
230
100
AcDbEntity
  8
0
100
AcDbLine
 62
7
  6
CONTINUOUS
 10
101.0845050473
 20
104.8971594941
 11
94.7470991427
 21
101.2382783297
  0
LINE
  5
231
100
AcDbEntity
  8
0
100
AcDbLine
 62
7
  6
CONTINUOUS
 10
36.5258817278
 20
66.4511675487
 11
35.3498360675
 21
65.7721578569
  0
LINE
  5
232
100
AcDbEntity
  8
0
100
AcDbLine
 62
7
  6
CONTINUOUS
 10
52.0315360458
 20
74.9786963999
 11
47.4859941486
 21
72.3543422272
  0
LINE
  5
233
100
AcDbEntity
  8
0
100
AcDbLine
 62
7
  6
CONTINUOUS
 10
47.4859941486
 20
72.2016062921
 11
35.8498352052
 21
65.4834792966
  0
LINE
  5
234
100
AcDbEntity
  8
0
100
AcDbLine
 62
7
  6
CONTINUOUS
 10
97.9671340908
 20
99.3792323429
 11
88.3618623036
 21
94.1400750354
  0
LINE
  5
235
100
AcDbEntity
  8
0
100
AcDbLine
 62
7
  6
CONTINUOUS
 10
98.3298520555
 20
98.7768294958
 11
105.007604115
 21
102.6322084314
  0
LINE
  5
236
100
AcDbEntity
  8
0
100
AcDbLine
 62
7
  6
CONTINUOUS
 10
106.3592715417
 20
100.6991312382
 11
98.9070920905
 21
96.3966391085
  0
LINE
  5
237
100
AcDbEntity
  8
0
100
AcDbLine
 62
7
  6
CONTINUOUS
 10
88.3618623036
 20
98.651640923
 11
88.2154171661
 21
98.4475193439
  0
LINE
  5
238
100
AcDbEntity
  8
0
100
AcDbLine
 62
7
  6
CONTINUOUS
 10
86.4476428533
 20
101.5093772731
 11
86.6976386115
 21
101.5341412153
  0
LINE
  5
239
100
AcDbEntity
  8
0
100
AcDbLine
 62
7
  6
CONTINUOUS
 10
81.8514826312
 20
94.7733219591
 11
81.8514826312
 21
25.3706165031
  0
LINE
  5
23A
100
AcDbEntity
  8
0
100
AcDbLine
 62
7
  6
CONTINUOUS
 10
81.9218285519
 20
118.0908543936
 11
81.9218285519
 21
113.5109679359
  0
LINE
  5
23B
100
AcDbEntity
  8
0
100
AcDbLine
 62
7
  6
CONTINUOUS
 10
106.3592715417
 20
91.573515988
 11
99.6315893109
 21
87.6893100266
  0
LINE
  5
23C
100
AcDbEntity
  8
0
100
AcDbLine
 62
7
  6
CONTINUOUS
 10
99.5193722357
 20
87.3561685565
 11
106.0075996381
 21
91.1021260335
  0
LINE
  5
23D
100
AcDbEntity
  8
0
100
AcDbLine
 62
7
  6
CONTINUOUS
 10
19.9793816808
 20
132.5356440224
 11
80.0837083183
 21
97.8351798882
  0
LINE
  5
23E
100
AcDbEntity
  8
0
100
AcDbLine
 62
7
  6
CONTINUOUS
 10
21.7566606374
 20
134.4072413767
 11
19.3074754869
 21
135.8212470935
  0
LINE
  5
23F
100
AcDbEntity
  8
0
100
AcDbLine
 62
7
  6
CONTINUOUS
 10
88.2154171661
 20
29.0448138949
 11
88.2154171661
 21
98.4475193452
  0
LINE
  5
240
100
AcDbEntity
  8
0
100
AcDbLine
 62
7
  6
CONTINUOUS
 10
88.3618623036
 20
98.6516397212
 11
88.3618623036
 21
29.2489342652
  0
LINE
  5
241
100
AcDbEntity
  8
0
100
AcDbLine
 62
7
  6
CONTINUOUS
 10
98.2821766367
 20
83.6815620503
 11
98.2139105953
 21
83.637272533
  0
LINE
  5
242
100
AcDbEntity
  8
0
100
AcDbLine
 62
7
  6
CONTINUOUS
 10
88.3618623036
 20
77.229850047
 11
98.2247131254
 21
83.6206688971
  0
LINE
  5
243
100
AcDbEntity
  8
0
100
AcDbLine
 62
7
  6
CONTINUOUS
 10
104.0865211124
 20
89.9929974502
 11
106.2469873802
 21
88.745679887
  0
LINE
  5
244
100
AcDbEntity
  8
0
100
AcDbLine
 62
7
  6
CONTINUOUS
 10
86.4476428472
 20
101.5093772766
 11
26.3433162146
 21
136.2098414079
  0
LINE
  5
245
100
AcDbEntity
  8
0
100
AcDbLine
 62
7
  6
CONTINUOUS
 10
26.593311974
 20
136.2346053496
 11
86.6976386115
 21
101.5341412153
  0
LINE
  5
246
100
AcDbEntity
  8
0
100
AcDbLine
 62
7
  6
CONTINUOUS
 10
108.1096328454
 20
90.0029116583
 11
107.9988691845
 21
89.8822371055
  0
LINE
  5
247
100
AcDbEntity
  8
0
100
AcDbLine
 62
7
  6
CONTINUOUS
 10
98.2243906502
 20
83.6212029332
 11
98.2817566362
 21
83.6820300221
  0
LINE
  5
248
100
AcDbEntity
  8
0
100
AcDbLine
 62
7
  6
CONTINUOUS
 10
22.1358908383
 20
140.7202333761
 11
68.12927061
 21
114.1665439087
  0
LINE
  5
249
100
AcDbEntity
  8
0
100
AcDbLine
 62
7
  6
CONTINUOUS
 10
72.4582276271
 20
113.8820248222
 11
24.0539470419
 21
141.8276170343
  0
LINE
  5
24A
100
AcDbEntity
  8
0
100
AcDbLine
 62
7
  6
CONTINUOUS
 10
90.7607713602
 20
103.5397336822
 11
97.9671340908
 21
99.3792323429
  0
LINE
  5
24B
100
AcDbEntity
  8
0
100
AcDbLine
 62
7
  6
CONTINUOUS
 10
88.4272910146
 20
107.3075186653
 11
75.5578940169
 21
114.7375003976
  0
LINE
  5
24C
100
AcDbEntity
  8
0
100
AcDbLine
 62
7
  6
CONTINUOUS
 10
94.7912255495
 20
107.1469651682
 11
94.7912255495
 21
110.6608726614
  0
LINE
  5
24D
100
AcDbEntity
  8
0
100
AcDbLine
 62
7
  6
CONTINUOUS
 10
98.9631758719
 20
107.8618343882
 11
98.9631758719
 21
103.6724168344
  0
LINE
  5
24E
100
AcDbEntity
  8
0
100
AcDbLine
 62
7
  6
CONTINUOUS
 10
106.0074545312
 20
91.1023774366
 11
106.3592715417
 21
91.573515988
  0
LINE
  5
24F
100
AcDbEntity
  8
0
100
AcDbLine
 62
7
  6
CONTINUOUS
 10
81.9218285519
 20
113.5109679359
 11
93.5670700255
 21
106.7877367361
  0
LINE
  5
250
100
AcDbEntity
  8
0
100
AcDbLine
 62
7
  6
CONTINUOUS
 10
101.0845050473
 20
104.8971594941
 11
105.007604115
 21
102.6322084314
  0
LINE
  5
251
100
AcDbEntity
  8
0
100
AcDbLine
 62
7
  6
CONTINUOUS
 10
98.9631758719
 20
107.8618343882
 11
106.2469873802
 21
103.6566189878
  0
LINE
  5
252
100
AcDbEntity
  8
0
100
AcDbLine
 62
7
  6
CONTINUOUS
 10
81.9218285519
 20
118.0908543936
 11
94.7912255495
 21
110.6608726614
  0
LINE
  5
253
100
AcDbEntity
  8
0
100
AcDbLine
 62
7
  6
CONTINUOUS
 10
107.9982004157
 20
104.6129866723
 11
31.8202720111
 21
148.5950413665
  0
LINE
  5
254
100
AcDbEntity
  8
0
100
AcDbLine
 62
7
  6
CONTINUOUS
 10
32.0738600298
 20
148.6003127163
 11
108.1704574773
 21
104.6669156018
  0
LINE
  5
255
100
AcDbEntity
  8
0
100
AcDbLine
 62
7
  6
CONTINUOUS
 10
108.1799171625
 20
104.6554564267
 11
108.1706213795
 21
104.6668209682
  0
LINE
  5
256
100
AcDbEntity
  8
0
100
AcDbLine
 62
7
  6
CONTINUOUS
 10
32.0738747915
 20
148.6003041938
 11
31.9904642061
 21
148.6288759802
  0
LINE
  5
257
100
AcDbEntity
  8
0
100
AcDbLine
 62
7
  6
CONTINUOUS
 10
88.2154171661
 20
29.0448138879
 11
88.3618623036
 21
29.2489342652
  0
LINE
  5
258
100
AcDbEntity
  8
0
100
AcDbLine
 62
7
  6
CONTINUOUS
 10
26.5933151749
 20
136.2346035015
 11
26.3433162158
 21
136.2098414073
  0
LINE
  5
259
100
AcDbEntity
  8
0
100
AcDbLine
 62
7
  6
CONTINUOUS
 10
88.2154171661
 20
29.0448138949
 11
81.8514826312
 21
25.3706165031
  0
LINE
  5
25A
100
AcDbEntity
  8
0
100
AcDbLine
 62
7
  6
CONTINUOUS
 10
81.3337027222
 20
24.226151649
 11
87.6976372572
 21
27.9003490339
  0
LINE
  5
25B
100
AcDbEntity
  8
0
100
AcDbLine
 62
7
  6
CONTINUOUS
 10
31.9904642061
 20
148.6288759802
 11
31.8194687323
 21
148.5946530223
  0
LINE
  5
25C
100
AcDbEntity
  8
0
100
AcDbLine
 62
7
  6
CONTINUOUS
 10
31.8056756575
 20
148.5864386725
 11
29.4023880531
 21
148.1791177012
  0
ARC
  5
25D
100
AcDbEntity
  8
0
100
AcDbCircle
 62
7
  6
CONTINUOUS
 10
100.123314587
 20
94.4485646475
 40
9.1025345383
100
AcDbArc
 50
330.831945546
 51
333.2536335722
  0
ARC
  5
25E
100
AcDbEntity
  8
0
100
AcDbCircle
 62
7
  6
CONTINUOUS
 10
100.3630812328
 20
94.3153438417
 40
8.8282435616
100
AcDbArc
 50
329.8461661581
 51
330.8285177634
  0
ARC
  5
25F
100
AcDbEntity
  8
0
100
AcDbCircle
 62
7
  6
CONTINUOUS
 10
31.2980747877
 20
143.5838674238
 40
5.0922979303
100
AcDbArc
 50
82.1853650769
 51
84.2920678221
  0
ARC
  5
260
100
AcDbEntity
  8
0
100
AcDbCircle
 62
7
  6
CONTINUOUS
 10
85.1938751386
 20
99.3424301232
 40
2.5035162137
100
AcDbArc
 50
56.4501275357
 51
59.9468786369
  0
ARC
  5
261
100
AcDbEntity
  8
0
100
AcDbCircle
 62
7
  6
CONTINUOUS
 10
85.7612989693
 20
98.4467297461
 40
2.4541183238
100
AcDbArc
 50
0.0184345881
 51
3.5855617085
  0
SPLINE
  5
262
100
AcDbEntity
  8
0
100
AcDbSpline
 62
7
  6
CONTINUOUS
 70
0
 71
3
 72
11
 73
7
 74
0
 42
0.0000001
 43
0.0000001
 44
0.0000000001
 40
0.0
 40
0.0
 40
0.0
 40
0.0
 40
0.2895372962
 40
0.549113267
 40
0.7822537841
 40
1.0
 40
1.0
 40
1.0
 40
1.0
 10
18.211607368
 20
131.5149898659
 30
0.0
 10
18.211607368
 20
131.6415859656
 30
0.0
 10
18.2309387329
 20
131.8824772929
 30
0.0
 10
18.3283213292
 20
132.2135047895
 30
0.0
 10
18.4925744985
 20
132.4822190812
 30
0.0
 10
18.6469955988
 20
132.6117483689
 30
0.0
 10
18.7294469258
 20
132.6593514058
 30
0.0
  0
SPLINE
  5
263
100
AcDbEntity
  8
0
100
AcDbSpline
 62
7
  6
CONTINUOUS
 70
0
 71
3
 72
13
 73
9
 74
0
 42
0.0000001
 43
0.0000001
 44
0.0000000001
 40
0.0
 40
0.0
 40
0.0
 40
0.0
 40
0.1141755944
 40
0.2375687028
 40
0.4999988186
 40
0.7624295809
 40
0.8858234769
 40
1.0
 40
1.0
 40
1.0
 40
1.0
 10
19.9793816808
 20
59.0504264808
 30
0.0
 10
19.8584504384
 20
59.1202445866
 30
0.0
 10
19.6194564247
 20
59.2879450731
 30
0.0
 10
19.1717199583
 20
59.7065943241
 30
0.0
 10
18.6992046977
 20
60.3525517902
 30
0.0
 10
18.3760429281
 20
61.0847400278
 30
0.0
 10
18.2373458816
 20
61.6818177224
 30
0.0
 10
18.211607368
 20
61.9726446932
 30
0.0
 10
18.211607368
 20
62.1122844099
 30
0.0
  0
SPLINE
  5
264
100
AcDbEntity
  8
0
100
AcDbSpline
 62
7
  6
CONTINUOUS
 70
0
 71
3
 72
11
 73
7
 74
0
 42
0.0000001
 43
0.0000001
 44
0.0000000001
 40
0.0
 40
0.0
 40
0.0
 40
0.0
 40
0.2177239861
 40
0.4508730345
 40
0.7104683317
 40
1.0
 40
1.0
 40
1.0
 40
1.0
 10
26.9690529247
 20
118.3879688154
 30
0.0
 10
27.038306322
 20
118.4279484895
 30
0.0
 10
27.1679913161
 20
118.5367771718
 30
0.0
 10
27.3059960136
 20
118.7624729445
 30
0.0
 10
27.3877945028
 20
119.0405498899
 30
0.0
 10
27.4040337949
 20
119.2429013962
 30
0.0
 10
27.4040337949
 20
119.3492397533
 30
0.0
  0
SPLINE
  5
265
100
AcDbEntity
  8
0
100
AcDbSpline
 62
7
  6
CONTINUOUS
 70
0
 71
3
 72
16
 73
12
 74
0
 42
0.0000001
 43
0.0000001
 44
0.0000000001
 40
0.0
 40
0.0
 40
0.0
 40
0.0
 40
0.1287407954
 40
0.2704211541
 40
0.4176251582
 40
0.5620262225
 40
0.6957516539
 40
0.8130667234
 40
0.9124704488
 40
0.9571204215
 40
1.0
 40
1.0
 40
1.0
 40
1.0
 10
27.4040337949
 20
63.663774905
 30
0.0
 10
27.4040337949
 20
63.8432650486
 30
0.0
 10
27.3537785106
 20
64.2207095518
 30
0.0
 10
27.1664155961
 20
64.7748928127
 30
0.0
 10
26.8774863165
 20
65.3087078571
 30
0.0
 10
26.5107447905
 20
65.7783878048
 30
0.0
 10
26.0949347136
 20
66.1461455413
 30
0.0
 10
25.6623561029
 20
66.383445286
 30
0.0
 10
25.2951640037
 20
66.455078931
 30
0.0
 10
25.0350137378
 20
66.4170847286
 30
0.0
 10
24.9209283126
 20
66.3695461934
 30
0.0
 10
24.8691538194
 20
66.3396570118
 30
0.0
  0
SPLINE
  5
266
100
AcDbEntity
  8
0
100
AcDbSpline
 62
7
  6
CONTINUOUS
 70
0
 71
3
 72
16
 73
12
 74
0
 42
0.0000001
 43
0.0000001
 44
0.0000000001
 40
0.0
 40
0.0
 40
0.0
 40
0.0
 40
0.1287407954
 40
0.2704211541
 40
0.4176251582
 40
0.5620262225
 40
0.6957516539
 40
0.8130667234
 40
0.9124704488
 40
0.9571204215
 40
1.0
 40
1.0
 40
1.0
 40
1.0
 10
75.6289170499
 20
35.8217554467
 30
0.0
 10
75.6289170499
 20
36.0012455904
 30
0.0
 10
75.5786617656
 20
36.3786900935
 30
0.0
 10
75.3912988511
 20
36.9328733544
 30
0.0
 10
75.1023695716
 20
37.4666883988
 30
0.0
 10
74.7356280456
 20
37.9363683465
 30
0.0
 10
74.3198179686
 20
38.304126083
 30
0.0
 10
73.887239358
 20
38.5414258277
 30
0.0
 10
73.5200472587
 20
38.6130594727
 30
0.0
 10
73.2598969928
 20
38.5750652703
 30
0.0
 10
73.1458115677
 20
38.5275267351
 30
0.0
 10
73.0940370744
 20
38.4976375535
 30
0.0
  0
SPLINE
  5
267
100
AcDbEntity
  8
0
100
AcDbSpline
 62
7
  6
CONTINUOUS
 70
0
 71
3
 72
16
 73
12
 74
0
 42
0.0000001
 43
0.0000001
 44
0.0000000001
 40
0.0
 40
0.0
 40
0.0
 40
0.0
 40
0.1287381649
 40
0.2704120378
 40
0.4176109148
 40
0.5620093961
 40
0.6957352233
 40
0.8130520984
 40
0.9124605164
 40
0.9571146402
 40
1.0
 40
1.0
 40
1.0
 40
1.0
 10
75.6289170499
 20
91.507220295
 30
0.0
 10
75.6289170499
 20
91.6867067933
 30
0.0
 10
75.5786652045
 20
92.0641387648
 30
0.0
 10
75.391312432
 20
92.6183041666
 30
0.0
 10
75.1024018474
 20
93.1521066081
 30
0.0
 10
74.7356745837
 20
93.6217846406
 30
0.0
 10
74.3198744472
 20
93.9895524727
 30
0.0
 10
73.8872949682
 20
94.2268703787
 30
0.0
 10
73.5200923214
 20
94.2985235625
 30
0.0
 10
73.2599184859
 20
94.2605389402
 30
0.0
 10
73.1458220162
 20
94.2129893601
 30
0.0
 10
73.0940408108
 20
94.1830956688
 30
0.0
  0
SPLINE
  5
268
100
AcDbEntity
  8
0
100
AcDbSpline
 62
7
  6
CONTINUOUS
 70
0
 71
3
 72
16
 73
12
 74
0
 42
0.0000001
 43
0.0000001
 44
0.0000000001
 40
0.0
 40
0.0
 40
0.0
 40
0.0
 40
0.1287381649
 40
0.2704120378
 40
0.4176109148
 40
0.5620093961
 40
0.6957352233
 40
0.8130520984
 40
0.9124605164
 40
0.9571146402
 40
1.0
 40
1.0
 40
1.0
 40
1.0
 10
27.4040337949
 20
119.3492397533
 30
0.0
 10
27.4040337949
 20
119.5287262516
 30
0.0
 10
27.3537819495
 20
119.9061582231
 30
0.0
 10
27.1664291769
 20
120.4603236249
 30
0.0
 10
26.8775185924
 20
120.9941260664
 30
0.0
 10
26.5107913286
 20
121.4638040989
 30
0.0
 10
26.0949911922
 20
121.831571931
 30
0.0
 10
25.6624117132
 20
122.068889837
 30
0.0
 10
25.2952090664
 20
122.1405430208
 30
0.0
 10
25.0350352309
 20
122.1025583985
 30
0.0
 10
24.9209387612
 20
122.0550088184
 30
0.0
 10
24.8691575557
 20
122.0251151271
 30
0.0
  0
SPLINE
  5
269
100
AcDbEntity
  8
0
100
AcDbSpline
 62
7
  6
CONTINUOUS
 70
0
 71
3
 72
11
 73
7
 74
0
 42
0.0000001
 43
0.0000001
 44
0.0000000001
 40
0.0
 40
0.0
 40
0.0
 40
0.0
 40
0.2177239861
 40
0.4508730345
 40
0.7104683317
 40
1.0
 40
1.0
 40
1.0
 40
1.0
 10
75.1939361798
 20
90.5459493572
 30
0.0
 10
75.263189577
 20
90.5859290312
 30
0.0
 10
75.3928745711
 20
90.6947577135
 30
0.0
 10
75.5308792687
 20
90.9204534862
 30
0.0
 10
75.6126777578
 20
91.1985304316
 30
0.0
 10
75.6289170499
 20
91.400881938
 30
0.0
 10
75.6289170499
 20
91.507220295
 30
0.0
  0
SPLINE
  5
26A
100
AcDbEntity
  8
0
100
AcDbSpline
 62
7
  6
CONTINUOUS
 70
0
 71
3
 72
11
 73
7
 74
0
 42
0.0000001
 43
0.0000001
 44
0.0000000001
 40
0.0
 40
0.0
 40
0.0
 40
0.0
 40
0.217751412
 40
0.4509002246
 40
0.710473164
 40
1.0
 40
1.0
 40
1.0
 40
1.0
 10
75.1939324434
 20
34.8604912419
 30
0.0
 10
75.2631942732
 20
34.9004766331
 30
0.0
 10
75.3928982703
 20
35.0093006273
 30
0.0
 10
75.5308849838
 20
35.2350119606
 30
0.0
 10
75.6126873236
 20
35.5130753123
 30
0.0
 10
75.6289170499
 20
35.7154187469
 30
0.0
 10
75.6289170499
 20
35.8217554467
 30
0.0
  0
SPLINE
  5
26B
100
AcDbEntity
  8
0
100
AcDbSpline
 62
7
  6
CONTINUOUS
 70
0
 71
3
 72
11
 73
7
 74
0
 42
0.0000001
 43
0.0000001
 44
0.0000000001
 40
0.0
 40
0.0
 40
0.0
 40
0.0
 40
0.217751412
 40
0.4509002246
 40
0.710473164
 40
1.0
 40
1.0
 40
1.0
 40
1.0
 10
26.9690491884
 20
62.7025107002
 30
0.0
 10
27.0383110182
 20
62.7424960914
 30
0.0
 10
27.1680150153
 20
62.8513200856
 30
0.0
 10
27.3060017287
 20
63.0770314188
 30
0.0
 10
27.3878040686
 20
63.3550947706
 30
0.0
 10
27.4040337949
 20
63.5574382051
 30
0.0
 10
27.4040337949
 20
63.663774905
 30
0.0
  0
SPLINE
  5
26C
100
AcDbEntity
  8
0
100
AcDbSpline
 62
7
  6
CONTINUOUS
 70
0
 71
3
 72
11
 73
7
 74
0
 42
0.0000001
 43
0.0000001
 44
0.0000000001
 40
0.0
 40
0.0
 40
0.0
 40
0.0
 40
0.2157035254
 40
0.447118228
 40
0.7069180555
 40
1.0
 40
1.0
 40
1.0
 40
1.0
 10
96.1092577988
 20
108.8707608801
 30
0.0
 10
96.1092583301
 20
108.707306383
 30
0.0
 10
96.045844532
 20
108.3659072244
 30
0.0
 10
95.7732795247
 20
107.8953748016
 30
0.0
 10
95.3443584134
 20
107.4760413689
 30
0.0
 10
94.9879883463
 20
107.2504973551
 30
0.0
 10
94.7915068353
 20
107.1469651682
 30
0.0
  0
SPLINE
  5
26D
100
AcDbEntity
  8
0
100
AcDbSpline
 62
7
  6
CONTINUOUS
 70
0
 71
3
 72
10
 73
6
 74
0
 42
0.0000001
 43
0.0000001
 44
0.0000000001
 40
0.0
 40
0.0
 40
0.0
 40
0.0
 40
0.4705318413
 40
0.7276383936
 40
1.0
 40
1.0
 40
1.0
 40
1.0
 10
108.109666028
 20
90.0029029853
 30
0.0
 10
108.6273588477
 20
90.8979654702
 30
0.0
 10
109.1927180322
 20
92.4245650693
 30
0.0
 10
109.5655575519
 20
94.5916072116
 30
0.0
 10
109.6350061895
 20
95.7561595534
 30
0.0
 10
109.6418653247
 20
96.3546347923
 30
0.0
  0
SPLINE
  5
26E
100
AcDbEntity
  8
0
100
AcDbSpline
 62
7
  6
CONTINUOUS
 70
0
 71
3
 72
9
 73
5
 74
0
 42
0.0000001
 43
0.0000001
 44
0.0000000001
 40
0.0
 40
0.0
 40
0.0
 40
0.0
 40
0.4790664773
 40
1.0
 40
1.0
 40
1.0
 40
1.0
 10
109.6418653247
 20
96.3546347923
 30
0.0
 10
109.6573455044
 20
97.705315893
 30
0.0
 10
109.3870347441
 20
100.5308715301
 30
0.0
 10
108.6569193105
 20
103.266277639
 30
0.0
 10
108.1798890699
 20
104.6554742757
 30
0.0
  0
SPLINE
  5
26F
100
AcDbEntity
  8
0
100
AcDbSpline
 62
7
  6
CONTINUOUS
 70
0
 71
3
 72
18
 73
14
 74
0
 42
0.0000001
 43
0.0000001
 44
0.0000000001
 40
0.0
 40
0.0
 40
0.0
 40
0.0
 40
0.1293528661
 40
0.26100564
 40
0.3915843327
 40
0.5183445547
 40
0.6406646103
 40
0.7007718218
 40
0.7605170229
 40
0.8202052849
 40
0.8800204612
 40
0.9399165799
 40
1.0
 40
1.0
 40
1.0
 40
1.0
 10
18.1713970792
 20
126.2424050458
 30
0.0
 10
17.6335787666
 20
126.7511375212
 30
0.0
 10
16.6430418292
 20
127.8813384666
 30
0.0
 10
15.4588023161
 20
129.79477264
 30
0.0
 10
14.6056019498
 20
131.8626057744
 30
0.0
 10
14.1358013644
 20
133.9962190036
 30
0.0
 10
14.1121057145
 20
135.7822515003
 30
0.0
 10
14.3512683042
 20
137.1510691406
 30
0.0
 10
14.6647617878
 20
138.1333161204
 30
0.0
 10
15.11946187
 20
139.0574528997
 30
0.0
 10
15.716717455
 20
139.8983605783
 30
0.0
 10
16.4473443399
 20
140.6297359649
 30
0.0
 10
17.0131137072
 20
141.0262095197
 30
0.0
 10
17.3109124367
 20
141.19814267
 30
0.0
  0
SPLINE
  5
270
100
AcDbEntity
  8
0
100
AcDbSpline
 62
7
  6
CONTINUOUS
 70
0
 71
3
 72
10
 73
6
 74
0
 42
0.0000001
 43
0.0000001
 44
0.0000000001
 40
0.0
 40
0.0
 40
0.0
 40
0.0
 40
0.2430668651
 40
0.4889857429
 40
1.0
 40
1.0
 40
1.0
 40
1.0
 10
29.4023880531
 20
148.1791177012
 30
0.0
 10
29.5766054148
 20
148.2797015415
 30
0.0
 10
29.9452639085
 20
148.4523827372
 30
0.0
 10
30.745492267
 20
148.6744773683
 30
0.0
 10
31.3837047422
 20
148.6929269946
 30
0.0
 10
31.8045420442
 20
148.6509167751
 30
0.0
  0
SPLINE
  5
271
100
AcDbEntity
  8
0
100
AcDbSpline
 62
7
  6
CONTINUOUS
 70
0
 71
3
 72
13
 73
9
 74
0
 42
0.0000001
 43
0.0000001
 44
0.0000000001
 40
0.0
 40
0.0
 40
0.0
 40
0.0
 40
0.2068161054
 40
0.3214603459
 40
0.4437970149
 40
0.5735644143
 40
0.7101541288
 40
1.0
 40
1.0
 40
1.0
 40
1.0
 10
98.2817566362
 20
83.6820300221
 30
0.0
 10
98.8354990532
 20
84.6142633058
 30
0.0
 10
99.4330878371
 20
86.2259794991
 30
0.0
 10
99.8132708833
 20
88.5230668432
 30
0.0
 10
99.9086405805
 20
90.4481238287
 30
0.0
 10
99.8017266873
 20
92.4861645761
 30
0.0
 10
99.3847078249
 20
95.3752280864
 30
0.0
 10
98.7867403367
 20
97.5419069212
 30
0.0
 10
98.2817566997
 20
98.9751457883
 30
0.0
  0
SPLINE
  5
272
100
AcDbEntity
  8
0
100
AcDbSpline
 62
7
  6
CONTINUOUS
 70
0
 71
3
 72
9
 73
5
 74
0
 42
0.0000001
 43
0.0000001
 44
0.0000000001
 40
0.0
 40
0.0
 40
0.0
 40
0.0
 40
0.52153334
 40
1.0
 40
1.0
 40
1.0
 40
1.0
 10
98.2817566997
 20
98.9751457883
 30
0.0
 10
98.2517201134
 20
99.0602957815
 30
0.0
 10
98.1670838535
 20
99.2143874318
 30
0.0
 10
98.0389236968
 20
99.3378911527
 30
0.0
 10
97.9671392405
 20
99.3792293697
 30
0.0
  0
SPLINE
  5
273
100
AcDbEntity
  8
0
100
AcDbSpline
 62
7
  6
CONTINUOUS
 70
0
 71
3
 72
11
 73
7
 74
0
 42
0.0000001
 43
0.0000001
 44
0.0000000001
 40
0.0
 40
0.0
 40
0.0
 40
0.0
 40
0.2410442483
 40
0.5000074451
 40
0.7589666871
 40
1.0
 40
1.0
 40
1.0
 40
1.0
 10
86.6976386115
 20
101.5341412153
 30
0.0
 10
86.9379658421
 20
101.395391363
 30
0.0
 10
87.3880407994
 20
101.0217343567
 30
0.0
 10
87.909057391
 20
100.3118601217
 30
0.0
 10
88.263306586
 20
99.5057182014
 30
0.0
 10
88.3618623036
 20
98.9291315448
 30
0.0
 10
88.3618623036
 20
98.6516397212
 30
0.0
  0
SPLINE
  5
274
100
AcDbEntity
  8
0
100
AcDbSpline
 62
7
  6
CONTINUOUS
 70
0
 71
3
 72
11
 73
7
 74
0
 42
0.0000001
 43
0.0000001
 44
0.0000000001
 40
0.0
 40
0.0
 40
0.0
 40
0.0
 40
0.2177470838
 40
0.450887992
 40
0.7104637237
 40
1.0
 40
1.0
 40
1.0
 40
1.0
 10
81.3336430734
 20
24.2262549631
 30
0.0
 10
81.2511936225
 20
24.1786530094
 30
0.0
 10
81.06181203
 20
24.1096870417
 30
0.0
 10
80.746980193
 20
24.101795205
 30
0.0
 10
80.4116194142
 20
24.1829682532
 30
0.0
 10
80.1933410589
 20
24.2866672862
 30
0.0
 10
80.0837083183
 20
24.3499623466
 30
0.0
  0
SPLINE
  5
275
100
AcDbEntity
  8
0
100
AcDbSpline
 62
7
  6
CONTINUOUS
 70
0
 71
3
 72
9
 73
5
 74
0
 42
0.0000001
 43
0.0000001
 44
0.0000000001
 40
0.0
 40
0.0
 40
0.0
 40
0.0
 40
0.2528281575
 40
1.0
 40
1.0
 40
1.0
 40
1.0
 10
88.3618623036
 20
29.2489342652
 30
0.0
 10
88.3618623036
 20
29.2296634012
 30
0.0
 10
88.3609484414
 20
29.1534464431
 30
0.0
 10
88.3562809527
 20
29.0772626663
 30
0.0
 10
88.3504662483
 20
29.0206099589
 30
0.0
  0
SPLINE
  5
276
100
AcDbEntity
  8
0
100
AcDbSpline
 62
7
  6
CONTINUOUS
 70
0
 71
3
 72
9
 73
5
 74
0
 42
0.0000001
 43
0.0000001
 44
0.0000000001
 40
0.0
 40
0.0
 40
0.0
 40
0.0
 40
0.2542858891
 40
1.0
 40
1.0
 40
1.0
 40
1.0
 10
88.3504662483
 20
29.0206099589
 30
0.0
 10
88.3472635757
 20
28.9894062964
 30
0.0
 10
88.3319001347
 20
28.8670098983
 30
0.0
 10
88.3048658019
 20
28.7459638509
 30
0.0
 10
88.2773566178
 20
28.6581854961
 30
0.0
  0
SPLINE
  5
277
100
AcDbEntity
  8
0
100
AcDbSpline
 62
7
  6
CONTINUOUS
 70
0
 71
3
 72
9
 73
5
 74
0
 42
0.0000001
 43
0.0000001
 44
0.0000000001
 40
0.0
 40
0.0
 40
0.0
 40
0.0
 40
0.5050903287
 40
1.0
 40
1.0
 40
1.0
 40
1.0
 10
88.2773566178
 20
28.6581854961
 30
0.0
 10
88.2284535561
 20
28.5021419618
 30
0.0
 10
88.0846857834
 20
28.204206302
 30
0.0
 10
87.8364015585
 20
27.9804641623
 30
0.0
 10
87.6976372572
 20
27.9003490339
 30
0.0
  0
SPLINE
  5
278
100
AcDbEntity
  8
0
100
AcDbSpline
 62
7
  6
CONTINUOUS
 70
0
 71
3
 72
9
 73
5
 74
0
 42
0.0000001
 43
0.0000001
 44
0.0000000001
 40
0.0
 40
0.0
 40
0.0
 40
0.0
 40
0.4948930743
 40
1.0
 40
1.0
 40
1.0
 40
1.0
 10
25.0933218119
 20
136.3336521048
 30
0.0
 10
25.2320735416
 20
136.4137599752
 30
0.0
 10
25.5499616246
 20
136.5169056426
 30
0.0
 10
25.8798464357
 20
136.4924550162
 30
0.0
 10
26.0394334359
 20
136.4567928673
 30
0.0
  0
SPLINE
  5
279
100
AcDbEntity
  8
0
100
AcDbSpline
 62
7
  6
CONTINUOUS
 70
0
 71
3
 72
9
 73
5
 74
0
 42
0.0000001
 43
0.0000001
 44
0.0000000001
 40
0.0
 40
0.0
 40
0.0
 40
0.0
 40
0.2463162303
 40
1.0
 40
1.0
 40
1.0
 40
1.0
 10
26.0394334359
 20
136.4567928673
 30
0.0
 10
26.0690904283
 20
136.45016556
 30
0.0
 10
26.1887387517
 20
136.4199260815
 30
0.0
 10
26.3050338911
 20
136.3769199148
 30
0.0
 10
26.3898859105
 20
136.3388933091
 30
0.0
  0
SPLINE
  5
27A
100
AcDbEntity
  8
0
100
AcDbSpline
 62
7
  6
CONTINUOUS
 70
0
 71
3
 72
9
 73
5
 74
0
 42
0.0000001
 43
0.0000001
 44
0.0000000001
 40
0.0
 40
0.0
 40
0.0
 40
0.0
 40
0.2472867954
 40
1.0
 40
1.0
 40
1.0
 40
1.0
 10
26.3898859105
 20
136.3388933091
 30
0.0
 10
26.4070856675
 20
136.3311852029
 30
0.0
 10
26.4762134073
 20
136.2990686285
 30
0.0
 10
26.5436268218
 20
136.2632904366
 30
0.0
 10
26.593311974
 20
136.2346053496
 30
0.0
  0
LINE
  5
27B
100
AcDbEntity
  8
0
100
AcDbLine
 62
7
  6
CONTINUOUS
 10
107.9982004157
 20
89.8816934689
 11
106.2469873802
 21
88.745679887
  0
SPLINE
  5
27C
100
AcDbEntity
  8
0
100
AcDbSpline
 62
7
  6
CONTINUOUS
 70
0
 71
3
 72
15
 73
11
 74
0
 42
0.0000001
 43
0.0000001
 44
0.0000000001
 40
0.0
 40
0.0
 40
0.0
 40
0.0
 40
0.1124396823
 40
0.2346781903
 40
0.3639464803
 40
0.4971620158
 40
0.6307787489
 40
0.761213472
 40
0.8852772514
 40
1.0
 40
1.0
 40
1.0
 40
1.0
 10
94.7915068353
 20
107.1469651682
 30
0.0
 10
94.5730300531
 20
107.0318429923
 30
0.0
 10
94.0953804244
 20
106.8317901132
 30
0.0
 10
93.3209060359
 20
106.6262468883
 30
0.0
 10
92.4822078401
 20
106.5088044851
 30
0.0
 10
91.6109225871
 20
106.4838185169
 30
0.0
 10
90.7394221719
 20
106.5523908717
 30
0.0
 10
89.9001552168
 20
106.7118791944
 30
0.0
 10
89.1249977033
 20
106.9563712039
 30
0.0
 10
88.648090459
 20
107.1800429305
 30
0.0
 10
88.429880123
 20
107.3060238767
 30
0.0
  0
SPLINE
  5
27D
100
AcDbEntity
  8
0
100
AcDbSpline
 62
7
  6
CONTINUOUS
 70
0
 71
3
 72
11
 73
7
 74
0
 42
0.0000001
 43
0.0000001
 44
0.0000000001
 40
0.0
 40
0.0
 40
0.0
 40
0.0
 40
0.2940876158
 40
0.5551860786
 40
0.7868194683
 40
1.0
 40
1.0
 40
1.0
 40
1.0
 10
75.5553045839
 20
114.7389953736
 30
0.0
 10
75.3586060784
 20
114.8525567396
 30
0.0
 10
75.0026015515
 20
115.0962017363
 30
0.0
 10
74.5757074998
 20
115.5357802673
 30
0.0
 10
74.3043944572
 20
116.017199579
 30
0.0
 10
74.2398623028
 20
116.3629708825
 30
0.0
 10
74.2398617677
 20
116.5276121788
 30
0.0
  0
SPLINE
  5
27E
100
AcDbEntity
  8
0
100
AcDbSpline
 62
7
  6
CONTINUOUS
 70
0
 71
3
 72
11
 73
7
 74
0
 42
0.0000001
 43
0.0000001
 44
0.0000000001
 40
0.0
 40
0.0
 40
0.0
 40
0.0
 40
0.2896993547
 40
0.5490830394
 40
0.7822131547
 40
1.0
 40
1.0
 40
1.0
 40
1.0
 10
26.3433162152
 20
136.2098414076
 30
0.0
 10
26.2336196551
 20
136.2731733133
 30
0.0
 10
26.0153990787
 20
136.3769887257
 30
0.0
 10
25.679986162
 20
136.4579876559
 30
0.0
 10
25.3652676313
 20
136.4500252515
 30
0.0
 10
25.1757878902
 20
136.3812636222
 30
0.0
 10
25.0933218119
 20
136.3336521048
 30
0.0
  0
SPLINE
  5
27F
100
AcDbEntity
  8
0
100
AcDbSpline
 62
7
  6
CONTINUOUS
 70
0
 71
3
 72
8
 73
4
 74
0
 42
0.0000001
 43
0.0000001
 44
0.0000000001
 40
0.0
 40
0.0
 40
0.0
 40
0.0
 40
1.0
 40
1.0
 40
1.0
 40
1.0
 10
31.8056756575
 20
148.5864386725
 30
0.0
 10
31.8103665569
 20
148.5895836693
 30
0.0
 10
31.81525757
 20
148.5924431127
 30
0.0
 10
31.8202720111
 20
148.5950413665
 30
0.0
  0
SPLINE
  5
280
100
AcDbEntity
  8
0
100
AcDbSpline
 62
7
  6
CONTINUOUS
 70
0
 71
3
 72
11
 73
7
 74
0
 42
0.0000001
 43
0.0000001
 44
0.0000000001
 40
0.0
 40
0.0
 40
0.0
 40
0.0
 40
0.217751412
 40
0.4509002246
 40
0.710473164
 40
1.0
 40
1.0
 40
1.0
 40
1.0
 10
24.8691575557
 20
122.0251151271
 30
0.0
 10
24.7998957259
 20
121.9851297359
 30
0.0
 10
24.6701917289
 20
121.8763057417
 30
0.0
 10
24.5322050154
 20
121.6505944084
 30
0.0
 10
24.4504026756
 20
121.3725310567
 30
0.0
 10
24.4341729493
 20
121.1701876221
 30
0.0
 10
24.4341729493
 20
121.0638509222
 30
0.0
  0
SPLINE
  5
281
100
AcDbEntity
  8
0
100
AcDbSpline
 62
7
  6
CONTINUOUS
 70
0
 71
3
 72
11
 73
7
 74
0
 42
0.0000001
 43
0.0000001
 44
0.0000000001
 40
0.0
 40
0.0
 40
0.0
 40
0.0
 40
0.28970066
 40
0.5490882258
 40
0.7822179595
 40
1.0
 40
1.0
 40
1.0
 40
1.0
 10
50.0315449996
 20
81.708812853
 30
0.0
 10
49.8560303217
 20
81.8101440071
 30
0.0
 10
49.5068734266
 20
81.9762452009
 30
0.0
 10
48.9702127451
 20
82.1058483327
 30
0.0
 10
48.4666622451
 20
82.0930953799
 30
0.0
 10
48.1635088836
 20
81.9830646572
 30
0.0
 10
48.0315607652
 20
81.9068981552
 30
0.0
  0
SPLINE
  5
282
100
AcDbEntity
  8
0
100
AcDbSpline
 62
7
  6
CONTINUOUS
 70
0
 71
3
 72
11
 73
7
 74
0
 42
0.0000001
 43
0.0000001
 44
0.0000000001
 40
0.0
 40
0.0
 40
0.0
 40
0.0
 40
0.2395363658
 40
0.5000009263
 40
0.7604649912
 40
1.0
 40
1.0
 40
1.0
 40
1.0
 10
88.2106134048
 20
98.6002078988
 30
0.0
 10
88.1940690546
 20
98.8681362096
 30
0.0
 10
88.0761652574
 20
99.4229675436
 30
0.0
 10
87.722745245
 20
100.2043202181
 30
0.0
 10
87.2227821635
 20
100.9010640855
 30
0.0
 10
86.8012354097
 20
101.280583849
 30
0.0
 10
86.5774749751
 20
101.4288732509
 30
0.0
  0
SPLINE
  5
283
100
AcDbEntity
  8
0
100
AcDbSpline
 62
7
  6
CONTINUOUS
 70
0
 71
3
 72
11
 73
7
 74
0
 42
0.0000001
 43
0.0000001
 44
0.0000000001
 40
0.0
 40
0.0
 40
0.0
 40
0.0
 40
0.2177858913
 40
0.4509156057
 40
0.7102996463
 40
1.0
 40
1.0
 40
1.0
 40
1.0
 10
87.6976372572
 20
27.9003490339
 30
0.0
 10
87.7801051788
 20
27.9479616155
 30
0.0
 10
87.9343982928
 20
28.0776781329
 30
0.0
 10
88.0986560433
 20
28.3462589288
 30
0.0
 10
88.1962153967
 20
28.6772446036
 30
0.0
 10
88.2154171661
 20
28.9181441044
 30
0.0
 10
88.2154171661
 20
29.0448138879
 30
0.0
  0
SPLINE
  5
284
100
AcDbEntity
  8
0
100
AcDbSpline
 62
7
  6
CONTINUOUS
 70
0
 71
3
 72
11
 73
7
 74
0
 42
0.0000001
 43
0.0000001
 44
0.0000000001
 40
0.0
 40
0.0
 40
0.0
 40
0.0
 40
0.217751412
 40
0.4509002246
 40
0.710473164
 40
1.0
 40
1.0
 40
1.0
 40
1.0
 10
73.0940408108
 20
94.1830956688
 30
0.0
 10
73.024778981
 20
94.1431102776
 30
0.0
 10
72.8950749839
 20
94.0342862834
 30
0.0
 10
72.7570882705
 20
93.8085749501
 30
0.0
 10
72.6752859306
 20
93.5305115984
 30
0.0
 10
72.6590562043
 20
93.3281681638
 30
0.0
 10
72.6590562043
 20
93.221831464
 30
0.0
  0
SPLINE
  5
285
100
AcDbEntity
  8
0
100
AcDbSpline
 62
7
  6
CONTINUOUS
 70
0
 71
3
 72
9
 73
5
 74
0
 42
0.0000001
 43
0.0000001
 44
0.0000000001
 40
0.0
 40
0.0
 40
0.0
 40
0.0
 40
0.2501110588
 40
1.0
 40
1.0
 40
1.0
 40
1.0
 10
98.2139105953
 20
83.637272533
 30
0.0
 10
97.3927469122
 20
83.1045223942
 30
0.0
 10
94.1093788156
 20
80.9747328654
 30
0.0
 10
90.8242830222
 20
78.8476081236
 30
0.0
 10
88.3620797635
 20
77.2505671264
 30
0.0
  0
SPLINE
  5
286
100
AcDbEntity
  8
0
100
AcDbSpline
 62
7
  6
CONTINUOUS
 70
0
 71
3
 72
11
 73
7
 74
0
 42
0.0000001
 43
0.0000001
 44
0.0000000001
 40
0.0
 40
0.0
 40
0.0
 40
0.0
 40
0.2177470838
 40
0.450887992
 40
0.7104637237
 40
1.0
 40
1.0
 40
1.0
 40
1.0
 10
18.7294469258
 20
132.6593514058
 30
0.0
 10
18.8118963767
 20
132.7069533596
 30
0.0
 10
19.0012779691
 20
132.7759193273
 30
0.0
 10
19.3161098062
 20
132.783811164
 30
0.0
 10
19.651470585
 20
132.7026381158
 30
0.0
 10
19.8697489402
 20
132.5989390828
 30
0.0
 10
19.9793816808
 20
132.5356440224
 30
0.0
  0
SPLINE
  5
287
100
AcDbEntity
  8
0
100
AcDbSpline
 62
7
  6
CONTINUOUS
 70
0
 71
3
 72
13
 73
9
 74
0
 42
0.0000001
 43
0.0000001
 44
0.0000000001
 40
0.0
 40
0.0
 40
0.0
 40
0.0
 40
0.1142231475
 40
0.2375548935
 40
0.499998393
 40
0.762442772
 40
0.8857755457
 40
1.0
 40
1.0
 40
1.0
 40
1.0
 10
22.1358908358
 20
140.7202333775
 30
0.0
 10
21.9423195319
 20
140.6084756002
 30
0.0
 10
21.5598410146
 20
140.340307057
 30
0.0
 10
20.8437197505
 20
139.6701849212
 30
0.0
 10
20.0873646663
 20
138.636971639
 30
0.0
 10
19.5707586558
 20
137.4653379495
 30
0.0
 10
19.3484775056
 20
136.5100910502
 30
0.0
 10
19.3074754869
 20
136.0447662059
 30
0.0
 10
19.3074754869
 20
135.8212470935
 30
0.0
  0
SPLINE
  5
288
100
AcDbEntity
  8
0
100
AcDbSpline
 62
7
  6
CONTINUOUS
 70
0
 71
3
 72
21
 73
17
 74
0
 42
0.0000001
 43
0.0000001
 44
0.0000000001
 40
0.0
 40
0.0
 40
0.0
 40
0.0
 40
0.1512015639
 40
0.3076084186
 40
0.3837767328
 40
0.4564731803
 40
0.524447522
 40
0.5868359928
 40
0.6433307122
 40
0.6943926077
 40
0.7414342795
 40
0.7867996943
 40
0.8333003869
 40
0.8834130955
 40
0.9387931831
 40
1.0
 40
1.0
 40
1.0
 40
1.0
 10
18.1794482391
 20
127.4337245308
 30
0.0
 10
17.7032592504
 20
127.870404042
 30
0.0
 10
16.8436023666
 20
128.8809545851
 30
0.0
 10
16.0466391746
 20
130.3272903171
 30
0.0
 10
15.6027660657
 20
131.5563529097
 30
0.0
 10
15.3879760646
 20
132.4599876604
 30
0.0
 10
15.295046434
 20
133.3253482307
 30
0.0
 10
15.3273457855
 20
134.1265991364
 30
0.0
 10
15.4854567339
 20
134.8401496525
 30
0.0
 10
15.7679833155
 20
135.4444824012
 30
0.0
 10
16.1713806667
 20
135.9176191218
 30
0.0
 10
16.6842041769
 20
136.2358280315
 30
0.0
 10
17.2821474414
 20
136.3829194645
 30
0.0
 10
17.9381487646
 20
136.3586985088
 30
0.0
 10
18.6300994955
 20
136.1701849209
 30
0.0
 10
19.0809713157
 20
135.9520163793
 30
0.0
 10
19.3074754869
 20
135.8212470935
 30
0.0
  0
SPLINE
  5
289
100
AcDbEntity
  8
0
100
AcDbSpline
 62
7
  6
CONTINUOUS
 70
0
 71
3
 72
11
 73
7
 74
0
 42
0.0000001
 43
0.0000001
 44
0.0000000001
 40
0.0
 40
0.0
 40
0.0
 40
0.0
 40
0.2177239861
 40
0.4508730345
 40
0.7104683317
 40
1.0
 40
1.0
 40
1.0
 40
1.0
 10
73.0940370744
 20
38.4976375535
 30
0.0
 10
73.0247836772
 20
38.4576578795
 30
0.0
 10
72.8950986831
 20
38.3488291972
 30
0.0
 10
72.7570939855
 20
38.1231334245
 30
0.0
 10
72.6752954964
 20
37.8450564791
 30
0.0
 10
72.6590562043
 20
37.6427049727
 30
0.0
 10
72.6590562043
 20
37.5363666157
 30
0.0
  0
SPLINE
  5
28A
100
AcDbEntity
  8
0
100
AcDbSpline
 62
7
  6
CONTINUOUS
 70
0
 71
3
 72
16
 73
12
 74
0
 42
0.0000001
 43
0.0000001
 44
0.0000000001
 40
0.0
 40
0.0
 40
0.0
 40
0.0
 40
0.1287381649
 40
0.2704120378
 40
0.4176109148
 40
0.5620093961
 40
0.6957352233
 40
0.8130520984
 40
0.9124605164
 40
0.9571146402
 40
1.0
 40
1.0
 40
1.0
 40
1.0
 10
24.4341729493
 20
65.378386074
 30
0.0
 10
24.4341729493
 20
65.1988995757
 30
0.0
 10
24.4844247947
 20
64.8214676042
 30
0.0
 10
24.6717775672
 20
64.2673022024
 30
0.0
 10
24.9606881518
 20
63.7334997609
 30
0.0
 10
25.3274154155
 20
63.2638217284
 30
0.0
 10
25.743215552
 20
62.8960538963
 30
0.0
 10
26.175795031
 20
62.6587359903
 30
0.0
 10
26.5429976777
 20
62.5870828065
 30
0.0
 10
26.8031715133
 20
62.6250674288
 30
0.0
 10
26.917267983
 20
62.6726170089
 30
0.0
 10
26.9690491884
 20
62.7025107002
 30
0.0
  0
SPLINE
  5
28B
100
AcDbEntity
  8
0
100
AcDbSpline
 62
7
  6
CONTINUOUS
 70
0
 71
3
 72
12
 73
8
 74
0
 42
0.0000001
 43
0.0000001
 44
0.0000000001
 40
0.0
 40
0.0
 40
0.0
 40
0.0
 40
0.108162631
 40
0.2183648617
 40
0.4513682726
 40
0.7104212619
 40
1.0
 40
1.0
 40
1.0
 40
1.0
 10
17.3109124367
 20
141.19814267
 30
0.0
 10
17.4691254245
 20
141.2894864262
 30
0.0
 10
17.8051065221
 20
141.4467070393
 30
0.0
 10
18.5427364019
 20
141.6510269929
 30
0.0
 10
19.5759695319
 20
141.6784068056
 30
0.0
 10
20.8698801708
 20
141.3655826639
 30
0.0
 10
21.7123128744
 20
140.9647806952
 30
0.0
 10
22.1358908371
 20
140.7202333768
 30
0.0
  0
SPLINE
  5
28C
100
AcDbEntity
  8
0
100
AcDbSpline
 62
7
  6
CONTINUOUS
 70
0
 71
3
 72
9
 73
5
 74
0
 42
0.0000001
 43
0.0000001
 44
0.0000000001
 40
0.0
 40
0.0
 40
0.0
 40
0.0
 40
0.5278620948
 40
1.0
 40
1.0
 40
1.0
 40
1.0
 10
47.4859941486
 20
74.5145563104
 30
0.0
 10
47.530761339
 20
74.2618904313
 30
0.0
 10
47.5799455178
 20
73.7758255444
 30
0.0
 10
47.5358953009
 20
73.2871322249
 30
0.0
 10
47.4859941486
 20
73.0631098653
 30
0.0
  0
SPLINE
  5
28D
100
AcDbEntity
  8
0
100
AcDbSpline
 62
7
  6
CONTINUOUS
 70
0
 71
3
 72
11
 73
7
 74
0
 42
0.0000001
 43
0.0000001
 44
0.0000000001
 40
0.0
 40
0.0
 40
0.0
 40
0.0
 40
0.2499835146
 40
0.5000209556
 40
0.7500392301
 40
1.0
 40
1.0
 40
1.0
 40
1.0
 10
88.3620796984
 20
93.574781999
 30
0.0
 10
89.1891300374
 20
94.0239859071
 30
0.0
 10
90.8430391245
 20
94.9231735692
 30
0.0
 10
93.3215026848
 20
96.2764193008
 30
0.0
 10
95.8008233377
 20
97.6279157801
 30
0.0
 10
97.4550280126
 20
98.5262281327
 30
0.0
 10
98.2821266145
 20
98.9751636925
 30
0.0
  0
SPLINE
  5
28E
100
AcDbEntity
  8
0
100
AcDbSpline
 62
7
  6
CONTINUOUS
 70
0
 71
3
 72
11
 73
7
 74
0
 42
0.0000001
 43
0.0000001
 44
0.0000000001
 40
0.0
 40
0.0
 40
0.0
 40
0.0
 40
0.2177239861
 40
0.4508730345
 40
0.7104683317
 40
1.0
 40
1.0
 40
1.0
 40
1.0
 10
24.8691538194
 20
66.3396570118
 30
0.0
 10
24.7999004222
 20
66.2996773378
 30
0.0
 10
24.6702154281
 20
66.1908486555
 30
0.0
 10
24.5322107305
 20
65.9651528828
 30
0.0
 10
24.4504122414
 20
65.6870759374
 30
0.0
 10
24.4341729493
 20
65.484724431
 30
0.0
 10
24.4341729493
 20
65.378386074
 30
0.0
  0
SPLINE
  5
28F
100
AcDbEntity
  8
0
100
AcDbSpline
 62
7
  6
CONTINUOUS
 70
0
 71
3
 72
13
 73
9
 74
0
 42
0.0000001
 43
0.0000001
 44
0.0000000001
 40
0.0
 40
0.0
 40
0.0
 40
0.0
 40
0.1141755944
 40
0.2375687028
 40
0.4999988186
 40
0.7624295809
 40
0.8858234769
 40
1.0
 40
1.0
 40
1.0
 40
1.0
 10
80.0837083183
 20
97.8351798882
 30
0.0
 10
80.2046395608
 20
97.7653617823
 30
0.0
 10
80.4436335745
 20
97.5976612959
 30
0.0
 10
80.8913700409
 20
97.1790120449
 30
0.0
 10
81.3638853015
 20
96.5330545788
 30
0.0
 10
81.687047071
 20
95.8008663412
 30
0.0
 10
81.8257441176
 20
95.2037886466
 30
0.0
 10
81.8514826312
 20
94.9129616758
 30
0.0
 10
81.8514826312
 20
94.7733219591
 30
0.0
  0
SPLINE
  5
290
100
AcDbEntity
  8
0
100
AcDbSpline
 62
7
  6
CONTINUOUS
 70
0
 71
3
 72
17
 73
13
 74
0
 42
0.0000001
 43
0.0000001
 44
0.0000000001
 40
0.0
 40
0.0
 40
0.0
 40
0.0
 40
0.0428593081
 40
0.0874855299
 40
0.1353200167
 40
0.1872821703
 40
0.3045428223
 40
0.4382084491
 40
0.5825501939
 40
0.7297142242
 40
0.871306808
 40
1.0
 40
1.0
 40
1.0
 40
1.0
 10
52.031529234
 20
74.9787082138
 30
0.0
 10
52.1301473569
 20
75.0356351146
 30
0.0
 10
52.3170279875
 20
75.1787737822
 30
0.0
 10
52.542040005
 20
75.4631734278
 30
0.0
 10
52.7101249651
 20
75.8110866098
 30
0.0
 10
52.8611102724
 20
76.3704280001
 30
0.0
 10
52.8800431929
 20
77.1859635421
 30
0.0
 10
52.6689403756
 20
78.2209574693
 30
0.0
 10
52.2436184485
 20
79.2737057168
 30
0.0
 10
51.6380689022
 20
80.2585648324
 30
0.0
 10
50.9024378045
 20
81.0955709072
 30
0.0
 10
50.3276528814
 20
81.5378587553
 30
0.0
 10
50.0315449996
 20
81.708812853
 30
0.0
  0
SPLINE
  5
291
100
AcDbEntity
  8
0
100
AcDbSpline
 62
7
  6
CONTINUOUS
 70
0
 71
3
 72
25
 73
21
 74
0
 42
0.0000001
 43
0.0000001
 44
0.0000000001
 40
0.0
 40
0.0
 40
0.0
 40
0.0
 40
0.1220779463
 40
0.2444719742
 40
0.3672525994
 40
0.4905272196
 40
0.5524013296
 40
0.6144752816
 40
0.6767973819
 40
0.7394411641
 40
0.8025289844
 40
0.8343050151
 40
0.866296582
 40
0.8985863455
 40
0.9313304342
 40
0.9479718586
 40
0.9649064848
 40
0.9823357196
 40
0.9913019574
 40
1.0
 40
1.0
 40
1.0
 40
1.0
 10
69.9814136491
 20
112.774185825
 30
0.0
 10
70.0801611689
 20
112.8244259811
 30
0.0
 10
70.2781030317
 20
112.9246613461
 30
0.0
 10
70.5761277174
 20
113.0739060276
 30
0.0
 10
70.8759353376
 20
113.2220059267
 30
0.0
 10
71.1273462038
 20
113.3440513902
 30
0.0
 10
71.3298708893
 20
113.4406224879
 30
0.0
 10
71.4828717614
 20
113.5125220884
 30
0.0
 10
71.6370041193
 20
113.5836484278
 30
0.0
 10
71.7926088631
 20
113.6537654384
 30
0.0
 10
71.9236475358
 20
113.7109031709
 30
0.0
 10
72.0298085619
 20
113.7554571714
 30
0.0
 10
72.1105989892
 20
113.7882180373
 30
0.0
 10
72.1927509632
 20
113.8199431501
 30
0.0
 10
72.2625437923
 20
113.8449217972
 30
0.0
 10
72.3198953823
 20
113.8633044214
 30
0.0
 10
72.3643831337
 20
113.8758210483
 30
0.0
 10
72.4031115137
 20
113.8843304645
 30
0.0
 10
72.4343987967
 20
113.8871934306
 30
0.0
 10
72.451503716
 20
113.8861605696
 30
0.0
 10
72.4582276271
 20
113.8820248222
 30
0.0
  0
SPLINE
  5
292
100
AcDbEntity
  8
0
100
AcDbSpline
 62
7
  6
CONTINUOUS
 70
0
 71
3
 72
16
 73
12
 74
0
 42
0.0000001
 43
0.0000001
 44
0.0000000001
 40
0.0
 40
0.0
 40
0.0
 40
0.0
 40
0.1287381649
 40
0.2704120378
 40
0.4176109148
 40
0.5620093961
 40
0.6957352233
 40
0.8130520984
 40
0.9124605164
 40
0.9571146402
 40
1.0
 40
1.0
 40
1.0
 40
1.0
 10
72.6590562043
 20
37.5363666157
 30
0.0
 10
72.6590562043
 20
37.3568801174
 30
0.0
 10
72.7093080497
 20
36.9794481459
 30
0.0
 10
72.8966608222
 20
36.4252827441
 30
0.0
 10
73.1855714068
 20
35.8914803026
 30
0.0
 10
73.5522986706
 20
35.4218022701
 30
0.0
 10
73.968098807
 20
35.054034438
 30
0.0
 10
74.400678286
 20
34.816716532
 30
0.0
 10
74.7678809328
 20
34.7450633482
 30
0.0
 10
75.0280547683
 20
34.7830479705
 30
0.0
 10
75.142151238
 20
34.8305975506
 30
0.0
 10
75.1939324434
 20
34.8604912419
 30
0.0
  0
SPLINE
  5
293
100
AcDbEntity
  8
0
100
AcDbSpline
 62
7
  6
CONTINUOUS
 70
0
 71
3
 72
11
 73
7
 74
0
 42
0.0000001
 43
0.0000001
 44
0.0000000001
 40
0.0
 40
0.0
 40
0.0
 40
0.0
 40
0.215703526
 40
0.4471182292
 40
0.7069180568
 40
1.0
 40
1.0
 40
1.0
 40
1.0
 10
74.2398617677
 20
116.5276121788
 30
0.0
 10
74.2398612365
 20
116.6910666761
 30
0.0
 10
74.3032750334
 20
117.0324658354
 30
0.0
 10
74.5758400445
 20
117.5029982559
 30
0.0
 10
75.0047611502
 20
117.9223316902
 30
0.0
 10
75.3611312119
 20
118.1478757099
 30
0.0
 10
75.5576127217
 20
118.2514078962
 30
0.0
  0
SPLINE
  5
294
100
AcDbEntity
  8
0
100
AcDbSpline
 62
7
  6
CONTINUOUS
 70
0
 71
3
 72
16
 73
12
 74
0
 42
0.0000001
 43
0.0000001
 44
0.0000000001
 40
0.0
 40
0.0
 40
0.0
 40
0.0
 40
0.1287407954
 40
0.2704211541
 40
0.4176251582
 40
0.5620262225
 40
0.6957516539
 40
0.8130667234
 40
0.9124704488
 40
0.9571204215
 40
1.0
 40
1.0
 40
1.0
 40
1.0
 10
72.6590562043
 20
93.221831464
 30
0.0
 10
72.6590562043
 20
93.0423413203
 30
0.0
 10
72.7093114886
 20
92.6648968172
 30
0.0
 10
72.8966744031
 20
92.1107135563
 30
0.0
 10
73.1856036826
 20
91.5768985119
 30
0.0
 10
73.5523452086
 20
91.1072185642
 30
0.0
 10
73.9681552856
 20
90.7394608277
 30
0.0
 10
74.4007338962
 20
90.502161083
 30
0.0
 10
74.7679259955
 20
90.430527438
 30
0.0
 10
75.0280762614
 20
90.4685216404
 30
0.0
 10
75.1421616866
 20
90.5160601756
 30
0.0
 10
75.1939361798
 20
90.5459493572
 30
0.0
  0
SPLINE
  5
295
100
AcDbEntity
  8
0
100
AcDbSpline
 62
7
  6
CONTINUOUS
 70
0
 71
3
 72
13
 73
9
 74
0
 42
0.0000001
 43
0.0000001
 44
0.0000000001
 40
0.0
 40
0.0
 40
0.0
 40
0.0
 40
0.2896524811
 40
0.4261731629
 40
0.5559076213
 40
0.6782554306
 40
0.7929567776
 40
1.0
 40
1.0
 40
1.0
 40
1.0
 10
106.2469873802
 20
103.6566189878
 30
0.0
 10
106.7364706544
 20
102.2597703037
 30
0.0
 10
107.3159746225
 20
100.1485590152
 30
0.0
 10
107.7200035814
 20
97.3338653267
 30
0.0
 10
107.8235600707
 20
95.3478983079
 30
0.0
 10
107.7311290359
 20
93.4714444977
 30
0.0
 10
107.3626088131
 20
91.2306710408
 30
0.0
 10
106.7836351688
 20
89.6574694629
 30
0.0
 10
106.2469873802
 20
88.745679887
 30
0.0
  0
SPLINE
  5
296
100
AcDbEntity
  8
0
100
AcDbSpline
 62
7
  6
CONTINUOUS
 70
0
 71
3
 72
9
 73
5
 74
0
 42
0.0000001
 43
0.0000001
 44
0.0000000001
 40
0.0
 40
0.0
 40
0.0
 40
0.0
 40
0.4791738716
 40
1.0
 40
1.0
 40
1.0
 40
1.0
 10
106.3592715417
 20
91.573515988
 30
0.0
 10
106.5643347989
 20
92.2245931826
 30
0.0
 10
106.8657231895
 20
93.6246378316
 30
0.0
 10
106.953515766
 20
95.0513014928
 30
0.0
 10
106.953515766
 20
95.7932443117
 30
0.0
  0
SPLINE
  5
297
100
AcDbEntity
  8
0
100
AcDbSpline
 62
7
  6
CONTINUOUS
 70
0
 71
3
 72
9
 73
5
 74
0
 42
0.0000001
 43
0.0000001
 44
0.0000000001
 40
0.0
 40
0.0
 40
0.0
 40
0.0
 40
0.4844740665
 40
1.0
 40
1.0
 40
1.0
 40
1.0
 10
106.953515766
 20
95.7932443117
 30
0.0
 10
106.953515766
 20
96.5925654658
 30
0.0
 10
106.8437347834
 20
98.2434135885
 30
0.0
 10
106.5506795962
 20
99.8703954186
 30
0.0
 10
106.3592715417
 20
100.6991312382
 30
0.0
  0
SPLINE
  5
298
100
AcDbEntity
  8
0
100
AcDbSpline
 62
7
  6
CONTINUOUS
 70
0
 71
3
 72
11
 73
7
 74
0
 42
0.0000001
 43
0.0000001
 44
0.0000000001
 40
0.0
 40
0.0
 40
0.0
 40
0.0
 40
0.2531371179
 40
0.5154727719
 40
0.7696379432
 40
1.0
 40
1.0
 40
1.0
 40
1.0
 10
106.3592715417
 20
100.6991312382
 30
0.0
 10
106.3134237962
 20
100.8976373514
 30
0.0
 10
106.1754692702
 20
101.2922593493
 30
0.0
 10
105.8670127285
 20
101.8330795794
 30
0.0
 10
105.4781657995
 20
102.2956838732
 30
0.0
 10
105.1681677788
 20
102.539509054
 30
0.0
 10
105.007604115
 20
102.6322084314
 30
0.0
  0
SPLINE
  5
299
100
AcDbEntity
  8
0
100
AcDbSpline
 62
7
  6
CONTINUOUS
 70
0
 71
3
 72
11
 73
7
 74
0
 42
0.0000001
 43
0.0000001
 44
0.0000000001
 40
0.0
 40
0.0
 40
0.0
 40
0.0
 40
0.2895372962
 40
0.549113267
 40
0.7822537841
 40
1.0
 40
1.0
 40
1.0
 40
1.0
 10
81.8514826312
 20
25.3706165031
 30
0.0
 10
81.8514826312
 20
25.2440204034
 30
0.0
 10
81.8321512662
 20
25.003129076
 30
0.0
 10
81.73476867
 20
24.6721015794
 30
0.0
 10
81.5705155006
 20
24.4033872878
 30
0.0
 10
81.4160944004
 20
24.2738580001
 30
0.0
 10
81.3336430734
 20
24.2262549631
 30
0.0
  0
LINE
  5
29A
100
AcDbEntity
  8
0
100
AcDbLine
 62
7
  6
CONTINUOUS
 10
106.2469873802
 20
103.6566189878
 11
107.9982004157
 21
104.6129866723
  0
SPLINE
  5
29B
100
AcDbEntity
  8
0
100
AcDbSpline
 62
7
  6
CONTINUOUS
 70
0
 71
3
 72
9
 73
5
 74
0
 42
0.0000001
 43
0.0000001
 44
0.0000000001
 40
0.0
 40
0.0
 40
0.0
 40
0.0
 40
0.2386760448
 40
1.0
 40
1.0
 40
1.0
 40
1.0
 10
44.0997733493
 20
78.9281837768
 30
0.0
 10
44.1520939326
 20
78.9117458333
 30
0.0
 10
44.3691255558
 20
78.8359773697
 30
0.0
 10
44.5767680609
 20
78.7344472235
 30
0.0
 10
44.7282662205
 20
78.646981699
 30
0.0
  0
SPLINE
  5
29C
100
AcDbEntity
  8
0
100
AcDbSpline
 62
7
  6
CONTINUOUS
 70
0
 71
3
 72
9
 73
5
 74
0
 42
0.0000001
 43
0.0000001
 44
0.0000000001
 40
0.0
 40
0.0
 40
0.0
 40
0.0
 40
0.235045147
 40
1.0
 40
1.0
 40
1.0
 40
1.0
 10
108.2519460701
 20
90.352043534
 30
0.0
 10
108.3971431359
 20
90.6399672157
 30
0.0
 10
108.9517348703
 20
91.8967745465
 30
0.0
 10
109.2590763743
 20
93.2542528714
 30
0.0
 10
109.386537273
 20
94.2959394226
 30
0.0
  0
SPLINE
  5
29D
100
AcDbEntity
  8
0
100
AcDbSpline
 62
7
  6
CONTINUOUS
 70
0
 71
3
 72
9
 73
5
 74
0
 42
0.0000001
 43
0.0000001
 44
0.0000000001
 40
0.0
 40
0.0
 40
0.0
 40
0.0
 40
0.2435784488
 40
1.0
 40
1.0
 40
1.0
 40
1.0
 10
109.386537273
 20
94.2959394226
 30
0.0
 10
109.4072172492
 20
94.4649485327
 30
0.0
 10
109.4805960259
 20
95.1601929307
 30
0.0
 10
109.5092756209
 20
95.8599574671
 30
0.0
 10
109.5088484264
 20
96.3887216597
 30
0.0
  0
SPLINE
  5
29E
100
AcDbEntity
  8
0
100
AcDbSpline
 62
7
  6
CONTINUOUS
 70
0
 71
3
 72
9
 73
5
 74
0
 42
0.0000001
 43
0.0000001
 44
0.0000000001
 40
0.0
 40
0.0
 40
0.0
 40
0.0
 40
0.4788741203
 40
1.0
 40
1.0
 40
1.0
 40
1.0
 10
109.5088484264
 20
96.3887216597
 30
0.0
 10
109.5077664606
 20
97.727935556
 30
0.0
 10
109.2134951372
 20
100.5268152044
 30
0.0
 10
108.4753260491
 20
103.2356252565
 30
0.0
 10
107.9966853784
 20
104.6121591154
 30
0.0
  0
SPLINE
  5
29F
100
AcDbEntity
  8
0
100
AcDbSpline
 62
7
  6
CONTINUOUS
 70
0
 71
3
 72
9
 73
5
 74
0
 42
0.0000001
 43
0.0000001
 44
0.0000000001
 40
0.0
 40
0.0
 40
0.0
 40
0.0
 40
0.2407587985
 40
1.0
 40
1.0
 40
1.0
 40
1.0
 10
44.7282662205
 20
78.646981699
 30
0.0
 10
44.7818074719
 20
78.6160703424
 30
0.0
 10
45.0010219299
 20
78.4822137453
 30
0.0
 10
45.2075112292
 20
78.3279215245
 30
0.0
 10
45.3567590916
 20
78.2024791377
 30
0.0
  0
SPLINE
  5
2A0
100
AcDbEntity
  8
0
100
AcDbSpline
 62
7
  6
CONTINUOUS
 70
0
 71
3
 72
16
 73
12
 74
0
 42
0.0000001
 43
0.0000001
 44
0.0000000001
 40
0.0
 40
0.0
 40
0.0
 40
0.0
 40
0.1287407954
 40
0.2704211541
 40
0.4176251582
 40
0.5620262225
 40
0.6957516539
 40
0.8130667234
 40
0.9124704488
 40
0.9571204215
 40
1.0
 40
1.0
 40
1.0
 40
1.0
 10
24.4341729493
 20
121.0638509222
 30
0.0
 10
24.4341729493
 20
120.8843607786
 30
0.0
 10
24.4844282335
 20
120.5069162755
 30
0.0
 10
24.671791148
 20
119.9527330146
 30
0.0
 10
24.9607204276
 20
119.4189179702
 30
0.0
 10
25.3274619536
 20
118.9492380224
 30
0.0
 10
25.7432720306
 20
118.5814802859
 30
0.0
 10
26.1758506412
 20
118.3441805413
 30
0.0
 10
26.5430427404
 20
118.2725468963
 30
0.0
 10
26.8031930064
 20
118.3105410987
 30
0.0
 10
26.9172784315
 20
118.3580796339
 30
0.0
 10
26.9690529247
 20
118.3879688154
 30
0.0
  0
SPLINE
  5
2A1
100
AcDbEntity
  8
0
100
AcDbSpline
 62
7
  6
CONTINUOUS
 70
0
 71
3
 72
11
 73
7
 74
0
 42
0.0000001
 43
0.0000001
 44
0.0000000001
 40
0.0
 40
0.0
 40
0.0
 40
0.0
 40
0.2553215668
 40
0.517472291
 40
0.7703989947
 40
1.0
 40
1.0
 40
1.0
 40
1.0
 10
76.8478007183
 20
114.0310977865
 30
0.0
 10
77.2762986734
 20
114.1457194419
 30
0.0
 10
78.1697452825
 20
114.2901997793
 30
0.0
 10
79.5143899319
 20
114.2724629129
 30
0.0
 10
80.7917968693
 20
114.029879537
 30
0.0
 10
81.5763864868
 20
113.7104044933
 30
0.0
 10
81.9218285519
 20
113.5109679359
 30
0.0
  0
SPLINE
  5
2A2
100
AcDbEntity
  8
0
100
AcDbSpline
 62
7
  6
CONTINUOUS
 70
0
 71
3
 72
11
 73
7
 74
0
 42
0.0000001
 43
0.0000001
 44
0.0000000001
 40
0.0
 40
0.0
 40
0.0
 40
0.0
 40
0.294087618
 40
0.5551860828
 40
0.7868194712
 40
1.0
 40
1.0
 40
1.0
 40
1.0
 10
94.793814828
 20
110.6593777746
 30
0.0
 10
94.99051335
 20
110.545816399
 30
0.0
 10
95.346517918
 20
110.3021714012
 30
0.0
 10
95.7734120275
 20
109.8625928555
 30
0.0
 10
96.0447250988
 20
109.3811735129
 30
0.0
 10
96.1092572636
 20
109.0354021868
 30
0.0
 10
96.1092577988
 20
108.8707608801
 30
0.0
  0
SPLINE
  5
2A3
100
AcDbEntity
  8
0
100
AcDbSpline
 62
7
  6
CONTINUOUS
 70
0
 71
3
 72
15
 73
11
 74
0
 42
0.0000001
 43
0.0000001
 44
0.0000000001
 40
0.0
 40
0.0
 40
0.0
 40
0.0
 40
0.1124396822
 40
0.2346781896
 40
0.3639464784
 40
0.4971620131
 40
0.630778746
 40
0.761213469
 40
0.88527725
 40
1.0
 40
1.0
 40
1.0
 40
1.0
 10
75.5576127217
 20
118.2514078962
 30
0.0
 10
75.776089498
 20
118.366530069
 30
0.0
 10
76.2537391157
 20
118.566582936
 30
0.0
 10
77.0282134786
 20
118.7721261575
 30
0.0
 10
77.8669116457
 20
118.889568567
 30
0.0
 10
78.7381968706
 20
118.9145545433
 30
0.0
 10
79.6096972617
 20
118.8459822052
 30
0.0
 10
80.4489642001
 20
118.6864938983
 30
0.0
 10
81.2241217055
 20
118.4420019161
 30
0.0
 10
81.7010289558
 20
118.218330216
 30
0.0
 10
81.9192392889
 20
118.0923492715
 30
0.0
  0
ELLIPSE
  5
2A4
100
AcDbEntity
  8
0
100
AcDbEllipse
 62
7
  6
CONTINUOUS
 10
180.3389829243
 20
224.1790376415
 30
0.0
 11
156.4031812302
 21
82.2343087861
 31
0.0
 40
0.0377147691
 41
2.8025931691
 42
3.1653990197
  0
ENDSEC
  0
SECTION
  2
OBJECTS
  0
DICTIONARY
  5
C
100
AcDbDictionary
280
0
281
1
  3
ACAD_GROUP
350
D
  3
ACAD_MLINESTYLE
350
17
  3
ACAD_LAYOUT
350
1A
  3
ACAD_PLOTSETTINGS
350
19
  3
ACAD_PLOTSTYLENAME
350
E
  0
DICTIONARY
  5
D
102
{ACAD_REACTORS
330
C
102
}
100
AcDbDictionary
280
0
281
1
  0
ACDBDICTIONARYWDFLT
  5
E
102
{ACAD_REACTORS
330
C
102
}
100
AcDbDictionary
281
1
  3
Normal
350
F
100
AcDbDictionaryWithDefault
340
F
  0
DICTIONARY
  5
17
102
{ACAD_REACTORS
330
C
102
}
100
AcDbDictionary
280
0
281
1
  3
Standard
350
18
  0
DICTIONARY
  5
19
102
{ACAD_REACTORS
330
C
102
}
100
AcDbDictionary
281
1
  0
DICTIONARY
  5
1A
102
{ACAD_REACTORS
330
C
102
}
100
AcDbDictionary
281
1
  3
Model
350
2A5
  3
Layout1
350
2A6
  0
ACDBPLACEHOLDER
  5
F
102
{ACAD_REACTORS
330
E
102
}
  0
MLINESTYLE
  5
18
102
{ACAD_REACTORS
330
17
102
}
100
AcDbMlineStyle
  2
STANDARD
 70
0
  3

 62
256
 51
90.0
 52
90.0
 71
2
 49
0.5
 62
256
  6
BYLAYER
 49
-0.5
 62
256
  6
BYLAYER
  0
LAYOUT
  5
2A5
102
{ACAD_REACTORS
330
1A
102
}
100
AcDbPlotSettings
  1

  2
none_device
  4

  6

 40
0.0
 41
0.0
 42
0.0
 43
0.0
 44
210.0
 45
297.0
 46
0.0
 47
0.0
 48
0.0
 49
0.0
140
0.0
141
0.0
142
1.0
143
1.0
 70
1024
 72
1
 73
0
 74
0
  7

 75
0
147
1.0
148
0.0
149
0.0
100
AcDbLayout
  1
Model
 70
0
 71
0
 10
0.0
 20
0.0
 11
210.0
 21
297.0
 12
0.0
 22
0.0
 32
0.0
 14
0.0
 24
0.0
 34
0.0
 15
0.0
 25
0.0
 35
0.0
146
0.0
 13
0.0
 23
0.0
 33
0.0
 16
1.0
 26
0.0
 36
0.0
 17
0.0
 27
1.0
 37
0.0
 76
0
330
210
345
0
346
0
  0
LAYOUT
  5
2A6
102
{ACAD_REACTORS
330
1A
102
}
100
AcDbPlotSettings
  1

  2
none_device
  4

  6

 40
0.0
 41
0.0
 42
0.0
 43
0.0
 44
210.0
 45
297.0
 46
0.0
 47
0.0
 48
0.0
 49
0.0
140
0.0
141
0.0
142
1.0
143
1.0
 70
0
 72
1
 73
0
 74
0
  7

 75
0
147
1.0
148
0.0
149
0.0
100
AcDbLayout
  1
Layout1
 70
0
 71
1
 10
0.0
 20
0.0
 11
210.0
 21
297.0
 12
0.0
 22
0.0
 32
0.0
 14
0.0
 24
0.0
 34
0.0
 15
0.0
 25
0.0
 35
0.0
146
0.0
 13
0.0
 23
0.0
 33
0.0
 16
1.0
 26
0.0
 36
0.0
 17
0.0
 27
1.0
 37
0.0
 76
0
330
211
345
0
346
0
  0
ENDSEC
  0
EOF
