  0
SECTION
  2
HEADER
  9
$ACADVER
  1
AC1009
  9
$DWGCODEPAGE
  3
ansi_1250
  9
$INSBASE
 10
0.0
 20
0.0
 30
0.0
  9
$EXTMIN
 10
-7.480315
 20
-16.587631
 30
0.0
  9
$EXTMAX
 10
7.480315
 20
16.154145
 30
0.0
  9
$LIMMIN
 10
0.0
 20
0.0
  9
$LIMMAX
 10
0.0
 20
0.0
  9
$ORTHOMODE
 70
     0
  9
$REGENMODE
 70
     1
  9
$FILLMODE
 70
     1
  9
$QTEXTMODE
 70
     0
  9
$MIRRTEXT
 70
     1
  9
$DRAGMODE
 70
     2
  9
$LTSCALE
 40
1.0
  9
$OSMODE
 70
     0
  9
$ATTMODE
 70
     1
  9
$TEXTSIZE
 40
0.2
  9
$TRACEWID
 40
0.05
  9
$TEXTSTYLE
  7
STANDARD
  9
$CLAYER
  8
0
  9
$CELTYPE
  6
CONTINUOUS
  9
$CECOLOR
 62
   256
  9
$DIMSCALE
 40
1.0
  9
$DIMASZ
 40
0.18
  9
$DIMEXO
 40
0.0625
  9
$DIMDLI
 40
0.38
  9
$DIMRND
 40
0.0
  9
$DIMDLE
 40
0.0
  9
$DIMEXE
 40
0.18
  9
$DIMTP
 40
0.0
  9
$DIMTM
 40
0.0
  9
$DIMTXT
 40
0.18
  9
$DIMCEN
 40
0.09
  9
$DIMTSZ
 40
0.0
  9
$DIMTOL
 70
     0
  9
$DIMLIM
 70
     0
  9
$DIMTIH
 70
     1
  9
$DIMTOH
 70
     1
  9
$DIMSE1
 70
     0
  9
$DIMSE2
 70
     0
  9
$DIMTAD
 70
     0
  9
$DIMZIN
 70
     0
  9
$DIMBLK
  1

  9
$DIMASO
 70
     1
  9
$DIMSHO
 70
     1
  9
$DIMPOST
  1

  9
$DIMAPOST
  1

  9
$DIMALT
 70
     0
  9
$DIMALTD
 70
     2
  9
$DIMALTF
 40
25.4
  9
$DIMLFAC
 40
1.0
  9
$DIMTOFL
 70
     0
  9
$DIMTVP
 40
0.0
  9
$DIMTIX
 70
     0
  9
$DIMSOXD
 70
     0
  9
$DIMSAH
 70
     0
  9
$DIMBLK1
  1

  9
$DIMBLK2
  1

  9
$DIMSTYLE
  2
STANDARD
  9
$DIMCLRD
 70
     0
  9
$DIMCLRE
 70
     0
  9
$DIMCLRT
 70
     0
  9
$DIMTFAC
 40
1.0
  9
$DIMGAP
 40
0.09
  9
$LUNITS
 70
     2
  9
$LUPREC
 70
     4
  9
$AXISMODE
 70
     0
  9
$AXISUNIT
 10
0.0
 20
0.0
  9
$SKETCHINC
 40
0.1
  9
$FILLETRAD
 40
0.0
  9
$AUNITS
 70
     0
  9
$AUPREC
 70
     0
  9
$MENU
  1
acad
  9
$ELEVATION
 40
0.0
  9
$PELEVATION
 40
0.0
  9
$THICKNESS
 40
0.0
  9
$LIMCHECK
 70
     0
  9
$BLIPMODE
 70
     1
  9
$CHAMFERA
 40
0.0
  9
$CHAMFERB
 40
0.0
  9
$SKPOLY
 70
     0
  9
$TDCREATE
 40
0.000000000
  9
$TDUPDATE
 40
0.000000000
  9
$TDINDWG
 40
0.0000000000
  9
$TDUSRTIMER
 40
0.0000000000
  9
$USRTIMER
 70
     1
  9
$ANGBASE
 50
0.0
  9
$ANGDIR
 70
     0
  9
$PDMODE
 70
     0
  9
$PDSIZE
 40
0.0
  9
$PLINEWID
 40
0.0
  9
$COORDS
 70
     0
  9
$SPLFRAME
 70
     0
  9
$SPLINETYPE
 70
     6
  9
$SPLINESEGS
 70
     8
  9
$ATTDIA
 70
     0
  9
$ATTREQ
 70
     1
  9
$HANDLING
 70
     1
  9
$HANDSEED
  5
D6F
  9
$SURFTAB1
 70
     6
  9
$SURFTAB2
 70
     6
  9
$SURFTYPE
 70
     6
  9
$SURFU
 70
     6
  9
$SURFV
 70
     6
  9
$UCSNAME
  2

  9
$UCSORG
 10
0.0
 20
0.0
 30
0.0
  9
$UCSXDIR
 10
1.0
 20
0.0
 30
0.0
  9
$UCSYDIR
 10
0.0
 20
1.0
 30
0.0
  9
$PUCSNAME
  2

  9
$PUCSORG
 10
0.0
 20
0.0
 30
0.0
  9
$PUCSXDIR
 10
1.0
 20
0.0
 30
0.0
  9
$PUCSYDIR
 10
0.0
 20
1.0
 30
0.0
  9
$USERI1
 70
     0
  9
$USERI2
 70
     0
  9
$USERI3
 70
     0
  9
$USERI4
 70
     0
  9
$USERI5
 70
     0
  9
$USERR1
 40
0.0
  9
$USERR2
 40
0.0
  9
$USERR3
 40
0.0
  9
$USERR4
 40
0.0
  9
$USERR5
 40
0.0
  9
$WORLDVIEW
 70
     1
  9
$SHADEDGE
 70
     3
  9
$SHADEDIF
 70
    70
  9
$TILEMODE
 70
     1
  9
$MAXACTVP
 70
    16
  9
$PINSBASE
 10
0.0
 20
0.0
 30
0.0
  9
$PLIMCHECK
 70
     0
  9
$PEXTMIN
 10
1.000000E+20
 20
1.000000E+20
 30
1.000000E+20
  9
$PEXTMAX
 10
-1.000000E+20
 20
-1.000000E+20
 30
-1.000000E+20
  9
$PLIMMIN
 10
0.0
 20
0.0
  9
$PLIMMAX
 10
12.0
 20
9.0
  9
$UNITMODE
 70
     0
  9
$VISRETAIN
 70
     0
  9
$PLINEGEN
 70
     1
  9
$PSLTSCALE
 70
     0
  9
$TREEDEPTH
 70
  3020
  0
ENDSEC
  0
SECTION
  2
TABLES
  0
TABLE
  2
VPORT
 70
     1
  0
VPORT
  2
*ACTIVE
 70
     0
 10
0.0
 20
0.0
 11
1.0
 21
1.0
 12
6.591288
 22
4.579184
 13
0.0
 23
0.0
 14
1.0
 24
1.0
 15
0.0
 25
0.0
 16
0.0
 26
0.0
 36
1.0
 17
0.0
 27
0.0
 37
0.0
 40
9.158369
 41
0.688564
 42
50.0
 43
0.0
 44
0.0
 50
0.0
 51
0.0
 71
     0
 72
   100
 73
     1
 74
     1
 75
     0
 76
     0
 77
     0
 78
     0
  0
ENDTAB
  0
TABLE
  2
LTYPE
 70
     5
  0
LTYPE
  2
CONTINUOUS
 70
    64
  3
Solid line
 72
    65
 73
     0
 40
0.0
  0
LTYPE
  2
CENTER
 70
    64
  3
Center ____ _ ____ _ ____ _ ____ _ ____ _ ____
 72
    65
 73
     4
 40
50.8
 49
31.75
 49
-6.35
 49
6.35
 49
-6.35
  0
LTYPE
  2
HIDDEN
 70
    64
  3
Hidden __ __ __ __ __ __ __ __ __ __ __ __ __ __
 72
    65
 73
     2
 40
9.525
 49
6.35
 49
-3.175
  0
LTYPE
  2
CENTER2
 70
    64
  3
Center (.5x) ___ _ ___ _ ___ _ ___ _ ___ _ ___
 72
    65
 73
     4
 40
28.575
 49
19.05
 49
-3.175
 49
3.175
 49
-3.175
  0
LTYPE
  2
HIDDEN2
 70
    64
  3
Hidden (.5x) _ _ _ _ _ _ _ _ _ _ _ _ _ _ _ _ _
 72
    65
 73
     2
 40
4.7625
 49
3.175
 49
-1.5875
  0
ENDTAB
  0
TABLE
  2
LAYER
 70
     1
  0
LAYER
  2
0
 70
     0
 62
     7
  6
CONTINUOUS
  0
ENDTAB
  0
TABLE
  2
STYLE
 70
     1
  0
STYLE
  2
STANDARD
 70
     0
 40
0.0
 41
1.0
 50
0.0
 71
     0
 42
0.0
  3
txt
  4

  0
ENDTAB
  0
TABLE
  2
VIEW
 70
     0
  0
ENDTAB
  0
TABLE
  2
UCS
 70
     0
  0
ENDTAB
  0
TABLE
  2
APPID
 70
     1
  0
APPID
  2
ACAD
 70
     0
  0
ENDTAB
  0
TABLE
  2
DIMSTYLE
 70
     1
  0
DIMSTYLE
  2
STANDARD
 70
     0
  3

  4

  5

  6

  7

 40
1.0
 41
0.18
 42
0.0625
 43
0.38
 44
0.18
 45
0.0
 46
0.0
 47
0.0
 48
0.0
 71
     0
 72
     0
 73
     1
 74
     1
 75
     0
 76
     0
 77
     0
 78
     0
140
0.18
141
0.09
142
0.0
143
25.4
144
1.0
145
0.0
146
1.0
147
0.09
170
     0
171
     2
172
     0
173
     0
174
     0
175
     0
176
     0
177
     0
178
     0
  0
ENDTAB
  0
ENDSEC
  0
SECTION
  2
BLOCKS
  0
ENDSEC
  0
SECTION
  2
ENTITIES
  0
LINE
  8
0
  6
CONTINUOUS
 62
     7
  5
6F0
 10
-7.125984
 20
-2.956693
 30
0.0
 11
-7.125984
 21
-4.847457
 31
0.0
  0
LINE
  8
0
  6
CONTINUOUS
 62
     7
  5
6F1
 10
-7.125984
 20
-4.847457
 30
0.0
 11
-2.874016
 21
-4.847457
 31
0.0
  0
LINE
  8
0
  6
CONTINUOUS
 62
     7
  5
6F2
 10
-2.874016
 20
-4.847457
 30
0.0
 11
-2.874016
 21
-3.92226
 31
0.0
  0
LINE
  8
0
  6
CONTINUOUS
 62
     7
  5
6F3
 10
-2.874016
 20
-3.92226
 30
0.0
 11
-5.866142
 21
-3.92226
 31
0.0
  0
ARC
  8
0
  6
CONTINUOUS
 62
     7
  5
6F4
 10
-5.866142
 20
-3.666354
 30
0.0
 40
0.255906
 50
90.0
 51
270.0
  0
LINE
  8
0
  6
CONTINUOUS
 62
     7
  5
6F5
 10
-5.866142
 20
-3.410449
 30
0.0
 11
-2.874016
 21
-3.410449
 31
0.0
  0
LINE
  8
0
  6
CONTINUOUS
 62
     7
  5
6F6
 10
-2.874016
 20
-3.410449
 30
0.0
 11
-2.874016
 21
-2.957693
 31
0.0
  0
LINE
  8
0
  6
CONTINUOUS
 62
     7
  5
6F7
 10
-2.874016
 20
-2.957693
 30
0.0
 11
-1.692913
 21
-2.957693
 31
0.0
  0
LINE
  8
0
  6
CONTINUOUS
 62
     7
  5
6F8
 10
-1.692913
 20
-2.957693
 30
0.0
 11
-1.692913
 21
-3.410449
 31
0.0
  0
LINE
  8
0
  6
CONTINUOUS
 62
     7
  5
6F9
 10
0.393701
 20
-3.410449
 30
0.0
 11
1.692913
 21
-3.410449
 31
0.0
  0
LINE
  8
0
  6
CONTINUOUS
 62
     7
  5
6FA
 10
-1.692913
 20
-3.410449
 30
0.0
 11
-0.393701
 21
-3.410449
 31
0.0
  0
LINE
  8
0
  6
CONTINUOUS
 62
     7
  5
6FB
 10
1.692913
 20
-3.410449
 30
0.0
 11
1.692913
 21
-2.957693
 31
0.0
  0
LINE
  8
0
  6
CONTINUOUS
 62
     7
  5
6FC
 10
1.692913
 20
-2.957693
 30
0.0
 11
2.874016
 21
-2.957693
 31
0.0
  0
LINE
  8
0
  6
CONTINUOUS
 62
     7
  5
6FD
 10
2.874016
 20
-2.957693
 30
0.0
 11
2.874016
 21
-3.410449
 31
0.0
  0
LINE
  8
0
  6
CONTINUOUS
 62
     7
  5
6FE
 10
2.874016
 20
-3.410449
 30
0.0
 11
5.866142
 21
-3.410449
 31
0.0
  0
ARC
  8
0
  6
CONTINUOUS
 62
     7
  5
6FF
 10
5.866142
 20
-3.666354
 30
0.0
 40
0.255906
 50
270.0
 51
90.0
  0
LINE
  8
0
  6
CONTINUOUS
 62
     7
  5
700
 10
5.866142
 20
-3.92226
 30
0.0
 11
2.874016
 21
-3.92226
 31
0.0
  0
LINE
  8
0
  6
CONTINUOUS
 62
     7
  5
701
 10
2.874016
 20
-3.92226
 30
0.0
 11
2.874016
 21
-4.847457
 31
0.0
  0
LINE
  8
0
  6
CONTINUOUS
 62
     7
  5
702
 10
2.874016
 20
-4.847457
 30
0.0
 11
7.125984
 21
-4.847457
 31
0.0
  0
LINE
  8
0
  6
CONTINUOUS
 62
     7
  5
703
 10
7.125984
 20
-4.847457
 30
0.0
 11
7.125984
 21
-2.956693
 31
0.0
  0
LINE
  8
0
  6
CONTINUOUS
 62
     7
  5
704
 10
-7.125984
 20
-2.957693
 30
0.0
 11
-7.479315
 21
-2.957693
 31
0.0
  0
LINE
  8
0
  6
CONTINUOUS
 62
     7
  5
705
 10
2.874016
 20
-4.847457
 30
0.0
 11
2.440945
 21
-4.847457
 31
0.0
  0
LINE
  8
0
  6
CONTINUOUS
 62
     7
  5
706
 10
2.440945
 20
-4.847457
 30
0.0
 11
2.125984
 21
-4.847457
 31
0.0
  0
LINE
  8
0
  6
CONTINUOUS
 62
     7
  5
707
 10
2.125984
 20
-4.847457
 30
0.0
 11
1.692913
 21
-4.847457
 31
0.0
  0
LINE
  8
0
  6
CONTINUOUS
 62
     7
  5
708
 10
0.68886
 20
-4.847457
 30
0.0
 11
1.692913
 21
-4.847457
 31
0.0
  0
LINE
  8
0
  6
CONTINUOUS
 62
     7
  5
709
 10
-1.692913
 20
-4.847457
 30
0.0
 11
-0.68886
 21
-4.847457
 31
0.0
  0
LINE
  8
0
  6
CONTINUOUS
 62
     7
  5
70A
 10
-1.692913
 20
-4.847457
 30
0.0
 11
-2.125984
 21
-4.847457
 31
0.0
  0
LINE
  8
0
  6
CONTINUOUS
 62
     7
  5
70B
 10
-2.125984
 20
-4.847457
 30
0.0
 11
-2.440945
 21
-4.847457
 31
0.0
  0
LINE
  8
0
  6
CONTINUOUS
 62
     7
  5
70C
 10
-2.440945
 20
-4.847457
 30
0.0
 11
-2.874016
 21
-4.847457
 31
0.0
  0
LINE
  8
0
  6
CONTINUOUS
 62
     7
  5
70D
 10
-1.83727
 20
-3.410449
 30
0.0
 11
-1.692913
 21
-3.410449
 31
0.0
  0
LINE
  8
0
  6
CONTINUOUS
 62
     7
  5
70E
 10
1.692913
 20
-3.410449
 30
0.0
 11
1.83727
 21
-3.410449
 31
0.0
  0
ARC
  8
0
  6
CONTINUOUS
 62
     7
  5
70F
 10
-0.433071
 20
-3.666354
 30
0.0
 40
0.23622
 50
80.405932
 51
180.0
  0
ARC
  8
0
  6
CONTINUOUS
 62
     7
  5
710
 10
-0.433071
 20
-3.666354
 30
0.0
 40
0.23622
 50
180.0
 51
210.08023
  0
ARC
  8
0
  6
CONTINUOUS
 62
     7
  5
711
 10
0.433071
 20
-3.666354
 30
0.0
 40
0.23622
 50
329.91977
 51
99.594068
  0
CIRCLE
  8
0
  6
CONTINUOUS
 62
     7
  5
712
 10
1.299213
 20
-3.666354
 30
0.0
 40
0.23622
  0
CIRCLE
  8
0
  6
CONTINUOUS
 62
     7
  5
713
 10
-1.299213
 20
-3.666354
 30
0.0
 40
0.23622
  0
LINE
  8
0
  6
CONTINUOUS
 62
     7
  5
714
 10
-1.83727
 20
-3.92226
 30
0.0
 11
-1.83727
 21
-3.410449
 31
0.0
  0
LINE
  8
0
  6
CONTINUOUS
 62
     7
  5
715
 10
1.83727
 20
-3.410449
 30
0.0
 11
1.83727
 21
-3.92226
 31
0.0
  0
LINE
  8
0
  6
CONTINUOUS
 62
     7
  5
716
 10
-1.692913
 20
-3.92226
 30
0.0
 11
-1.83727
 21
-3.92226
 31
0.0
  0
LINE
  8
0
  6
CONTINUOUS
 62
     7
  5
717
 10
-0.688976
 20
-3.92226
 30
0.0
 11
-1.692913
 21
-3.92226
 31
0.0
  0
LINE
  8
0
  6
CONTINUOUS
 62
     7
  5
718
 10
1.692913
 20
-3.92226
 30
0.0
 11
0.688976
 21
-3.92226
 31
0.0
  0
LINE
  8
0
  6
CONTINUOUS
 62
     7
  5
719
 10
1.83727
 20
-3.92226
 30
0.0
 11
1.692913
 21
-3.92226
 31
0.0
  0
LINE
  8
0
  6
CONTINUOUS
 62
     7
  5
71A
 10
-2.125984
 20
-2.957693
 30
0.0
 11
-2.125984
 21
-4.847457
 31
0.0
  0
LINE
  8
0
  6
CONTINUOUS
 62
     7
  5
71B
 10
-1.692913
 20
-3.92226
 30
0.0
 11
-1.692913
 21
-4.847457
 31
0.0
  0
LINE
  8
0
  6
CONTINUOUS
 62
     7
  5
71C
 10
1.692913
 20
-4.847457
 30
0.0
 11
1.692913
 21
-3.92226
 31
0.0
  0
LINE
  8
0
  6
CONTINUOUS
 62
     7
  5
71D
 10
2.125984
 20
-2.957693
 30
0.0
 11
2.125984
 21
-4.847457
 31
0.0
  0
LINE
  8
0
  6
CONTINUOUS
 62
     7
  5
71E
 10
-2.874016
 20
-3.410449
 30
0.0
 11
-2.729659
 21
-3.410449
 31
0.0
  0
LINE
  8
0
  6
CONTINUOUS
 62
     7
  5
71F
 10
-2.729659
 20
-3.92226
 30
0.0
 11
-2.874016
 21
-3.92226
 31
0.0
  0
LINE
  8
0
  6
CONTINUOUS
 62
     7
  5
720
 10
-2.729659
 20
-3.410449
 30
0.0
 11
-2.729659
 21
-3.92226
 31
0.0
  0
CIRCLE
  8
0
  6
CONTINUOUS
 62
     7
  5
721
 10
-5.866142
 20
-3.666354
 30
0.0
 40
0.23622
  0
CIRCLE
  8
0
  6
CONTINUOUS
 62
     7
  5
722
 10
-3.267717
 20
-3.666354
 30
0.0
 40
0.23622
  0
CIRCLE
  8
0
  6
CONTINUOUS
 62
     7
  5
723
 10
-4.133858
 20
-3.666354
 30
0.0
 40
0.23622
  0
CIRCLE
  8
0
  6
CONTINUOUS
 62
     7
  5
724
 10
-5.0
 20
-3.666354
 30
0.0
 40
0.23622
  0
LINE
  8
0
  6
CONTINUOUS
 62
     7
  5
725
 10
-2.440945
 20
-2.957693
 30
0.0
 11
-2.440945
 21
-4.847457
 31
0.0
  0
LINE
  8
0
  6
CONTINUOUS
 62
     7
  5
726
 10
2.729659
 20
-3.410449
 30
0.0
 11
2.874016
 21
-3.410449
 31
0.0
  0
LINE
  8
0
  6
CONTINUOUS
 62
     7
  5
727
 10
2.874016
 20
-3.92226
 30
0.0
 11
2.729659
 21
-3.92226
 31
0.0
  0
LINE
  8
0
  6
CONTINUOUS
 62
     7
  5
728
 10
2.729659
 20
-3.92226
 30
0.0
 11
2.729659
 21
-3.410449
 31
0.0
  0
CIRCLE
  8
0
  6
CONTINUOUS
 62
     7
  5
729
 10
3.267717
 20
-3.666354
 30
0.0
 40
0.23622
  0
CIRCLE
  8
0
  6
CONTINUOUS
 62
     7
  5
72A
 10
5.866142
 20
-3.666354
 30
0.0
 40
0.23622
  0
CIRCLE
  8
0
  6
CONTINUOUS
 62
     7
  5
72B
 10
5.0
 20
-3.666354
 30
0.0
 40
0.23622
  0
CIRCLE
  8
0
  6
CONTINUOUS
 62
     7
  5
72C
 10
4.133858
 20
-3.666354
 30
0.0
 40
0.23622
  0
LINE
  8
0
  6
CONTINUOUS
 62
     7
  5
72D
 10
2.440945
 20
-2.957693
 30
0.0
 11
2.440945
 21
-4.847457
 31
0.0
  0
LINE
  8
0
  6
CONTINUOUS
 62
     7
  5
72E
 10
7.479315
 20
-2.957693
 30
0.0
 11
7.125984
 21
-2.957693
 31
0.0
  0
LINE
  8
0
  6
CONTINUOUS
 62
     7
  5
72F
 10
-3.438976
 20
-5.393701
 30
0.0
 11
-3.438976
 21
-4.847457
 31
0.0
  0
LINE
  8
0
  6
CONTINUOUS
 62
     7
  5
730
 10
3.983024
 20
-5.393701
 30
0.0
 11
4.159449
 21
-5.393701
 31
0.0
  0
LINE
  8
0
  6
CONTINUOUS
 62
     7
  5
731
 10
4.159449
 20
-5.393701
 30
0.0
 11
4.159449
 21
-4.847457
 31
0.0
  0
LINE
  8
0
  6
CONTINUOUS
 62
     7
  5
732
 10
3.962598
 20
-6.562992
 30
0.0
 11
3.962598
 21
-6.312992
 31
0.0
  0
LINE
  8
0
  6
CONTINUOUS
 62
     7
  5
733
 10
-3.242126
 20
-6.312992
 30
0.0
 11
3.962598
 21
-6.312992
 31
0.0
  0
LINE
  8
0
  6
CONTINUOUS
 62
     7
  5
734
 10
-3.242126
 20
-6.312992
 30
0.0
 11
-3.242126
 21
-6.562992
 31
0.0
  0
LINE
  8
0
  6
CONTINUOUS
 62
     7
  5
735
 10
-3.242126
 20
-6.562992
 30
0.0
 11
3.962598
 21
-6.562992
 31
0.0
  0
LINE
  8
0
  6
CONTINUOUS
 62
     7
  5
736
 10
3.962598
 20
-6.312992
 30
0.0
 11
3.962598
 21
-5.393701
 31
0.0
  0
CIRCLE
  8
0
  6
CONTINUOUS
 62
     7
  5
737
 10
2.610236
 20
-5.858268
 30
0.0
 40
0.105
  0
CIRCLE
  8
0
  6
CONTINUOUS
 62
     7
  5
738
 10
1.110236
 20
-5.858268
 30
0.0
 40
0.105
  0
CIRCLE
  8
0
  6
CONTINUOUS
 62
     7
  5
739
 10
-0.389764
 20
-5.858268
 30
0.0
 40
0.105
  0
CIRCLE
  8
0
  6
CONTINUOUS
 62
     7
  5
73A
 10
-1.889764
 20
-5.858268
 30
0.0
 40
0.105
  0
LINE
  8
0
  6
CONTINUOUS
 62
     7
  5
73B
 10
-3.262551
 20
-5.393701
 30
0.0
 11
-3.242126
 21
-5.393701
 31
0.0
  0
LINE
  8
0
  6
CONTINUOUS
 62
     7
  5
73C
 10
-3.242126
 20
-5.393701
 30
0.0
 11
-3.242126
 21
-6.312992
 31
0.0
  0
LINE
  8
0
  6
CONTINUOUS
 62
     7
  5
73D
 10
3.962598
 20
-5.393701
 30
0.0
 11
3.983024
 21
-5.393701
 31
0.0
  0
LINE
  8
0
  6
CONTINUOUS
 62
     7
  5
73E
 10
-3.438976
 20
-5.393701
 30
0.0
 11
-3.262551
 21
-5.393701
 31
0.0
  0
LINE
  8
0
  6
CONTINUOUS
 62
     7
  5
73F
 10
7.440315
 20
5.783465
 30
0.0
 11
7.440315
 21
5.823334
 31
0.0
  0
LINE
  8
0
  6
CONTINUOUS
 62
     7
  5
740
 10
7.480315
 20
5.823334
 30
0.0
 11
7.480315
 21
5.783465
 31
0.0
  0
LINE
  8
0
  6
CONTINUOUS
 62
     7
  5
741
 10
-1.988588
 20
1.786004
 30
0.0
 11
-2.066929
 21
1.154261
 31
0.0
  0
LINE
  8
0
  6
CONTINUOUS
 62
     7
  5
742
 10
-1.884238
 20
1.832976
 30
0.0
 11
-1.888929
 21
1.832706
 31
0.0
  0
LINE
  8
0
  6
CONTINUOUS
 62
     7
  5
743
 10
-1.888929
 20
1.832706
 30
0.0
 11
-1.89359
 21
1.832356
 31
0.0
  0
LINE
  8
0
  6
CONTINUOUS
 62
     7
  5
744
 10
-1.89359
 20
1.832356
 30
0.0
 11
-1.898215
 21
1.831928
 31
0.0
  0
LINE
  8
0
  6
CONTINUOUS
 62
     7
  5
745
 10
-1.898215
 20
1.831928
 30
0.0
 11
-1.902795
 21
1.831422
 31
0.0
  0
LINE
  8
0
  6
CONTINUOUS
 62
     7
  5
746
 10
-1.902795
 20
1.831422
 30
0.0
 11
-1.907324
 21
1.830839
 31
0.0
  0
LINE
  8
0
  6
CONTINUOUS
 62
     7
  5
747
 10
-1.907324
 20
1.830839
 30
0.0
 11
-1.911794
 21
1.830179
 31
0.0
  0
LINE
  8
0
  6
CONTINUOUS
 62
     7
  5
748
 10
-1.911794
 20
1.830179
 30
0.0
 11
-1.916198
 21
1.829445
 31
0.0
  0
LINE
  8
0
  6
CONTINUOUS
 62
     7
  5
749
 10
-1.916198
 20
1.829445
 30
0.0
 11
-1.920528
 21
1.828636
 31
0.0
  0
LINE
  8
0
  6
CONTINUOUS
 62
     7
  5
74A
 10
-1.920528
 20
1.828636
 30
0.0
 11
-1.924779
 21
1.827755
 31
0.0
  0
LINE
  8
0
  6
CONTINUOUS
 62
     7
  5
74B
 10
-1.924779
 20
1.827755
 30
0.0
 11
-1.928942
 21
1.826802
 31
0.0
  0
LINE
  8
0
  6
CONTINUOUS
 62
     7
  5
74C
 10
-1.928942
 20
1.826802
 30
0.0
 11
-1.933012
 21
1.82578
 31
0.0
  0
LINE
  8
0
  6
CONTINUOUS
 62
     7
  5
74D
 10
-1.933012
 20
1.82578
 30
0.0
 11
-1.936981
 21
1.82469
 31
0.0
  0
LINE
  8
0
  6
CONTINUOUS
 62
     7
  5
74E
 10
-1.936981
 20
1.82469
 30
0.0
 11
-1.940844
 21
1.823533
 31
0.0
  0
LINE
  8
0
  6
CONTINUOUS
 62
     7
  5
74F
 10
-1.940844
 20
1.823533
 30
0.0
 11
-1.944594
 21
1.822311
 31
0.0
  0
LINE
  8
0
  6
CONTINUOUS
 62
     7
  5
750
 10
-1.944594
 20
1.822311
 30
0.0
 11
-1.948226
 21
1.821028
 31
0.0
  0
LINE
  8
0
  6
CONTINUOUS
 62
     7
  5
751
 10
-1.948226
 20
1.821028
 30
0.0
 11
-1.951732
 21
1.819683
 31
0.0
  0
LINE
  8
0
  6
CONTINUOUS
 62
     7
  5
752
 10
-1.951732
 20
1.819683
 30
0.0
 11
-1.955109
 21
1.818281
 31
0.0
  0
LINE
  8
0
  6
CONTINUOUS
 62
     7
  5
753
 10
-1.955109
 20
1.818281
 30
0.0
 11
-1.958349
 21
1.816822
 31
0.0
  0
LINE
  8
0
  6
CONTINUOUS
 62
     7
  5
754
 10
-1.958349
 20
1.816822
 30
0.0
 11
-1.961449
 21
1.81531
 31
0.0
  0
LINE
  8
0
  6
CONTINUOUS
 62
     7
  5
755
 10
-1.961449
 20
1.81531
 30
0.0
 11
-1.964403
 21
1.813746
 31
0.0
  0
LINE
  8
0
  6
CONTINUOUS
 62
     7
  5
756
 10
-1.964403
 20
1.813746
 30
0.0
 11
-1.967206
 21
1.812133
 31
0.0
  0
LINE
  8
0
  6
CONTINUOUS
 62
     7
  5
757
 10
-1.967206
 20
1.812133
 30
0.0
 11
-1.969854
 21
1.810475
 31
0.0
  0
LINE
  8
0
  6
CONTINUOUS
 62
     7
  5
758
 10
-1.969854
 20
1.810475
 30
0.0
 11
-1.972342
 21
1.808773
 31
0.0
  0
LINE
  8
0
  6
CONTINUOUS
 62
     7
  5
759
 10
-1.972342
 20
1.808773
 30
0.0
 11
-1.974667
 21
1.80703
 31
0.0
  0
LINE
  8
0
  6
CONTINUOUS
 62
     7
  5
75A
 10
-1.974667
 20
1.80703
 30
0.0
 11
-1.976825
 21
1.805249
 31
0.0
  0
LINE
  8
0
  6
CONTINUOUS
 62
     7
  5
75B
 10
-1.976825
 20
1.805249
 30
0.0
 11
-1.978813
 21
1.803433
 31
0.0
  0
LINE
  8
0
  6
CONTINUOUS
 62
     7
  5
75C
 10
-1.978813
 20
1.803433
 30
0.0
 11
-1.980626
 21
1.801585
 31
0.0
  0
LINE
  8
0
  6
CONTINUOUS
 62
     7
  5
75D
 10
-1.980626
 20
1.801585
 30
0.0
 11
-1.982263
 21
1.799707
 31
0.0
  0
LINE
  8
0
  6
CONTINUOUS
 62
     7
  5
75E
 10
-1.982263
 20
1.799707
 30
0.0
 11
-1.98372
 21
1.797803
 31
0.0
  0
LINE
  8
0
  6
CONTINUOUS
 62
     7
  5
75F
 10
-1.98372
 20
1.797803
 30
0.0
 11
-1.984996
 21
1.795877
 31
0.0
  0
LINE
  8
0
  6
CONTINUOUS
 62
     7
  5
760
 10
-1.984996
 20
1.795877
 30
0.0
 11
-1.986088
 21
1.79393
 31
0.0
  0
LINE
  8
0
  6
CONTINUOUS
 62
     7
  5
761
 10
-1.986088
 20
1.79393
 30
0.0
 11
-1.986995
 21
1.791966
 31
0.0
  0
LINE
  8
0
  6
CONTINUOUS
 62
     7
  5
762
 10
-1.986995
 20
1.791966
 30
0.0
 11
-1.987714
 21
1.789988
 31
0.0
  0
LINE
  8
0
  6
CONTINUOUS
 62
     7
  5
763
 10
-1.987714
 20
1.789988
 30
0.0
 11
-1.988246
 21
1.788
 31
0.0
  0
LINE
  8
0
  6
CONTINUOUS
 62
     7
  5
764
 10
-1.988246
 20
1.788
 30
0.0
 11
-1.988588
 21
1.786004
 31
0.0
  0
LINE
  8
0
  6
CONTINUOUS
 62
     7
  5
765
 10
-0.48341
 20
1.901589
 30
0.0
 11
-1.884238
 21
1.832976
 31
0.0
  0
LINE
  8
0
  6
CONTINUOUS
 62
     7
  5
766
 10
-0.425847
 20
1.902994
 30
0.0
 11
-0.427495
 21
1.902993
 31
0.0
  0
LINE
  8
0
  6
CONTINUOUS
 62
     7
  5
767
 10
-0.427495
 20
1.902993
 30
0.0
 11
-0.429143
 21
1.902989
 31
0.0
  0
LINE
  8
0
  6
CONTINUOUS
 62
     7
  5
768
 10
-0.429143
 20
1.902989
 30
0.0
 11
-0.430792
 21
1.902983
 31
0.0
  0
LINE
  8
0
  6
CONTINUOUS
 62
     7
  5
769
 10
-0.430792
 20
1.902983
 30
0.0
 11
-0.43244
 21
1.902975
 31
0.0
  0
LINE
  8
0
  6
CONTINUOUS
 62
     7
  5
76A
 10
-0.43244
 20
1.902975
 30
0.0
 11
-0.434088
 21
1.902965
 31
0.0
  0
LINE
  8
0
  6
CONTINUOUS
 62
     7
  5
76B
 10
-0.434088
 20
1.902965
 30
0.0
 11
-0.435736
 21
1.902952
 31
0.0
  0
LINE
  8
0
  6
CONTINUOUS
 62
     7
  5
76C
 10
-0.435736
 20
1.902952
 30
0.0
 11
-0.437384
 21
1.902937
 31
0.0
  0
LINE
  8
0
  6
CONTINUOUS
 62
     7
  5
76D
 10
-0.437384
 20
1.902937
 30
0.0
 11
-0.439032
 21
1.90292
 31
0.0
  0
LINE
  8
0
  6
CONTINUOUS
 62
     7
  5
76E
 10
-0.439032
 20
1.90292
 30
0.0
 11
-0.440679
 21
1.902901
 31
0.0
  0
LINE
  8
0
  6
CONTINUOUS
 62
     7
  5
76F
 10
-0.440679
 20
1.902901
 30
0.0
 11
-0.442327
 21
1.902879
 31
0.0
  0
LINE
  8
0
  6
CONTINUOUS
 62
     7
  5
770
 10
-0.442327
 20
1.902879
 30
0.0
 11
-0.443974
 21
1.902855
 31
0.0
  0
LINE
  8
0
  6
CONTINUOUS
 62
     7
  5
771
 10
-0.443974
 20
1.902855
 30
0.0
 11
-0.445621
 21
1.902828
 31
0.0
  0
LINE
  8
0
  6
CONTINUOUS
 62
     7
  5
772
 10
-0.445621
 20
1.902828
 30
0.0
 11
-0.447268
 21
1.9028
 31
0.0
  0
LINE
  8
0
  6
CONTINUOUS
 62
     7
  5
773
 10
-0.447268
 20
1.9028
 30
0.0
 11
-0.448915
 21
1.902769
 31
0.0
  0
LINE
  8
0
  6
CONTINUOUS
 62
     7
  5
774
 10
-0.448915
 20
1.902769
 30
0.0
 11
-0.450561
 21
1.902735
 31
0.0
  0
LINE
  8
0
  6
CONTINUOUS
 62
     7
  5
775
 10
-0.450561
 20
1.902735
 30
0.0
 11
-0.452208
 21
1.9027
 31
0.0
  0
LINE
  8
0
  6
CONTINUOUS
 62
     7
  5
776
 10
-0.452208
 20
1.9027
 30
0.0
 11
-0.453854
 21
1.902662
 31
0.0
  0
LINE
  8
0
  6
CONTINUOUS
 62
     7
  5
777
 10
-0.453854
 20
1.902662
 30
0.0
 11
-0.455499
 21
1.902622
 31
0.0
  0
LINE
  8
0
  6
CONTINUOUS
 62
     7
  5
778
 10
-0.455499
 20
1.902622
 30
0.0
 11
-0.457144
 21
1.902579
 31
0.0
  0
LINE
  8
0
  6
CONTINUOUS
 62
     7
  5
779
 10
-0.457144
 20
1.902579
 30
0.0
 11
-0.458789
 21
1.902535
 31
0.0
  0
LINE
  8
0
  6
CONTINUOUS
 62
     7
  5
77A
 10
-0.458789
 20
1.902535
 30
0.0
 11
-0.460434
 21
1.902488
 31
0.0
  0
LINE
  8
0
  6
CONTINUOUS
 62
     7
  5
77B
 10
-0.460434
 20
1.902488
 30
0.0
 11
-0.462078
 21
1.902438
 31
0.0
  0
LINE
  8
0
  6
CONTINUOUS
 62
     7
  5
77C
 10
-0.462078
 20
1.902438
 30
0.0
 11
-0.463722
 21
1.902387
 31
0.0
  0
LINE
  8
0
  6
CONTINUOUS
 62
     7
  5
77D
 10
-0.463722
 20
1.902387
 30
0.0
 11
-0.465365
 21
1.902333
 31
0.0
  0
LINE
  8
0
  6
CONTINUOUS
 62
     7
  5
77E
 10
-0.465365
 20
1.902333
 30
0.0
 11
-0.467008
 21
1.902276
 31
0.0
  0
LINE
  8
0
  6
CONTINUOUS
 62
     7
  5
77F
 10
-0.467008
 20
1.902276
 30
0.0
 11
-0.468651
 21
1.902218
 31
0.0
  0
LINE
  8
0
  6
CONTINUOUS
 62
     7
  5
780
 10
-0.468651
 20
1.902218
 30
0.0
 11
-0.470293
 21
1.902157
 31
0.0
  0
LINE
  8
0
  6
CONTINUOUS
 62
     7
  5
781
 10
-0.470293
 20
1.902157
 30
0.0
 11
-0.471934
 21
1.902094
 31
0.0
  0
LINE
  8
0
  6
CONTINUOUS
 62
     7
  5
782
 10
-0.471934
 20
1.902094
 30
0.0
 11
-0.473575
 21
1.902029
 31
0.0
  0
LINE
  8
0
  6
CONTINUOUS
 62
     7
  5
783
 10
-0.473575
 20
1.902029
 30
0.0
 11
-0.475216
 21
1.901961
 31
0.0
  0
LINE
  8
0
  6
CONTINUOUS
 62
     7
  5
784
 10
-0.475216
 20
1.901961
 30
0.0
 11
-0.476856
 21
1.901891
 31
0.0
  0
LINE
  8
0
  6
CONTINUOUS
 62
     7
  5
785
 10
-0.476856
 20
1.901891
 30
0.0
 11
-0.478495
 21
1.901819
 31
0.0
  0
LINE
  8
0
  6
CONTINUOUS
 62
     7
  5
786
 10
-0.478495
 20
1.901819
 30
0.0
 11
-0.480134
 21
1.901745
 31
0.0
  0
LINE
  8
0
  6
CONTINUOUS
 62
     7
  5
787
 10
-0.480134
 20
1.901745
 30
0.0
 11
-0.481772
 21
1.901668
 31
0.0
  0
LINE
  8
0
  6
CONTINUOUS
 62
     7
  5
788
 10
-0.481772
 20
1.901668
 30
0.0
 11
-0.48341
 21
1.901589
 31
0.0
  0
LINE
  8
0
  6
CONTINUOUS
 62
     7
  5
789
 10
-0.407723
 20
1.902994
 30
0.0
 11
-0.425847
 21
1.902994
 31
0.0
  0
LINE
  8
0
  6
CONTINUOUS
 62
     7
  5
78A
 10
0.425847
 20
1.902994
 30
0.0
 11
0.407723
 21
1.902994
 31
0.0
  0
LINE
  8
0
  6
CONTINUOUS
 62
     7
  5
78B
 10
0.48341
 20
1.901589
 30
0.0
 11
0.481772
 21
1.901668
 31
0.0
  0
LINE
  8
0
  6
CONTINUOUS
 62
     7
  5
78C
 10
0.481772
 20
1.901668
 30
0.0
 11
0.480134
 21
1.901745
 31
0.0
  0
LINE
  8
0
  6
CONTINUOUS
 62
     7
  5
78D
 10
0.480134
 20
1.901745
 30
0.0
 11
0.478495
 21
1.901819
 31
0.0
  0
LINE
  8
0
  6
CONTINUOUS
 62
     7
  5
78E
 10
0.478495
 20
1.901819
 30
0.0
 11
0.476856
 21
1.901891
 31
0.0
  0
LINE
  8
0
  6
CONTINUOUS
 62
     7
  5
78F
 10
0.476856
 20
1.901891
 30
0.0
 11
0.475216
 21
1.901961
 31
0.0
  0
LINE
  8
0
  6
CONTINUOUS
 62
     7
  5
790
 10
0.475216
 20
1.901961
 30
0.0
 11
0.473575
 21
1.902029
 31
0.0
  0
LINE
  8
0
  6
CONTINUOUS
 62
     7
  5
791
 10
0.473575
 20
1.902029
 30
0.0
 11
0.471934
 21
1.902094
 31
0.0
  0
LINE
  8
0
  6
CONTINUOUS
 62
     7
  5
792
 10
0.471934
 20
1.902094
 30
0.0
 11
0.470293
 21
1.902157
 31
0.0
  0
LINE
  8
0
  6
CONTINUOUS
 62
     7
  5
793
 10
0.470293
 20
1.902157
 30
0.0
 11
0.468651
 21
1.902218
 31
0.0
  0
LINE
  8
0
  6
CONTINUOUS
 62
     7
  5
794
 10
0.468651
 20
1.902218
 30
0.0
 11
0.467008
 21
1.902276
 31
0.0
  0
LINE
  8
0
  6
CONTINUOUS
 62
     7
  5
795
 10
0.467008
 20
1.902276
 30
0.0
 11
0.465365
 21
1.902333
 31
0.0
  0
LINE
  8
0
  6
CONTINUOUS
 62
     7
  5
796
 10
0.465365
 20
1.902333
 30
0.0
 11
0.463722
 21
1.902387
 31
0.0
  0
LINE
  8
0
  6
CONTINUOUS
 62
     7
  5
797
 10
0.463722
 20
1.902387
 30
0.0
 11
0.462078
 21
1.902438
 31
0.0
  0
LINE
  8
0
  6
CONTINUOUS
 62
     7
  5
798
 10
0.462078
 20
1.902438
 30
0.0
 11
0.460434
 21
1.902488
 31
0.0
  0
LINE
  8
0
  6
CONTINUOUS
 62
     7
  5
799
 10
0.460434
 20
1.902488
 30
0.0
 11
0.458789
 21
1.902535
 31
0.0
  0
LINE
  8
0
  6
CONTINUOUS
 62
     7
  5
79A
 10
0.458789
 20
1.902535
 30
0.0
 11
0.457144
 21
1.902579
 31
0.0
  0
LINE
  8
0
  6
CONTINUOUS
 62
     7
  5
79B
 10
0.457144
 20
1.902579
 30
0.0
 11
0.455499
 21
1.902622
 31
0.0
  0
LINE
  8
0
  6
CONTINUOUS
 62
     7
  5
79C
 10
0.455499
 20
1.902622
 30
0.0
 11
0.453854
 21
1.902662
 31
0.0
  0
LINE
  8
0
  6
CONTINUOUS
 62
     7
  5
79D
 10
0.453854
 20
1.902662
 30
0.0
 11
0.452208
 21
1.9027
 31
0.0
  0
LINE
  8
0
  6
CONTINUOUS
 62
     7
  5
79E
 10
0.452208
 20
1.9027
 30
0.0
 11
0.450561
 21
1.902735
 31
0.0
  0
LINE
  8
0
  6
CONTINUOUS
 62
     7
  5
79F
 10
0.450561
 20
1.902735
 30
0.0
 11
0.448915
 21
1.902769
 31
0.0
  0
LINE
  8
0
  6
CONTINUOUS
 62
     7
  5
7A0
 10
0.448915
 20
1.902769
 30
0.0
 11
0.447268
 21
1.9028
 31
0.0
  0
LINE
  8
0
  6
CONTINUOUS
 62
     7
  5
7A1
 10
0.447268
 20
1.9028
 30
0.0
 11
0.445621
 21
1.902828
 31
0.0
  0
LINE
  8
0
  6
CONTINUOUS
 62
     7
  5
7A2
 10
0.445621
 20
1.902828
 30
0.0
 11
0.443974
 21
1.902855
 31
0.0
  0
LINE
  8
0
  6
CONTINUOUS
 62
     7
  5
7A3
 10
0.443974
 20
1.902855
 30
0.0
 11
0.442327
 21
1.902879
 31
0.0
  0
LINE
  8
0
  6
CONTINUOUS
 62
     7
  5
7A4
 10
0.442327
 20
1.902879
 30
0.0
 11
0.440679
 21
1.902901
 31
0.0
  0
LINE
  8
0
  6
CONTINUOUS
 62
     7
  5
7A5
 10
0.440679
 20
1.902901
 30
0.0
 11
0.439032
 21
1.90292
 31
0.0
  0
LINE
  8
0
  6
CONTINUOUS
 62
     7
  5
7A6
 10
0.439032
 20
1.90292
 30
0.0
 11
0.437384
 21
1.902937
 31
0.0
  0
LINE
  8
0
  6
CONTINUOUS
 62
     7
  5
7A7
 10
0.437384
 20
1.902937
 30
0.0
 11
0.435736
 21
1.902952
 31
0.0
  0
LINE
  8
0
  6
CONTINUOUS
 62
     7
  5
7A8
 10
0.435736
 20
1.902952
 30
0.0
 11
0.434088
 21
1.902965
 31
0.0
  0
LINE
  8
0
  6
CONTINUOUS
 62
     7
  5
7A9
 10
0.434088
 20
1.902965
 30
0.0
 11
0.43244
 21
1.902975
 31
0.0
  0
LINE
  8
0
  6
CONTINUOUS
 62
     7
  5
7AA
 10
0.43244
 20
1.902975
 30
0.0
 11
0.430792
 21
1.902983
 31
0.0
  0
LINE
  8
0
  6
CONTINUOUS
 62
     7
  5
7AB
 10
0.430792
 20
1.902983
 30
0.0
 11
0.429143
 21
1.902989
 31
0.0
  0
LINE
  8
0
  6
CONTINUOUS
 62
     7
  5
7AC
 10
0.429143
 20
1.902989
 30
0.0
 11
0.427495
 21
1.902993
 31
0.0
  0
LINE
  8
0
  6
CONTINUOUS
 62
     7
  5
7AD
 10
0.427495
 20
1.902993
 30
0.0
 11
0.425847
 21
1.902994
 31
0.0
  0
LINE
  8
0
  6
CONTINUOUS
 62
     7
  5
7AE
 10
1.884238
 20
1.832976
 30
0.0
 11
0.48341
 21
1.901589
 31
0.0
  0
LINE
  8
0
  6
CONTINUOUS
 62
     7
  5
7AF
 10
1.988588
 20
1.786004
 30
0.0
 11
1.988246
 21
1.788
 31
0.0
  0
LINE
  8
0
  6
CONTINUOUS
 62
     7
  5
7B0
 10
1.988246
 20
1.788
 30
0.0
 11
1.987714
 21
1.789988
 31
0.0
  0
LINE
  8
0
  6
CONTINUOUS
 62
     7
  5
7B1
 10
1.987714
 20
1.789988
 30
0.0
 11
1.986995
 21
1.791966
 31
0.0
  0
LINE
  8
0
  6
CONTINUOUS
 62
     7
  5
7B2
 10
1.986995
 20
1.791966
 30
0.0
 11
1.986088
 21
1.79393
 31
0.0
  0
LINE
  8
0
  6
CONTINUOUS
 62
     7
  5
7B3
 10
1.986088
 20
1.79393
 30
0.0
 11
1.984996
 21
1.795877
 31
0.0
  0
LINE
  8
0
  6
CONTINUOUS
 62
     7
  5
7B4
 10
1.984996
 20
1.795877
 30
0.0
 11
1.98372
 21
1.797803
 31
0.0
  0
LINE
  8
0
  6
CONTINUOUS
 62
     7
  5
7B5
 10
1.98372
 20
1.797803
 30
0.0
 11
1.982263
 21
1.799707
 31
0.0
  0
LINE
  8
0
  6
CONTINUOUS
 62
     7
  5
7B6
 10
1.982263
 20
1.799707
 30
0.0
 11
1.980626
 21
1.801585
 31
0.0
  0
LINE
  8
0
  6
CONTINUOUS
 62
     7
  5
7B7
 10
1.980626
 20
1.801585
 30
0.0
 11
1.978813
 21
1.803433
 31
0.0
  0
LINE
  8
0
  6
CONTINUOUS
 62
     7
  5
7B8
 10
1.978813
 20
1.803433
 30
0.0
 11
1.976825
 21
1.805249
 31
0.0
  0
LINE
  8
0
  6
CONTINUOUS
 62
     7
  5
7B9
 10
1.976825
 20
1.805249
 30
0.0
 11
1.974667
 21
1.80703
 31
0.0
  0
LINE
  8
0
  6
CONTINUOUS
 62
     7
  5
7BA
 10
1.974667
 20
1.80703
 30
0.0
 11
1.972342
 21
1.808773
 31
0.0
  0
LINE
  8
0
  6
CONTINUOUS
 62
     7
  5
7BB
 10
1.972342
 20
1.808773
 30
0.0
 11
1.969854
 21
1.810475
 31
0.0
  0
LINE
  8
0
  6
CONTINUOUS
 62
     7
  5
7BC
 10
1.969854
 20
1.810475
 30
0.0
 11
1.967206
 21
1.812133
 31
0.0
  0
LINE
  8
0
  6
CONTINUOUS
 62
     7
  5
7BD
 10
1.967206
 20
1.812133
 30
0.0
 11
1.964403
 21
1.813746
 31
0.0
  0
LINE
  8
0
  6
CONTINUOUS
 62
     7
  5
7BE
 10
1.964403
 20
1.813746
 30
0.0
 11
1.961449
 21
1.81531
 31
0.0
  0
LINE
  8
0
  6
CONTINUOUS
 62
     7
  5
7BF
 10
1.961449
 20
1.81531
 30
0.0
 11
1.958349
 21
1.816822
 31
0.0
  0
LINE
  8
0
  6
CONTINUOUS
 62
     7
  5
7C0
 10
1.958349
 20
1.816822
 30
0.0
 11
1.955109
 21
1.818281
 31
0.0
  0
LINE
  8
0
  6
CONTINUOUS
 62
     7
  5
7C1
 10
1.955109
 20
1.818281
 30
0.0
 11
1.951732
 21
1.819683
 31
0.0
  0
LINE
  8
0
  6
CONTINUOUS
 62
     7
  5
7C2
 10
1.951732
 20
1.819683
 30
0.0
 11
1.948226
 21
1.821028
 31
0.0
  0
LINE
  8
0
  6
CONTINUOUS
 62
     7
  5
7C3
 10
1.948226
 20
1.821028
 30
0.0
 11
1.944594
 21
1.822311
 31
0.0
  0
LINE
  8
0
  6
CONTINUOUS
 62
     7
  5
7C4
 10
1.944594
 20
1.822311
 30
0.0
 11
1.940844
 21
1.823533
 31
0.0
  0
LINE
  8
0
  6
CONTINUOUS
 62
     7
  5
7C5
 10
1.940844
 20
1.823533
 30
0.0
 11
1.936981
 21
1.82469
 31
0.0
  0
LINE
  8
0
  6
CONTINUOUS
 62
     7
  5
7C6
 10
1.936981
 20
1.82469
 30
0.0
 11
1.933012
 21
1.82578
 31
0.0
  0
LINE
  8
0
  6
CONTINUOUS
 62
     7
  5
7C7
 10
1.933012
 20
1.82578
 30
0.0
 11
1.928942
 21
1.826802
 31
0.0
  0
LINE
  8
0
  6
CONTINUOUS
 62
     7
  5
7C8
 10
1.928942
 20
1.826802
 30
0.0
 11
1.924779
 21
1.827755
 31
0.0
  0
LINE
  8
0
  6
CONTINUOUS
 62
     7
  5
7C9
 10
1.924779
 20
1.827755
 30
0.0
 11
1.920528
 21
1.828636
 31
0.0
  0
LINE
  8
0
  6
CONTINUOUS
 62
     7
  5
7CA
 10
1.920528
 20
1.828636
 30
0.0
 11
1.916198
 21
1.829445
 31
0.0
  0
LINE
  8
0
  6
CONTINUOUS
 62
     7
  5
7CB
 10
1.916198
 20
1.829445
 30
0.0
 11
1.911794
 21
1.830179
 31
0.0
  0
LINE
  8
0
  6
CONTINUOUS
 62
     7
  5
7CC
 10
1.911794
 20
1.830179
 30
0.0
 11
1.907324
 21
1.830839
 31
0.0
  0
LINE
  8
0
  6
CONTINUOUS
 62
     7
  5
7CD
 10
1.907324
 20
1.830839
 30
0.0
 11
1.902795
 21
1.831422
 31
0.0
  0
LINE
  8
0
  6
CONTINUOUS
 62
     7
  5
7CE
 10
1.902795
 20
1.831422
 30
0.0
 11
1.898215
 21
1.831928
 31
0.0
  0
LINE
  8
0
  6
CONTINUOUS
 62
     7
  5
7CF
 10
1.898215
 20
1.831928
 30
0.0
 11
1.89359
 21
1.832356
 31
0.0
  0
LINE
  8
0
  6
CONTINUOUS
 62
     7
  5
7D0
 10
1.89359
 20
1.832356
 30
0.0
 11
1.888929
 21
1.832706
 31
0.0
  0
LINE
  8
0
  6
CONTINUOUS
 62
     7
  5
7D1
 10
1.888929
 20
1.832706
 30
0.0
 11
1.884238
 21
1.832976
 31
0.0
  0
LINE
  8
0
  6
CONTINUOUS
 62
     7
  5
7D2
 10
2.066929
 20
1.154261
 30
0.0
 11
1.988588
 21
1.786004
 31
0.0
  0
LINE
  8
0
  6
CONTINUOUS
 62
     7
  5
7D3
 10
2.066929
 20
0.303303
 30
0.0
 11
-2.066929
 21
0.303303
 31
0.0
  0
LINE
  8
0
  6
CONTINUOUS
 62
     7
  5
7D4
 10
1.988588
 20
1.108058
 30
0.0
 11
2.066929
 21
0.476314
 31
0.0
  0
LINE
  8
0
  6
CONTINUOUS
 62
     7
  5
7D5
 10
1.884238
 20
1.155029
 30
0.0
 11
1.888929
 21
1.154759
 31
0.0
  0
LINE
  8
0
  6
CONTINUOUS
 62
     7
  5
7D6
 10
1.888929
 20
1.154759
 30
0.0
 11
1.89359
 21
1.154409
 31
0.0
  0
LINE
  8
0
  6
CONTINUOUS
 62
     7
  5
7D7
 10
1.89359
 20
1.154409
 30
0.0
 11
1.898215
 21
1.153981
 31
0.0
  0
LINE
  8
0
  6
CONTINUOUS
 62
     7
  5
7D8
 10
1.898215
 20
1.153981
 30
0.0
 11
1.902795
 21
1.153475
 31
0.0
  0
LINE
  8
0
  6
CONTINUOUS
 62
     7
  5
7D9
 10
1.902795
 20
1.153475
 30
0.0
 11
1.907324
 21
1.152892
 31
0.0
  0
LINE
  8
0
  6
CONTINUOUS
 62
     7
  5
7DA
 10
1.907324
 20
1.152892
 30
0.0
 11
1.911794
 21
1.152233
 31
0.0
  0
LINE
  8
0
  6
CONTINUOUS
 62
     7
  5
7DB
 10
1.911794
 20
1.152233
 30
0.0
 11
1.916198
 21
1.151498
 31
0.0
  0
LINE
  8
0
  6
CONTINUOUS
 62
     7
  5
7DC
 10
1.916198
 20
1.151498
 30
0.0
 11
1.920528
 21
1.150689
 31
0.0
  0
LINE
  8
0
  6
CONTINUOUS
 62
     7
  5
7DD
 10
1.920528
 20
1.150689
 30
0.0
 11
1.924779
 21
1.149808
 31
0.0
  0
LINE
  8
0
  6
CONTINUOUS
 62
     7
  5
7DE
 10
1.924779
 20
1.149808
 30
0.0
 11
1.928942
 21
1.148856
 31
0.0
  0
LINE
  8
0
  6
CONTINUOUS
 62
     7
  5
7DF
 10
1.928942
 20
1.148856
 30
0.0
 11
1.933012
 21
1.147833
 31
0.0
  0
LINE
  8
0
  6
CONTINUOUS
 62
     7
  5
7E0
 10
1.933012
 20
1.147833
 30
0.0
 11
1.936981
 21
1.146743
 31
0.0
  0
LINE
  8
0
  6
CONTINUOUS
 62
     7
  5
7E1
 10
1.936981
 20
1.146743
 30
0.0
 11
1.940844
 21
1.145586
 31
0.0
  0
LINE
  8
0
  6
CONTINUOUS
 62
     7
  5
7E2
 10
1.940844
 20
1.145586
 30
0.0
 11
1.944594
 21
1.144365
 31
0.0
  0
LINE
  8
0
  6
CONTINUOUS
 62
     7
  5
7E3
 10
1.944594
 20
1.144365
 30
0.0
 11
1.948226
 21
1.143081
 31
0.0
  0
LINE
  8
0
  6
CONTINUOUS
 62
     7
  5
7E4
 10
1.948226
 20
1.143081
 30
0.0
 11
1.951732
 21
1.141736
 31
0.0
  0
LINE
  8
0
  6
CONTINUOUS
 62
     7
  5
7E5
 10
1.951732
 20
1.141736
 30
0.0
 11
1.955109
 21
1.140334
 31
0.0
  0
LINE
  8
0
  6
CONTINUOUS
 62
     7
  5
7E6
 10
1.955109
 20
1.140334
 30
0.0
 11
1.958349
 21
1.138875
 31
0.0
  0
LINE
  8
0
  6
CONTINUOUS
 62
     7
  5
7E7
 10
1.958349
 20
1.138875
 30
0.0
 11
1.961449
 21
1.137363
 31
0.0
  0
LINE
  8
0
  6
CONTINUOUS
 62
     7
  5
7E8
 10
1.961449
 20
1.137363
 30
0.0
 11
1.964403
 21
1.135799
 31
0.0
  0
LINE
  8
0
  6
CONTINUOUS
 62
     7
  5
7E9
 10
1.964403
 20
1.135799
 30
0.0
 11
1.967206
 21
1.134187
 31
0.0
  0
LINE
  8
0
  6
CONTINUOUS
 62
     7
  5
7EA
 10
1.967206
 20
1.134187
 30
0.0
 11
1.969854
 21
1.132528
 31
0.0
  0
LINE
  8
0
  6
CONTINUOUS
 62
     7
  5
7EB
 10
1.969854
 20
1.132528
 30
0.0
 11
1.972342
 21
1.130826
 31
0.0
  0
LINE
  8
0
  6
CONTINUOUS
 62
     7
  5
7EC
 10
1.972342
 20
1.130826
 30
0.0
 11
1.974667
 21
1.129083
 31
0.0
  0
LINE
  8
0
  6
CONTINUOUS
 62
     7
  5
7ED
 10
1.974667
 20
1.129083
 30
0.0
 11
1.976825
 21
1.127302
 31
0.0
  0
LINE
  8
0
  6
CONTINUOUS
 62
     7
  5
7EE
 10
1.976825
 20
1.127302
 30
0.0
 11
1.978813
 21
1.125486
 31
0.0
  0
LINE
  8
0
  6
CONTINUOUS
 62
     7
  5
7EF
 10
1.978813
 20
1.125486
 30
0.0
 11
1.980626
 21
1.123638
 31
0.0
  0
LINE
  8
0
  6
CONTINUOUS
 62
     7
  5
7F0
 10
1.980626
 20
1.123638
 30
0.0
 11
1.982263
 21
1.12176
 31
0.0
  0
LINE
  8
0
  6
CONTINUOUS
 62
     7
  5
7F1
 10
1.982263
 20
1.12176
 30
0.0
 11
1.98372
 21
1.119857
 31
0.0
  0
LINE
  8
0
  6
CONTINUOUS
 62
     7
  5
7F2
 10
1.98372
 20
1.119857
 30
0.0
 11
1.984996
 21
1.11793
 31
0.0
  0
LINE
  8
0
  6
CONTINUOUS
 62
     7
  5
7F3
 10
1.984996
 20
1.11793
 30
0.0
 11
1.986088
 21
1.115983
 31
0.0
  0
LINE
  8
0
  6
CONTINUOUS
 62
     7
  5
7F4
 10
1.986088
 20
1.115983
 30
0.0
 11
1.986995
 21
1.114019
 31
0.0
  0
LINE
  8
0
  6
CONTINUOUS
 62
     7
  5
7F5
 10
1.986995
 20
1.114019
 30
0.0
 11
1.987714
 21
1.112041
 31
0.0
  0
LINE
  8
0
  6
CONTINUOUS
 62
     7
  5
7F6
 10
1.987714
 20
1.112041
 30
0.0
 11
1.988246
 21
1.110053
 31
0.0
  0
LINE
  8
0
  6
CONTINUOUS
 62
     7
  5
7F7
 10
1.988246
 20
1.110053
 30
0.0
 11
1.988588
 21
1.108058
 31
0.0
  0
LINE
  8
0
  6
CONTINUOUS
 62
     7
  5
7F8
 10
0.48341
 20
1.223642
 30
0.0
 11
1.884238
 21
1.155029
 31
0.0
  0
LINE
  8
0
  6
CONTINUOUS
 62
     7
  5
7F9
 10
0.425847
 20
1.225047
 30
0.0
 11
0.427495
 21
1.225046
 31
0.0
  0
LINE
  8
0
  6
CONTINUOUS
 62
     7
  5
7FA
 10
0.427495
 20
1.225046
 30
0.0
 11
0.429143
 21
1.225042
 31
0.0
  0
LINE
  8
0
  6
CONTINUOUS
 62
     7
  5
7FB
 10
0.429143
 20
1.225042
 30
0.0
 11
0.430792
 21
1.225037
 31
0.0
  0
LINE
  8
0
  6
CONTINUOUS
 62
     7
  5
7FC
 10
0.430792
 20
1.225037
 30
0.0
 11
0.43244
 21
1.225029
 31
0.0
  0
LINE
  8
0
  6
CONTINUOUS
 62
     7
  5
7FD
 10
0.43244
 20
1.225029
 30
0.0
 11
0.434088
 21
1.225018
 31
0.0
  0
LINE
  8
0
  6
CONTINUOUS
 62
     7
  5
7FE
 10
0.434088
 20
1.225018
 30
0.0
 11
0.435736
 21
1.225006
 31
0.0
  0
LINE
  8
0
  6
CONTINUOUS
 62
     7
  5
7FF
 10
0.435736
 20
1.225006
 30
0.0
 11
0.437384
 21
1.224991
 31
0.0
  0
LINE
  8
0
  6
CONTINUOUS
 62
     7
  5
800
 10
0.437384
 20
1.224991
 30
0.0
 11
0.439032
 21
1.224973
 31
0.0
  0
LINE
  8
0
  6
CONTINUOUS
 62
     7
  5
801
 10
0.439032
 20
1.224973
 30
0.0
 11
0.440679
 21
1.224954
 31
0.0
  0
LINE
  8
0
  6
CONTINUOUS
 62
     7
  5
802
 10
0.440679
 20
1.224954
 30
0.0
 11
0.442327
 21
1.224932
 31
0.0
  0
LINE
  8
0
  6
CONTINUOUS
 62
     7
  5
803
 10
0.442327
 20
1.224932
 30
0.0
 11
0.443974
 21
1.224908
 31
0.0
  0
LINE
  8
0
  6
CONTINUOUS
 62
     7
  5
804
 10
0.443974
 20
1.224908
 30
0.0
 11
0.445621
 21
1.224882
 31
0.0
  0
LINE
  8
0
  6
CONTINUOUS
 62
     7
  5
805
 10
0.445621
 20
1.224882
 30
0.0
 11
0.447268
 21
1.224853
 31
0.0
  0
LINE
  8
0
  6
CONTINUOUS
 62
     7
  5
806
 10
0.447268
 20
1.224853
 30
0.0
 11
0.448915
 21
1.224822
 31
0.0
  0
LINE
  8
0
  6
CONTINUOUS
 62
     7
  5
807
 10
0.448915
 20
1.224822
 30
0.0
 11
0.450561
 21
1.224789
 31
0.0
  0
LINE
  8
0
  6
CONTINUOUS
 62
     7
  5
808
 10
0.450561
 20
1.224789
 30
0.0
 11
0.452208
 21
1.224753
 31
0.0
  0
LINE
  8
0
  6
CONTINUOUS
 62
     7
  5
809
 10
0.452208
 20
1.224753
 30
0.0
 11
0.453854
 21
1.224715
 31
0.0
  0
LINE
  8
0
  6
CONTINUOUS
 62
     7
  5
80A
 10
0.453854
 20
1.224715
 30
0.0
 11
0.455499
 21
1.224675
 31
0.0
  0
LINE
  8
0
  6
CONTINUOUS
 62
     7
  5
80B
 10
0.455499
 20
1.224675
 30
0.0
 11
0.457144
 21
1.224633
 31
0.0
  0
LINE
  8
0
  6
CONTINUOUS
 62
     7
  5
80C
 10
0.457144
 20
1.224633
 30
0.0
 11
0.458789
 21
1.224588
 31
0.0
  0
LINE
  8
0
  6
CONTINUOUS
 62
     7
  5
80D
 10
0.458789
 20
1.224588
 30
0.0
 11
0.460434
 21
1.224541
 31
0.0
  0
LINE
  8
0
  6
CONTINUOUS
 62
     7
  5
80E
 10
0.460434
 20
1.224541
 30
0.0
 11
0.462078
 21
1.224491
 31
0.0
  0
LINE
  8
0
  6
CONTINUOUS
 62
     7
  5
80F
 10
0.462078
 20
1.224491
 30
0.0
 11
0.463722
 21
1.22444
 31
0.0
  0
LINE
  8
0
  6
CONTINUOUS
 62
     7
  5
810
 10
0.463722
 20
1.22444
 30
0.0
 11
0.465365
 21
1.224386
 31
0.0
  0
LINE
  8
0
  6
CONTINUOUS
 62
     7
  5
811
 10
0.465365
 20
1.224386
 30
0.0
 11
0.467008
 21
1.22433
 31
0.0
  0
LINE
  8
0
  6
CONTINUOUS
 62
     7
  5
812
 10
0.467008
 20
1.22433
 30
0.0
 11
0.468651
 21
1.224271
 31
0.0
  0
LINE
  8
0
  6
CONTINUOUS
 62
     7
  5
813
 10
0.468651
 20
1.224271
 30
0.0
 11
0.470293
 21
1.22421
 31
0.0
  0
LINE
  8
0
  6
CONTINUOUS
 62
     7
  5
814
 10
0.470293
 20
1.22421
 30
0.0
 11
0.471934
 21
1.224147
 31
0.0
  0
LINE
  8
0
  6
CONTINUOUS
 62
     7
  5
815
 10
0.471934
 20
1.224147
 30
0.0
 11
0.473575
 21
1.224082
 31
0.0
  0
LINE
  8
0
  6
CONTINUOUS
 62
     7
  5
816
 10
0.473575
 20
1.224082
 30
0.0
 11
0.475216
 21
1.224014
 31
0.0
  0
LINE
  8
0
  6
CONTINUOUS
 62
     7
  5
817
 10
0.475216
 20
1.224014
 30
0.0
 11
0.476856
 21
1.223944
 31
0.0
  0
LINE
  8
0
  6
CONTINUOUS
 62
     7
  5
818
 10
0.476856
 20
1.223944
 30
0.0
 11
0.478495
 21
1.223872
 31
0.0
  0
LINE
  8
0
  6
CONTINUOUS
 62
     7
  5
819
 10
0.478495
 20
1.223872
 30
0.0
 11
0.480134
 21
1.223798
 31
0.0
  0
LINE
  8
0
  6
CONTINUOUS
 62
     7
  5
81A
 10
0.480134
 20
1.223798
 30
0.0
 11
0.481772
 21
1.223721
 31
0.0
  0
LINE
  8
0
  6
CONTINUOUS
 62
     7
  5
81B
 10
0.481772
 20
1.223721
 30
0.0
 11
0.48341
 21
1.223642
 31
0.0
  0
LINE
  8
0
  6
CONTINUOUS
 62
     7
  5
81C
 10
0.407723
 20
1.225047
 30
0.0
 11
0.425847
 21
1.225047
 31
0.0
  0
LINE
  8
0
  6
CONTINUOUS
 62
     7
  5
81D
 10
-0.492126
 20
1.108577
 30
0.0
 11
-0.492055
 21
1.112109
 31
0.0
  0
LINE
  8
0
  6
CONTINUOUS
 62
     7
  5
81E
 10
-0.492055
 20
1.112109
 30
0.0
 11
-0.491842
 21
1.11564
 31
0.0
  0
LINE
  8
0
  6
CONTINUOUS
 62
     7
  5
81F
 10
-0.491842
 20
1.11564
 30
0.0
 11
-0.491487
 21
1.119169
 31
0.0
  0
LINE
  8
0
  6
CONTINUOUS
 62
     7
  5
820
 10
-0.491487
 20
1.119169
 30
0.0
 11
-0.490991
 21
1.122695
 31
0.0
  0
LINE
  8
0
  6
CONTINUOUS
 62
     7
  5
821
 10
-0.490991
 20
1.122695
 30
0.0
 11
-0.490353
 21
1.126216
 31
0.0
  0
LINE
  8
0
  6
CONTINUOUS
 62
     7
  5
822
 10
-0.490353
 20
1.126216
 30
0.0
 11
-0.489573
 21
1.129733
 31
0.0
  0
LINE
  8
0
  6
CONTINUOUS
 62
     7
  5
823
 10
-0.489573
 20
1.129733
 30
0.0
 11
-0.488653
 21
1.133243
 31
0.0
  0
LINE
  8
0
  6
CONTINUOUS
 62
     7
  5
824
 10
-0.488653
 20
1.133243
 30
0.0
 11
-0.487591
 21
1.136747
 31
0.0
  0
LINE
  8
0
  6
CONTINUOUS
 62
     7
  5
825
 10
-0.487591
 20
1.136747
 30
0.0
 11
-0.486389
 21
1.140242
 31
0.0
  0
LINE
  8
0
  6
CONTINUOUS
 62
     7
  5
826
 10
-0.486389
 20
1.140242
 30
0.0
 11
-0.485046
 21
1.143728
 31
0.0
  0
LINE
  8
0
  6
CONTINUOUS
 62
     7
  5
827
 10
-0.485046
 20
1.143728
 30
0.0
 11
-0.483564
 21
1.147204
 31
0.0
  0
LINE
  8
0
  6
CONTINUOUS
 62
     7
  5
828
 10
-0.483564
 20
1.147204
 30
0.0
 11
-0.481942
 21
1.150669
 31
0.0
  0
LINE
  8
0
  6
CONTINUOUS
 62
     7
  5
829
 10
-0.481942
 20
1.150669
 30
0.0
 11
-0.480181
 21
1.154122
 31
0.0
  0
LINE
  8
0
  6
CONTINUOUS
 62
     7
  5
82A
 10
-0.480181
 20
1.154122
 30
0.0
 11
-0.478282
 21
1.157561
 31
0.0
  0
LINE
  8
0
  6
CONTINUOUS
 62
     7
  5
82B
 10
-0.478282
 20
1.157561
 30
0.0
 11
-0.476245
 21
1.160987
 31
0.0
  0
LINE
  8
0
  6
CONTINUOUS
 62
     7
  5
82C
 10
-0.476245
 20
1.160987
 30
0.0
 11
-0.47407
 21
1.164397
 31
0.0
  0
LINE
  8
0
  6
CONTINUOUS
 62
     7
  5
82D
 10
-0.47407
 20
1.164397
 30
0.0
 11
-0.471759
 21
1.167791
 31
0.0
  0
LINE
  8
0
  6
CONTINUOUS
 62
     7
  5
82E
 10
-0.471759
 20
1.167791
 30
0.0
 11
-0.469312
 21
1.171168
 31
0.0
  0
LINE
  8
0
  6
CONTINUOUS
 62
     7
  5
82F
 10
-0.469312
 20
1.171168
 30
0.0
 11
-0.466729
 21
1.174528
 31
0.0
  0
LINE
  8
0
  6
CONTINUOUS
 62
     7
  5
830
 10
-0.466729
 20
1.174528
 30
0.0
 11
-0.464012
 21
1.177868
 31
0.0
  0
LINE
  8
0
  6
CONTINUOUS
 62
     7
  5
831
 10
-0.464012
 20
1.177868
 30
0.0
 11
-0.461161
 21
1.181188
 31
0.0
  0
LINE
  8
0
  6
CONTINUOUS
 62
     7
  5
832
 10
-0.461161
 20
1.181188
 30
0.0
 11
-0.458176
 21
1.184487
 31
0.0
  0
LINE
  8
0
  6
CONTINUOUS
 62
     7
  5
833
 10
-0.458176
 20
1.184487
 30
0.0
 11
-0.45506
 21
1.187764
 31
0.0
  0
LINE
  8
0
  6
CONTINUOUS
 62
     7
  5
834
 10
-0.45506
 20
1.187764
 30
0.0
 11
-0.451813
 21
1.191019
 31
0.0
  0
LINE
  8
0
  6
CONTINUOUS
 62
     7
  5
835
 10
-0.451813
 20
1.191019
 30
0.0
 11
-0.448435
 21
1.194249
 31
0.0
  0
LINE
  8
0
  6
CONTINUOUS
 62
     7
  5
836
 10
-0.448435
 20
1.194249
 30
0.0
 11
-0.444928
 21
1.197455
 31
0.0
  0
LINE
  8
0
  6
CONTINUOUS
 62
     7
  5
837
 10
-0.444928
 20
1.197455
 30
0.0
 11
-0.441292
 21
1.200636
 31
0.0
  0
LINE
  8
0
  6
CONTINUOUS
 62
     7
  5
838
 10
-0.441292
 20
1.200636
 30
0.0
 11
-0.43753
 21
1.203789
 31
0.0
  0
LINE
  8
0
  6
CONTINUOUS
 62
     7
  5
839
 10
-0.43753
 20
1.203789
 30
0.0
 11
-0.433641
 21
1.206916
 31
0.0
  0
LINE
  8
0
  6
CONTINUOUS
 62
     7
  5
83A
 10
-0.433641
 20
1.206916
 30
0.0
 11
-0.429627
 21
1.210014
 31
0.0
  0
LINE
  8
0
  6
CONTINUOUS
 62
     7
  5
83B
 10
-0.429627
 20
1.210014
 30
0.0
 11
-0.425489
 21
1.213082
 31
0.0
  0
LINE
  8
0
  6
CONTINUOUS
 62
     7
  5
83C
 10
-0.425489
 20
1.213082
 30
0.0
 11
-0.421228
 21
1.216121
 31
0.0
  0
LINE
  8
0
  6
CONTINUOUS
 62
     7
  5
83D
 10
-0.421228
 20
1.216121
 30
0.0
 11
-0.416846
 21
1.219128
 31
0.0
  0
LINE
  8
0
  6
CONTINUOUS
 62
     7
  5
83E
 10
-0.416846
 20
1.219128
 30
0.0
 11
-0.412344
 21
1.222104
 31
0.0
  0
LINE
  8
0
  6
CONTINUOUS
 62
     7
  5
83F
 10
-0.412344
 20
1.222104
 30
0.0
 11
-0.407723
 21
1.225047
 31
0.0
  0
LINE
  8
0
  6
CONTINUOUS
 62
     7
  5
840
 10
0.407723
 20
1.225047
 30
0.0
 11
0.412344
 21
1.222104
 31
0.0
  0
LINE
  8
0
  6
CONTINUOUS
 62
     7
  5
841
 10
0.412344
 20
1.222104
 30
0.0
 11
0.416846
 21
1.219128
 31
0.0
  0
LINE
  8
0
  6
CONTINUOUS
 62
     7
  5
842
 10
0.416846
 20
1.219128
 30
0.0
 11
0.421228
 21
1.216121
 31
0.0
  0
LINE
  8
0
  6
CONTINUOUS
 62
     7
  5
843
 10
0.421228
 20
1.216121
 30
0.0
 11
0.425489
 21
1.213082
 31
0.0
  0
LINE
  8
0
  6
CONTINUOUS
 62
     7
  5
844
 10
0.425489
 20
1.213082
 30
0.0
 11
0.429627
 21
1.210014
 31
0.0
  0
LINE
  8
0
  6
CONTINUOUS
 62
     7
  5
845
 10
0.429627
 20
1.210014
 30
0.0
 11
0.433641
 21
1.206916
 31
0.0
  0
LINE
  8
0
  6
CONTINUOUS
 62
     7
  5
846
 10
0.433641
 20
1.206916
 30
0.0
 11
0.43753
 21
1.203789
 31
0.0
  0
LINE
  8
0
  6
CONTINUOUS
 62
     7
  5
847
 10
0.43753
 20
1.203789
 30
0.0
 11
0.441292
 21
1.200636
 31
0.0
  0
LINE
  8
0
  6
CONTINUOUS
 62
     7
  5
848
 10
0.441292
 20
1.200636
 30
0.0
 11
0.444928
 21
1.197455
 31
0.0
  0
LINE
  8
0
  6
CONTINUOUS
 62
     7
  5
849
 10
0.444928
 20
1.197455
 30
0.0
 11
0.448435
 21
1.194249
 31
0.0
  0
LINE
  8
0
  6
CONTINUOUS
 62
     7
  5
84A
 10
0.448435
 20
1.194249
 30
0.0
 11
0.451813
 21
1.191019
 31
0.0
  0
LINE
  8
0
  6
CONTINUOUS
 62
     7
  5
84B
 10
0.451813
 20
1.191019
 30
0.0
 11
0.45506
 21
1.187764
 31
0.0
  0
LINE
  8
0
  6
CONTINUOUS
 62
     7
  5
84C
 10
0.45506
 20
1.187764
 30
0.0
 11
0.458176
 21
1.184487
 31
0.0
  0
LINE
  8
0
  6
CONTINUOUS
 62
     7
  5
84D
 10
0.458176
 20
1.184487
 30
0.0
 11
0.461161
 21
1.181188
 31
0.0
  0
LINE
  8
0
  6
CONTINUOUS
 62
     7
  5
84E
 10
0.461161
 20
1.181188
 30
0.0
 11
0.464012
 21
1.177868
 31
0.0
  0
LINE
  8
0
  6
CONTINUOUS
 62
     7
  5
84F
 10
0.464012
 20
1.177868
 30
0.0
 11
0.466729
 21
1.174528
 31
0.0
  0
LINE
  8
0
  6
CONTINUOUS
 62
     7
  5
850
 10
0.466729
 20
1.174528
 30
0.0
 11
0.469312
 21
1.171168
 31
0.0
  0
LINE
  8
0
  6
CONTINUOUS
 62
     7
  5
851
 10
0.469312
 20
1.171168
 30
0.0
 11
0.471759
 21
1.167791
 31
0.0
  0
LINE
  8
0
  6
CONTINUOUS
 62
     7
  5
852
 10
0.471759
 20
1.167791
 30
0.0
 11
0.47407
 21
1.164397
 31
0.0
  0
LINE
  8
0
  6
CONTINUOUS
 62
     7
  5
853
 10
0.47407
 20
1.164397
 30
0.0
 11
0.476245
 21
1.160987
 31
0.0
  0
LINE
  8
0
  6
CONTINUOUS
 62
     7
  5
854
 10
0.476245
 20
1.160987
 30
0.0
 11
0.478282
 21
1.157561
 31
0.0
  0
LINE
  8
0
  6
CONTINUOUS
 62
     7
  5
855
 10
0.478282
 20
1.157561
 30
0.0
 11
0.480181
 21
1.154122
 31
0.0
  0
LINE
  8
0
  6
CONTINUOUS
 62
     7
  5
856
 10
0.480181
 20
1.154122
 30
0.0
 11
0.481942
 21
1.150669
 31
0.0
  0
LINE
  8
0
  6
CONTINUOUS
 62
     7
  5
857
 10
0.481942
 20
1.150669
 30
0.0
 11
0.483564
 21
1.147204
 31
0.0
  0
LINE
  8
0
  6
CONTINUOUS
 62
     7
  5
858
 10
0.483564
 20
1.147204
 30
0.0
 11
0.485046
 21
1.143728
 31
0.0
  0
LINE
  8
0
  6
CONTINUOUS
 62
     7
  5
859
 10
0.485046
 20
1.143728
 30
0.0
 11
0.486389
 21
1.140242
 31
0.0
  0
LINE
  8
0
  6
CONTINUOUS
 62
     7
  5
85A
 10
0.486389
 20
1.140242
 30
0.0
 11
0.487591
 21
1.136747
 31
0.0
  0
LINE
  8
0
  6
CONTINUOUS
 62
     7
  5
85B
 10
0.487591
 20
1.136747
 30
0.0
 11
0.488653
 21
1.133243
 31
0.0
  0
LINE
  8
0
  6
CONTINUOUS
 62
     7
  5
85C
 10
0.488653
 20
1.133243
 30
0.0
 11
0.489573
 21
1.129733
 31
0.0
  0
LINE
  8
0
  6
CONTINUOUS
 62
     7
  5
85D
 10
0.489573
 20
1.129733
 30
0.0
 11
0.490353
 21
1.126216
 31
0.0
  0
LINE
  8
0
  6
CONTINUOUS
 62
     7
  5
85E
 10
0.490353
 20
1.126216
 30
0.0
 11
0.490991
 21
1.122695
 31
0.0
  0
LINE
  8
0
  6
CONTINUOUS
 62
     7
  5
85F
 10
0.490991
 20
1.122695
 30
0.0
 11
0.491487
 21
1.119169
 31
0.0
  0
LINE
  8
0
  6
CONTINUOUS
 62
     7
  5
860
 10
0.491487
 20
1.119169
 30
0.0
 11
0.491842
 21
1.11564
 31
0.0
  0
LINE
  8
0
  6
CONTINUOUS
 62
     7
  5
861
 10
0.491842
 20
1.11564
 30
0.0
 11
0.492055
 21
1.112109
 31
0.0
  0
LINE
  8
0
  6
CONTINUOUS
 62
     7
  5
862
 10
0.492055
 20
1.112109
 30
0.0
 11
0.492126
 21
1.108577
 31
0.0
  0
LINE
  8
0
  6
CONTINUOUS
 62
     7
  5
863
 10
-0.425847
 20
1.225047
 30
0.0
 11
-0.407723
 21
1.225047
 31
0.0
  0
LINE
  8
0
  6
CONTINUOUS
 62
     7
  5
864
 10
-0.48341
 20
1.223642
 30
0.0
 11
-0.481772
 21
1.223721
 31
0.0
  0
LINE
  8
0
  6
CONTINUOUS
 62
     7
  5
865
 10
-0.481772
 20
1.223721
 30
0.0
 11
-0.480134
 21
1.223798
 31
0.0
  0
LINE
  8
0
  6
CONTINUOUS
 62
     7
  5
866
 10
-0.480134
 20
1.223798
 30
0.0
 11
-0.478495
 21
1.223872
 31
0.0
  0
LINE
  8
0
  6
CONTINUOUS
 62
     7
  5
867
 10
-0.478495
 20
1.223872
 30
0.0
 11
-0.476856
 21
1.223944
 31
0.0
  0
LINE
  8
0
  6
CONTINUOUS
 62
     7
  5
868
 10
-0.476856
 20
1.223944
 30
0.0
 11
-0.475216
 21
1.224014
 31
0.0
  0
LINE
  8
0
  6
CONTINUOUS
 62
     7
  5
869
 10
-0.475216
 20
1.224014
 30
0.0
 11
-0.473575
 21
1.224082
 31
0.0
  0
LINE
  8
0
  6
CONTINUOUS
 62
     7
  5
86A
 10
-0.473575
 20
1.224082
 30
0.0
 11
-0.471934
 21
1.224147
 31
0.0
  0
LINE
  8
0
  6
CONTINUOUS
 62
     7
  5
86B
 10
-0.471934
 20
1.224147
 30
0.0
 11
-0.470293
 21
1.22421
 31
0.0
  0
LINE
  8
0
  6
CONTINUOUS
 62
     7
  5
86C
 10
-0.470293
 20
1.22421
 30
0.0
 11
-0.468651
 21
1.224271
 31
0.0
  0
LINE
  8
0
  6
CONTINUOUS
 62
     7
  5
86D
 10
-0.468651
 20
1.224271
 30
0.0
 11
-0.467008
 21
1.22433
 31
0.0
  0
LINE
  8
0
  6
CONTINUOUS
 62
     7
  5
86E
 10
-0.467008
 20
1.22433
 30
0.0
 11
-0.465365
 21
1.224386
 31
0.0
  0
LINE
  8
0
  6
CONTINUOUS
 62
     7
  5
86F
 10
-0.465365
 20
1.224386
 30
0.0
 11
-0.463722
 21
1.22444
 31
0.0
  0
LINE
  8
0
  6
CONTINUOUS
 62
     7
  5
870
 10
-0.463722
 20
1.22444
 30
0.0
 11
-0.462078
 21
1.224491
 31
0.0
  0
LINE
  8
0
  6
CONTINUOUS
 62
     7
  5
871
 10
-0.462078
 20
1.224491
 30
0.0
 11
-0.460434
 21
1.224541
 31
0.0
  0
LINE
  8
0
  6
CONTINUOUS
 62
     7
  5
872
 10
-0.460434
 20
1.224541
 30
0.0
 11
-0.458789
 21
1.224588
 31
0.0
  0
LINE
  8
0
  6
CONTINUOUS
 62
     7
  5
873
 10
-0.458789
 20
1.224588
 30
0.0
 11
-0.457144
 21
1.224633
 31
0.0
  0
LINE
  8
0
  6
CONTINUOUS
 62
     7
  5
874
 10
-0.457144
 20
1.224633
 30
0.0
 11
-0.455499
 21
1.224675
 31
0.0
  0
LINE
  8
0
  6
CONTINUOUS
 62
     7
  5
875
 10
-0.455499
 20
1.224675
 30
0.0
 11
-0.453854
 21
1.224715
 31
0.0
  0
LINE
  8
0
  6
CONTINUOUS
 62
     7
  5
876
 10
-0.453854
 20
1.224715
 30
0.0
 11
-0.452208
 21
1.224753
 31
0.0
  0
LINE
  8
0
  6
CONTINUOUS
 62
     7
  5
877
 10
-0.452208
 20
1.224753
 30
0.0
 11
-0.450561
 21
1.224789
 31
0.0
  0
LINE
  8
0
  6
CONTINUOUS
 62
     7
  5
878
 10
-0.450561
 20
1.224789
 30
0.0
 11
-0.448915
 21
1.224822
 31
0.0
  0
LINE
  8
0
  6
CONTINUOUS
 62
     7
  5
879
 10
-0.448915
 20
1.224822
 30
0.0
 11
-0.447268
 21
1.224853
 31
0.0
  0
LINE
  8
0
  6
CONTINUOUS
 62
     7
  5
87A
 10
-0.447268
 20
1.224853
 30
0.0
 11
-0.445621
 21
1.224882
 31
0.0
  0
LINE
  8
0
  6
CONTINUOUS
 62
     7
  5
87B
 10
-0.445621
 20
1.224882
 30
0.0
 11
-0.443974
 21
1.224908
 31
0.0
  0
LINE
  8
0
  6
CONTINUOUS
 62
     7
  5
87C
 10
-0.443974
 20
1.224908
 30
0.0
 11
-0.442327
 21
1.224932
 31
0.0
  0
LINE
  8
0
  6
CONTINUOUS
 62
     7
  5
87D
 10
-0.442327
 20
1.224932
 30
0.0
 11
-0.440679
 21
1.224954
 31
0.0
  0
LINE
  8
0
  6
CONTINUOUS
 62
     7
  5
87E
 10
-0.440679
 20
1.224954
 30
0.0
 11
-0.439032
 21
1.224973
 31
0.0
  0
LINE
  8
0
  6
CONTINUOUS
 62
     7
  5
87F
 10
-0.439032
 20
1.224973
 30
0.0
 11
-0.437384
 21
1.224991
 31
0.0
  0
LINE
  8
0
  6
CONTINUOUS
 62
     7
  5
880
 10
-0.437384
 20
1.224991
 30
0.0
 11
-0.435736
 21
1.225006
 31
0.0
  0
LINE
  8
0
  6
CONTINUOUS
 62
     7
  5
881
 10
-0.435736
 20
1.225006
 30
0.0
 11
-0.434088
 21
1.225018
 31
0.0
  0
LINE
  8
0
  6
CONTINUOUS
 62
     7
  5
882
 10
-0.434088
 20
1.225018
 30
0.0
 11
-0.43244
 21
1.225029
 31
0.0
  0
LINE
  8
0
  6
CONTINUOUS
 62
     7
  5
883
 10
-0.43244
 20
1.225029
 30
0.0
 11
-0.430792
 21
1.225037
 31
0.0
  0
LINE
  8
0
  6
CONTINUOUS
 62
     7
  5
884
 10
-0.430792
 20
1.225037
 30
0.0
 11
-0.429143
 21
1.225042
 31
0.0
  0
LINE
  8
0
  6
CONTINUOUS
 62
     7
  5
885
 10
-0.429143
 20
1.225042
 30
0.0
 11
-0.427495
 21
1.225046
 31
0.0
  0
LINE
  8
0
  6
CONTINUOUS
 62
     7
  5
886
 10
-0.427495
 20
1.225046
 30
0.0
 11
-0.425847
 21
1.225047
 31
0.0
  0
LINE
  8
0
  6
CONTINUOUS
 62
     7
  5
887
 10
-1.884238
 20
1.155029
 30
0.0
 11
-0.48341
 21
1.223642
 31
0.0
  0
LINE
  8
0
  6
CONTINUOUS
 62
     7
  5
888
 10
-1.988588
 20
1.108058
 30
0.0
 11
-1.988246
 21
1.110053
 31
0.0
  0
LINE
  8
0
  6
CONTINUOUS
 62
     7
  5
889
 10
-1.988246
 20
1.110053
 30
0.0
 11
-1.987714
 21
1.112041
 31
0.0
  0
LINE
  8
0
  6
CONTINUOUS
 62
     7
  5
88A
 10
-1.987714
 20
1.112041
 30
0.0
 11
-1.986995
 21
1.114019
 31
0.0
  0
LINE
  8
0
  6
CONTINUOUS
 62
     7
  5
88B
 10
-1.986995
 20
1.114019
 30
0.0
 11
-1.986088
 21
1.115983
 31
0.0
  0
LINE
  8
0
  6
CONTINUOUS
 62
     7
  5
88C
 10
-1.986088
 20
1.115983
 30
0.0
 11
-1.984996
 21
1.11793
 31
0.0
  0
LINE
  8
0
  6
CONTINUOUS
 62
     7
  5
88D
 10
-1.984996
 20
1.11793
 30
0.0
 11
-1.98372
 21
1.119857
 31
0.0
  0
LINE
  8
0
  6
CONTINUOUS
 62
     7
  5
88E
 10
-1.98372
 20
1.119857
 30
0.0
 11
-1.982263
 21
1.12176
 31
0.0
  0
LINE
  8
0
  6
CONTINUOUS
 62
     7
  5
88F
 10
-1.982263
 20
1.12176
 30
0.0
 11
-1.980626
 21
1.123638
 31
0.0
  0
LINE
  8
0
  6
CONTINUOUS
 62
     7
  5
890
 10
-1.980626
 20
1.123638
 30
0.0
 11
-1.978813
 21
1.125486
 31
0.0
  0
LINE
  8
0
  6
CONTINUOUS
 62
     7
  5
891
 10
-1.978813
 20
1.125486
 30
0.0
 11
-1.976825
 21
1.127302
 31
0.0
  0
LINE
  8
0
  6
CONTINUOUS
 62
     7
  5
892
 10
-1.976825
 20
1.127302
 30
0.0
 11
-1.974667
 21
1.129083
 31
0.0
  0
LINE
  8
0
  6
CONTINUOUS
 62
     7
  5
893
 10
-1.974667
 20
1.129083
 30
0.0
 11
-1.972342
 21
1.130826
 31
0.0
  0
LINE
  8
0
  6
CONTINUOUS
 62
     7
  5
894
 10
-1.972342
 20
1.130826
 30
0.0
 11
-1.969854
 21
1.132528
 31
0.0
  0
LINE
  8
0
  6
CONTINUOUS
 62
     7
  5
895
 10
-1.969854
 20
1.132528
 30
0.0
 11
-1.967206
 21
1.134187
 31
0.0
  0
LINE
  8
0
  6
CONTINUOUS
 62
     7
  5
896
 10
-1.967206
 20
1.134187
 30
0.0
 11
-1.964403
 21
1.135799
 31
0.0
  0
LINE
  8
0
  6
CONTINUOUS
 62
     7
  5
897
 10
-1.964403
 20
1.135799
 30
0.0
 11
-1.961449
 21
1.137363
 31
0.0
  0
LINE
  8
0
  6
CONTINUOUS
 62
     7
  5
898
 10
-1.961449
 20
1.137363
 30
0.0
 11
-1.958349
 21
1.138875
 31
0.0
  0
LINE
  8
0
  6
CONTINUOUS
 62
     7
  5
899
 10
-1.958349
 20
1.138875
 30
0.0
 11
-1.955109
 21
1.140334
 31
0.0
  0
LINE
  8
0
  6
CONTINUOUS
 62
     7
  5
89A
 10
-1.955109
 20
1.140334
 30
0.0
 11
-1.951732
 21
1.141736
 31
0.0
  0
LINE
  8
0
  6
CONTINUOUS
 62
     7
  5
89B
 10
-1.951732
 20
1.141736
 30
0.0
 11
-1.948226
 21
1.143081
 31
0.0
  0
LINE
  8
0
  6
CONTINUOUS
 62
     7
  5
89C
 10
-1.948226
 20
1.143081
 30
0.0
 11
-1.944594
 21
1.144365
 31
0.0
  0
LINE
  8
0
  6
CONTINUOUS
 62
     7
  5
89D
 10
-1.944594
 20
1.144365
 30
0.0
 11
-1.940844
 21
1.145586
 31
0.0
  0
LINE
  8
0
  6
CONTINUOUS
 62
     7
  5
89E
 10
-1.940844
 20
1.145586
 30
0.0
 11
-1.936981
 21
1.146743
 31
0.0
  0
LINE
  8
0
  6
CONTINUOUS
 62
     7
  5
89F
 10
-1.936981
 20
1.146743
 30
0.0
 11
-1.933012
 21
1.147833
 31
0.0
  0
LINE
  8
0
  6
CONTINUOUS
 62
     7
  5
8A0
 10
-1.933012
 20
1.147833
 30
0.0
 11
-1.928942
 21
1.148856
 31
0.0
  0
LINE
  8
0
  6
CONTINUOUS
 62
     7
  5
8A1
 10
-1.928942
 20
1.148856
 30
0.0
 11
-1.924779
 21
1.149808
 31
0.0
  0
LINE
  8
0
  6
CONTINUOUS
 62
     7
  5
8A2
 10
-1.924779
 20
1.149808
 30
0.0
 11
-1.920528
 21
1.150689
 31
0.0
  0
LINE
  8
0
  6
CONTINUOUS
 62
     7
  5
8A3
 10
-1.920528
 20
1.150689
 30
0.0
 11
-1.916198
 21
1.151498
 31
0.0
  0
LINE
  8
0
  6
CONTINUOUS
 62
     7
  5
8A4
 10
-1.916198
 20
1.151498
 30
0.0
 11
-1.911794
 21
1.152233
 31
0.0
  0
LINE
  8
0
  6
CONTINUOUS
 62
     7
  5
8A5
 10
-1.911794
 20
1.152233
 30
0.0
 11
-1.907324
 21
1.152892
 31
0.0
  0
LINE
  8
0
  6
CONTINUOUS
 62
     7
  5
8A6
 10
-1.907324
 20
1.152892
 30
0.0
 11
-1.902795
 21
1.153475
 31
0.0
  0
LINE
  8
0
  6
CONTINUOUS
 62
     7
  5
8A7
 10
-1.902795
 20
1.153475
 30
0.0
 11
-1.898215
 21
1.153981
 31
0.0
  0
LINE
  8
0
  6
CONTINUOUS
 62
     7
  5
8A8
 10
-1.898215
 20
1.153981
 30
0.0
 11
-1.89359
 21
1.154409
 31
0.0
  0
LINE
  8
0
  6
CONTINUOUS
 62
     7
  5
8A9
 10
-1.89359
 20
1.154409
 30
0.0
 11
-1.888929
 21
1.154759
 31
0.0
  0
LINE
  8
0
  6
CONTINUOUS
 62
     7
  5
8AA
 10
-1.888929
 20
1.154759
 30
0.0
 11
-1.884238
 21
1.155029
 31
0.0
  0
LINE
  8
0
  6
CONTINUOUS
 62
     7
  5
8AB
 10
-2.066929
 20
0.476314
 30
0.0
 11
-1.988588
 21
1.108058
 31
0.0
  0
LINE
  8
0
  6
CONTINUOUS
 62
     7
  5
8AC
 10
-2.066472
 20
-1.240003
 30
0.0
 11
-2.066929
 21
-1.221431
 31
0.0
  0
LINE
  8
0
  6
CONTINUOUS
 62
     7
  5
8AD
 10
-2.066472
 20
-1.240003
 30
0.0
 11
-1.988588
 21
-1.937692
 31
0.0
  0
LINE
  8
0
  6
CONTINUOUS
 62
     7
  5
8AE
 10
-1.988588
 20
-1.277219
 30
0.0
 11
-2.066929
 21
-0.575437
 31
0.0
  0
LINE
  8
0
  6
CONTINUOUS
 62
     7
  5
8AF
 10
1.988588
 20
-1.937692
 30
0.0
 11
2.066472
 21
-1.240003
 31
0.0
  0
LINE
  8
0
  6
CONTINUOUS
 62
     7
  5
8B0
 10
1.884238
 20
-1.98987
 30
0.0
 11
1.888929
 21
-1.98957
 31
0.0
  0
LINE
  8
0
  6
CONTINUOUS
 62
     7
  5
8B1
 10
1.888929
 20
-1.98957
 30
0.0
 11
1.89359
 21
-1.989182
 31
0.0
  0
LINE
  8
0
  6
CONTINUOUS
 62
     7
  5
8B2
 10
1.89359
 20
-1.989182
 30
0.0
 11
1.898215
 21
-1.988707
 31
0.0
  0
LINE
  8
0
  6
CONTINUOUS
 62
     7
  5
8B3
 10
1.898215
 20
-1.988707
 30
0.0
 11
1.902795
 21
-1.988144
 31
0.0
  0
LINE
  8
0
  6
CONTINUOUS
 62
     7
  5
8B4
 10
1.902795
 20
-1.988144
 30
0.0
 11
1.907324
 21
-1.987497
 31
0.0
  0
LINE
  8
0
  6
CONTINUOUS
 62
     7
  5
8B5
 10
1.907324
 20
-1.987497
 30
0.0
 11
1.911794
 21
-1.986764
 31
0.0
  0
LINE
  8
0
  6
CONTINUOUS
 62
     7
  5
8B6
 10
1.911794
 20
-1.986764
 30
0.0
 11
1.916198
 21
-1.985948
 31
0.0
  0
LINE
  8
0
  6
CONTINUOUS
 62
     7
  5
8B7
 10
1.916198
 20
-1.985948
 30
0.0
 11
1.920528
 21
-1.98505
 31
0.0
  0
LINE
  8
0
  6
CONTINUOUS
 62
     7
  5
8B8
 10
1.920528
 20
-1.98505
 30
0.0
 11
1.924779
 21
-1.984071
 31
0.0
  0
LINE
  8
0
  6
CONTINUOUS
 62
     7
  5
8B9
 10
1.924779
 20
-1.984071
 30
0.0
 11
1.928942
 21
-1.983012
 31
0.0
  0
LINE
  8
0
  6
CONTINUOUS
 62
     7
  5
8BA
 10
1.928942
 20
-1.983012
 30
0.0
 11
1.933012
 21
-1.981877
 31
0.0
  0
LINE
  8
0
  6
CONTINUOUS
 62
     7
  5
8BB
 10
1.933012
 20
-1.981877
 30
0.0
 11
1.936981
 21
-1.980665
 31
0.0
  0
LINE
  8
0
  6
CONTINUOUS
 62
     7
  5
8BC
 10
1.936981
 20
-1.980665
 30
0.0
 11
1.940844
 21
-1.97938
 31
0.0
  0
LINE
  8
0
  6
CONTINUOUS
 62
     7
  5
8BD
 10
1.940844
 20
-1.97938
 30
0.0
 11
1.944594
 21
-1.978024
 31
0.0
  0
LINE
  8
0
  6
CONTINUOUS
 62
     7
  5
8BE
 10
1.944594
 20
-1.978024
 30
0.0
 11
1.948226
 21
-1.976597
 31
0.0
  0
LINE
  8
0
  6
CONTINUOUS
 62
     7
  5
8BF
 10
1.948226
 20
-1.976597
 30
0.0
 11
1.951732
 21
-1.975104
 31
0.0
  0
LINE
  8
0
  6
CONTINUOUS
 62
     7
  5
8C0
 10
1.951732
 20
-1.975104
 30
0.0
 11
1.955109
 21
-1.973546
 31
0.0
  0
LINE
  8
0
  6
CONTINUOUS
 62
     7
  5
8C1
 10
1.955109
 20
-1.973546
 30
0.0
 11
1.958349
 21
-1.971926
 31
0.0
  0
LINE
  8
0
  6
CONTINUOUS
 62
     7
  5
8C2
 10
1.958349
 20
-1.971926
 30
0.0
 11
1.961449
 21
-1.970246
 31
0.0
  0
LINE
  8
0
  6
CONTINUOUS
 62
     7
  5
8C3
 10
1.961449
 20
-1.970246
 30
0.0
 11
1.964403
 21
-1.968508
 31
0.0
  0
LINE
  8
0
  6
CONTINUOUS
 62
     7
  5
8C4
 10
1.964403
 20
-1.968508
 30
0.0
 11
1.967206
 21
-1.966717
 31
0.0
  0
LINE
  8
0
  6
CONTINUOUS
 62
     7
  5
8C5
 10
1.967206
 20
-1.966717
 30
0.0
 11
1.969854
 21
-1.964875
 31
0.0
  0
LINE
  8
0
  6
CONTINUOUS
 62
     7
  5
8C6
 10
1.969854
 20
-1.964875
 30
0.0
 11
1.972342
 21
-1.962984
 31
0.0
  0
LINE
  8
0
  6
CONTINUOUS
 62
     7
  5
8C7
 10
1.972342
 20
-1.962984
 30
0.0
 11
1.974667
 21
-1.961048
 31
0.0
  0
LINE
  8
0
  6
CONTINUOUS
 62
     7
  5
8C8
 10
1.974667
 20
-1.961048
 30
0.0
 11
1.976825
 21
-1.959069
 31
0.0
  0
LINE
  8
0
  6
CONTINUOUS
 62
     7
  5
8C9
 10
1.976825
 20
-1.959069
 30
0.0
 11
1.978813
 21
-1.957052
 31
0.0
  0
LINE
  8
0
  6
CONTINUOUS
 62
     7
  5
8CA
 10
1.978813
 20
-1.957052
 30
0.0
 11
1.980626
 21
-1.954999
 31
0.0
  0
LINE
  8
0
  6
CONTINUOUS
 62
     7
  5
8CB
 10
1.980626
 20
-1.954999
 30
0.0
 11
1.982263
 21
-1.952913
 31
0.0
  0
LINE
  8
0
  6
CONTINUOUS
 62
     7
  5
8CC
 10
1.982263
 20
-1.952913
 30
0.0
 11
1.98372
 21
-1.950799
 31
0.0
  0
LINE
  8
0
  6
CONTINUOUS
 62
     7
  5
8CD
 10
1.98372
 20
-1.950799
 30
0.0
 11
1.984996
 21
-1.948658
 31
0.0
  0
LINE
  8
0
  6
CONTINUOUS
 62
     7
  5
8CE
 10
1.984996
 20
-1.948658
 30
0.0
 11
1.986088
 21
-1.946495
 31
0.0
  0
LINE
  8
0
  6
CONTINUOUS
 62
     7
  5
8CF
 10
1.986088
 20
-1.946495
 30
0.0
 11
1.986995
 21
-1.944314
 31
0.0
  0
LINE
  8
0
  6
CONTINUOUS
 62
     7
  5
8D0
 10
1.986995
 20
-1.944314
 30
0.0
 11
1.987714
 21
-1.942117
 31
0.0
  0
LINE
  8
0
  6
CONTINUOUS
 62
     7
  5
8D1
 10
1.987714
 20
-1.942117
 30
0.0
 11
1.988246
 21
-1.939908
 31
0.0
  0
LINE
  8
0
  6
CONTINUOUS
 62
     7
  5
8D2
 10
1.988246
 20
-1.939908
 30
0.0
 11
1.988588
 21
-1.937692
 31
0.0
  0
LINE
  8
0
  6
CONTINUOUS
 62
     7
  5
8D3
 10
0.48341
 20
-2.06609
 30
0.0
 11
1.884238
 21
-1.98987
 31
0.0
  0
LINE
  8
0
  6
CONTINUOUS
 62
     7
  5
8D4
 10
0.425847
 20
-2.067651
 30
0.0
 11
0.427495
 21
-2.067649
 31
0.0
  0
LINE
  8
0
  6
CONTINUOUS
 62
     7
  5
8D5
 10
0.427495
 20
-2.067649
 30
0.0
 11
0.429143
 21
-2.067646
 31
0.0
  0
LINE
  8
0
  6
CONTINUOUS
 62
     7
  5
8D6
 10
0.429143
 20
-2.067646
 30
0.0
 11
0.430792
 21
-2.067639
 31
0.0
  0
LINE
  8
0
  6
CONTINUOUS
 62
     7
  5
8D7
 10
0.430792
 20
-2.067639
 30
0.0
 11
0.43244
 21
-2.06763
 31
0.0
  0
LINE
  8
0
  6
CONTINUOUS
 62
     7
  5
8D8
 10
0.43244
 20
-2.06763
 30
0.0
 11
0.434088
 21
-2.067619
 31
0.0
  0
LINE
  8
0
  6
CONTINUOUS
 62
     7
  5
8D9
 10
0.434088
 20
-2.067619
 30
0.0
 11
0.435736
 21
-2.067605
 31
0.0
  0
LINE
  8
0
  6
CONTINUOUS
 62
     7
  5
8DA
 10
0.435736
 20
-2.067605
 30
0.0
 11
0.437384
 21
-2.067588
 31
0.0
  0
LINE
  8
0
  6
CONTINUOUS
 62
     7
  5
8DB
 10
0.437384
 20
-2.067588
 30
0.0
 11
0.439032
 21
-2.067569
 31
0.0
  0
LINE
  8
0
  6
CONTINUOUS
 62
     7
  5
8DC
 10
0.439032
 20
-2.067569
 30
0.0
 11
0.440679
 21
-2.067547
 31
0.0
  0
LINE
  8
0
  6
CONTINUOUS
 62
     7
  5
8DD
 10
0.440679
 20
-2.067547
 30
0.0
 11
0.442327
 21
-2.067523
 31
0.0
  0
LINE
  8
0
  6
CONTINUOUS
 62
     7
  5
8DE
 10
0.442327
 20
-2.067523
 30
0.0
 11
0.443974
 21
-2.067496
 31
0.0
  0
LINE
  8
0
  6
CONTINUOUS
 62
     7
  5
8DF
 10
0.443974
 20
-2.067496
 30
0.0
 11
0.445621
 21
-2.067467
 31
0.0
  0
LINE
  8
0
  6
CONTINUOUS
 62
     7
  5
8E0
 10
0.445621
 20
-2.067467
 30
0.0
 11
0.447268
 21
-2.067435
 31
0.0
  0
LINE
  8
0
  6
CONTINUOUS
 62
     7
  5
8E1
 10
0.447268
 20
-2.067435
 30
0.0
 11
0.448915
 21
-2.067401
 31
0.0
  0
LINE
  8
0
  6
CONTINUOUS
 62
     7
  5
8E2
 10
0.448915
 20
-2.067401
 30
0.0
 11
0.450561
 21
-2.067364
 31
0.0
  0
LINE
  8
0
  6
CONTINUOUS
 62
     7
  5
8E3
 10
0.450561
 20
-2.067364
 30
0.0
 11
0.452208
 21
-2.067324
 31
0.0
  0
LINE
  8
0
  6
CONTINUOUS
 62
     7
  5
8E4
 10
0.452208
 20
-2.067324
 30
0.0
 11
0.453854
 21
-2.067282
 31
0.0
  0
LINE
  8
0
  6
CONTINUOUS
 62
     7
  5
8E5
 10
0.453854
 20
-2.067282
 30
0.0
 11
0.455499
 21
-2.067238
 31
0.0
  0
LINE
  8
0
  6
CONTINUOUS
 62
     7
  5
8E6
 10
0.455499
 20
-2.067238
 30
0.0
 11
0.457144
 21
-2.06719
 31
0.0
  0
LINE
  8
0
  6
CONTINUOUS
 62
     7
  5
8E7
 10
0.457144
 20
-2.06719
 30
0.0
 11
0.458789
 21
-2.067141
 31
0.0
  0
LINE
  8
0
  6
CONTINUOUS
 62
     7
  5
8E8
 10
0.458789
 20
-2.067141
 30
0.0
 11
0.460434
 21
-2.067088
 31
0.0
  0
LINE
  8
0
  6
CONTINUOUS
 62
     7
  5
8E9
 10
0.460434
 20
-2.067088
 30
0.0
 11
0.462078
 21
-2.067034
 31
0.0
  0
LINE
  8
0
  6
CONTINUOUS
 62
     7
  5
8EA
 10
0.462078
 20
-2.067034
 30
0.0
 11
0.463722
 21
-2.066976
 31
0.0
  0
LINE
  8
0
  6
CONTINUOUS
 62
     7
  5
8EB
 10
0.463722
 20
-2.066976
 30
0.0
 11
0.465365
 21
-2.066916
 31
0.0
  0
LINE
  8
0
  6
CONTINUOUS
 62
     7
  5
8EC
 10
0.465365
 20
-2.066916
 30
0.0
 11
0.467008
 21
-2.066854
 31
0.0
  0
LINE
  8
0
  6
CONTINUOUS
 62
     7
  5
8ED
 10
0.467008
 20
-2.066854
 30
0.0
 11
0.468651
 21
-2.066789
 31
0.0
  0
LINE
  8
0
  6
CONTINUOUS
 62
     7
  5
8EE
 10
0.468651
 20
-2.066789
 30
0.0
 11
0.470293
 21
-2.066721
 31
0.0
  0
LINE
  8
0
  6
CONTINUOUS
 62
     7
  5
8EF
 10
0.470293
 20
-2.066721
 30
0.0
 11
0.471934
 21
-2.066651
 31
0.0
  0
LINE
  8
0
  6
CONTINUOUS
 62
     7
  5
8F0
 10
0.471934
 20
-2.066651
 30
0.0
 11
0.473575
 21
-2.066579
 31
0.0
  0
LINE
  8
0
  6
CONTINUOUS
 62
     7
  5
8F1
 10
0.473575
 20
-2.066579
 30
0.0
 11
0.475216
 21
-2.066504
 31
0.0
  0
LINE
  8
0
  6
CONTINUOUS
 62
     7
  5
8F2
 10
0.475216
 20
-2.066504
 30
0.0
 11
0.476856
 21
-2.066426
 31
0.0
  0
LINE
  8
0
  6
CONTINUOUS
 62
     7
  5
8F3
 10
0.476856
 20
-2.066426
 30
0.0
 11
0.478495
 21
-2.066346
 31
0.0
  0
LINE
  8
0
  6
CONTINUOUS
 62
     7
  5
8F4
 10
0.478495
 20
-2.066346
 30
0.0
 11
0.480134
 21
-2.066263
 31
0.0
  0
LINE
  8
0
  6
CONTINUOUS
 62
     7
  5
8F5
 10
0.480134
 20
-2.066263
 30
0.0
 11
0.481772
 21
-2.066178
 31
0.0
  0
LINE
  8
0
  6
CONTINUOUS
 62
     7
  5
8F6
 10
0.481772
 20
-2.066178
 30
0.0
 11
0.48341
 21
-2.06609
 31
0.0
  0
LINE
  8
0
  6
CONTINUOUS
 62
     7
  5
8F7
 10
0.407723
 20
-2.067651
 30
0.0
 11
0.425847
 21
-2.067651
 31
0.0
  0
LINE
  8
0
  6
CONTINUOUS
 62
     7
  5
8F8
 10
-0.425847
 20
-2.067651
 30
0.0
 11
-0.407723
 21
-2.067651
 31
0.0
  0
LINE
  8
0
  6
CONTINUOUS
 62
     7
  5
8F9
 10
-0.48341
 20
-2.06609
 30
0.0
 11
-0.481772
 21
-2.066178
 31
0.0
  0
LINE
  8
0
  6
CONTINUOUS
 62
     7
  5
8FA
 10
-0.481772
 20
-2.066178
 30
0.0
 11
-0.480134
 21
-2.066263
 31
0.0
  0
LINE
  8
0
  6
CONTINUOUS
 62
     7
  5
8FB
 10
-0.480134
 20
-2.066263
 30
0.0
 11
-0.478495
 21
-2.066346
 31
0.0
  0
LINE
  8
0
  6
CONTINUOUS
 62
     7
  5
8FC
 10
-0.478495
 20
-2.066346
 30
0.0
 11
-0.476856
 21
-2.066426
 31
0.0
  0
LINE
  8
0
  6
CONTINUOUS
 62
     7
  5
8FD
 10
-0.476856
 20
-2.066426
 30
0.0
 11
-0.475216
 21
-2.066504
 31
0.0
  0
LINE
  8
0
  6
CONTINUOUS
 62
     7
  5
8FE
 10
-0.475216
 20
-2.066504
 30
0.0
 11
-0.473575
 21
-2.066579
 31
0.0
  0
LINE
  8
0
  6
CONTINUOUS
 62
     7
  5
8FF
 10
-0.473575
 20
-2.066579
 30
0.0
 11
-0.471934
 21
-2.066651
 31
0.0
  0
LINE
  8
0
  6
CONTINUOUS
 62
     7
  5
900
 10
-0.471934
 20
-2.066651
 30
0.0
 11
-0.470293
 21
-2.066721
 31
0.0
  0
LINE
  8
0
  6
CONTINUOUS
 62
     7
  5
901
 10
-0.470293
 20
-2.066721
 30
0.0
 11
-0.468651
 21
-2.066789
 31
0.0
  0
LINE
  8
0
  6
CONTINUOUS
 62
     7
  5
902
 10
-0.468651
 20
-2.066789
 30
0.0
 11
-0.467008
 21
-2.066854
 31
0.0
  0
LINE
  8
0
  6
CONTINUOUS
 62
     7
  5
903
 10
-0.467008
 20
-2.066854
 30
0.0
 11
-0.465365
 21
-2.066916
 31
0.0
  0
LINE
  8
0
  6
CONTINUOUS
 62
     7
  5
904
 10
-0.465365
 20
-2.066916
 30
0.0
 11
-0.463722
 21
-2.066976
 31
0.0
  0
LINE
  8
0
  6
CONTINUOUS
 62
     7
  5
905
 10
-0.463722
 20
-2.066976
 30
0.0
 11
-0.462078
 21
-2.067034
 31
0.0
  0
LINE
  8
0
  6
CONTINUOUS
 62
     7
  5
906
 10
-0.462078
 20
-2.067034
 30
0.0
 11
-0.460434
 21
-2.067088
 31
0.0
  0
LINE
  8
0
  6
CONTINUOUS
 62
     7
  5
907
 10
-0.460434
 20
-2.067088
 30
0.0
 11
-0.458789
 21
-2.067141
 31
0.0
  0
LINE
  8
0
  6
CONTINUOUS
 62
     7
  5
908
 10
-0.458789
 20
-2.067141
 30
0.0
 11
-0.457144
 21
-2.06719
 31
0.0
  0
LINE
  8
0
  6
CONTINUOUS
 62
     7
  5
909
 10
-0.457144
 20
-2.06719
 30
0.0
 11
-0.455499
 21
-2.067238
 31
0.0
  0
LINE
  8
0
  6
CONTINUOUS
 62
     7
  5
90A
 10
-0.455499
 20
-2.067238
 30
0.0
 11
-0.453854
 21
-2.067282
 31
0.0
  0
LINE
  8
0
  6
CONTINUOUS
 62
     7
  5
90B
 10
-0.453854
 20
-2.067282
 30
0.0
 11
-0.452208
 21
-2.067324
 31
0.0
  0
LINE
  8
0
  6
CONTINUOUS
 62
     7
  5
90C
 10
-0.452208
 20
-2.067324
 30
0.0
 11
-0.450561
 21
-2.067364
 31
0.0
  0
LINE
  8
0
  6
CONTINUOUS
 62
     7
  5
90D
 10
-0.450561
 20
-2.067364
 30
0.0
 11
-0.448915
 21
-2.067401
 31
0.0
  0
LINE
  8
0
  6
CONTINUOUS
 62
     7
  5
90E
 10
-0.448915
 20
-2.067401
 30
0.0
 11
-0.447268
 21
-2.067435
 31
0.0
  0
LINE
  8
0
  6
CONTINUOUS
 62
     7
  5
90F
 10
-0.447268
 20
-2.067435
 30
0.0
 11
-0.445621
 21
-2.067467
 31
0.0
  0
LINE
  8
0
  6
CONTINUOUS
 62
     7
  5
910
 10
-0.445621
 20
-2.067467
 30
0.0
 11
-0.443974
 21
-2.067496
 31
0.0
  0
LINE
  8
0
  6
CONTINUOUS
 62
     7
  5
911
 10
-0.443974
 20
-2.067496
 30
0.0
 11
-0.442327
 21
-2.067523
 31
0.0
  0
LINE
  8
0
  6
CONTINUOUS
 62
     7
  5
912
 10
-0.442327
 20
-2.067523
 30
0.0
 11
-0.440679
 21
-2.067547
 31
0.0
  0
LINE
  8
0
  6
CONTINUOUS
 62
     7
  5
913
 10
-0.440679
 20
-2.067547
 30
0.0
 11
-0.439032
 21
-2.067569
 31
0.0
  0
LINE
  8
0
  6
CONTINUOUS
 62
     7
  5
914
 10
-0.439032
 20
-2.067569
 30
0.0
 11
-0.437384
 21
-2.067588
 31
0.0
  0
LINE
  8
0
  6
CONTINUOUS
 62
     7
  5
915
 10
-0.437384
 20
-2.067588
 30
0.0
 11
-0.435736
 21
-2.067605
 31
0.0
  0
LINE
  8
0
  6
CONTINUOUS
 62
     7
  5
916
 10
-0.435736
 20
-2.067605
 30
0.0
 11
-0.434088
 21
-2.067619
 31
0.0
  0
LINE
  8
0
  6
CONTINUOUS
 62
     7
  5
917
 10
-0.434088
 20
-2.067619
 30
0.0
 11
-0.43244
 21
-2.06763
 31
0.0
  0
LINE
  8
0
  6
CONTINUOUS
 62
     7
  5
918
 10
-0.43244
 20
-2.06763
 30
0.0
 11
-0.430792
 21
-2.067639
 31
0.0
  0
LINE
  8
0
  6
CONTINUOUS
 62
     7
  5
919
 10
-0.430792
 20
-2.067639
 30
0.0
 11
-0.429143
 21
-2.067646
 31
0.0
  0
LINE
  8
0
  6
CONTINUOUS
 62
     7
  5
91A
 10
-0.429143
 20
-2.067646
 30
0.0
 11
-0.427495
 21
-2.067649
 31
0.0
  0
LINE
  8
0
  6
CONTINUOUS
 62
     7
  5
91B
 10
-0.427495
 20
-2.067649
 30
0.0
 11
-0.425847
 21
-2.067651
 31
0.0
  0
LINE
  8
0
  6
CONTINUOUS
 62
     7
  5
91C
 10
-1.884238
 20
-1.98987
 30
0.0
 11
-0.48341
 21
-2.06609
 31
0.0
  0
LINE
  8
0
  6
CONTINUOUS
 62
     7
  5
91D
 10
-1.988588
 20
-1.937692
 30
0.0
 11
-1.988246
 21
-1.939908
 31
0.0
  0
LINE
  8
0
  6
CONTINUOUS
 62
     7
  5
91E
 10
-1.988246
 20
-1.939908
 30
0.0
 11
-1.987714
 21
-1.942117
 31
0.0
  0
LINE
  8
0
  6
CONTINUOUS
 62
     7
  5
91F
 10
-1.987714
 20
-1.942117
 30
0.0
 11
-1.986995
 21
-1.944314
 31
0.0
  0
LINE
  8
0
  6
CONTINUOUS
 62
     7
  5
920
 10
-1.986995
 20
-1.944314
 30
0.0
 11
-1.986088
 21
-1.946495
 31
0.0
  0
LINE
  8
0
  6
CONTINUOUS
 62
     7
  5
921
 10
-1.986088
 20
-1.946495
 30
0.0
 11
-1.984996
 21
-1.948658
 31
0.0
  0
LINE
  8
0
  6
CONTINUOUS
 62
     7
  5
922
 10
-1.984996
 20
-1.948658
 30
0.0
 11
-1.98372
 21
-1.950799
 31
0.0
  0
LINE
  8
0
  6
CONTINUOUS
 62
     7
  5
923
 10
-1.98372
 20
-1.950799
 30
0.0
 11
-1.982263
 21
-1.952913
 31
0.0
  0
LINE
  8
0
  6
CONTINUOUS
 62
     7
  5
924
 10
-1.982263
 20
-1.952913
 30
0.0
 11
-1.980626
 21
-1.954999
 31
0.0
  0
LINE
  8
0
  6
CONTINUOUS
 62
     7
  5
925
 10
-1.980626
 20
-1.954999
 30
0.0
 11
-1.978813
 21
-1.957052
 31
0.0
  0
LINE
  8
0
  6
CONTINUOUS
 62
     7
  5
926
 10
-1.978813
 20
-1.957052
 30
0.0
 11
-1.976825
 21
-1.959069
 31
0.0
  0
LINE
  8
0
  6
CONTINUOUS
 62
     7
  5
927
 10
-1.976825
 20
-1.959069
 30
0.0
 11
-1.974667
 21
-1.961048
 31
0.0
  0
LINE
  8
0
  6
CONTINUOUS
 62
     7
  5
928
 10
-1.974667
 20
-1.961048
 30
0.0
 11
-1.972342
 21
-1.962984
 31
0.0
  0
LINE
  8
0
  6
CONTINUOUS
 62
     7
  5
929
 10
-1.972342
 20
-1.962984
 30
0.0
 11
-1.969854
 21
-1.964875
 31
0.0
  0
LINE
  8
0
  6
CONTINUOUS
 62
     7
  5
92A
 10
-1.969854
 20
-1.964875
 30
0.0
 11
-1.967206
 21
-1.966717
 31
0.0
  0
LINE
  8
0
  6
CONTINUOUS
 62
     7
  5
92B
 10
-1.967206
 20
-1.966717
 30
0.0
 11
-1.964403
 21
-1.968508
 31
0.0
  0
LINE
  8
0
  6
CONTINUOUS
 62
     7
  5
92C
 10
-1.964403
 20
-1.968508
 30
0.0
 11
-1.961449
 21
-1.970246
 31
0.0
  0
LINE
  8
0
  6
CONTINUOUS
 62
     7
  5
92D
 10
-1.961449
 20
-1.970246
 30
0.0
 11
-1.958349
 21
-1.971926
 31
0.0
  0
LINE
  8
0
  6
CONTINUOUS
 62
     7
  5
92E
 10
-1.958349
 20
-1.971926
 30
0.0
 11
-1.955109
 21
-1.973546
 31
0.0
  0
LINE
  8
0
  6
CONTINUOUS
 62
     7
  5
92F
 10
-1.955109
 20
-1.973546
 30
0.0
 11
-1.951732
 21
-1.975104
 31
0.0
  0
LINE
  8
0
  6
CONTINUOUS
 62
     7
  5
930
 10
-1.951732
 20
-1.975104
 30
0.0
 11
-1.948226
 21
-1.976597
 31
0.0
  0
LINE
  8
0
  6
CONTINUOUS
 62
     7
  5
931
 10
-1.948226
 20
-1.976597
 30
0.0
 11
-1.944594
 21
-1.978024
 31
0.0
  0
LINE
  8
0
  6
CONTINUOUS
 62
     7
  5
932
 10
-1.944594
 20
-1.978024
 30
0.0
 11
-1.940844
 21
-1.97938
 31
0.0
  0
LINE
  8
0
  6
CONTINUOUS
 62
     7
  5
933
 10
-1.940844
 20
-1.97938
 30
0.0
 11
-1.936981
 21
-1.980665
 31
0.0
  0
LINE
  8
0
  6
CONTINUOUS
 62
     7
  5
934
 10
-1.936981
 20
-1.980665
 30
0.0
 11
-1.933012
 21
-1.981877
 31
0.0
  0
LINE
  8
0
  6
CONTINUOUS
 62
     7
  5
935
 10
-1.933012
 20
-1.981877
 30
0.0
 11
-1.928942
 21
-1.983012
 31
0.0
  0
LINE
  8
0
  6
CONTINUOUS
 62
     7
  5
936
 10
-1.928942
 20
-1.983012
 30
0.0
 11
-1.924779
 21
-1.984071
 31
0.0
  0
LINE
  8
0
  6
CONTINUOUS
 62
     7
  5
937
 10
-1.924779
 20
-1.984071
 30
0.0
 11
-1.920528
 21
-1.98505
 31
0.0
  0
LINE
  8
0
  6
CONTINUOUS
 62
     7
  5
938
 10
-1.920528
 20
-1.98505
 30
0.0
 11
-1.916198
 21
-1.985948
 31
0.0
  0
LINE
  8
0
  6
CONTINUOUS
 62
     7
  5
939
 10
-1.916198
 20
-1.985948
 30
0.0
 11
-1.911794
 21
-1.986764
 31
0.0
  0
LINE
  8
0
  6
CONTINUOUS
 62
     7
  5
93A
 10
-1.911794
 20
-1.986764
 30
0.0
 11
-1.907324
 21
-1.987497
 31
0.0
  0
LINE
  8
0
  6
CONTINUOUS
 62
     7
  5
93B
 10
-1.907324
 20
-1.987497
 30
0.0
 11
-1.902795
 21
-1.988144
 31
0.0
  0
LINE
  8
0
  6
CONTINUOUS
 62
     7
  5
93C
 10
-1.902795
 20
-1.988144
 30
0.0
 11
-1.898215
 21
-1.988707
 31
0.0
  0
LINE
  8
0
  6
CONTINUOUS
 62
     7
  5
93D
 10
-1.898215
 20
-1.988707
 30
0.0
 11
-1.89359
 21
-1.989182
 31
0.0
  0
LINE
  8
0
  6
CONTINUOUS
 62
     7
  5
93E
 10
-1.89359
 20
-1.989182
 30
0.0
 11
-1.888929
 21
-1.98957
 31
0.0
  0
LINE
  8
0
  6
CONTINUOUS
 62
     7
  5
93F
 10
-1.888929
 20
-1.98957
 30
0.0
 11
-1.884238
 21
-1.98987
 31
0.0
  0
LINE
  8
0
  6
CONTINUOUS
 62
     7
  5
940
 10
2.066929
 20
-1.221431
 30
0.0
 11
2.066472
 21
-1.240003
 31
0.0
  0
LINE
  8
0
  6
CONTINUOUS
 62
     7
  5
941
 10
2.066929
 20
-0.575437
 30
0.0
 11
1.988588
 21
-1.277219
 31
0.0
  0
LINE
  8
0
  6
CONTINUOUS
 62
     7
  5
942
 10
0.407723
 20
1.902994
 30
0.0
 11
0.407336
 21
1.903235
 31
0.0
  0
LINE
  8
0
  6
CONTINUOUS
 62
     7
  5
943
 10
0.407336
 20
1.903235
 30
0.0
 11
0.406948
 21
1.903477
 31
0.0
  0
LINE
  8
0
  6
CONTINUOUS
 62
     7
  5
944
 10
0.406948
 20
1.903477
 30
0.0
 11
0.406559
 21
1.903718
 31
0.0
  0
LINE
  8
0
  6
CONTINUOUS
 62
     7
  5
945
 10
0.406559
 20
1.903718
 30
0.0
 11
0.406169
 21
1.903959
 31
0.0
  0
LINE
  8
0
  6
CONTINUOUS
 62
     7
  5
946
 10
0.406169
 20
1.903959
 30
0.0
 11
0.405779
 21
1.9042
 31
0.0
  0
LINE
  8
0
  6
CONTINUOUS
 62
     7
  5
947
 10
0.405779
 20
1.9042
 30
0.0
 11
0.405388
 21
1.90444
 31
0.0
  0
LINE
  8
0
  6
CONTINUOUS
 62
     7
  5
948
 10
0.405388
 20
1.90444
 30
0.0
 11
0.404996
 21
1.904681
 31
0.0
  0
LINE
  8
0
  6
CONTINUOUS
 62
     7
  5
949
 10
0.404996
 20
1.904681
 30
0.0
 11
0.404603
 21
1.904921
 31
0.0
  0
LINE
  8
0
  6
CONTINUOUS
 62
     7
  5
94A
 10
0.404603
 20
1.904921
 30
0.0
 11
0.40421
 21
1.905161
 31
0.0
  0
LINE
  8
0
  6
CONTINUOUS
 62
     7
  5
94B
 10
0.40421
 20
1.905161
 30
0.0
 11
0.403815
 21
1.9054
 31
0.0
  0
LINE
  8
0
  6
CONTINUOUS
 62
     7
  5
94C
 10
0.403815
 20
1.9054
 30
0.0
 11
0.40342
 21
1.90564
 31
0.0
  0
LINE
  8
0
  6
CONTINUOUS
 62
     7
  5
94D
 10
0.40342
 20
1.90564
 30
0.0
 11
0.403024
 21
1.905879
 31
0.0
  0
LINE
  8
0
  6
CONTINUOUS
 62
     7
  5
94E
 10
0.403024
 20
1.905879
 30
0.0
 11
0.402628
 21
1.906118
 31
0.0
  0
LINE
  8
0
  6
CONTINUOUS
 62
     7
  5
94F
 10
0.402628
 20
1.906118
 30
0.0
 11
0.40223
 21
1.906356
 31
0.0
  0
LINE
  8
0
  6
CONTINUOUS
 62
     7
  5
950
 10
0.40223
 20
1.906356
 30
0.0
 11
0.401832
 21
1.906595
 31
0.0
  0
LINE
  8
0
  6
CONTINUOUS
 62
     7
  5
951
 10
0.401832
 20
1.906595
 30
0.0
 11
0.401433
 21
1.906833
 31
0.0
  0
LINE
  8
0
  6
CONTINUOUS
 62
     7
  5
952
 10
0.401433
 20
1.906833
 30
0.0
 11
0.401033
 21
1.907071
 31
0.0
  0
LINE
  8
0
  6
CONTINUOUS
 62
     7
  5
953
 10
0.401033
 20
1.907071
 30
0.0
 11
0.400632
 21
1.907309
 31
0.0
  0
LINE
  8
0
  6
CONTINUOUS
 62
     7
  5
954
 10
0.400632
 20
1.907309
 30
0.0
 11
0.400231
 21
1.907546
 31
0.0
  0
LINE
  8
0
  6
CONTINUOUS
 62
     7
  5
955
 10
0.400231
 20
1.907546
 30
0.0
 11
0.399828
 21
1.907783
 31
0.0
  0
LINE
  8
0
  6
CONTINUOUS
 62
     7
  5
956
 10
0.399828
 20
1.907783
 30
0.0
 11
0.399425
 21
1.90802
 31
0.0
  0
LINE
  8
0
  6
CONTINUOUS
 62
     7
  5
957
 10
0.399425
 20
1.90802
 30
0.0
 11
0.399022
 21
1.908257
 31
0.0
  0
LINE
  8
0
  6
CONTINUOUS
 62
     7
  5
958
 10
0.399022
 20
1.908257
 30
0.0
 11
0.398617
 21
1.908494
 31
0.0
  0
LINE
  8
0
  6
CONTINUOUS
 62
     7
  5
959
 10
0.398617
 20
1.908494
 30
0.0
 11
0.398212
 21
1.90873
 31
0.0
  0
LINE
  8
0
  6
CONTINUOUS
 62
     7
  5
95A
 10
0.398212
 20
1.90873
 30
0.0
 11
0.397805
 21
1.908966
 31
0.0
  0
LINE
  8
0
  6
CONTINUOUS
 62
     7
  5
95B
 10
0.397805
 20
1.908966
 30
0.0
 11
0.397399
 21
1.909202
 31
0.0
  0
LINE
  8
0
  6
CONTINUOUS
 62
     7
  5
95C
 10
0.397399
 20
1.909202
 30
0.0
 11
0.396991
 21
1.909437
 31
0.0
  0
LINE
  8
0
  6
CONTINUOUS
 62
     7
  5
95D
 10
0.396991
 20
1.909437
 30
0.0
 11
0.396582
 21
1.909673
 31
0.0
  0
LINE
  8
0
  6
CONTINUOUS
 62
     7
  5
95E
 10
0.396582
 20
1.909673
 30
0.0
 11
0.396173
 21
1.909908
 31
0.0
  0
LINE
  8
0
  6
CONTINUOUS
 62
     7
  5
95F
 10
0.396173
 20
1.909908
 30
0.0
 11
0.395763
 21
1.910142
 31
0.0
  0
LINE
  8
0
  6
CONTINUOUS
 62
     7
  5
960
 10
0.395763
 20
1.910142
 30
0.0
 11
0.395352
 21
1.910377
 31
0.0
  0
LINE
  8
0
  6
CONTINUOUS
 62
     7
  5
961
 10
0.395352
 20
1.910377
 30
0.0
 11
0.39494
 21
1.910611
 31
0.0
  0
LINE
  8
0
  6
CONTINUOUS
 62
     7
  5
962
 10
0.39494
 20
1.910611
 30
0.0
 11
0.394528
 21
1.910846
 31
0.0
  0
LINE
  8
0
  6
CONTINUOUS
 62
     7
  5
963
 10
0.394528
 20
1.910846
 30
0.0
 11
0.394115
 21
1.911079
 31
0.0
  0
LINE
  8
0
  6
CONTINUOUS
 62
     7
  5
964
 10
0.394115
 20
1.911079
 30
0.0
 11
0.393701
 21
1.911313
 31
0.0
  0
LINE
  8
0
  6
CONTINUOUS
 62
     7
  5
965
 10
-0.393701
 20
1.911313
 30
0.0
 11
-0.394115
 21
1.911079
 31
0.0
  0
LINE
  8
0
  6
CONTINUOUS
 62
     7
  5
966
 10
-0.394115
 20
1.911079
 30
0.0
 11
-0.394528
 21
1.910846
 31
0.0
  0
LINE
  8
0
  6
CONTINUOUS
 62
     7
  5
967
 10
-0.394528
 20
1.910846
 30
0.0
 11
-0.39494
 21
1.910611
 31
0.0
  0
LINE
  8
0
  6
CONTINUOUS
 62
     7
  5
968
 10
-0.39494
 20
1.910611
 30
0.0
 11
-0.395352
 21
1.910377
 31
0.0
  0
LINE
  8
0
  6
CONTINUOUS
 62
     7
  5
969
 10
-0.395352
 20
1.910377
 30
0.0
 11
-0.395763
 21
1.910142
 31
0.0
  0
LINE
  8
0
  6
CONTINUOUS
 62
     7
  5
96A
 10
-0.395763
 20
1.910142
 30
0.0
 11
-0.396173
 21
1.909908
 31
0.0
  0
LINE
  8
0
  6
CONTINUOUS
 62
     7
  5
96B
 10
-0.396173
 20
1.909908
 30
0.0
 11
-0.396582
 21
1.909673
 31
0.0
  0
LINE
  8
0
  6
CONTINUOUS
 62
     7
  5
96C
 10
-0.396582
 20
1.909673
 30
0.0
 11
-0.396991
 21
1.909437
 31
0.0
  0
LINE
  8
0
  6
CONTINUOUS
 62
     7
  5
96D
 10
-0.396991
 20
1.909437
 30
0.0
 11
-0.397399
 21
1.909202
 31
0.0
  0
LINE
  8
0
  6
CONTINUOUS
 62
     7
  5
96E
 10
-0.397399
 20
1.909202
 30
0.0
 11
-0.397805
 21
1.908966
 31
0.0
  0
LINE
  8
0
  6
CONTINUOUS
 62
     7
  5
96F
 10
-0.397805
 20
1.908966
 30
0.0
 11
-0.398212
 21
1.90873
 31
0.0
  0
LINE
  8
0
  6
CONTINUOUS
 62
     7
  5
970
 10
-0.398212
 20
1.90873
 30
0.0
 11
-0.398617
 21
1.908494
 31
0.0
  0
LINE
  8
0
  6
CONTINUOUS
 62
     7
  5
971
 10
-0.398617
 20
1.908494
 30
0.0
 11
-0.399022
 21
1.908257
 31
0.0
  0
LINE
  8
0
  6
CONTINUOUS
 62
     7
  5
972
 10
-0.399022
 20
1.908257
 30
0.0
 11
-0.399425
 21
1.90802
 31
0.0
  0
LINE
  8
0
  6
CONTINUOUS
 62
     7
  5
973
 10
-0.399425
 20
1.90802
 30
0.0
 11
-0.399828
 21
1.907783
 31
0.0
  0
LINE
  8
0
  6
CONTINUOUS
 62
     7
  5
974
 10
-0.399828
 20
1.907783
 30
0.0
 11
-0.400231
 21
1.907546
 31
0.0
  0
LINE
  8
0
  6
CONTINUOUS
 62
     7
  5
975
 10
-0.400231
 20
1.907546
 30
0.0
 11
-0.400632
 21
1.907309
 31
0.0
  0
LINE
  8
0
  6
CONTINUOUS
 62
     7
  5
976
 10
-0.400632
 20
1.907309
 30
0.0
 11
-0.401033
 21
1.907071
 31
0.0
  0
LINE
  8
0
  6
CONTINUOUS
 62
     7
  5
977
 10
-0.401033
 20
1.907071
 30
0.0
 11
-0.401433
 21
1.906833
 31
0.0
  0
LINE
  8
0
  6
CONTINUOUS
 62
     7
  5
978
 10
-0.401433
 20
1.906833
 30
0.0
 11
-0.401832
 21
1.906595
 31
0.0
  0
LINE
  8
0
  6
CONTINUOUS
 62
     7
  5
979
 10
-0.401832
 20
1.906595
 30
0.0
 11
-0.40223
 21
1.906356
 31
0.0
  0
LINE
  8
0
  6
CONTINUOUS
 62
     7
  5
97A
 10
-0.40223
 20
1.906356
 30
0.0
 11
-0.402628
 21
1.906118
 31
0.0
  0
LINE
  8
0
  6
CONTINUOUS
 62
     7
  5
97B
 10
-0.402628
 20
1.906118
 30
0.0
 11
-0.403024
 21
1.905879
 31
0.0
  0
LINE
  8
0
  6
CONTINUOUS
 62
     7
  5
97C
 10
-0.403024
 20
1.905879
 30
0.0
 11
-0.40342
 21
1.90564
 31
0.0
  0
LINE
  8
0
  6
CONTINUOUS
 62
     7
  5
97D
 10
-0.40342
 20
1.90564
 30
0.0
 11
-0.403815
 21
1.9054
 31
0.0
  0
LINE
  8
0
  6
CONTINUOUS
 62
     7
  5
97E
 10
-0.403815
 20
1.9054
 30
0.0
 11
-0.40421
 21
1.905161
 31
0.0
  0
LINE
  8
0
  6
CONTINUOUS
 62
     7
  5
97F
 10
-0.40421
 20
1.905161
 30
0.0
 11
-0.404603
 21
1.904921
 31
0.0
  0
LINE
  8
0
  6
CONTINUOUS
 62
     7
  5
980
 10
-0.404603
 20
1.904921
 30
0.0
 11
-0.404996
 21
1.904681
 31
0.0
  0
LINE
  8
0
  6
CONTINUOUS
 62
     7
  5
981
 10
-0.404996
 20
1.904681
 30
0.0
 11
-0.405388
 21
1.90444
 31
0.0
  0
LINE
  8
0
  6
CONTINUOUS
 62
     7
  5
982
 10
-0.405388
 20
1.90444
 30
0.0
 11
-0.405779
 21
1.9042
 31
0.0
  0
LINE
  8
0
  6
CONTINUOUS
 62
     7
  5
983
 10
-0.405779
 20
1.9042
 30
0.0
 11
-0.406169
 21
1.903959
 31
0.0
  0
LINE
  8
0
  6
CONTINUOUS
 62
     7
  5
984
 10
-0.406169
 20
1.903959
 30
0.0
 11
-0.406559
 21
1.903718
 31
0.0
  0
LINE
  8
0
  6
CONTINUOUS
 62
     7
  5
985
 10
-0.406559
 20
1.903718
 30
0.0
 11
-0.406948
 21
1.903477
 31
0.0
  0
LINE
  8
0
  6
CONTINUOUS
 62
     7
  5
986
 10
-0.406948
 20
1.903477
 30
0.0
 11
-0.407336
 21
1.903235
 31
0.0
  0
LINE
  8
0
  6
CONTINUOUS
 62
     7
  5
987
 10
-0.407336
 20
1.903235
 30
0.0
 11
-0.407723
 21
1.902994
 31
0.0
  0
LINE
  8
0
  6
CONTINUOUS
 62
     7
  5
988
 10
0.491817
 20
1.900939
 30
0.0
 11
0.49144
 21
1.904549
 31
0.0
  0
LINE
  8
0
  6
CONTINUOUS
 62
     7
  5
989
 10
0.49144
 20
1.904549
 30
0.0
 11
0.490914
 21
1.908155
 31
0.0
  0
LINE
  8
0
  6
CONTINUOUS
 62
     7
  5
98A
 10
0.490914
 20
1.908155
 30
0.0
 11
0.49024
 21
1.911757
 31
0.0
  0
LINE
  8
0
  6
CONTINUOUS
 62
     7
  5
98B
 10
0.49024
 20
1.911757
 30
0.0
 11
0.489419
 21
1.915354
 31
0.0
  0
LINE
  8
0
  6
CONTINUOUS
 62
     7
  5
98C
 10
0.489419
 20
1.915354
 30
0.0
 11
0.488449
 21
1.918944
 31
0.0
  0
LINE
  8
0
  6
CONTINUOUS
 62
     7
  5
98D
 10
0.488449
 20
1.918944
 30
0.0
 11
0.487333
 21
1.922526
 31
0.0
  0
LINE
  8
0
  6
CONTINUOUS
 62
     7
  5
98E
 10
0.487333
 20
1.922526
 30
0.0
 11
0.486069
 21
1.926099
 31
0.0
  0
LINE
  8
0
  6
CONTINUOUS
 62
     7
  5
98F
 10
0.486069
 20
1.926099
 30
0.0
 11
0.484658
 21
1.929663
 31
0.0
  0
LINE
  8
0
  6
CONTINUOUS
 62
     7
  5
990
 10
0.484658
 20
1.929663
 30
0.0
 11
0.483101
 21
1.933216
 31
0.0
  0
LINE
  8
0
  6
CONTINUOUS
 62
     7
  5
991
 10
0.483101
 20
1.933216
 30
0.0
 11
0.481399
 21
1.936757
 31
0.0
  0
LINE
  8
0
  6
CONTINUOUS
 62
     7
  5
992
 10
0.481399
 20
1.936757
 30
0.0
 11
0.479551
 21
1.940284
 31
0.0
  0
LINE
  8
0
  6
CONTINUOUS
 62
     7
  5
993
 10
0.479551
 20
1.940284
 30
0.0
 11
0.477558
 21
1.943798
 31
0.0
  0
LINE
  8
0
  6
CONTINUOUS
 62
     7
  5
994
 10
0.477558
 20
1.943798
 30
0.0
 11
0.475421
 21
1.947297
 31
0.0
  0
LINE
  8
0
  6
CONTINUOUS
 62
     7
  5
995
 10
0.475421
 20
1.947297
 30
0.0
 11
0.473141
 21
1.950779
 31
0.0
  0
LINE
  8
0
  6
CONTINUOUS
 62
     7
  5
996
 10
0.473141
 20
1.950779
 30
0.0
 11
0.470718
 21
1.954244
 31
0.0
  0
LINE
  8
0
  6
CONTINUOUS
 62
     7
  5
997
 10
0.470718
 20
1.954244
 30
0.0
 11
0.468153
 21
1.957691
 31
0.0
  0
LINE
  8
0
  6
CONTINUOUS
 62
     7
  5
998
 10
0.468153
 20
1.957691
 30
0.0
 11
0.465446
 21
1.961118
 31
0.0
  0
LINE
  8
0
  6
CONTINUOUS
 62
     7
  5
999
 10
0.465446
 20
1.961118
 30
0.0
 11
0.462599
 21
1.964525
 31
0.0
  0
LINE
  8
0
  6
CONTINUOUS
 62
     7
  5
99A
 10
0.462599
 20
1.964525
 30
0.0
 11
0.459613
 21
1.967911
 31
0.0
  0
LINE
  8
0
  6
CONTINUOUS
 62
     7
  5
99B
 10
0.459613
 20
1.967911
 30
0.0
 11
0.456488
 21
1.971274
 31
0.0
  0
LINE
  8
0
  6
CONTINUOUS
 62
     7
  5
99C
 10
0.456488
 20
1.971274
 30
0.0
 11
0.453224
 21
1.974614
 31
0.0
  0
LINE
  8
0
  6
CONTINUOUS
 62
     7
  5
99D
 10
0.453224
 20
1.974614
 30
0.0
 11
0.449825
 21
1.977929
 31
0.0
  0
LINE
  8
0
  6
CONTINUOUS
 62
     7
  5
99E
 10
0.449825
 20
1.977929
 30
0.0
 11
0.446289
 21
1.981219
 31
0.0
  0
LINE
  8
0
  6
CONTINUOUS
 62
     7
  5
99F
 10
0.446289
 20
1.981219
 30
0.0
 11
0.442619
 21
1.984482
 31
0.0
  0
LINE
  8
0
  6
CONTINUOUS
 62
     7
  5
9A0
 10
0.442619
 20
1.984482
 30
0.0
 11
0.438815
 21
1.987718
 31
0.0
  0
LINE
  8
0
  6
CONTINUOUS
 62
     7
  5
9A1
 10
0.438815
 20
1.987718
 30
0.0
 11
0.434879
 21
1.990925
 31
0.0
  0
LINE
  8
0
  6
CONTINUOUS
 62
     7
  5
9A2
 10
0.434879
 20
1.990925
 30
0.0
 11
0.430811
 21
1.994103
 31
0.0
  0
LINE
  8
0
  6
CONTINUOUS
 62
     7
  5
9A3
 10
0.430811
 20
1.994103
 30
0.0
 11
0.426613
 21
1.997251
 31
0.0
  0
LINE
  8
0
  6
CONTINUOUS
 62
     7
  5
9A4
 10
0.426613
 20
1.997251
 30
0.0
 11
0.422287
 21
2.000368
 31
0.0
  0
LINE
  8
0
  6
CONTINUOUS
 62
     7
  5
9A5
 10
0.422287
 20
2.000368
 30
0.0
 11
0.417833
 21
2.003452
 31
0.0
  0
LINE
  8
0
  6
CONTINUOUS
 62
     7
  5
9A6
 10
0.417833
 20
2.003452
 30
0.0
 11
0.413253
 21
2.006503
 31
0.0
  0
LINE
  8
0
  6
CONTINUOUS
 62
     7
  5
9A7
 10
0.413253
 20
2.006503
 30
0.0
 11
0.408549
 21
2.00952
 31
0.0
  0
LINE
  8
0
  6
CONTINUOUS
 62
     7
  5
9A8
 10
0.408549
 20
2.00952
 30
0.0
 11
0.403721
 21
2.012502
 31
0.0
  0
LINE
  8
0
  6
CONTINUOUS
 62
     7
  5
9A9
 10
0.403721
 20
2.012502
 30
0.0
 11
0.398771
 21
2.015448
 31
0.0
  0
LINE
  8
0
  6
CONTINUOUS
 62
     7
  5
9AA
 10
0.398771
 20
2.015448
 30
0.0
 11
0.393701
 21
2.018357
 31
0.0
  0
LINE
  8
0
  6
CONTINUOUS
 62
     7
  5
9AB
 10
-0.393701
 20
2.018357
 30
0.0
 11
-0.398771
 21
2.015448
 31
0.0
  0
LINE
  8
0
  6
CONTINUOUS
 62
     7
  5
9AC
 10
-0.398771
 20
2.015448
 30
0.0
 11
-0.403721
 21
2.012502
 31
0.0
  0
LINE
  8
0
  6
CONTINUOUS
 62
     7
  5
9AD
 10
-0.403721
 20
2.012502
 30
0.0
 11
-0.408549
 21
2.00952
 31
0.0
  0
LINE
  8
0
  6
CONTINUOUS
 62
     7
  5
9AE
 10
-0.408549
 20
2.00952
 30
0.0
 11
-0.413253
 21
2.006503
 31
0.0
  0
LINE
  8
0
  6
CONTINUOUS
 62
     7
  5
9AF
 10
-0.413253
 20
2.006503
 30
0.0
 11
-0.417833
 21
2.003452
 31
0.0
  0
LINE
  8
0
  6
CONTINUOUS
 62
     7
  5
9B0
 10
-0.417833
 20
2.003452
 30
0.0
 11
-0.422287
 21
2.000368
 31
0.0
  0
LINE
  8
0
  6
CONTINUOUS
 62
     7
  5
9B1
 10
-0.422287
 20
2.000368
 30
0.0
 11
-0.426613
 21
1.997251
 31
0.0
  0
LINE
  8
0
  6
CONTINUOUS
 62
     7
  5
9B2
 10
-0.426613
 20
1.997251
 30
0.0
 11
-0.430811
 21
1.994103
 31
0.0
  0
LINE
  8
0
  6
CONTINUOUS
 62
     7
  5
9B3
 10
-0.430811
 20
1.994103
 30
0.0
 11
-0.434879
 21
1.990925
 31
0.0
  0
LINE
  8
0
  6
CONTINUOUS
 62
     7
  5
9B4
 10
-0.434879
 20
1.990925
 30
0.0
 11
-0.438815
 21
1.987718
 31
0.0
  0
LINE
  8
0
  6
CONTINUOUS
 62
     7
  5
9B5
 10
-0.438815
 20
1.987718
 30
0.0
 11
-0.442619
 21
1.984482
 31
0.0
  0
LINE
  8
0
  6
CONTINUOUS
 62
     7
  5
9B6
 10
-0.442619
 20
1.984482
 30
0.0
 11
-0.446289
 21
1.981219
 31
0.0
  0
LINE
  8
0
  6
CONTINUOUS
 62
     7
  5
9B7
 10
-0.446289
 20
1.981219
 30
0.0
 11
-0.449825
 21
1.977929
 31
0.0
  0
LINE
  8
0
  6
CONTINUOUS
 62
     7
  5
9B8
 10
-0.449825
 20
1.977929
 30
0.0
 11
-0.453224
 21
1.974614
 31
0.0
  0
LINE
  8
0
  6
CONTINUOUS
 62
     7
  5
9B9
 10
-0.453224
 20
1.974614
 30
0.0
 11
-0.456488
 21
1.971274
 31
0.0
  0
LINE
  8
0
  6
CONTINUOUS
 62
     7
  5
9BA
 10
-0.456488
 20
1.971274
 30
0.0
 11
-0.459613
 21
1.967911
 31
0.0
  0
LINE
  8
0
  6
CONTINUOUS
 62
     7
  5
9BB
 10
-0.459613
 20
1.967911
 30
0.0
 11
-0.462599
 21
1.964525
 31
0.0
  0
LINE
  8
0
  6
CONTINUOUS
 62
     7
  5
9BC
 10
-0.462599
 20
1.964525
 30
0.0
 11
-0.465446
 21
1.961118
 31
0.0
  0
LINE
  8
0
  6
CONTINUOUS
 62
     7
  5
9BD
 10
-0.465446
 20
1.961118
 30
0.0
 11
-0.468153
 21
1.957691
 31
0.0
  0
LINE
  8
0
  6
CONTINUOUS
 62
     7
  5
9BE
 10
-0.468153
 20
1.957691
 30
0.0
 11
-0.470718
 21
1.954244
 31
0.0
  0
LINE
  8
0
  6
CONTINUOUS
 62
     7
  5
9BF
 10
-0.470718
 20
1.954244
 30
0.0
 11
-0.473141
 21
1.950779
 31
0.0
  0
LINE
  8
0
  6
CONTINUOUS
 62
     7
  5
9C0
 10
-0.473141
 20
1.950779
 30
0.0
 11
-0.475421
 21
1.947297
 31
0.0
  0
LINE
  8
0
  6
CONTINUOUS
 62
     7
  5
9C1
 10
-0.475421
 20
1.947297
 30
0.0
 11
-0.477558
 21
1.943798
 31
0.0
  0
LINE
  8
0
  6
CONTINUOUS
 62
     7
  5
9C2
 10
-0.477558
 20
1.943798
 30
0.0
 11
-0.479551
 21
1.940284
 31
0.0
  0
LINE
  8
0
  6
CONTINUOUS
 62
     7
  5
9C3
 10
-0.479551
 20
1.940284
 30
0.0
 11
-0.481399
 21
1.936757
 31
0.0
  0
LINE
  8
0
  6
CONTINUOUS
 62
     7
  5
9C4
 10
-0.481399
 20
1.936757
 30
0.0
 11
-0.483101
 21
1.933216
 31
0.0
  0
LINE
  8
0
  6
CONTINUOUS
 62
     7
  5
9C5
 10
-0.483101
 20
1.933216
 30
0.0
 11
-0.484658
 21
1.929663
 31
0.0
  0
LINE
  8
0
  6
CONTINUOUS
 62
     7
  5
9C6
 10
-0.484658
 20
1.929663
 30
0.0
 11
-0.486069
 21
1.926099
 31
0.0
  0
LINE
  8
0
  6
CONTINUOUS
 62
     7
  5
9C7
 10
-0.486069
 20
1.926099
 30
0.0
 11
-0.487333
 21
1.922526
 31
0.0
  0
LINE
  8
0
  6
CONTINUOUS
 62
     7
  5
9C8
 10
-0.487333
 20
1.922526
 30
0.0
 11
-0.488449
 21
1.918944
 31
0.0
  0
LINE
  8
0
  6
CONTINUOUS
 62
     7
  5
9C9
 10
-0.488449
 20
1.918944
 30
0.0
 11
-0.489419
 21
1.915354
 31
0.0
  0
LINE
  8
0
  6
CONTINUOUS
 62
     7
  5
9CA
 10
-0.489419
 20
1.915354
 30
0.0
 11
-0.49024
 21
1.911757
 31
0.0
  0
LINE
  8
0
  6
CONTINUOUS
 62
     7
  5
9CB
 10
-0.49024
 20
1.911757
 30
0.0
 11
-0.490914
 21
1.908155
 31
0.0
  0
LINE
  8
0
  6
CONTINUOUS
 62
     7
  5
9CC
 10
-0.490914
 20
1.908155
 30
0.0
 11
-0.49144
 21
1.904549
 31
0.0
  0
LINE
  8
0
  6
CONTINUOUS
 62
     7
  5
9CD
 10
-0.49144
 20
1.904549
 30
0.0
 11
-0.491817
 21
1.900939
 31
0.0
  0
LINE
  8
0
  6
CONTINUOUS
 62
     7
  5
9CE
 10
-0.407723
 20
1.225047
 30
0.0
 11
-0.407336
 21
1.225289
 31
0.0
  0
LINE
  8
0
  6
CONTINUOUS
 62
     7
  5
9CF
 10
-0.407336
 20
1.225289
 30
0.0
 11
-0.406948
 21
1.22553
 31
0.0
  0
LINE
  8
0
  6
CONTINUOUS
 62
     7
  5
9D0
 10
-0.406948
 20
1.22553
 30
0.0
 11
-0.406559
 21
1.225771
 31
0.0
  0
LINE
  8
0
  6
CONTINUOUS
 62
     7
  5
9D1
 10
-0.406559
 20
1.225771
 30
0.0
 11
-0.406169
 21
1.226012
 31
0.0
  0
LINE
  8
0
  6
CONTINUOUS
 62
     7
  5
9D2
 10
-0.406169
 20
1.226012
 30
0.0
 11
-0.405779
 21
1.226253
 31
0.0
  0
LINE
  8
0
  6
CONTINUOUS
 62
     7
  5
9D3
 10
-0.405779
 20
1.226253
 30
0.0
 11
-0.405388
 21
1.226494
 31
0.0
  0
LINE
  8
0
  6
CONTINUOUS
 62
     7
  5
9D4
 10
-0.405388
 20
1.226494
 30
0.0
 11
-0.404996
 21
1.226734
 31
0.0
  0
LINE
  8
0
  6
CONTINUOUS
 62
     7
  5
9D5
 10
-0.404996
 20
1.226734
 30
0.0
 11
-0.404603
 21
1.226974
 31
0.0
  0
LINE
  8
0
  6
CONTINUOUS
 62
     7
  5
9D6
 10
-0.404603
 20
1.226974
 30
0.0
 11
-0.40421
 21
1.227214
 31
0.0
  0
LINE
  8
0
  6
CONTINUOUS
 62
     7
  5
9D7
 10
-0.40421
 20
1.227214
 30
0.0
 11
-0.403815
 21
1.227453
 31
0.0
  0
LINE
  8
0
  6
CONTINUOUS
 62
     7
  5
9D8
 10
-0.403815
 20
1.227453
 30
0.0
 11
-0.40342
 21
1.227693
 31
0.0
  0
LINE
  8
0
  6
CONTINUOUS
 62
     7
  5
9D9
 10
-0.40342
 20
1.227693
 30
0.0
 11
-0.403024
 21
1.227932
 31
0.0
  0
LINE
  8
0
  6
CONTINUOUS
 62
     7
  5
9DA
 10
-0.403024
 20
1.227932
 30
0.0
 11
-0.402628
 21
1.228171
 31
0.0
  0
LINE
  8
0
  6
CONTINUOUS
 62
     7
  5
9DB
 10
-0.402628
 20
1.228171
 30
0.0
 11
-0.40223
 21
1.22841
 31
0.0
  0
LINE
  8
0
  6
CONTINUOUS
 62
     7
  5
9DC
 10
-0.40223
 20
1.22841
 30
0.0
 11
-0.401832
 21
1.228648
 31
0.0
  0
LINE
  8
0
  6
CONTINUOUS
 62
     7
  5
9DD
 10
-0.401832
 20
1.228648
 30
0.0
 11
-0.401433
 21
1.228886
 31
0.0
  0
LINE
  8
0
  6
CONTINUOUS
 62
     7
  5
9DE
 10
-0.401433
 20
1.228886
 30
0.0
 11
-0.401033
 21
1.229124
 31
0.0
  0
LINE
  8
0
  6
CONTINUOUS
 62
     7
  5
9DF
 10
-0.401033
 20
1.229124
 30
0.0
 11
-0.400632
 21
1.229362
 31
0.0
  0
LINE
  8
0
  6
CONTINUOUS
 62
     7
  5
9E0
 10
-0.400632
 20
1.229362
 30
0.0
 11
-0.400231
 21
1.229599
 31
0.0
  0
LINE
  8
0
  6
CONTINUOUS
 62
     7
  5
9E1
 10
-0.400231
 20
1.229599
 30
0.0
 11
-0.399828
 21
1.229837
 31
0.0
  0
LINE
  8
0
  6
CONTINUOUS
 62
     7
  5
9E2
 10
-0.399828
 20
1.229837
 30
0.0
 11
-0.399425
 21
1.230074
 31
0.0
  0
LINE
  8
0
  6
CONTINUOUS
 62
     7
  5
9E3
 10
-0.399425
 20
1.230074
 30
0.0
 11
-0.399022
 21
1.23031
 31
0.0
  0
LINE
  8
0
  6
CONTINUOUS
 62
     7
  5
9E4
 10
-0.399022
 20
1.23031
 30
0.0
 11
-0.398617
 21
1.230547
 31
0.0
  0
LINE
  8
0
  6
CONTINUOUS
 62
     7
  5
9E5
 10
-0.398617
 20
1.230547
 30
0.0
 11
-0.398212
 21
1.230783
 31
0.0
  0
LINE
  8
0
  6
CONTINUOUS
 62
     7
  5
9E6
 10
-0.398212
 20
1.230783
 30
0.0
 11
-0.397805
 21
1.231019
 31
0.0
  0
LINE
  8
0
  6
CONTINUOUS
 62
     7
  5
9E7
 10
-0.397805
 20
1.231019
 30
0.0
 11
-0.397399
 21
1.231255
 31
0.0
  0
LINE
  8
0
  6
CONTINUOUS
 62
     7
  5
9E8
 10
-0.397399
 20
1.231255
 30
0.0
 11
-0.396991
 21
1.23149
 31
0.0
  0
LINE
  8
0
  6
CONTINUOUS
 62
     7
  5
9E9
 10
-0.396991
 20
1.23149
 30
0.0
 11
-0.396582
 21
1.231726
 31
0.0
  0
LINE
  8
0
  6
CONTINUOUS
 62
     7
  5
9EA
 10
-0.396582
 20
1.231726
 30
0.0
 11
-0.396173
 21
1.231961
 31
0.0
  0
LINE
  8
0
  6
CONTINUOUS
 62
     7
  5
9EB
 10
-0.396173
 20
1.231961
 30
0.0
 11
-0.395763
 21
1.232196
 31
0.0
  0
LINE
  8
0
  6
CONTINUOUS
 62
     7
  5
9EC
 10
-0.395763
 20
1.232196
 30
0.0
 11
-0.395352
 21
1.23243
 31
0.0
  0
LINE
  8
0
  6
CONTINUOUS
 62
     7
  5
9ED
 10
-0.395352
 20
1.23243
 30
0.0
 11
-0.39494
 21
1.232665
 31
0.0
  0
LINE
  8
0
  6
CONTINUOUS
 62
     7
  5
9EE
 10
-0.39494
 20
1.232665
 30
0.0
 11
-0.394528
 21
1.232899
 31
0.0
  0
LINE
  8
0
  6
CONTINUOUS
 62
     7
  5
9EF
 10
-0.394528
 20
1.232899
 30
0.0
 11
-0.394115
 21
1.233133
 31
0.0
  0
LINE
  8
0
  6
CONTINUOUS
 62
     7
  5
9F0
 10
-0.394115
 20
1.233133
 30
0.0
 11
-0.393701
 21
1.233366
 31
0.0
  0
LINE
  8
0
  6
CONTINUOUS
 62
     7
  5
9F1
 10
0.393701
 20
1.233366
 30
0.0
 11
0.394115
 21
1.233133
 31
0.0
  0
LINE
  8
0
  6
CONTINUOUS
 62
     7
  5
9F2
 10
0.394115
 20
1.233133
 30
0.0
 11
0.394528
 21
1.232899
 31
0.0
  0
LINE
  8
0
  6
CONTINUOUS
 62
     7
  5
9F3
 10
0.394528
 20
1.232899
 30
0.0
 11
0.39494
 21
1.232665
 31
0.0
  0
LINE
  8
0
  6
CONTINUOUS
 62
     7
  5
9F4
 10
0.39494
 20
1.232665
 30
0.0
 11
0.395352
 21
1.23243
 31
0.0
  0
LINE
  8
0
  6
CONTINUOUS
 62
     7
  5
9F5
 10
0.395352
 20
1.23243
 30
0.0
 11
0.395763
 21
1.232196
 31
0.0
  0
LINE
  8
0
  6
CONTINUOUS
 62
     7
  5
9F6
 10
0.395763
 20
1.232196
 30
0.0
 11
0.396173
 21
1.231961
 31
0.0
  0
LINE
  8
0
  6
CONTINUOUS
 62
     7
  5
9F7
 10
0.396173
 20
1.231961
 30
0.0
 11
0.396582
 21
1.231726
 31
0.0
  0
LINE
  8
0
  6
CONTINUOUS
 62
     7
  5
9F8
 10
0.396582
 20
1.231726
 30
0.0
 11
0.396991
 21
1.23149
 31
0.0
  0
LINE
  8
0
  6
CONTINUOUS
 62
     7
  5
9F9
 10
0.396991
 20
1.23149
 30
0.0
 11
0.397399
 21
1.231255
 31
0.0
  0
LINE
  8
0
  6
CONTINUOUS
 62
     7
  5
9FA
 10
0.397399
 20
1.231255
 30
0.0
 11
0.397805
 21
1.231019
 31
0.0
  0
LINE
  8
0
  6
CONTINUOUS
 62
     7
  5
9FB
 10
0.397805
 20
1.231019
 30
0.0
 11
0.398212
 21
1.230783
 31
0.0
  0
LINE
  8
0
  6
CONTINUOUS
 62
     7
  5
9FC
 10
0.398212
 20
1.230783
 30
0.0
 11
0.398617
 21
1.230547
 31
0.0
  0
LINE
  8
0
  6
CONTINUOUS
 62
     7
  5
9FD
 10
0.398617
 20
1.230547
 30
0.0
 11
0.399022
 21
1.23031
 31
0.0
  0
LINE
  8
0
  6
CONTINUOUS
 62
     7
  5
9FE
 10
0.399022
 20
1.23031
 30
0.0
 11
0.399425
 21
1.230074
 31
0.0
  0
LINE
  8
0
  6
CONTINUOUS
 62
     7
  5
9FF
 10
0.399425
 20
1.230074
 30
0.0
 11
0.399828
 21
1.229837
 31
0.0
  0
LINE
  8
0
  6
CONTINUOUS
 62
     7
  5
A00
 10
0.399828
 20
1.229837
 30
0.0
 11
0.400231
 21
1.229599
 31
0.0
  0
LINE
  8
0
  6
CONTINUOUS
 62
     7
  5
A01
 10
0.400231
 20
1.229599
 30
0.0
 11
0.400632
 21
1.229362
 31
0.0
  0
LINE
  8
0
  6
CONTINUOUS
 62
     7
  5
A02
 10
0.400632
 20
1.229362
 30
0.0
 11
0.401033
 21
1.229124
 31
0.0
  0
LINE
  8
0
  6
CONTINUOUS
 62
     7
  5
A03
 10
0.401033
 20
1.229124
 30
0.0
 11
0.401433
 21
1.228886
 31
0.0
  0
LINE
  8
0
  6
CONTINUOUS
 62
     7
  5
A04
 10
0.401433
 20
1.228886
 30
0.0
 11
0.401832
 21
1.228648
 31
0.0
  0
LINE
  8
0
  6
CONTINUOUS
 62
     7
  5
A05
 10
0.401832
 20
1.228648
 30
0.0
 11
0.40223
 21
1.22841
 31
0.0
  0
LINE
  8
0
  6
CONTINUOUS
 62
     7
  5
A06
 10
0.40223
 20
1.22841
 30
0.0
 11
0.402628
 21
1.228171
 31
0.0
  0
LINE
  8
0
  6
CONTINUOUS
 62
     7
  5
A07
 10
0.402628
 20
1.228171
 30
0.0
 11
0.403024
 21
1.227932
 31
0.0
  0
LINE
  8
0
  6
CONTINUOUS
 62
     7
  5
A08
 10
0.403024
 20
1.227932
 30
0.0
 11
0.40342
 21
1.227693
 31
0.0
  0
LINE
  8
0
  6
CONTINUOUS
 62
     7
  5
A09
 10
0.40342
 20
1.227693
 30
0.0
 11
0.403815
 21
1.227453
 31
0.0
  0
LINE
  8
0
  6
CONTINUOUS
 62
     7
  5
A0A
 10
0.403815
 20
1.227453
 30
0.0
 11
0.40421
 21
1.227214
 31
0.0
  0
LINE
  8
0
  6
CONTINUOUS
 62
     7
  5
A0B
 10
0.40421
 20
1.227214
 30
0.0
 11
0.404603
 21
1.226974
 31
0.0
  0
LINE
  8
0
  6
CONTINUOUS
 62
     7
  5
A0C
 10
0.404603
 20
1.226974
 30
0.0
 11
0.404996
 21
1.226734
 31
0.0
  0
LINE
  8
0
  6
CONTINUOUS
 62
     7
  5
A0D
 10
0.404996
 20
1.226734
 30
0.0
 11
0.405388
 21
1.226494
 31
0.0
  0
LINE
  8
0
  6
CONTINUOUS
 62
     7
  5
A0E
 10
0.405388
 20
1.226494
 30
0.0
 11
0.405779
 21
1.226253
 31
0.0
  0
LINE
  8
0
  6
CONTINUOUS
 62
     7
  5
A0F
 10
0.405779
 20
1.226253
 30
0.0
 11
0.406169
 21
1.226012
 31
0.0
  0
LINE
  8
0
  6
CONTINUOUS
 62
     7
  5
A10
 10
0.406169
 20
1.226012
 30
0.0
 11
0.406559
 21
1.225771
 31
0.0
  0
LINE
  8
0
  6
CONTINUOUS
 62
     7
  5
A11
 10
0.406559
 20
1.225771
 30
0.0
 11
0.406948
 21
1.22553
 31
0.0
  0
LINE
  8
0
  6
CONTINUOUS
 62
     7
  5
A12
 10
0.406948
 20
1.22553
 30
0.0
 11
0.407336
 21
1.225289
 31
0.0
  0
LINE
  8
0
  6
CONTINUOUS
 62
     7
  5
A13
 10
0.407336
 20
1.225289
 30
0.0
 11
0.407723
 21
1.225047
 31
0.0
  0
LINE
  8
0
  6
CONTINUOUS
 62
     7
  5
A14
 10
-0.492126
 20
1.001533
 30
0.0
 11
-0.492043
 21
1.005357
 31
0.0
  0
LINE
  8
0
  6
CONTINUOUS
 62
     7
  5
A15
 10
-0.492043
 20
1.005357
 30
0.0
 11
-0.491793
 21
1.009179
 31
0.0
  0
LINE
  8
0
  6
CONTINUOUS
 62
     7
  5
A16
 10
-0.491793
 20
1.009179
 30
0.0
 11
-0.491378
 21
1.012999
 31
0.0
  0
LINE
  8
0
  6
CONTINUOUS
 62
     7
  5
A17
 10
-0.491378
 20
1.012999
 30
0.0
 11
-0.490796
 21
1.016815
 31
0.0
  0
LINE
  8
0
  6
CONTINUOUS
 62
     7
  5
A18
 10
-0.490796
 20
1.016815
 30
0.0
 11
-0.490048
 21
1.020626
 31
0.0
  0
LINE
  8
0
  6
CONTINUOUS
 62
     7
  5
A19
 10
-0.490048
 20
1.020626
 30
0.0
 11
-0.489135
 21
1.02443
 31
0.0
  0
LINE
  8
0
  6
CONTINUOUS
 62
     7
  5
A1A
 10
-0.489135
 20
1.02443
 30
0.0
 11
-0.488056
 21
1.028227
 31
0.0
  0
LINE
  8
0
  6
CONTINUOUS
 62
     7
  5
A1B
 10
-0.488056
 20
1.028227
 30
0.0
 11
-0.486812
 21
1.032014
 31
0.0
  0
LINE
  8
0
  6
CONTINUOUS
 62
     7
  5
A1C
 10
-0.486812
 20
1.032014
 30
0.0
 11
-0.485404
 21
1.035791
 31
0.0
  0
LINE
  8
0
  6
CONTINUOUS
 62
     7
  5
A1D
 10
-0.485404
 20
1.035791
 30
0.0
 11
-0.483832
 21
1.039557
 31
0.0
  0
LINE
  8
0
  6
CONTINUOUS
 62
     7
  5
A1E
 10
-0.483832
 20
1.039557
 30
0.0
 11
-0.482096
 21
1.04331
 31
0.0
  0
LINE
  8
0
  6
CONTINUOUS
 62
     7
  5
A1F
 10
-0.482096
 20
1.04331
 30
0.0
 11
-0.480197
 21
1.047048
 31
0.0
  0
LINE
  8
0
  6
CONTINUOUS
 62
     7
  5
A20
 10
-0.480197
 20
1.047048
 30
0.0
 11
-0.478136
 21
1.050772
 31
0.0
  0
LINE
  8
0
  6
CONTINUOUS
 62
     7
  5
A21
 10
-0.478136
 20
1.050772
 30
0.0
 11
-0.475913
 21
1.054478
 31
0.0
  0
LINE
  8
0
  6
CONTINUOUS
 62
     7
  5
A22
 10
-0.475913
 20
1.054478
 30
0.0
 11
-0.473529
 21
1.058167
 31
0.0
  0
LINE
  8
0
  6
CONTINUOUS
 62
     7
  5
A23
 10
-0.473529
 20
1.058167
 30
0.0
 11
-0.470986
 21
1.061837
 31
0.0
  0
LINE
  8
0
  6
CONTINUOUS
 62
     7
  5
A24
 10
-0.470986
 20
1.061837
 30
0.0
 11
-0.468283
 21
1.065486
 31
0.0
  0
LINE
  8
0
  6
CONTINUOUS
 62
     7
  5
A25
 10
-0.468283
 20
1.065486
 30
0.0
 11
-0.465421
 21
1.069114
 31
0.0
  0
LINE
  8
0
  6
CONTINUOUS
 62
     7
  5
A26
 10
-0.465421
 20
1.069114
 30
0.0
 11
-0.462403
 21
1.072718
 31
0.0
  0
LINE
  8
0
  6
CONTINUOUS
 62
     7
  5
A27
 10
-0.462403
 20
1.072718
 30
0.0
 11
-0.459228
 21
1.076299
 31
0.0
  0
LINE
  8
0
  6
CONTINUOUS
 62
     7
  5
A28
 10
-0.459228
 20
1.076299
 30
0.0
 11
-0.455898
 21
1.079855
 31
0.0
  0
LINE
  8
0
  6
CONTINUOUS
 62
     7
  5
A29
 10
-0.455898
 20
1.079855
 30
0.0
 11
-0.452414
 21
1.083384
 31
0.0
  0
LINE
  8
0
  6
CONTINUOUS
 62
     7
  5
A2A
 10
-0.452414
 20
1.083384
 30
0.0
 11
-0.448777
 21
1.086885
 31
0.0
  0
LINE
  8
0
  6
CONTINUOUS
 62
     7
  5
A2B
 10
-0.448777
 20
1.086885
 30
0.0
 11
-0.444988
 21
1.090357
 31
0.0
  0
LINE
  8
0
  6
CONTINUOUS
 62
     7
  5
A2C
 10
-0.444988
 20
1.090357
 30
0.0
 11
-0.441049
 21
1.0938
 31
0.0
  0
LINE
  8
0
  6
CONTINUOUS
 62
     7
  5
A2D
 10
-0.441049
 20
1.0938
 30
0.0
 11
-0.43696
 21
1.097211
 31
0.0
  0
LINE
  8
0
  6
CONTINUOUS
 62
     7
  5
A2E
 10
-0.43696
 20
1.097211
 30
0.0
 11
-0.432724
 21
1.10059
 31
0.0
  0
LINE
  8
0
  6
CONTINUOUS
 62
     7
  5
A2F
 10
-0.432724
 20
1.10059
 30
0.0
 11
-0.428342
 21
1.103935
 31
0.0
  0
LINE
  8
0
  6
CONTINUOUS
 62
     7
  5
A30
 10
-0.428342
 20
1.103935
 30
0.0
 11
-0.423815
 21
1.107246
 31
0.0
  0
LINE
  8
0
  6
CONTINUOUS
 62
     7
  5
A31
 10
-0.423815
 20
1.107246
 30
0.0
 11
-0.419144
 21
1.110521
 31
0.0
  0
LINE
  8
0
  6
CONTINUOUS
 62
     7
  5
A32
 10
-0.419144
 20
1.110521
 30
0.0
 11
-0.414332
 21
1.113759
 31
0.0
  0
LINE
  8
0
  6
CONTINUOUS
 62
     7
  5
A33
 10
-0.414332
 20
1.113759
 30
0.0
 11
-0.40938
 21
1.11696
 31
0.0
  0
LINE
  8
0
  6
CONTINUOUS
 62
     7
  5
A34
 10
-0.40938
 20
1.11696
 30
0.0
 11
-0.40429
 21
1.120121
 31
0.0
  0
LINE
  8
0
  6
CONTINUOUS
 62
     7
  5
A35
 10
-0.40429
 20
1.120121
 30
0.0
 11
-0.399063
 21
1.123242
 31
0.0
  0
LINE
  8
0
  6
CONTINUOUS
 62
     7
  5
A36
 10
-0.399063
 20
1.123242
 30
0.0
 11
-0.393701
 21
1.126322
 31
0.0
  0
LINE
  8
0
  6
CONTINUOUS
 62
     7
  5
A37
 10
0.492126
 20
1.001533
 30
0.0
 11
0.490145
 21
0.98289
 31
0.0
  0
LINE
  8
0
  6
CONTINUOUS
 62
     7
  5
A38
 10
0.490145
 20
0.98289
 30
0.0
 11
0.484217
 21
0.964397
 31
0.0
  0
LINE
  8
0
  6
CONTINUOUS
 62
     7
  5
A39
 10
0.484217
 20
0.964397
 30
0.0
 11
0.474391
 21
0.946202
 31
0.0
  0
LINE
  8
0
  6
CONTINUOUS
 62
     7
  5
A3A
 10
0.474391
 20
0.946202
 30
0.0
 11
0.460746
 21
0.928454
 31
0.0
  0
LINE
  8
0
  6
CONTINUOUS
 62
     7
  5
A3B
 10
0.460746
 20
0.928454
 30
0.0
 11
0.44339
 21
0.911293
 31
0.0
  0
LINE
  8
0
  6
CONTINUOUS
 62
     7
  5
A3C
 10
0.44339
 20
0.911293
 30
0.0
 11
0.422465
 21
0.89486
 31
0.0
  0
LINE
  8
0
  6
CONTINUOUS
 62
     7
  5
A3D
 10
0.422465
 20
0.89486
 30
0.0
 11
0.398138
 21
0.879285
 31
0.0
  0
LINE
  8
0
  6
CONTINUOUS
 62
     7
  5
A3E
 10
0.398138
 20
0.879285
 30
0.0
 11
0.370606
 21
0.864694
 31
0.0
  0
LINE
  8
0
  6
CONTINUOUS
 62
     7
  5
A3F
 10
0.370606
 20
0.864694
 30
0.0
 11
0.34009
 21
0.851205
 31
0.0
  0
LINE
  8
0
  6
CONTINUOUS
 62
     7
  5
A40
 10
0.34009
 20
0.851205
 30
0.0
 11
0.306836
 21
0.838927
 31
0.0
  0
LINE
  8
0
  6
CONTINUOUS
 62
     7
  5
A41
 10
0.306836
 20
0.838927
 30
0.0
 11
0.271111
 21
0.827957
 31
0.0
  0
LINE
  8
0
  6
CONTINUOUS
 62
     7
  5
A42
 10
0.271111
 20
0.827957
 30
0.0
 11
0.233203
 21
0.818386
 31
0.0
  0
LINE
  8
0
  6
CONTINUOUS
 62
     7
  5
A43
 10
0.233203
 20
0.818386
 30
0.0
 11
0.193418
 21
0.810288
 31
0.0
  0
LINE
  8
0
  6
CONTINUOUS
 62
     7
  5
A44
 10
0.193418
 20
0.810288
 30
0.0
 11
0.152075
 21
0.803731
 31
0.0
  0
LINE
  8
0
  6
CONTINUOUS
 62
     7
  5
A45
 10
0.152075
 20
0.803731
 30
0.0
 11
0.109508
 21
0.798766
 31
0.0
  0
LINE
  8
0
  6
CONTINUOUS
 62
     7
  5
A46
 10
0.109508
 20
0.798766
 30
0.0
 11
0.06606
 21
0.795434
 31
0.0
  0
LINE
  8
0
  6
CONTINUOUS
 62
     7
  5
A47
 10
0.06606
 20
0.795434
 30
0.0
 11
0.022079
 21
0.793761
 31
0.0
  0
LINE
  8
0
  6
CONTINUOUS
 62
     7
  5
A48
 10
0.022079
 20
0.793761
 30
0.0
 11
-0.022079
 21
0.793761
 31
0.0
  0
LINE
  8
0
  6
CONTINUOUS
 62
     7
  5
A49
 10
-0.022079
 20
0.793761
 30
0.0
 11
-0.06606
 21
0.795434
 31
0.0
  0
LINE
  8
0
  6
CONTINUOUS
 62
     7
  5
A4A
 10
-0.06606
 20
0.795434
 30
0.0
 11
-0.109508
 21
0.798766
 31
0.0
  0
LINE
  8
0
  6
CONTINUOUS
 62
     7
  5
A4B
 10
-0.109508
 20
0.798766
 30
0.0
 11
-0.152075
 21
0.803731
 31
0.0
  0
LINE
  8
0
  6
CONTINUOUS
 62
     7
  5
A4C
 10
-0.152075
 20
0.803731
 30
0.0
 11
-0.193418
 21
0.810288
 31
0.0
  0
LINE
  8
0
  6
CONTINUOUS
 62
     7
  5
A4D
 10
-0.193418
 20
0.810288
 30
0.0
 11
-0.233203
 21
0.818386
 31
0.0
  0
LINE
  8
0
  6
CONTINUOUS
 62
     7
  5
A4E
 10
-0.233203
 20
0.818386
 30
0.0
 11
-0.271111
 21
0.827957
 31
0.0
  0
LINE
  8
0
  6
CONTINUOUS
 62
     7
  5
A4F
 10
-0.271111
 20
0.827957
 30
0.0
 11
-0.306836
 21
0.838927
 31
0.0
  0
LINE
  8
0
  6
CONTINUOUS
 62
     7
  5
A50
 10
-0.306836
 20
0.838927
 30
0.0
 11
-0.34009
 21
0.851205
 31
0.0
  0
LINE
  8
0
  6
CONTINUOUS
 62
     7
  5
A51
 10
-0.34009
 20
0.851205
 30
0.0
 11
-0.370606
 21
0.864694
 31
0.0
  0
LINE
  8
0
  6
CONTINUOUS
 62
     7
  5
A52
 10
-0.370606
 20
0.864694
 30
0.0
 11
-0.398138
 21
0.879285
 31
0.0
  0
LINE
  8
0
  6
CONTINUOUS
 62
     7
  5
A53
 10
-0.398138
 20
0.879285
 30
0.0
 11
-0.422465
 21
0.89486
 31
0.0
  0
LINE
  8
0
  6
CONTINUOUS
 62
     7
  5
A54
 10
-0.422465
 20
0.89486
 30
0.0
 11
-0.44339
 21
0.911293
 31
0.0
  0
LINE
  8
0
  6
CONTINUOUS
 62
     7
  5
A55
 10
-0.44339
 20
0.911293
 30
0.0
 11
-0.460746
 21
0.928454
 31
0.0
  0
LINE
  8
0
  6
CONTINUOUS
 62
     7
  5
A56
 10
-0.460746
 20
0.928454
 30
0.0
 11
-0.474391
 21
0.946202
 31
0.0
  0
LINE
  8
0
  6
CONTINUOUS
 62
     7
  5
A57
 10
-0.474391
 20
0.946202
 30
0.0
 11
-0.484217
 21
0.964397
 31
0.0
  0
LINE
  8
0
  6
CONTINUOUS
 62
     7
  5
A58
 10
-0.484217
 20
0.964397
 30
0.0
 11
-0.490145
 21
0.98289
 31
0.0
  0
LINE
  8
0
  6
CONTINUOUS
 62
     7
  5
A59
 10
-0.490145
 20
0.98289
 30
0.0
 11
-0.492126
 21
1.001533
 31
0.0
  0
LINE
  8
0
  6
CONTINUOUS
 62
     7
  5
A5A
 10
0.393701
 20
1.126322
 30
0.0
 11
0.399063
 21
1.123242
 31
0.0
  0
LINE
  8
0
  6
CONTINUOUS
 62
     7
  5
A5B
 10
0.399063
 20
1.123242
 30
0.0
 11
0.40429
 21
1.120121
 31
0.0
  0
LINE
  8
0
  6
CONTINUOUS
 62
     7
  5
A5C
 10
0.40429
 20
1.120121
 30
0.0
 11
0.40938
 21
1.11696
 31
0.0
  0
LINE
  8
0
  6
CONTINUOUS
 62
     7
  5
A5D
 10
0.40938
 20
1.11696
 30
0.0
 11
0.414332
 21
1.113759
 31
0.0
  0
LINE
  8
0
  6
CONTINUOUS
 62
     7
  5
A5E
 10
0.414332
 20
1.113759
 30
0.0
 11
0.419144
 21
1.110521
 31
0.0
  0
LINE
  8
0
  6
CONTINUOUS
 62
     7
  5
A5F
 10
0.419144
 20
1.110521
 30
0.0
 11
0.423815
 21
1.107246
 31
0.0
  0
LINE
  8
0
  6
CONTINUOUS
 62
     7
  5
A60
 10
0.423815
 20
1.107246
 30
0.0
 11
0.428342
 21
1.103935
 31
0.0
  0
LINE
  8
0
  6
CONTINUOUS
 62
     7
  5
A61
 10
0.428342
 20
1.103935
 30
0.0
 11
0.432724
 21
1.10059
 31
0.0
  0
LINE
  8
0
  6
CONTINUOUS
 62
     7
  5
A62
 10
0.432724
 20
1.10059
 30
0.0
 11
0.43696
 21
1.097211
 31
0.0
  0
LINE
  8
0
  6
CONTINUOUS
 62
     7
  5
A63
 10
0.43696
 20
1.097211
 30
0.0
 11
0.441049
 21
1.0938
 31
0.0
  0
LINE
  8
0
  6
CONTINUOUS
 62
     7
  5
A64
 10
0.441049
 20
1.0938
 30
0.0
 11
0.444988
 21
1.090357
 31
0.0
  0
LINE
  8
0
  6
CONTINUOUS
 62
     7
  5
A65
 10
0.444988
 20
1.090357
 30
0.0
 11
0.448777
 21
1.086885
 31
0.0
  0
LINE
  8
0
  6
CONTINUOUS
 62
     7
  5
A66
 10
0.448777
 20
1.086885
 30
0.0
 11
0.452414
 21
1.083384
 31
0.0
  0
LINE
  8
0
  6
CONTINUOUS
 62
     7
  5
A67
 10
0.452414
 20
1.083384
 30
0.0
 11
0.455898
 21
1.079855
 31
0.0
  0
LINE
  8
0
  6
CONTINUOUS
 62
     7
  5
A68
 10
0.455898
 20
1.079855
 30
0.0
 11
0.459228
 21
1.076299
 31
0.0
  0
LINE
  8
0
  6
CONTINUOUS
 62
     7
  5
A69
 10
0.459228
 20
1.076299
 30
0.0
 11
0.462403
 21
1.072718
 31
0.0
  0
LINE
  8
0
  6
CONTINUOUS
 62
     7
  5
A6A
 10
0.462403
 20
1.072718
 30
0.0
 11
0.465421
 21
1.069114
 31
0.0
  0
LINE
  8
0
  6
CONTINUOUS
 62
     7
  5
A6B
 10
0.465421
 20
1.069114
 30
0.0
 11
0.468283
 21
1.065486
 31
0.0
  0
LINE
  8
0
  6
CONTINUOUS
 62
     7
  5
A6C
 10
0.468283
 20
1.065486
 30
0.0
 11
0.470986
 21
1.061837
 31
0.0
  0
LINE
  8
0
  6
CONTINUOUS
 62
     7
  5
A6D
 10
0.470986
 20
1.061837
 30
0.0
 11
0.473529
 21
1.058167
 31
0.0
  0
LINE
  8
0
  6
CONTINUOUS
 62
     7
  5
A6E
 10
0.473529
 20
1.058167
 30
0.0
 11
0.475913
 21
1.054478
 31
0.0
  0
LINE
  8
0
  6
CONTINUOUS
 62
     7
  5
A6F
 10
0.475913
 20
1.054478
 30
0.0
 11
0.478136
 21
1.050772
 31
0.0
  0
LINE
  8
0
  6
CONTINUOUS
 62
     7
  5
A70
 10
0.478136
 20
1.050772
 30
0.0
 11
0.480197
 21
1.047048
 31
0.0
  0
LINE
  8
0
  6
CONTINUOUS
 62
     7
  5
A71
 10
0.480197
 20
1.047048
 30
0.0
 11
0.482096
 21
1.04331
 31
0.0
  0
LINE
  8
0
  6
CONTINUOUS
 62
     7
  5
A72
 10
0.482096
 20
1.04331
 30
0.0
 11
0.483832
 21
1.039557
 31
0.0
  0
LINE
  8
0
  6
CONTINUOUS
 62
     7
  5
A73
 10
0.483832
 20
1.039557
 30
0.0
 11
0.485404
 21
1.035791
 31
0.0
  0
LINE
  8
0
  6
CONTINUOUS
 62
     7
  5
A74
 10
0.485404
 20
1.035791
 30
0.0
 11
0.486812
 21
1.032014
 31
0.0
  0
LINE
  8
0
  6
CONTINUOUS
 62
     7
  5
A75
 10
0.486812
 20
1.032014
 30
0.0
 11
0.488056
 21
1.028227
 31
0.0
  0
LINE
  8
0
  6
CONTINUOUS
 62
     7
  5
A76
 10
0.488056
 20
1.028227
 30
0.0
 11
0.489135
 21
1.02443
 31
0.0
  0
LINE
  8
0
  6
CONTINUOUS
 62
     7
  5
A77
 10
0.489135
 20
1.02443
 30
0.0
 11
0.490048
 21
1.020626
 31
0.0
  0
LINE
  8
0
  6
CONTINUOUS
 62
     7
  5
A78
 10
0.490048
 20
1.020626
 30
0.0
 11
0.490796
 21
1.016815
 31
0.0
  0
LINE
  8
0
  6
CONTINUOUS
 62
     7
  5
A79
 10
0.490796
 20
1.016815
 30
0.0
 11
0.491378
 21
1.012999
 31
0.0
  0
LINE
  8
0
  6
CONTINUOUS
 62
     7
  5
A7A
 10
0.491378
 20
1.012999
 30
0.0
 11
0.491793
 21
1.009179
 31
0.0
  0
LINE
  8
0
  6
CONTINUOUS
 62
     7
  5
A7B
 10
0.491793
 20
1.009179
 30
0.0
 11
0.492043
 21
1.005357
 31
0.0
  0
LINE
  8
0
  6
CONTINUOUS
 62
     7
  5
A7C
 10
0.492043
 20
1.005357
 30
0.0
 11
0.492126
 21
1.001533
 31
0.0
  0
LINE
  8
0
  6
CONTINUOUS
 62
     7
  5
A7D
 10
-0.393701
 20
2.141075
 30
0.0
 11
-0.393701
 21
1.126322
 31
0.0
  0
LINE
  8
0
  6
CONTINUOUS
 62
     7
  5
A7E
 10
-0.393701
 20
2.193474
 30
0.0
 11
-0.393701
 21
2.141075
 31
0.0
  0
LINE
  8
0
  6
CONTINUOUS
 62
     7
  5
A7F
 10
-0.393701
 20
2.569518
 30
0.0
 11
-0.393701
 21
2.193474
 31
0.0
  0
LINE
  8
0
  6
CONTINUOUS
 62
     7
  5
A80
 10
-0.393701
 20
2.582618
 30
0.0
 11
-0.393701
 21
2.569518
 31
0.0
  0
LINE
  8
0
  6
CONTINUOUS
 62
     7
  5
A81
 10
-0.393701
 20
3.331588
 30
0.0
 11
-0.393701
 21
2.582618
 31
0.0
  0
LINE
  8
0
  6
CONTINUOUS
 62
     7
  5
A82
 10
0.393701
 20
1.126322
 30
0.0
 11
0.393701
 21
2.141075
 31
0.0
  0
LINE
  8
0
  6
CONTINUOUS
 62
     7
  5
A83
 10
-0.393701
 20
1.902994
 30
0.0
 11
-0.407723
 21
1.902994
 31
0.0
  0
LINE
  8
0
  6
CONTINUOUS
 62
     7
  5
A84
 10
0.407723
 20
1.902994
 30
0.0
 11
0.393701
 21
1.902994
 31
0.0
  0
LINE
  8
0
  6
CONTINUOUS
 62
     7
  5
A85
 10
0.393701
 20
2.582618
 30
0.0
 11
0.393701
 21
3.331588
 31
0.0
  0
LINE
  8
0
  6
CONTINUOUS
 62
     7
  5
A86
 10
0.393701
 20
2.569518
 30
0.0
 11
0.393701
 21
2.582618
 31
0.0
  0
LINE
  8
0
  6
CONTINUOUS
 62
     7
  5
A87
 10
0.393701
 20
2.193474
 30
0.0
 11
0.393701
 21
2.569518
 31
0.0
  0
LINE
  8
0
  6
CONTINUOUS
 62
     7
  5
A88
 10
0.393701
 20
2.141075
 30
0.0
 11
0.393701
 21
2.193474
 31
0.0
  0
LINE
  8
0
  6
CONTINUOUS
 62
     7
  5
A89
 10
-0.688976
 20
4.410266
 30
0.0
 11
-0.688976
 21
4.121451
 31
0.0
  0
LINE
  8
0
  6
CONTINUOUS
 62
     7
  5
A8A
 10
-0.688976
 20
4.121451
 30
0.0
 11
-0.688976
 21
3.409835
 31
0.0
  0
LINE
  8
0
  6
CONTINUOUS
 62
     7
  5
A8B
 10
0.688976
 20
3.409835
 30
0.0
 11
0.688976
 21
4.121451
 31
0.0
  0
LINE
  8
0
  6
CONTINUOUS
 62
     7
  5
A8C
 10
0.688976
 20
4.121451
 30
0.0
 11
0.688976
 21
4.410266
 31
0.0
  0
LINE
  8
0
  6
CONTINUOUS
 62
     7
  5
A8D
 10
-2.066929
 20
-0.392805
 30
0.0
 11
2.066929
 21
-0.392805
 31
0.0
  0
LINE
  8
0
  6
CONTINUOUS
 62
     7
  5
A8E
 10
-1.884238
 20
-1.329398
 30
0.0
 11
-1.888929
 21
-1.329098
 31
0.0
  0
LINE
  8
0
  6
CONTINUOUS
 62
     7
  5
A8F
 10
-1.888929
 20
-1.329098
 30
0.0
 11
-1.89359
 21
-1.328709
 31
0.0
  0
LINE
  8
0
  6
CONTINUOUS
 62
     7
  5
A90
 10
-1.89359
 20
-1.328709
 30
0.0
 11
-1.898215
 21
-1.328234
 31
0.0
  0
LINE
  8
0
  6
CONTINUOUS
 62
     7
  5
A91
 10
-1.898215
 20
-1.328234
 30
0.0
 11
-1.902795
 21
-1.327672
 31
0.0
  0
LINE
  8
0
  6
CONTINUOUS
 62
     7
  5
A92
 10
-1.902795
 20
-1.327672
 30
0.0
 11
-1.907324
 21
-1.327024
 31
0.0
  0
LINE
  8
0
  6
CONTINUOUS
 62
     7
  5
A93
 10
-1.907324
 20
-1.327024
 30
0.0
 11
-1.911794
 21
-1.326291
 31
0.0
  0
LINE
  8
0
  6
CONTINUOUS
 62
     7
  5
A94
 10
-1.911794
 20
-1.326291
 30
0.0
 11
-1.916198
 21
-1.325475
 31
0.0
  0
LINE
  8
0
  6
CONTINUOUS
 62
     7
  5
A95
 10
-1.916198
 20
-1.325475
 30
0.0
 11
-1.920528
 21
-1.324577
 31
0.0
  0
LINE
  8
0
  6
CONTINUOUS
 62
     7
  5
A96
 10
-1.920528
 20
-1.324577
 30
0.0
 11
-1.924779
 21
-1.323598
 31
0.0
  0
LINE
  8
0
  6
CONTINUOUS
 62
     7
  5
A97
 10
-1.924779
 20
-1.323598
 30
0.0
 11
-1.928942
 21
-1.32254
 31
0.0
  0
LINE
  8
0
  6
CONTINUOUS
 62
     7
  5
A98
 10
-1.928942
 20
-1.32254
 30
0.0
 11
-1.933012
 21
-1.321404
 31
0.0
  0
LINE
  8
0
  6
CONTINUOUS
 62
     7
  5
A99
 10
-1.933012
 20
-1.321404
 30
0.0
 11
-1.936981
 21
-1.320193
 31
0.0
  0
LINE
  8
0
  6
CONTINUOUS
 62
     7
  5
A9A
 10
-1.936981
 20
-1.320193
 30
0.0
 11
-1.940844
 21
-1.318908
 31
0.0
  0
LINE
  8
0
  6
CONTINUOUS
 62
     7
  5
A9B
 10
-1.940844
 20
-1.318908
 30
0.0
 11
-1.944594
 21
-1.317551
 31
0.0
  0
LINE
  8
0
  6
CONTINUOUS
 62
     7
  5
A9C
 10
-1.944594
 20
-1.317551
 30
0.0
 11
-1.948226
 21
-1.316125
 31
0.0
  0
LINE
  8
0
  6
CONTINUOUS
 62
     7
  5
A9D
 10
-1.948226
 20
-1.316125
 30
0.0
 11
-1.951732
 21
-1.314632
 31
0.0
  0
LINE
  8
0
  6
CONTINUOUS
 62
     7
  5
A9E
 10
-1.951732
 20
-1.314632
 30
0.0
 11
-1.955109
 21
-1.313073
 31
0.0
  0
LINE
  8
0
  6
CONTINUOUS
 62
     7
  5
A9F
 10
-1.955109
 20
-1.313073
 30
0.0
 11
-1.958349
 21
-1.311453
 31
0.0
  0
LINE
  8
0
  6
CONTINUOUS
 62
     7
  5
AA0
 10
-1.958349
 20
-1.311453
 30
0.0
 11
-1.961449
 21
-1.309773
 31
0.0
  0
LINE
  8
0
  6
CONTINUOUS
 62
     7
  5
AA1
 10
-1.961449
 20
-1.309773
 30
0.0
 11
-1.964403
 21
-1.308036
 31
0.0
  0
LINE
  8
0
  6
CONTINUOUS
 62
     7
  5
AA2
 10
-1.964403
 20
-1.308036
 30
0.0
 11
-1.967206
 21
-1.306245
 31
0.0
  0
LINE
  8
0
  6
CONTINUOUS
 62
     7
  5
AA3
 10
-1.967206
 20
-1.306245
 30
0.0
 11
-1.969854
 21
-1.304402
 31
0.0
  0
LINE
  8
0
  6
CONTINUOUS
 62
     7
  5
AA4
 10
-1.969854
 20
-1.304402
 30
0.0
 11
-1.972342
 21
-1.302511
 31
0.0
  0
LINE
  8
0
  6
CONTINUOUS
 62
     7
  5
AA5
 10
-1.972342
 20
-1.302511
 30
0.0
 11
-1.974667
 21
-1.300575
 31
0.0
  0
LINE
  8
0
  6
CONTINUOUS
 62
     7
  5
AA6
 10
-1.974667
 20
-1.300575
 30
0.0
 11
-1.976825
 21
-1.298597
 31
0.0
  0
LINE
  8
0
  6
CONTINUOUS
 62
     7
  5
AA7
 10
-1.976825
 20
-1.298597
 30
0.0
 11
-1.978813
 21
-1.296579
 31
0.0
  0
LINE
  8
0
  6
CONTINUOUS
 62
     7
  5
AA8
 10
-1.978813
 20
-1.296579
 30
0.0
 11
-1.980626
 21
-1.294526
 31
0.0
  0
LINE
  8
0
  6
CONTINUOUS
 62
     7
  5
AA9
 10
-1.980626
 20
-1.294526
 30
0.0
 11
-1.982263
 21
-1.292441
 31
0.0
  0
LINE
  8
0
  6
CONTINUOUS
 62
     7
  5
AAA
 10
-1.982263
 20
-1.292441
 30
0.0
 11
-1.98372
 21
-1.290326
 31
0.0
  0
LINE
  8
0
  6
CONTINUOUS
 62
     7
  5
AAB
 10
-1.98372
 20
-1.290326
 30
0.0
 11
-1.984996
 21
-1.288186
 31
0.0
  0
LINE
  8
0
  6
CONTINUOUS
 62
     7
  5
AAC
 10
-1.984996
 20
-1.288186
 30
0.0
 11
-1.986088
 21
-1.286023
 31
0.0
  0
LINE
  8
0
  6
CONTINUOUS
 62
     7
  5
AAD
 10
-1.986088
 20
-1.286023
 30
0.0
 11
-1.986995
 21
-1.283841
 31
0.0
  0
LINE
  8
0
  6
CONTINUOUS
 62
     7
  5
AAE
 10
-1.986995
 20
-1.283841
 30
0.0
 11
-1.987714
 21
-1.281644
 31
0.0
  0
LINE
  8
0
  6
CONTINUOUS
 62
     7
  5
AAF
 10
-1.987714
 20
-1.281644
 30
0.0
 11
-1.988246
 21
-1.279436
 31
0.0
  0
LINE
  8
0
  6
CONTINUOUS
 62
     7
  5
AB0
 10
-1.988246
 20
-1.279436
 30
0.0
 11
-1.988588
 21
-1.277219
 31
0.0
  0
LINE
  8
0
  6
CONTINUOUS
 62
     7
  5
AB1
 10
-0.48341
 20
-1.405617
 30
0.0
 11
-1.884238
 21
-1.329398
 31
0.0
  0
LINE
  8
0
  6
CONTINUOUS
 62
     7
  5
AB2
 10
-0.425847
 20
-1.407178
 30
0.0
 11
-0.427495
 21
-1.407177
 31
0.0
  0
LINE
  8
0
  6
CONTINUOUS
 62
     7
  5
AB3
 10
-0.427495
 20
-1.407177
 30
0.0
 11
-0.429143
 21
-1.407173
 31
0.0
  0
LINE
  8
0
  6
CONTINUOUS
 62
     7
  5
AB4
 10
-0.429143
 20
-1.407173
 30
0.0
 11
-0.430792
 21
-1.407167
 31
0.0
  0
LINE
  8
0
  6
CONTINUOUS
 62
     7
  5
AB5
 10
-0.430792
 20
-1.407167
 30
0.0
 11
-0.43244
 21
-1.407158
 31
0.0
  0
LINE
  8
0
  6
CONTINUOUS
 62
     7
  5
AB6
 10
-0.43244
 20
-1.407158
 30
0.0
 11
-0.434088
 21
-1.407146
 31
0.0
  0
LINE
  8
0
  6
CONTINUOUS
 62
     7
  5
AB7
 10
-0.434088
 20
-1.407146
 30
0.0
 11
-0.435736
 21
-1.407132
 31
0.0
  0
LINE
  8
0
  6
CONTINUOUS
 62
     7
  5
AB8
 10
-0.435736
 20
-1.407132
 30
0.0
 11
-0.437384
 21
-1.407116
 31
0.0
  0
LINE
  8
0
  6
CONTINUOUS
 62
     7
  5
AB9
 10
-0.437384
 20
-1.407116
 30
0.0
 11
-0.439032
 21
-1.407097
 31
0.0
  0
LINE
  8
0
  6
CONTINUOUS
 62
     7
  5
ABA
 10
-0.439032
 20
-1.407097
 30
0.0
 11
-0.440679
 21
-1.407075
 31
0.0
  0
LINE
  8
0
  6
CONTINUOUS
 62
     7
  5
ABB
 10
-0.440679
 20
-1.407075
 30
0.0
 11
-0.442327
 21
-1.407051
 31
0.0
  0
LINE
  8
0
  6
CONTINUOUS
 62
     7
  5
ABC
 10
-0.442327
 20
-1.407051
 30
0.0
 11
-0.443974
 21
-1.407024
 31
0.0
  0
LINE
  8
0
  6
CONTINUOUS
 62
     7
  5
ABD
 10
-0.443974
 20
-1.407024
 30
0.0
 11
-0.445621
 21
-1.406994
 31
0.0
  0
LINE
  8
0
  6
CONTINUOUS
 62
     7
  5
ABE
 10
-0.445621
 20
-1.406994
 30
0.0
 11
-0.447268
 21
-1.406963
 31
0.0
  0
LINE
  8
0
  6
CONTINUOUS
 62
     7
  5
ABF
 10
-0.447268
 20
-1.406963
 30
0.0
 11
-0.448915
 21
-1.406928
 31
0.0
  0
LINE
  8
0
  6
CONTINUOUS
 62
     7
  5
AC0
 10
-0.448915
 20
-1.406928
 30
0.0
 11
-0.450561
 21
-1.406891
 31
0.0
  0
LINE
  8
0
  6
CONTINUOUS
 62
     7
  5
AC1
 10
-0.450561
 20
-1.406891
 30
0.0
 11
-0.452208
 21
-1.406852
 31
0.0
  0
LINE
  8
0
  6
CONTINUOUS
 62
     7
  5
AC2
 10
-0.452208
 20
-1.406852
 30
0.0
 11
-0.453854
 21
-1.40681
 31
0.0
  0
LINE
  8
0
  6
CONTINUOUS
 62
     7
  5
AC3
 10
-0.453854
 20
-1.40681
 30
0.0
 11
-0.455499
 21
-1.406765
 31
0.0
  0
LINE
  8
0
  6
CONTINUOUS
 62
     7
  5
AC4
 10
-0.455499
 20
-1.406765
 30
0.0
 11
-0.457144
 21
-1.406718
 31
0.0
  0
LINE
  8
0
  6
CONTINUOUS
 62
     7
  5
AC5
 10
-0.457144
 20
-1.406718
 30
0.0
 11
-0.458789
 21
-1.406668
 31
0.0
  0
LINE
  8
0
  6
CONTINUOUS
 62
     7
  5
AC6
 10
-0.458789
 20
-1.406668
 30
0.0
 11
-0.460434
 21
-1.406616
 31
0.0
  0
LINE
  8
0
  6
CONTINUOUS
 62
     7
  5
AC7
 10
-0.460434
 20
-1.406616
 30
0.0
 11
-0.462078
 21
-1.406561
 31
0.0
  0
LINE
  8
0
  6
CONTINUOUS
 62
     7
  5
AC8
 10
-0.462078
 20
-1.406561
 30
0.0
 11
-0.463722
 21
-1.406504
 31
0.0
  0
LINE
  8
0
  6
CONTINUOUS
 62
     7
  5
AC9
 10
-0.463722
 20
-1.406504
 30
0.0
 11
-0.465365
 21
-1.406444
 31
0.0
  0
LINE
  8
0
  6
CONTINUOUS
 62
     7
  5
ACA
 10
-0.465365
 20
-1.406444
 30
0.0
 11
-0.467008
 21
-1.406381
 31
0.0
  0
LINE
  8
0
  6
CONTINUOUS
 62
     7
  5
ACB
 10
-0.467008
 20
-1.406381
 30
0.0
 11
-0.468651
 21
-1.406316
 31
0.0
  0
LINE
  8
0
  6
CONTINUOUS
 62
     7
  5
ACC
 10
-0.468651
 20
-1.406316
 30
0.0
 11
-0.470293
 21
-1.406249
 31
0.0
  0
LINE
  8
0
  6
CONTINUOUS
 62
     7
  5
ACD
 10
-0.470293
 20
-1.406249
 30
0.0
 11
-0.471934
 21
-1.406179
 31
0.0
  0
LINE
  8
0
  6
CONTINUOUS
 62
     7
  5
ACE
 10
-0.471934
 20
-1.406179
 30
0.0
 11
-0.473575
 21
-1.406106
 31
0.0
  0
LINE
  8
0
  6
CONTINUOUS
 62
     7
  5
ACF
 10
-0.473575
 20
-1.406106
 30
0.0
 11
-0.475216
 21
-1.406031
 31
0.0
  0
LINE
  8
0
  6
CONTINUOUS
 62
     7
  5
AD0
 10
-0.475216
 20
-1.406031
 30
0.0
 11
-0.476856
 21
-1.405953
 31
0.0
  0
LINE
  8
0
  6
CONTINUOUS
 62
     7
  5
AD1
 10
-0.476856
 20
-1.405953
 30
0.0
 11
-0.478495
 21
-1.405873
 31
0.0
  0
LINE
  8
0
  6
CONTINUOUS
 62
     7
  5
AD2
 10
-0.478495
 20
-1.405873
 30
0.0
 11
-0.480134
 21
-1.40579
 31
0.0
  0
LINE
  8
0
  6
CONTINUOUS
 62
     7
  5
AD3
 10
-0.480134
 20
-1.40579
 30
0.0
 11
-0.481772
 21
-1.405705
 31
0.0
  0
LINE
  8
0
  6
CONTINUOUS
 62
     7
  5
AD4
 10
-0.481772
 20
-1.405705
 30
0.0
 11
-0.48341
 21
-1.405617
 31
0.0
  0
LINE
  8
0
  6
CONTINUOUS
 62
     7
  5
AD5
 10
-0.407723
 20
-1.407178
 30
0.0
 11
-0.425847
 21
-1.407178
 31
0.0
  0
LINE
  8
0
  6
CONTINUOUS
 62
     7
  5
AD6
 10
0.492126
 20
-1.277796
 30
0.0
 11
0.492055
 21
-1.28172
 31
0.0
  0
LINE
  8
0
  6
CONTINUOUS
 62
     7
  5
AD7
 10
0.492055
 20
-1.28172
 30
0.0
 11
0.491842
 21
-1.285642
 31
0.0
  0
LINE
  8
0
  6
CONTINUOUS
 62
     7
  5
AD8
 10
0.491842
 20
-1.285642
 30
0.0
 11
0.491487
 21
-1.289562
 31
0.0
  0
LINE
  8
0
  6
CONTINUOUS
 62
     7
  5
AD9
 10
0.491487
 20
-1.289562
 30
0.0
 11
0.490991
 21
-1.293479
 31
0.0
  0
LINE
  8
0
  6
CONTINUOUS
 62
     7
  5
ADA
 10
0.490991
 20
-1.293479
 30
0.0
 11
0.490353
 21
-1.297391
 31
0.0
  0
LINE
  8
0
  6
CONTINUOUS
 62
     7
  5
ADB
 10
0.490353
 20
-1.297391
 30
0.0
 11
0.489573
 21
-1.301297
 31
0.0
  0
LINE
  8
0
  6
CONTINUOUS
 62
     7
  5
ADC
 10
0.489573
 20
-1.301297
 30
0.0
 11
0.488653
 21
-1.305197
 31
0.0
  0
LINE
  8
0
  6
CONTINUOUS
 62
     7
  5
ADD
 10
0.488653
 20
-1.305197
 30
0.0
 11
0.487591
 21
-1.309089
 31
0.0
  0
LINE
  8
0
  6
CONTINUOUS
 62
     7
  5
ADE
 10
0.487591
 20
-1.309089
 30
0.0
 11
0.486389
 21
-1.312971
 31
0.0
  0
LINE
  8
0
  6
CONTINUOUS
 62
     7
  5
ADF
 10
0.486389
 20
-1.312971
 30
0.0
 11
0.485046
 21
-1.316844
 31
0.0
  0
LINE
  8
0
  6
CONTINUOUS
 62
     7
  5
AE0
 10
0.485046
 20
-1.316844
 30
0.0
 11
0.483564
 21
-1.320705
 31
0.0
  0
LINE
  8
0
  6
CONTINUOUS
 62
     7
  5
AE1
 10
0.483564
 20
-1.320705
 30
0.0
 11
0.481942
 21
-1.324554
 31
0.0
  0
LINE
  8
0
  6
CONTINUOUS
 62
     7
  5
AE2
 10
0.481942
 20
-1.324554
 30
0.0
 11
0.480181
 21
-1.32839
 31
0.0
  0
LINE
  8
0
  6
CONTINUOUS
 62
     7
  5
AE3
 10
0.480181
 20
-1.32839
 30
0.0
 11
0.478282
 21
-1.332211
 31
0.0
  0
LINE
  8
0
  6
CONTINUOUS
 62
     7
  5
AE4
 10
0.478282
 20
-1.332211
 30
0.0
 11
0.476245
 21
-1.336016
 31
0.0
  0
LINE
  8
0
  6
CONTINUOUS
 62
     7
  5
AE5
 10
0.476245
 20
-1.336016
 30
0.0
 11
0.47407
 21
-1.339804
 31
0.0
  0
LINE
  8
0
  6
CONTINUOUS
 62
     7
  5
AE6
 10
0.47407
 20
-1.339804
 30
0.0
 11
0.471759
 21
-1.343575
 31
0.0
  0
LINE
  8
0
  6
CONTINUOUS
 62
     7
  5
AE7
 10
0.471759
 20
-1.343575
 30
0.0
 11
0.469312
 21
-1.347326
 31
0.0
  0
LINE
  8
0
  6
CONTINUOUS
 62
     7
  5
AE8
 10
0.469312
 20
-1.347326
 30
0.0
 11
0.466729
 21
-1.351058
 31
0.0
  0
LINE
  8
0
  6
CONTINUOUS
 62
     7
  5
AE9
 10
0.466729
 20
-1.351058
 30
0.0
 11
0.464012
 21
-1.354768
 31
0.0
  0
LINE
  8
0
  6
CONTINUOUS
 62
     7
  5
AEA
 10
0.464012
 20
-1.354768
 30
0.0
 11
0.461161
 21
-1.358457
 31
0.0
  0
LINE
  8
0
  6
CONTINUOUS
 62
     7
  5
AEB
 10
0.461161
 20
-1.358457
 30
0.0
 11
0.458176
 21
-1.362121
 31
0.0
  0
LINE
  8
0
  6
CONTINUOUS
 62
     7
  5
AEC
 10
0.458176
 20
-1.362121
 30
0.0
 11
0.45506
 21
-1.365762
 31
0.0
  0
LINE
  8
0
  6
CONTINUOUS
 62
     7
  5
AED
 10
0.45506
 20
-1.365762
 30
0.0
 11
0.451813
 21
-1.369377
 31
0.0
  0
LINE
  8
0
  6
CONTINUOUS
 62
     7
  5
AEE
 10
0.451813
 20
-1.369377
 30
0.0
 11
0.448435
 21
-1.372966
 31
0.0
  0
LINE
  8
0
  6
CONTINUOUS
 62
     7
  5
AEF
 10
0.448435
 20
-1.372966
 30
0.0
 11
0.444928
 21
-1.376527
 31
0.0
  0
LINE
  8
0
  6
CONTINUOUS
 62
     7
  5
AF0
 10
0.444928
 20
-1.376527
 30
0.0
 11
0.441292
 21
-1.38006
 31
0.0
  0
LINE
  8
0
  6
CONTINUOUS
 62
     7
  5
AF1
 10
0.441292
 20
-1.38006
 30
0.0
 11
0.43753
 21
-1.383564
 31
0.0
  0
LINE
  8
0
  6
CONTINUOUS
 62
     7
  5
AF2
 10
0.43753
 20
-1.383564
 30
0.0
 11
0.433641
 21
-1.387037
 31
0.0
  0
LINE
  8
0
  6
CONTINUOUS
 62
     7
  5
AF3
 10
0.433641
 20
-1.387037
 30
0.0
 11
0.429627
 21
-1.390478
 31
0.0
  0
LINE
  8
0
  6
CONTINUOUS
 62
     7
  5
AF4
 10
0.429627
 20
-1.390478
 30
0.0
 11
0.425489
 21
-1.393887
 31
0.0
  0
LINE
  8
0
  6
CONTINUOUS
 62
     7
  5
AF5
 10
0.425489
 20
-1.393887
 30
0.0
 11
0.421228
 21
-1.397262
 31
0.0
  0
LINE
  8
0
  6
CONTINUOUS
 62
     7
  5
AF6
 10
0.421228
 20
-1.397262
 30
0.0
 11
0.416846
 21
-1.400603
 31
0.0
  0
LINE
  8
0
  6
CONTINUOUS
 62
     7
  5
AF7
 10
0.416846
 20
-1.400603
 30
0.0
 11
0.412344
 21
-1.403909
 31
0.0
  0
LINE
  8
0
  6
CONTINUOUS
 62
     7
  5
AF8
 10
0.412344
 20
-1.403909
 30
0.0
 11
0.407723
 21
-1.407178
 31
0.0
  0
LINE
  8
0
  6
CONTINUOUS
 62
     7
  5
AF9
 10
-0.407723
 20
-1.407178
 30
0.0
 11
-0.412344
 21
-1.403909
 31
0.0
  0
LINE
  8
0
  6
CONTINUOUS
 62
     7
  5
AFA
 10
-0.412344
 20
-1.403909
 30
0.0
 11
-0.416846
 21
-1.400603
 31
0.0
  0
LINE
  8
0
  6
CONTINUOUS
 62
     7
  5
AFB
 10
-0.416846
 20
-1.400603
 30
0.0
 11
-0.421228
 21
-1.397262
 31
0.0
  0
LINE
  8
0
  6
CONTINUOUS
 62
     7
  5
AFC
 10
-0.421228
 20
-1.397262
 30
0.0
 11
-0.425489
 21
-1.393887
 31
0.0
  0
LINE
  8
0
  6
CONTINUOUS
 62
     7
  5
AFD
 10
-0.425489
 20
-1.393887
 30
0.0
 11
-0.429627
 21
-1.390478
 31
0.0
  0
LINE
  8
0
  6
CONTINUOUS
 62
     7
  5
AFE
 10
-0.429627
 20
-1.390478
 30
0.0
 11
-0.433641
 21
-1.387037
 31
0.0
  0
LINE
  8
0
  6
CONTINUOUS
 62
     7
  5
AFF
 10
-0.433641
 20
-1.387037
 30
0.0
 11
-0.43753
 21
-1.383564
 31
0.0
  0
LINE
  8
0
  6
CONTINUOUS
 62
     7
  5
B00
 10
-0.43753
 20
-1.383564
 30
0.0
 11
-0.441292
 21
-1.38006
 31
0.0
  0
LINE
  8
0
  6
CONTINUOUS
 62
     7
  5
B01
 10
-0.441292
 20
-1.38006
 30
0.0
 11
-0.444928
 21
-1.376527
 31
0.0
  0
LINE
  8
0
  6
CONTINUOUS
 62
     7
  5
B02
 10
-0.444928
 20
-1.376527
 30
0.0
 11
-0.448435
 21
-1.372966
 31
0.0
  0
LINE
  8
0
  6
CONTINUOUS
 62
     7
  5
B03
 10
-0.448435
 20
-1.372966
 30
0.0
 11
-0.451813
 21
-1.369377
 31
0.0
  0
LINE
  8
0
  6
CONTINUOUS
 62
     7
  5
B04
 10
-0.451813
 20
-1.369377
 30
0.0
 11
-0.45506
 21
-1.365762
 31
0.0
  0
LINE
  8
0
  6
CONTINUOUS
 62
     7
  5
B05
 10
-0.45506
 20
-1.365762
 30
0.0
 11
-0.458176
 21
-1.362121
 31
0.0
  0
LINE
  8
0
  6
CONTINUOUS
 62
     7
  5
B06
 10
-0.458176
 20
-1.362121
 30
0.0
 11
-0.461161
 21
-1.358457
 31
0.0
  0
LINE
  8
0
  6
CONTINUOUS
 62
     7
  5
B07
 10
-0.461161
 20
-1.358457
 30
0.0
 11
-0.464012
 21
-1.354768
 31
0.0
  0
LINE
  8
0
  6
CONTINUOUS
 62
     7
  5
B08
 10
-0.464012
 20
-1.354768
 30
0.0
 11
-0.466729
 21
-1.351058
 31
0.0
  0
LINE
  8
0
  6
CONTINUOUS
 62
     7
  5
B09
 10
-0.466729
 20
-1.351058
 30
0.0
 11
-0.469312
 21
-1.347326
 31
0.0
  0
LINE
  8
0
  6
CONTINUOUS
 62
     7
  5
B0A
 10
-0.469312
 20
-1.347326
 30
0.0
 11
-0.471759
 21
-1.343575
 31
0.0
  0
LINE
  8
0
  6
CONTINUOUS
 62
     7
  5
B0B
 10
-0.471759
 20
-1.343575
 30
0.0
 11
-0.47407
 21
-1.339804
 31
0.0
  0
LINE
  8
0
  6
CONTINUOUS
 62
     7
  5
B0C
 10
-0.47407
 20
-1.339804
 30
0.0
 11
-0.476245
 21
-1.336016
 31
0.0
  0
LINE
  8
0
  6
CONTINUOUS
 62
     7
  5
B0D
 10
-0.476245
 20
-1.336016
 30
0.0
 11
-0.478282
 21
-1.332211
 31
0.0
  0
LINE
  8
0
  6
CONTINUOUS
 62
     7
  5
B0E
 10
-0.478282
 20
-1.332211
 30
0.0
 11
-0.480181
 21
-1.32839
 31
0.0
  0
LINE
  8
0
  6
CONTINUOUS
 62
     7
  5
B0F
 10
-0.480181
 20
-1.32839
 30
0.0
 11
-0.481942
 21
-1.324554
 31
0.0
  0
LINE
  8
0
  6
CONTINUOUS
 62
     7
  5
B10
 10
-0.481942
 20
-1.324554
 30
0.0
 11
-0.483564
 21
-1.320705
 31
0.0
  0
LINE
  8
0
  6
CONTINUOUS
 62
     7
  5
B11
 10
-0.483564
 20
-1.320705
 30
0.0
 11
-0.485046
 21
-1.316844
 31
0.0
  0
LINE
  8
0
  6
CONTINUOUS
 62
     7
  5
B12
 10
-0.485046
 20
-1.316844
 30
0.0
 11
-0.486389
 21
-1.312971
 31
0.0
  0
LINE
  8
0
  6
CONTINUOUS
 62
     7
  5
B13
 10
-0.486389
 20
-1.312971
 30
0.0
 11
-0.487591
 21
-1.309089
 31
0.0
  0
LINE
  8
0
  6
CONTINUOUS
 62
     7
  5
B14
 10
-0.487591
 20
-1.309089
 30
0.0
 11
-0.488653
 21
-1.305197
 31
0.0
  0
LINE
  8
0
  6
CONTINUOUS
 62
     7
  5
B15
 10
-0.488653
 20
-1.305197
 30
0.0
 11
-0.489573
 21
-1.301297
 31
0.0
  0
LINE
  8
0
  6
CONTINUOUS
 62
     7
  5
B16
 10
-0.489573
 20
-1.301297
 30
0.0
 11
-0.490353
 21
-1.297391
 31
0.0
  0
LINE
  8
0
  6
CONTINUOUS
 62
     7
  5
B17
 10
-0.490353
 20
-1.297391
 30
0.0
 11
-0.490991
 21
-1.293479
 31
0.0
  0
LINE
  8
0
  6
CONTINUOUS
 62
     7
  5
B18
 10
-0.490991
 20
-1.293479
 30
0.0
 11
-0.491487
 21
-1.289562
 31
0.0
  0
LINE
  8
0
  6
CONTINUOUS
 62
     7
  5
B19
 10
-0.491487
 20
-1.289562
 30
0.0
 11
-0.491842
 21
-1.285642
 31
0.0
  0
LINE
  8
0
  6
CONTINUOUS
 62
     7
  5
B1A
 10
-0.491842
 20
-1.285642
 30
0.0
 11
-0.492055
 21
-1.28172
 31
0.0
  0
LINE
  8
0
  6
CONTINUOUS
 62
     7
  5
B1B
 10
-0.492055
 20
-1.28172
 30
0.0
 11
-0.492126
 21
-1.277796
 31
0.0
  0
LINE
  8
0
  6
CONTINUOUS
 62
     7
  5
B1C
 10
0.425847
 20
-1.407178
 30
0.0
 11
0.407723
 21
-1.407178
 31
0.0
  0
LINE
  8
0
  6
CONTINUOUS
 62
     7
  5
B1D
 10
0.48341
 20
-1.405617
 30
0.0
 11
0.481772
 21
-1.405705
 31
0.0
  0
LINE
  8
0
  6
CONTINUOUS
 62
     7
  5
B1E
 10
0.481772
 20
-1.405705
 30
0.0
 11
0.480134
 21
-1.40579
 31
0.0
  0
LINE
  8
0
  6
CONTINUOUS
 62
     7
  5
B1F
 10
0.480134
 20
-1.40579
 30
0.0
 11
0.478495
 21
-1.405873
 31
0.0
  0
LINE
  8
0
  6
CONTINUOUS
 62
     7
  5
B20
 10
0.478495
 20
-1.405873
 30
0.0
 11
0.476856
 21
-1.405953
 31
0.0
  0
LINE
  8
0
  6
CONTINUOUS
 62
     7
  5
B21
 10
0.476856
 20
-1.405953
 30
0.0
 11
0.475216
 21
-1.406031
 31
0.0
  0
LINE
  8
0
  6
CONTINUOUS
 62
     7
  5
B22
 10
0.475216
 20
-1.406031
 30
0.0
 11
0.473575
 21
-1.406106
 31
0.0
  0
LINE
  8
0
  6
CONTINUOUS
 62
     7
  5
B23
 10
0.473575
 20
-1.406106
 30
0.0
 11
0.471934
 21
-1.406179
 31
0.0
  0
LINE
  8
0
  6
CONTINUOUS
 62
     7
  5
B24
 10
0.471934
 20
-1.406179
 30
0.0
 11
0.470293
 21
-1.406249
 31
0.0
  0
LINE
  8
0
  6
CONTINUOUS
 62
     7
  5
B25
 10
0.470293
 20
-1.406249
 30
0.0
 11
0.468651
 21
-1.406316
 31
0.0
  0
LINE
  8
0
  6
CONTINUOUS
 62
     7
  5
B26
 10
0.468651
 20
-1.406316
 30
0.0
 11
0.467008
 21
-1.406381
 31
0.0
  0
LINE
  8
0
  6
CONTINUOUS
 62
     7
  5
B27
 10
0.467008
 20
-1.406381
 30
0.0
 11
0.465365
 21
-1.406444
 31
0.0
  0
LINE
  8
0
  6
CONTINUOUS
 62
     7
  5
B28
 10
0.465365
 20
-1.406444
 30
0.0
 11
0.463722
 21
-1.406504
 31
0.0
  0
LINE
  8
0
  6
CONTINUOUS
 62
     7
  5
B29
 10
0.463722
 20
-1.406504
 30
0.0
 11
0.462078
 21
-1.406561
 31
0.0
  0
LINE
  8
0
  6
CONTINUOUS
 62
     7
  5
B2A
 10
0.462078
 20
-1.406561
 30
0.0
 11
0.460434
 21
-1.406616
 31
0.0
  0
LINE
  8
0
  6
CONTINUOUS
 62
     7
  5
B2B
 10
0.460434
 20
-1.406616
 30
0.0
 11
0.458789
 21
-1.406668
 31
0.0
  0
LINE
  8
0
  6
CONTINUOUS
 62
     7
  5
B2C
 10
0.458789
 20
-1.406668
 30
0.0
 11
0.457144
 21
-1.406718
 31
0.0
  0
LINE
  8
0
  6
CONTINUOUS
 62
     7
  5
B2D
 10
0.457144
 20
-1.406718
 30
0.0
 11
0.455499
 21
-1.406765
 31
0.0
  0
LINE
  8
0
  6
CONTINUOUS
 62
     7
  5
B2E
 10
0.455499
 20
-1.406765
 30
0.0
 11
0.453854
 21
-1.40681
 31
0.0
  0
LINE
  8
0
  6
CONTINUOUS
 62
     7
  5
B2F
 10
0.453854
 20
-1.40681
 30
0.0
 11
0.452208
 21
-1.406852
 31
0.0
  0
LINE
  8
0
  6
CONTINUOUS
 62
     7
  5
B30
 10
0.452208
 20
-1.406852
 30
0.0
 11
0.450561
 21
-1.406891
 31
0.0
  0
LINE
  8
0
  6
CONTINUOUS
 62
     7
  5
B31
 10
0.450561
 20
-1.406891
 30
0.0
 11
0.448915
 21
-1.406928
 31
0.0
  0
LINE
  8
0
  6
CONTINUOUS
 62
     7
  5
B32
 10
0.448915
 20
-1.406928
 30
0.0
 11
0.447268
 21
-1.406963
 31
0.0
  0
LINE
  8
0
  6
CONTINUOUS
 62
     7
  5
B33
 10
0.447268
 20
-1.406963
 30
0.0
 11
0.445621
 21
-1.406994
 31
0.0
  0
LINE
  8
0
  6
CONTINUOUS
 62
     7
  5
B34
 10
0.445621
 20
-1.406994
 30
0.0
 11
0.443974
 21
-1.407024
 31
0.0
  0
LINE
  8
0
  6
CONTINUOUS
 62
     7
  5
B35
 10
0.443974
 20
-1.407024
 30
0.0
 11
0.442327
 21
-1.407051
 31
0.0
  0
LINE
  8
0
  6
CONTINUOUS
 62
     7
  5
B36
 10
0.442327
 20
-1.407051
 30
0.0
 11
0.440679
 21
-1.407075
 31
0.0
  0
LINE
  8
0
  6
CONTINUOUS
 62
     7
  5
B37
 10
0.440679
 20
-1.407075
 30
0.0
 11
0.439032
 21
-1.407097
 31
0.0
  0
LINE
  8
0
  6
CONTINUOUS
 62
     7
  5
B38
 10
0.439032
 20
-1.407097
 30
0.0
 11
0.437384
 21
-1.407116
 31
0.0
  0
LINE
  8
0
  6
CONTINUOUS
 62
     7
  5
B39
 10
0.437384
 20
-1.407116
 30
0.0
 11
0.435736
 21
-1.407132
 31
0.0
  0
LINE
  8
0
  6
CONTINUOUS
 62
     7
  5
B3A
 10
0.435736
 20
-1.407132
 30
0.0
 11
0.434088
 21
-1.407146
 31
0.0
  0
LINE
  8
0
  6
CONTINUOUS
 62
     7
  5
B3B
 10
0.434088
 20
-1.407146
 30
0.0
 11
0.43244
 21
-1.407158
 31
0.0
  0
LINE
  8
0
  6
CONTINUOUS
 62
     7
  5
B3C
 10
0.43244
 20
-1.407158
 30
0.0
 11
0.430792
 21
-1.407167
 31
0.0
  0
LINE
  8
0
  6
CONTINUOUS
 62
     7
  5
B3D
 10
0.430792
 20
-1.407167
 30
0.0
 11
0.429143
 21
-1.407173
 31
0.0
  0
LINE
  8
0
  6
CONTINUOUS
 62
     7
  5
B3E
 10
0.429143
 20
-1.407173
 30
0.0
 11
0.427495
 21
-1.407177
 31
0.0
  0
LINE
  8
0
  6
CONTINUOUS
 62
     7
  5
B3F
 10
0.427495
 20
-1.407177
 30
0.0
 11
0.425847
 21
-1.407178
 31
0.0
  0
LINE
  8
0
  6
CONTINUOUS
 62
     7
  5
B40
 10
1.884238
 20
-1.329398
 30
0.0
 11
0.48341
 21
-1.405617
 31
0.0
  0
LINE
  8
0
  6
CONTINUOUS
 62
     7
  5
B41
 10
1.988588
 20
-1.277219
 30
0.0
 11
1.988246
 21
-1.279436
 31
0.0
  0
LINE
  8
0
  6
CONTINUOUS
 62
     7
  5
B42
 10
1.988246
 20
-1.279436
 30
0.0
 11
1.987714
 21
-1.281644
 31
0.0
  0
LINE
  8
0
  6
CONTINUOUS
 62
     7
  5
B43
 10
1.987714
 20
-1.281644
 30
0.0
 11
1.986995
 21
-1.283841
 31
0.0
  0
LINE
  8
0
  6
CONTINUOUS
 62
     7
  5
B44
 10
1.986995
 20
-1.283841
 30
0.0
 11
1.986088
 21
-1.286023
 31
0.0
  0
LINE
  8
0
  6
CONTINUOUS
 62
     7
  5
B45
 10
1.986088
 20
-1.286023
 30
0.0
 11
1.984996
 21
-1.288186
 31
0.0
  0
LINE
  8
0
  6
CONTINUOUS
 62
     7
  5
B46
 10
1.984996
 20
-1.288186
 30
0.0
 11
1.98372
 21
-1.290326
 31
0.0
  0
LINE
  8
0
  6
CONTINUOUS
 62
     7
  5
B47
 10
1.98372
 20
-1.290326
 30
0.0
 11
1.982263
 21
-1.292441
 31
0.0
  0
LINE
  8
0
  6
CONTINUOUS
 62
     7
  5
B48
 10
1.982263
 20
-1.292441
 30
0.0
 11
1.980626
 21
-1.294526
 31
0.0
  0
LINE
  8
0
  6
CONTINUOUS
 62
     7
  5
B49
 10
1.980626
 20
-1.294526
 30
0.0
 11
1.978813
 21
-1.296579
 31
0.0
  0
LINE
  8
0
  6
CONTINUOUS
 62
     7
  5
B4A
 10
1.978813
 20
-1.296579
 30
0.0
 11
1.976825
 21
-1.298597
 31
0.0
  0
LINE
  8
0
  6
CONTINUOUS
 62
     7
  5
B4B
 10
1.976825
 20
-1.298597
 30
0.0
 11
1.974667
 21
-1.300575
 31
0.0
  0
LINE
  8
0
  6
CONTINUOUS
 62
     7
  5
B4C
 10
1.974667
 20
-1.300575
 30
0.0
 11
1.972342
 21
-1.302511
 31
0.0
  0
LINE
  8
0
  6
CONTINUOUS
 62
     7
  5
B4D
 10
1.972342
 20
-1.302511
 30
0.0
 11
1.969854
 21
-1.304402
 31
0.0
  0
LINE
  8
0
  6
CONTINUOUS
 62
     7
  5
B4E
 10
1.969854
 20
-1.304402
 30
0.0
 11
1.967206
 21
-1.306245
 31
0.0
  0
LINE
  8
0
  6
CONTINUOUS
 62
     7
  5
B4F
 10
1.967206
 20
-1.306245
 30
0.0
 11
1.964403
 21
-1.308036
 31
0.0
  0
LINE
  8
0
  6
CONTINUOUS
 62
     7
  5
B50
 10
1.964403
 20
-1.308036
 30
0.0
 11
1.961449
 21
-1.309773
 31
0.0
  0
LINE
  8
0
  6
CONTINUOUS
 62
     7
  5
B51
 10
1.961449
 20
-1.309773
 30
0.0
 11
1.958349
 21
-1.311453
 31
0.0
  0
LINE
  8
0
  6
CONTINUOUS
 62
     7
  5
B52
 10
1.958349
 20
-1.311453
 30
0.0
 11
1.955109
 21
-1.313073
 31
0.0
  0
LINE
  8
0
  6
CONTINUOUS
 62
     7
  5
B53
 10
1.955109
 20
-1.313073
 30
0.0
 11
1.951732
 21
-1.314632
 31
0.0
  0
LINE
  8
0
  6
CONTINUOUS
 62
     7
  5
B54
 10
1.951732
 20
-1.314632
 30
0.0
 11
1.948226
 21
-1.316125
 31
0.0
  0
LINE
  8
0
  6
CONTINUOUS
 62
     7
  5
B55
 10
1.948226
 20
-1.316125
 30
0.0
 11
1.944594
 21
-1.317551
 31
0.0
  0
LINE
  8
0
  6
CONTINUOUS
 62
     7
  5
B56
 10
1.944594
 20
-1.317551
 30
0.0
 11
1.940844
 21
-1.318908
 31
0.0
  0
LINE
  8
0
  6
CONTINUOUS
 62
     7
  5
B57
 10
1.940844
 20
-1.318908
 30
0.0
 11
1.936981
 21
-1.320193
 31
0.0
  0
LINE
  8
0
  6
CONTINUOUS
 62
     7
  5
B58
 10
1.936981
 20
-1.320193
 30
0.0
 11
1.933012
 21
-1.321404
 31
0.0
  0
LINE
  8
0
  6
CONTINUOUS
 62
     7
  5
B59
 10
1.933012
 20
-1.321404
 30
0.0
 11
1.928942
 21
-1.32254
 31
0.0
  0
LINE
  8
0
  6
CONTINUOUS
 62
     7
  5
B5A
 10
1.928942
 20
-1.32254
 30
0.0
 11
1.924779
 21
-1.323598
 31
0.0
  0
LINE
  8
0
  6
CONTINUOUS
 62
     7
  5
B5B
 10
1.924779
 20
-1.323598
 30
0.0
 11
1.920528
 21
-1.324577
 31
0.0
  0
LINE
  8
0
  6
CONTINUOUS
 62
     7
  5
B5C
 10
1.920528
 20
-1.324577
 30
0.0
 11
1.916198
 21
-1.325475
 31
0.0
  0
LINE
  8
0
  6
CONTINUOUS
 62
     7
  5
B5D
 10
1.916198
 20
-1.325475
 30
0.0
 11
1.911794
 21
-1.326291
 31
0.0
  0
LINE
  8
0
  6
CONTINUOUS
 62
     7
  5
B5E
 10
1.911794
 20
-1.326291
 30
0.0
 11
1.907324
 21
-1.327024
 31
0.0
  0
LINE
  8
0
  6
CONTINUOUS
 62
     7
  5
B5F
 10
1.907324
 20
-1.327024
 30
0.0
 11
1.902795
 21
-1.327672
 31
0.0
  0
LINE
  8
0
  6
CONTINUOUS
 62
     7
  5
B60
 10
1.902795
 20
-1.327672
 30
0.0
 11
1.898215
 21
-1.328234
 31
0.0
  0
LINE
  8
0
  6
CONTINUOUS
 62
     7
  5
B61
 10
1.898215
 20
-1.328234
 30
0.0
 11
1.89359
 21
-1.328709
 31
0.0
  0
LINE
  8
0
  6
CONTINUOUS
 62
     7
  5
B62
 10
1.89359
 20
-1.328709
 30
0.0
 11
1.888929
 21
-1.329098
 31
0.0
  0
LINE
  8
0
  6
CONTINUOUS
 62
     7
  5
B63
 10
1.888929
 20
-1.329098
 30
0.0
 11
1.884238
 21
-1.329398
 31
0.0
  0
LINE
  8
0
  6
CONTINUOUS
 62
     7
  5
B64
 10
0.407723
 20
-1.407178
 30
0.0
 11
0.407336
 21
-1.407447
 31
0.0
  0
LINE
  8
0
  6
CONTINUOUS
 62
     7
  5
B65
 10
0.407336
 20
-1.407447
 30
0.0
 11
0.406948
 21
-1.407715
 31
0.0
  0
LINE
  8
0
  6
CONTINUOUS
 62
     7
  5
B66
 10
0.406948
 20
-1.407715
 30
0.0
 11
0.406559
 21
-1.407983
 31
0.0
  0
LINE
  8
0
  6
CONTINUOUS
 62
     7
  5
B67
 10
0.406559
 20
-1.407983
 30
0.0
 11
0.406169
 21
-1.408251
 31
0.0
  0
LINE
  8
0
  6
CONTINUOUS
 62
     7
  5
B68
 10
0.406169
 20
-1.408251
 30
0.0
 11
0.405779
 21
-1.408518
 31
0.0
  0
LINE
  8
0
  6
CONTINUOUS
 62
     7
  5
B69
 10
0.405779
 20
-1.408518
 30
0.0
 11
0.405388
 21
-1.408785
 31
0.0
  0
LINE
  8
0
  6
CONTINUOUS
 62
     7
  5
B6A
 10
0.405388
 20
-1.408785
 30
0.0
 11
0.404996
 21
-1.409052
 31
0.0
  0
LINE
  8
0
  6
CONTINUOUS
 62
     7
  5
B6B
 10
0.404996
 20
-1.409052
 30
0.0
 11
0.404603
 21
-1.409319
 31
0.0
  0
LINE
  8
0
  6
CONTINUOUS
 62
     7
  5
B6C
 10
0.404603
 20
-1.409319
 30
0.0
 11
0.40421
 21
-1.409585
 31
0.0
  0
LINE
  8
0
  6
CONTINUOUS
 62
     7
  5
B6D
 10
0.40421
 20
-1.409585
 30
0.0
 11
0.403815
 21
-1.409851
 31
0.0
  0
LINE
  8
0
  6
CONTINUOUS
 62
     7
  5
B6E
 10
0.403815
 20
-1.409851
 30
0.0
 11
0.40342
 21
-1.410117
 31
0.0
  0
LINE
  8
0
  6
CONTINUOUS
 62
     7
  5
B6F
 10
0.40342
 20
-1.410117
 30
0.0
 11
0.403024
 21
-1.410383
 31
0.0
  0
LINE
  8
0
  6
CONTINUOUS
 62
     7
  5
B70
 10
0.403024
 20
-1.410383
 30
0.0
 11
0.402628
 21
-1.410648
 31
0.0
  0
LINE
  8
0
  6
CONTINUOUS
 62
     7
  5
B71
 10
0.402628
 20
-1.410648
 30
0.0
 11
0.40223
 21
-1.410913
 31
0.0
  0
LINE
  8
0
  6
CONTINUOUS
 62
     7
  5
B72
 10
0.40223
 20
-1.410913
 30
0.0
 11
0.401832
 21
-1.411178
 31
0.0
  0
LINE
  8
0
  6
CONTINUOUS
 62
     7
  5
B73
 10
0.401832
 20
-1.411178
 30
0.0
 11
0.401433
 21
-1.411443
 31
0.0
  0
LINE
  8
0
  6
CONTINUOUS
 62
     7
  5
B74
 10
0.401433
 20
-1.411443
 30
0.0
 11
0.401033
 21
-1.411707
 31
0.0
  0
LINE
  8
0
  6
CONTINUOUS
 62
     7
  5
B75
 10
0.401033
 20
-1.411707
 30
0.0
 11
0.400632
 21
-1.411971
 31
0.0
  0
LINE
  8
0
  6
CONTINUOUS
 62
     7
  5
B76
 10
0.400632
 20
-1.411971
 30
0.0
 11
0.400231
 21
-1.412235
 31
0.0
  0
LINE
  8
0
  6
CONTINUOUS
 62
     7
  5
B77
 10
0.400231
 20
-1.412235
 30
0.0
 11
0.399828
 21
-1.412499
 31
0.0
  0
LINE
  8
0
  6
CONTINUOUS
 62
     7
  5
B78
 10
0.399828
 20
-1.412499
 30
0.0
 11
0.399425
 21
-1.412762
 31
0.0
  0
LINE
  8
0
  6
CONTINUOUS
 62
     7
  5
B79
 10
0.399425
 20
-1.412762
 30
0.0
 11
0.399022
 21
-1.413025
 31
0.0
  0
LINE
  8
0
  6
CONTINUOUS
 62
     7
  5
B7A
 10
0.399022
 20
-1.413025
 30
0.0
 11
0.398617
 21
-1.413288
 31
0.0
  0
LINE
  8
0
  6
CONTINUOUS
 62
     7
  5
B7B
 10
0.398617
 20
-1.413288
 30
0.0
 11
0.398212
 21
-1.41355
 31
0.0
  0
LINE
  8
0
  6
CONTINUOUS
 62
     7
  5
B7C
 10
0.398212
 20
-1.41355
 30
0.0
 11
0.397805
 21
-1.413812
 31
0.0
  0
LINE
  8
0
  6
CONTINUOUS
 62
     7
  5
B7D
 10
0.397805
 20
-1.413812
 30
0.0
 11
0.397399
 21
-1.414074
 31
0.0
  0
LINE
  8
0
  6
CONTINUOUS
 62
     7
  5
B7E
 10
0.397399
 20
-1.414074
 30
0.0
 11
0.396991
 21
-1.414336
 31
0.0
  0
LINE
  8
0
  6
CONTINUOUS
 62
     7
  5
B7F
 10
0.396991
 20
-1.414336
 30
0.0
 11
0.396582
 21
-1.414597
 31
0.0
  0
LINE
  8
0
  6
CONTINUOUS
 62
     7
  5
B80
 10
0.396582
 20
-1.414597
 30
0.0
 11
0.396173
 21
-1.414859
 31
0.0
  0
LINE
  8
0
  6
CONTINUOUS
 62
     7
  5
B81
 10
0.396173
 20
-1.414859
 30
0.0
 11
0.395763
 21
-1.415119
 31
0.0
  0
LINE
  8
0
  6
CONTINUOUS
 62
     7
  5
B82
 10
0.395763
 20
-1.415119
 30
0.0
 11
0.395352
 21
-1.41538
 31
0.0
  0
LINE
  8
0
  6
CONTINUOUS
 62
     7
  5
B83
 10
0.395352
 20
-1.41538
 30
0.0
 11
0.39494
 21
-1.41564
 31
0.0
  0
LINE
  8
0
  6
CONTINUOUS
 62
     7
  5
B84
 10
0.39494
 20
-1.41564
 30
0.0
 11
0.394528
 21
-1.4159
 31
0.0
  0
LINE
  8
0
  6
CONTINUOUS
 62
     7
  5
B85
 10
0.394528
 20
-1.4159
 30
0.0
 11
0.394115
 21
-1.41616
 31
0.0
  0
LINE
  8
0
  6
CONTINUOUS
 62
     7
  5
B86
 10
0.394115
 20
-1.41616
 30
0.0
 11
0.393701
 21
-1.41642
 31
0.0
  0
LINE
  8
0
  6
CONTINUOUS
 62
     7
  5
B87
 10
-0.393701
 20
-1.41642
 30
0.0
 11
-0.394115
 21
-1.41616
 31
0.0
  0
LINE
  8
0
  6
CONTINUOUS
 62
     7
  5
B88
 10
-0.394115
 20
-1.41616
 30
0.0
 11
-0.394528
 21
-1.4159
 31
0.0
  0
LINE
  8
0
  6
CONTINUOUS
 62
     7
  5
B89
 10
-0.394528
 20
-1.4159
 30
0.0
 11
-0.39494
 21
-1.41564
 31
0.0
  0
LINE
  8
0
  6
CONTINUOUS
 62
     7
  5
B8A
 10
-0.39494
 20
-1.41564
 30
0.0
 11
-0.395352
 21
-1.41538
 31
0.0
  0
LINE
  8
0
  6
CONTINUOUS
 62
     7
  5
B8B
 10
-0.395352
 20
-1.41538
 30
0.0
 11
-0.395763
 21
-1.415119
 31
0.0
  0
LINE
  8
0
  6
CONTINUOUS
 62
     7
  5
B8C
 10
-0.395763
 20
-1.415119
 30
0.0
 11
-0.396173
 21
-1.414859
 31
0.0
  0
LINE
  8
0
  6
CONTINUOUS
 62
     7
  5
B8D
 10
-0.396173
 20
-1.414859
 30
0.0
 11
-0.396582
 21
-1.414597
 31
0.0
  0
LINE
  8
0
  6
CONTINUOUS
 62
     7
  5
B8E
 10
-0.396582
 20
-1.414597
 30
0.0
 11
-0.396991
 21
-1.414336
 31
0.0
  0
LINE
  8
0
  6
CONTINUOUS
 62
     7
  5
B8F
 10
-0.396991
 20
-1.414336
 30
0.0
 11
-0.397399
 21
-1.414074
 31
0.0
  0
LINE
  8
0
  6
CONTINUOUS
 62
     7
  5
B90
 10
-0.397399
 20
-1.414074
 30
0.0
 11
-0.397805
 21
-1.413812
 31
0.0
  0
LINE
  8
0
  6
CONTINUOUS
 62
     7
  5
B91
 10
-0.397805
 20
-1.413812
 30
0.0
 11
-0.398212
 21
-1.41355
 31
0.0
  0
LINE
  8
0
  6
CONTINUOUS
 62
     7
  5
B92
 10
-0.398212
 20
-1.41355
 30
0.0
 11
-0.398617
 21
-1.413288
 31
0.0
  0
LINE
  8
0
  6
CONTINUOUS
 62
     7
  5
B93
 10
-0.398617
 20
-1.413288
 30
0.0
 11
-0.399022
 21
-1.413025
 31
0.0
  0
LINE
  8
0
  6
CONTINUOUS
 62
     7
  5
B94
 10
-0.399022
 20
-1.413025
 30
0.0
 11
-0.399425
 21
-1.412762
 31
0.0
  0
LINE
  8
0
  6
CONTINUOUS
 62
     7
  5
B95
 10
-0.399425
 20
-1.412762
 30
0.0
 11
-0.399828
 21
-1.412499
 31
0.0
  0
LINE
  8
0
  6
CONTINUOUS
 62
     7
  5
B96
 10
-0.399828
 20
-1.412499
 30
0.0
 11
-0.400231
 21
-1.412235
 31
0.0
  0
LINE
  8
0
  6
CONTINUOUS
 62
     7
  5
B97
 10
-0.400231
 20
-1.412235
 30
0.0
 11
-0.400632
 21
-1.411971
 31
0.0
  0
LINE
  8
0
  6
CONTINUOUS
 62
     7
  5
B98
 10
-0.400632
 20
-1.411971
 30
0.0
 11
-0.401033
 21
-1.411707
 31
0.0
  0
LINE
  8
0
  6
CONTINUOUS
 62
     7
  5
B99
 10
-0.401033
 20
-1.411707
 30
0.0
 11
-0.401433
 21
-1.411443
 31
0.0
  0
LINE
  8
0
  6
CONTINUOUS
 62
     7
  5
B9A
 10
-0.401433
 20
-1.411443
 30
0.0
 11
-0.401832
 21
-1.411178
 31
0.0
  0
LINE
  8
0
  6
CONTINUOUS
 62
     7
  5
B9B
 10
-0.401832
 20
-1.411178
 30
0.0
 11
-0.40223
 21
-1.410913
 31
0.0
  0
LINE
  8
0
  6
CONTINUOUS
 62
     7
  5
B9C
 10
-0.40223
 20
-1.410913
 30
0.0
 11
-0.402628
 21
-1.410648
 31
0.0
  0
LINE
  8
0
  6
CONTINUOUS
 62
     7
  5
B9D
 10
-0.402628
 20
-1.410648
 30
0.0
 11
-0.403024
 21
-1.410383
 31
0.0
  0
LINE
  8
0
  6
CONTINUOUS
 62
     7
  5
B9E
 10
-0.403024
 20
-1.410383
 30
0.0
 11
-0.40342
 21
-1.410117
 31
0.0
  0
LINE
  8
0
  6
CONTINUOUS
 62
     7
  5
B9F
 10
-0.40342
 20
-1.410117
 30
0.0
 11
-0.403815
 21
-1.409851
 31
0.0
  0
LINE
  8
0
  6
CONTINUOUS
 62
     7
  5
BA0
 10
-0.403815
 20
-1.409851
 30
0.0
 11
-0.40421
 21
-1.409585
 31
0.0
  0
LINE
  8
0
  6
CONTINUOUS
 62
     7
  5
BA1
 10
-0.40421
 20
-1.409585
 30
0.0
 11
-0.404603
 21
-1.409319
 31
0.0
  0
LINE
  8
0
  6
CONTINUOUS
 62
     7
  5
BA2
 10
-0.404603
 20
-1.409319
 30
0.0
 11
-0.404996
 21
-1.409052
 31
0.0
  0
LINE
  8
0
  6
CONTINUOUS
 62
     7
  5
BA3
 10
-0.404996
 20
-1.409052
 30
0.0
 11
-0.405388
 21
-1.408785
 31
0.0
  0
LINE
  8
0
  6
CONTINUOUS
 62
     7
  5
BA4
 10
-0.405388
 20
-1.408785
 30
0.0
 11
-0.405779
 21
-1.408518
 31
0.0
  0
LINE
  8
0
  6
CONTINUOUS
 62
     7
  5
BA5
 10
-0.405779
 20
-1.408518
 30
0.0
 11
-0.406169
 21
-1.408251
 31
0.0
  0
LINE
  8
0
  6
CONTINUOUS
 62
     7
  5
BA6
 10
-0.406169
 20
-1.408251
 30
0.0
 11
-0.406559
 21
-1.407983
 31
0.0
  0
LINE
  8
0
  6
CONTINUOUS
 62
     7
  5
BA7
 10
-0.406559
 20
-1.407983
 30
0.0
 11
-0.406948
 21
-1.407715
 31
0.0
  0
LINE
  8
0
  6
CONTINUOUS
 62
     7
  5
BA8
 10
-0.406948
 20
-1.407715
 30
0.0
 11
-0.407336
 21
-1.407447
 31
0.0
  0
LINE
  8
0
  6
CONTINUOUS
 62
     7
  5
BA9
 10
-0.407336
 20
-1.407447
 30
0.0
 11
-0.407723
 21
-1.407178
 31
0.0
  0
LINE
  8
0
  6
CONTINUOUS
 62
     7
  5
BAA
 10
0.492126
 20
-1.173511
 30
0.0
 11
0.492043
 21
-1.177759
 31
0.0
  0
LINE
  8
0
  6
CONTINUOUS
 62
     7
  5
BAB
 10
0.492043
 20
-1.177759
 30
0.0
 11
0.491793
 21
-1.182005
 31
0.0
  0
LINE
  8
0
  6
CONTINUOUS
 62
     7
  5
BAC
 10
0.491793
 20
-1.182005
 30
0.0
 11
0.491378
 21
-1.186248
 31
0.0
  0
LINE
  8
0
  6
CONTINUOUS
 62
     7
  5
BAD
 10
0.491378
 20
-1.186248
 30
0.0
 11
0.490796
 21
-1.190487
 31
0.0
  0
LINE
  8
0
  6
CONTINUOUS
 62
     7
  5
BAE
 10
0.490796
 20
-1.190487
 30
0.0
 11
0.490048
 21
-1.19472
 31
0.0
  0
LINE
  8
0
  6
CONTINUOUS
 62
     7
  5
BAF
 10
0.490048
 20
-1.19472
 30
0.0
 11
0.489135
 21
-1.198946
 31
0.0
  0
LINE
  8
0
  6
CONTINUOUS
 62
     7
  5
BB0
 10
0.489135
 20
-1.198946
 30
0.0
 11
0.488056
 21
-1.203164
 31
0.0
  0
LINE
  8
0
  6
CONTINUOUS
 62
     7
  5
BB1
 10
0.488056
 20
-1.203164
 30
0.0
 11
0.486812
 21
-1.207371
 31
0.0
  0
LINE
  8
0
  6
CONTINUOUS
 62
     7
  5
BB2
 10
0.486812
 20
-1.207371
 30
0.0
 11
0.485404
 21
-1.211567
 31
0.0
  0
LINE
  8
0
  6
CONTINUOUS
 62
     7
  5
BB3
 10
0.485404
 20
-1.211567
 30
0.0
 11
0.483832
 21
-1.21575
 31
0.0
  0
LINE
  8
0
  6
CONTINUOUS
 62
     7
  5
BB4
 10
0.483832
 20
-1.21575
 30
0.0
 11
0.482096
 21
-1.219919
 31
0.0
  0
LINE
  8
0
  6
CONTINUOUS
 62
     7
  5
BB5
 10
0.482096
 20
-1.219919
 30
0.0
 11
0.480197
 21
-1.224072
 31
0.0
  0
LINE
  8
0
  6
CONTINUOUS
 62
     7
  5
BB6
 10
0.480197
 20
-1.224072
 30
0.0
 11
0.478136
 21
-1.228209
 31
0.0
  0
LINE
  8
0
  6
CONTINUOUS
 62
     7
  5
BB7
 10
0.478136
 20
-1.228209
 30
0.0
 11
0.475913
 21
-1.232326
 31
0.0
  0
LINE
  8
0
  6
CONTINUOUS
 62
     7
  5
BB8
 10
0.475913
 20
-1.232326
 30
0.0
 11
0.473529
 21
-1.236424
 31
0.0
  0
LINE
  8
0
  6
CONTINUOUS
 62
     7
  5
BB9
 10
0.473529
 20
-1.236424
 30
0.0
 11
0.470986
 21
-1.2405
 31
0.0
  0
LINE
  8
0
  6
CONTINUOUS
 62
     7
  5
BBA
 10
0.470986
 20
-1.2405
 30
0.0
 11
0.468283
 21
-1.244554
 31
0.0
  0
LINE
  8
0
  6
CONTINUOUS
 62
     7
  5
BBB
 10
0.468283
 20
-1.244554
 30
0.0
 11
0.465421
 21
-1.248584
 31
0.0
  0
LINE
  8
0
  6
CONTINUOUS
 62
     7
  5
BBC
 10
0.465421
 20
-1.248584
 30
0.0
 11
0.462403
 21
-1.252588
 31
0.0
  0
LINE
  8
0
  6
CONTINUOUS
 62
     7
  5
BBD
 10
0.462403
 20
-1.252588
 30
0.0
 11
0.459228
 21
-1.256566
 31
0.0
  0
LINE
  8
0
  6
CONTINUOUS
 62
     7
  5
BBE
 10
0.459228
 20
-1.256566
 30
0.0
 11
0.455898
 21
-1.260516
 31
0.0
  0
LINE
  8
0
  6
CONTINUOUS
 62
     7
  5
BBF
 10
0.455898
 20
-1.260516
 30
0.0
 11
0.452414
 21
-1.264436
 31
0.0
  0
LINE
  8
0
  6
CONTINUOUS
 62
     7
  5
BC0
 10
0.452414
 20
-1.264436
 30
0.0
 11
0.448777
 21
-1.268325
 31
0.0
  0
LINE
  8
0
  6
CONTINUOUS
 62
     7
  5
BC1
 10
0.448777
 20
-1.268325
 30
0.0
 11
0.444988
 21
-1.272183
 31
0.0
  0
LINE
  8
0
  6
CONTINUOUS
 62
     7
  5
BC2
 10
0.444988
 20
-1.272183
 30
0.0
 11
0.441049
 21
-1.276007
 31
0.0
  0
LINE
  8
0
  6
CONTINUOUS
 62
     7
  5
BC3
 10
0.441049
 20
-1.276007
 30
0.0
 11
0.43696
 21
-1.279796
 31
0.0
  0
LINE
  8
0
  6
CONTINUOUS
 62
     7
  5
BC4
 10
0.43696
 20
-1.279796
 30
0.0
 11
0.432724
 21
-1.28355
 31
0.0
  0
LINE
  8
0
  6
CONTINUOUS
 62
     7
  5
BC5
 10
0.432724
 20
-1.28355
 30
0.0
 11
0.428342
 21
-1.287266
 31
0.0
  0
LINE
  8
0
  6
CONTINUOUS
 62
     7
  5
BC6
 10
0.428342
 20
-1.287266
 30
0.0
 11
0.423815
 21
-1.290944
 31
0.0
  0
LINE
  8
0
  6
CONTINUOUS
 62
     7
  5
BC7
 10
0.423815
 20
-1.290944
 30
0.0
 11
0.419144
 21
-1.294582
 31
0.0
  0
LINE
  8
0
  6
CONTINUOUS
 62
     7
  5
BC8
 10
0.419144
 20
-1.294582
 30
0.0
 11
0.414332
 21
-1.298179
 31
0.0
  0
LINE
  8
0
  6
CONTINUOUS
 62
     7
  5
BC9
 10
0.414332
 20
-1.298179
 30
0.0
 11
0.40938
 21
-1.301734
 31
0.0
  0
LINE
  8
0
  6
CONTINUOUS
 62
     7
  5
BCA
 10
0.40938
 20
-1.301734
 30
0.0
 11
0.40429
 21
-1.305246
 31
0.0
  0
LINE
  8
0
  6
CONTINUOUS
 62
     7
  5
BCB
 10
0.40429
 20
-1.305246
 30
0.0
 11
0.399063
 21
-1.308713
 31
0.0
  0
LINE
  8
0
  6
CONTINUOUS
 62
     7
  5
BCC
 10
0.399063
 20
-1.308713
 30
0.0
 11
0.393701
 21
-1.312135
 31
0.0
  0
LINE
  8
0
  6
CONTINUOUS
 62
     7
  5
BCD
 10
-0.492126
 20
-1.173511
 30
0.0
 11
-0.490145
 21
-1.152801
 31
0.0
  0
LINE
  8
0
  6
CONTINUOUS
 62
     7
  5
BCE
 10
-0.490145
 20
-1.152801
 30
0.0
 11
-0.484217
 21
-1.132257
 31
0.0
  0
LINE
  8
0
  6
CONTINUOUS
 62
     7
  5
BCF
 10
-0.484217
 20
-1.132257
 30
0.0
 11
-0.474391
 21
-1.112046
 31
0.0
  0
LINE
  8
0
  6
CONTINUOUS
 62
     7
  5
BD0
 10
-0.474391
 20
-1.112046
 30
0.0
 11
-0.460746
 21
-1.09233
 31
0.0
  0
LINE
  8
0
  6
CONTINUOUS
 62
     7
  5
BD1
 10
-0.460746
 20
-1.09233
 30
0.0
 11
-0.44339
 21
-1.073267
 31
0.0
  0
LINE
  8
0
  6
CONTINUOUS
 62
     7
  5
BD2
 10
-0.44339
 20
-1.073267
 30
0.0
 11
-0.422465
 21
-1.055011
 31
0.0
  0
LINE
  8
0
  6
CONTINUOUS
 62
     7
  5
BD3
 10
-0.422465
 20
-1.055011
 30
0.0
 11
-0.398138
 21
-1.03771
 31
0.0
  0
LINE
  8
0
  6
CONTINUOUS
 62
     7
  5
BD4
 10
-0.398138
 20
-1.03771
 30
0.0
 11
-0.370606
 21
-1.021501
 31
0.0
  0
LINE
  8
0
  6
CONTINUOUS
 62
     7
  5
BD5
 10
-0.370606
 20
-1.021501
 30
0.0
 11
-0.34009
 21
-1.006517
 31
0.0
  0
LINE
  8
0
  6
CONTINUOUS
 62
     7
  5
BD6
 10
-0.34009
 20
-1.006517
 30
0.0
 11
-0.306836
 21
-0.992877
 31
0.0
  0
LINE
  8
0
  6
CONTINUOUS
 62
     7
  5
BD7
 10
-0.306836
 20
-0.992877
 30
0.0
 11
-0.271111
 21
-0.980692
 31
0.0
  0
LINE
  8
0
  6
CONTINUOUS
 62
     7
  5
BD8
 10
-0.271111
 20
-0.980692
 30
0.0
 11
-0.233203
 21
-0.970059
 31
0.0
  0
LINE
  8
0
  6
CONTINUOUS
 62
     7
  5
BD9
 10
-0.233203
 20
-0.970059
 30
0.0
 11
-0.193418
 21
-0.961064
 31
0.0
  0
LINE
  8
0
  6
CONTINUOUS
 62
     7
  5
BDA
 10
-0.193418
 20
-0.961064
 30
0.0
 11
-0.152075
 21
-0.95378
 31
0.0
  0
LINE
  8
0
  6
CONTINUOUS
 62
     7
  5
BDB
 10
-0.152075
 20
-0.95378
 30
0.0
 11
-0.109508
 21
-0.948265
 31
0.0
  0
LINE
  8
0
  6
CONTINUOUS
 62
     7
  5
BDC
 10
-0.109508
 20
-0.948265
 30
0.0
 11
-0.06606
 21
-0.944563
 31
0.0
  0
LINE
  8
0
  6
CONTINUOUS
 62
     7
  5
BDD
 10
-0.06606
 20
-0.944563
 30
0.0
 11
-0.022079
 21
-0.942705
 31
0.0
  0
LINE
  8
0
  6
CONTINUOUS
 62
     7
  5
BDE
 10
-0.022079
 20
-0.942705
 30
0.0
 11
0.022079
 21
-0.942705
 31
0.0
  0
LINE
  8
0
  6
CONTINUOUS
 62
     7
  5
BDF
 10
0.022079
 20
-0.942705
 30
0.0
 11
0.06606
 21
-0.944563
 31
0.0
  0
LINE
  8
0
  6
CONTINUOUS
 62
     7
  5
BE0
 10
0.06606
 20
-0.944563
 30
0.0
 11
0.109508
 21
-0.948265
 31
0.0
  0
LINE
  8
0
  6
CONTINUOUS
 62
     7
  5
BE1
 10
0.109508
 20
-0.948265
 30
0.0
 11
0.152075
 21
-0.95378
 31
0.0
  0
LINE
  8
0
  6
CONTINUOUS
 62
     7
  5
BE2
 10
0.152075
 20
-0.95378
 30
0.0
 11
0.193418
 21
-0.961064
 31
0.0
  0
LINE
  8
0
  6
CONTINUOUS
 62
     7
  5
BE3
 10
0.193418
 20
-0.961064
 30
0.0
 11
0.233203
 21
-0.970059
 31
0.0
  0
LINE
  8
0
  6
CONTINUOUS
 62
     7
  5
BE4
 10
0.233203
 20
-0.970059
 30
0.0
 11
0.271111
 21
-0.980692
 31
0.0
  0
LINE
  8
0
  6
CONTINUOUS
 62
     7
  5
BE5
 10
0.271111
 20
-0.980692
 30
0.0
 11
0.306836
 21
-0.992877
 31
0.0
  0
LINE
  8
0
  6
CONTINUOUS
 62
     7
  5
BE6
 10
0.306836
 20
-0.992877
 30
0.0
 11
0.34009
 21
-1.006517
 31
0.0
  0
LINE
  8
0
  6
CONTINUOUS
 62
     7
  5
BE7
 10
0.34009
 20
-1.006517
 30
0.0
 11
0.370606
 21
-1.021501
 31
0.0
  0
LINE
  8
0
  6
CONTINUOUS
 62
     7
  5
BE8
 10
0.370606
 20
-1.021501
 30
0.0
 11
0.398138
 21
-1.03771
 31
0.0
  0
LINE
  8
0
  6
CONTINUOUS
 62
     7
  5
BE9
 10
0.398138
 20
-1.03771
 30
0.0
 11
0.422465
 21
-1.055011
 31
0.0
  0
LINE
  8
0
  6
CONTINUOUS
 62
     7
  5
BEA
 10
0.422465
 20
-1.055011
 30
0.0
 11
0.44339
 21
-1.073267
 31
0.0
  0
LINE
  8
0
  6
CONTINUOUS
 62
     7
  5
BEB
 10
0.44339
 20
-1.073267
 30
0.0
 11
0.460746
 21
-1.09233
 31
0.0
  0
LINE
  8
0
  6
CONTINUOUS
 62
     7
  5
BEC
 10
0.460746
 20
-1.09233
 30
0.0
 11
0.474391
 21
-1.112046
 31
0.0
  0
LINE
  8
0
  6
CONTINUOUS
 62
     7
  5
BED
 10
0.474391
 20
-1.112046
 30
0.0
 11
0.484217
 21
-1.132257
 31
0.0
  0
LINE
  8
0
  6
CONTINUOUS
 62
     7
  5
BEE
 10
0.484217
 20
-1.132257
 30
0.0
 11
0.490145
 21
-1.152801
 31
0.0
  0
LINE
  8
0
  6
CONTINUOUS
 62
     7
  5
BEF
 10
0.490145
 20
-1.152801
 30
0.0
 11
0.492126
 21
-1.173511
 31
0.0
  0
LINE
  8
0
  6
CONTINUOUS
 62
     7
  5
BF0
 10
-0.393701
 20
-1.312135
 30
0.0
 11
-0.399063
 21
-1.308713
 31
0.0
  0
LINE
  8
0
  6
CONTINUOUS
 62
     7
  5
BF1
 10
-0.399063
 20
-1.308713
 30
0.0
 11
-0.40429
 21
-1.305246
 31
0.0
  0
LINE
  8
0
  6
CONTINUOUS
 62
     7
  5
BF2
 10
-0.40429
 20
-1.305246
 30
0.0
 11
-0.40938
 21
-1.301734
 31
0.0
  0
LINE
  8
0
  6
CONTINUOUS
 62
     7
  5
BF3
 10
-0.40938
 20
-1.301734
 30
0.0
 11
-0.414332
 21
-1.298179
 31
0.0
  0
LINE
  8
0
  6
CONTINUOUS
 62
     7
  5
BF4
 10
-0.414332
 20
-1.298179
 30
0.0
 11
-0.419144
 21
-1.294582
 31
0.0
  0
LINE
  8
0
  6
CONTINUOUS
 62
     7
  5
BF5
 10
-0.419144
 20
-1.294582
 30
0.0
 11
-0.423815
 21
-1.290944
 31
0.0
  0
LINE
  8
0
  6
CONTINUOUS
 62
     7
  5
BF6
 10
-0.423815
 20
-1.290944
 30
0.0
 11
-0.428342
 21
-1.287266
 31
0.0
  0
LINE
  8
0
  6
CONTINUOUS
 62
     7
  5
BF7
 10
-0.428342
 20
-1.287266
 30
0.0
 11
-0.432724
 21
-1.28355
 31
0.0
  0
LINE
  8
0
  6
CONTINUOUS
 62
     7
  5
BF8
 10
-0.432724
 20
-1.28355
 30
0.0
 11
-0.43696
 21
-1.279796
 31
0.0
  0
LINE
  8
0
  6
CONTINUOUS
 62
     7
  5
BF9
 10
-0.43696
 20
-1.279796
 30
0.0
 11
-0.441049
 21
-1.276007
 31
0.0
  0
LINE
  8
0
  6
CONTINUOUS
 62
     7
  5
BFA
 10
-0.441049
 20
-1.276007
 30
0.0
 11
-0.444988
 21
-1.272183
 31
0.0
  0
LINE
  8
0
  6
CONTINUOUS
 62
     7
  5
BFB
 10
-0.444988
 20
-1.272183
 30
0.0
 11
-0.448777
 21
-1.268325
 31
0.0
  0
LINE
  8
0
  6
CONTINUOUS
 62
     7
  5
BFC
 10
-0.448777
 20
-1.268325
 30
0.0
 11
-0.452414
 21
-1.264436
 31
0.0
  0
LINE
  8
0
  6
CONTINUOUS
 62
     7
  5
BFD
 10
-0.452414
 20
-1.264436
 30
0.0
 11
-0.455898
 21
-1.260516
 31
0.0
  0
LINE
  8
0
  6
CONTINUOUS
 62
     7
  5
BFE
 10
-0.455898
 20
-1.260516
 30
0.0
 11
-0.459228
 21
-1.256566
 31
0.0
  0
LINE
  8
0
  6
CONTINUOUS
 62
     7
  5
BFF
 10
-0.459228
 20
-1.256566
 30
0.0
 11
-0.462403
 21
-1.252588
 31
0.0
  0
LINE
  8
0
  6
CONTINUOUS
 62
     7
  5
C00
 10
-0.462403
 20
-1.252588
 30
0.0
 11
-0.465421
 21
-1.248584
 31
0.0
  0
LINE
  8
0
  6
CONTINUOUS
 62
     7
  5
C01
 10
-0.465421
 20
-1.248584
 30
0.0
 11
-0.468283
 21
-1.244554
 31
0.0
  0
LINE
  8
0
  6
CONTINUOUS
 62
     7
  5
C02
 10
-0.468283
 20
-1.244554
 30
0.0
 11
-0.470986
 21
-1.2405
 31
0.0
  0
LINE
  8
0
  6
CONTINUOUS
 62
     7
  5
C03
 10
-0.470986
 20
-1.2405
 30
0.0
 11
-0.473529
 21
-1.236424
 31
0.0
  0
LINE
  8
0
  6
CONTINUOUS
 62
     7
  5
C04
 10
-0.473529
 20
-1.236424
 30
0.0
 11
-0.475913
 21
-1.232326
 31
0.0
  0
LINE
  8
0
  6
CONTINUOUS
 62
     7
  5
C05
 10
-0.475913
 20
-1.232326
 30
0.0
 11
-0.478136
 21
-1.228209
 31
0.0
  0
LINE
  8
0
  6
CONTINUOUS
 62
     7
  5
C06
 10
-0.478136
 20
-1.228209
 30
0.0
 11
-0.480197
 21
-1.224072
 31
0.0
  0
LINE
  8
0
  6
CONTINUOUS
 62
     7
  5
C07
 10
-0.480197
 20
-1.224072
 30
0.0
 11
-0.482096
 21
-1.219919
 31
0.0
  0
LINE
  8
0
  6
CONTINUOUS
 62
     7
  5
C08
 10
-0.482096
 20
-1.219919
 30
0.0
 11
-0.483832
 21
-1.21575
 31
0.0
  0
LINE
  8
0
  6
CONTINUOUS
 62
     7
  5
C09
 10
-0.483832
 20
-1.21575
 30
0.0
 11
-0.485404
 21
-1.211567
 31
0.0
  0
LINE
  8
0
  6
CONTINUOUS
 62
     7
  5
C0A
 10
-0.485404
 20
-1.211567
 30
0.0
 11
-0.486812
 21
-1.207371
 31
0.0
  0
LINE
  8
0
  6
CONTINUOUS
 62
     7
  5
C0B
 10
-0.486812
 20
-1.207371
 30
0.0
 11
-0.488056
 21
-1.203164
 31
0.0
  0
LINE
  8
0
  6
CONTINUOUS
 62
     7
  5
C0C
 10
-0.488056
 20
-1.203164
 30
0.0
 11
-0.489135
 21
-1.198946
 31
0.0
  0
LINE
  8
0
  6
CONTINUOUS
 62
     7
  5
C0D
 10
-0.489135
 20
-1.198946
 30
0.0
 11
-0.490048
 21
-1.19472
 31
0.0
  0
LINE
  8
0
  6
CONTINUOUS
 62
     7
  5
C0E
 10
-0.490048
 20
-1.19472
 30
0.0
 11
-0.490796
 21
-1.190487
 31
0.0
  0
LINE
  8
0
  6
CONTINUOUS
 62
     7
  5
C0F
 10
-0.490796
 20
-1.190487
 30
0.0
 11
-0.491378
 21
-1.186248
 31
0.0
  0
LINE
  8
0
  6
CONTINUOUS
 62
     7
  5
C10
 10
-0.491378
 20
-1.186248
 30
0.0
 11
-0.491793
 21
-1.182005
 31
0.0
  0
LINE
  8
0
  6
CONTINUOUS
 62
     7
  5
C11
 10
-0.491793
 20
-1.182005
 30
0.0
 11
-0.492043
 21
-1.177759
 31
0.0
  0
LINE
  8
0
  6
CONTINUOUS
 62
     7
  5
C12
 10
-0.492043
 20
-1.177759
 30
0.0
 11
-0.492126
 21
-1.173511
 31
0.0
  0
LINE
  8
0
  6
CONTINUOUS
 62
     7
  5
C13
 10
0.393701
 20
-2.439388
 30
0.0
 11
0.393701
 21
-1.312135
 31
0.0
  0
LINE
  8
0
  6
CONTINUOUS
 62
     7
  5
C14
 10
0.393701
 20
-2.494983
 30
0.0
 11
0.393701
 21
-2.439388
 31
0.0
  0
LINE
  8
0
  6
CONTINUOUS
 62
     7
  5
C15
 10
0.393701
 20
-2.884292
 30
0.0
 11
0.393701
 21
-2.494983
 31
0.0
  0
LINE
  8
0
  6
CONTINUOUS
 62
     7
  5
C16
 10
0.393701
 20
-2.898191
 30
0.0
 11
0.393701
 21
-2.884292
 31
0.0
  0
LINE
  8
0
  6
CONTINUOUS
 62
     7
  5
C17
 10
0.393701
 20
-3.765073
 30
0.0
 11
0.393701
 21
-2.898191
 31
0.0
  0
LINE
  8
0
  6
CONTINUOUS
 62
     7
  5
C18
 10
-0.393701
 20
-1.312135
 30
0.0
 11
-0.393701
 21
-2.439388
 31
0.0
  0
LINE
  8
0
  6
CONTINUOUS
 62
     7
  5
C19
 10
-0.407723
 20
-2.067651
 30
0.0
 11
-0.407336
 21
-2.067919
 31
0.0
  0
LINE
  8
0
  6
CONTINUOUS
 62
     7
  5
C1A
 10
-0.407336
 20
-2.067919
 30
0.0
 11
-0.406948
 21
-2.068187
 31
0.0
  0
LINE
  8
0
  6
CONTINUOUS
 62
     7
  5
C1B
 10
-0.406948
 20
-2.068187
 30
0.0
 11
-0.406559
 21
-2.068455
 31
0.0
  0
LINE
  8
0
  6
CONTINUOUS
 62
     7
  5
C1C
 10
-0.406559
 20
-2.068455
 30
0.0
 11
-0.406169
 21
-2.068723
 31
0.0
  0
LINE
  8
0
  6
CONTINUOUS
 62
     7
  5
C1D
 10
-0.406169
 20
-2.068723
 30
0.0
 11
-0.405779
 21
-2.068991
 31
0.0
  0
LINE
  8
0
  6
CONTINUOUS
 62
     7
  5
C1E
 10
-0.405779
 20
-2.068991
 30
0.0
 11
-0.405388
 21
-2.069258
 31
0.0
  0
LINE
  8
0
  6
CONTINUOUS
 62
     7
  5
C1F
 10
-0.405388
 20
-2.069258
 30
0.0
 11
-0.404996
 21
-2.069525
 31
0.0
  0
LINE
  8
0
  6
CONTINUOUS
 62
     7
  5
C20
 10
-0.404996
 20
-2.069525
 30
0.0
 11
-0.404603
 21
-2.069791
 31
0.0
  0
LINE
  8
0
  6
CONTINUOUS
 62
     7
  5
C21
 10
-0.404603
 20
-2.069791
 30
0.0
 11
-0.40421
 21
-2.070058
 31
0.0
  0
LINE
  8
0
  6
CONTINUOUS
 62
     7
  5
C22
 10
-0.40421
 20
-2.070058
 30
0.0
 11
-0.403815
 21
-2.070324
 31
0.0
  0
LINE
  8
0
  6
CONTINUOUS
 62
     7
  5
C23
 10
-0.403815
 20
-2.070324
 30
0.0
 11
-0.40342
 21
-2.07059
 31
0.0
  0
LINE
  8
0
  6
CONTINUOUS
 62
     7
  5
C24
 10
-0.40342
 20
-2.07059
 30
0.0
 11
-0.403024
 21
-2.070856
 31
0.0
  0
LINE
  8
0
  6
CONTINUOUS
 62
     7
  5
C25
 10
-0.403024
 20
-2.070856
 30
0.0
 11
-0.402628
 21
-2.071121
 31
0.0
  0
LINE
  8
0
  6
CONTINUOUS
 62
     7
  5
C26
 10
-0.402628
 20
-2.071121
 30
0.0
 11
-0.40223
 21
-2.071386
 31
0.0
  0
LINE
  8
0
  6
CONTINUOUS
 62
     7
  5
C27
 10
-0.40223
 20
-2.071386
 30
0.0
 11
-0.401832
 21
-2.071651
 31
0.0
  0
LINE
  8
0
  6
CONTINUOUS
 62
     7
  5
C28
 10
-0.401832
 20
-2.071651
 30
0.0
 11
-0.401433
 21
-2.071916
 31
0.0
  0
LINE
  8
0
  6
CONTINUOUS
 62
     7
  5
C29
 10
-0.401433
 20
-2.071916
 30
0.0
 11
-0.401033
 21
-2.07218
 31
0.0
  0
LINE
  8
0
  6
CONTINUOUS
 62
     7
  5
C2A
 10
-0.401033
 20
-2.07218
 30
0.0
 11
-0.400632
 21
-2.072444
 31
0.0
  0
LINE
  8
0
  6
CONTINUOUS
 62
     7
  5
C2B
 10
-0.400632
 20
-2.072444
 30
0.0
 11
-0.400231
 21
-2.072708
 31
0.0
  0
LINE
  8
0
  6
CONTINUOUS
 62
     7
  5
C2C
 10
-0.400231
 20
-2.072708
 30
0.0
 11
-0.399828
 21
-2.072971
 31
0.0
  0
LINE
  8
0
  6
CONTINUOUS
 62
     7
  5
C2D
 10
-0.399828
 20
-2.072971
 30
0.0
 11
-0.399425
 21
-2.073235
 31
0.0
  0
LINE
  8
0
  6
CONTINUOUS
 62
     7
  5
C2E
 10
-0.399425
 20
-2.073235
 30
0.0
 11
-0.399022
 21
-2.073498
 31
0.0
  0
LINE
  8
0
  6
CONTINUOUS
 62
     7
  5
C2F
 10
-0.399022
 20
-2.073498
 30
0.0
 11
-0.398617
 21
-2.07376
 31
0.0
  0
LINE
  8
0
  6
CONTINUOUS
 62
     7
  5
C30
 10
-0.398617
 20
-2.07376
 30
0.0
 11
-0.398212
 21
-2.074023
 31
0.0
  0
LINE
  8
0
  6
CONTINUOUS
 62
     7
  5
C31
 10
-0.398212
 20
-2.074023
 30
0.0
 11
-0.397805
 21
-2.074285
 31
0.0
  0
LINE
  8
0
  6
CONTINUOUS
 62
     7
  5
C32
 10
-0.397805
 20
-2.074285
 30
0.0
 11
-0.397399
 21
-2.074547
 31
0.0
  0
LINE
  8
0
  6
CONTINUOUS
 62
     7
  5
C33
 10
-0.397399
 20
-2.074547
 30
0.0
 11
-0.396991
 21
-2.074809
 31
0.0
  0
LINE
  8
0
  6
CONTINUOUS
 62
     7
  5
C34
 10
-0.396991
 20
-2.074809
 30
0.0
 11
-0.396582
 21
-2.07507
 31
0.0
  0
LINE
  8
0
  6
CONTINUOUS
 62
     7
  5
C35
 10
-0.396582
 20
-2.07507
 30
0.0
 11
-0.396173
 21
-2.075331
 31
0.0
  0
LINE
  8
0
  6
CONTINUOUS
 62
     7
  5
C36
 10
-0.396173
 20
-2.075331
 30
0.0
 11
-0.395763
 21
-2.075592
 31
0.0
  0
LINE
  8
0
  6
CONTINUOUS
 62
     7
  5
C37
 10
-0.395763
 20
-2.075592
 30
0.0
 11
-0.395352
 21
-2.075853
 31
0.0
  0
LINE
  8
0
  6
CONTINUOUS
 62
     7
  5
C38
 10
-0.395352
 20
-2.075853
 30
0.0
 11
-0.39494
 21
-2.076113
 31
0.0
  0
LINE
  8
0
  6
CONTINUOUS
 62
     7
  5
C39
 10
-0.39494
 20
-2.076113
 30
0.0
 11
-0.394528
 21
-2.076373
 31
0.0
  0
LINE
  8
0
  6
CONTINUOUS
 62
     7
  5
C3A
 10
-0.394528
 20
-2.076373
 30
0.0
 11
-0.394115
 21
-2.076633
 31
0.0
  0
LINE
  8
0
  6
CONTINUOUS
 62
     7
  5
C3B
 10
-0.394115
 20
-2.076633
 30
0.0
 11
-0.393701
 21
-2.076892
 31
0.0
  0
LINE
  8
0
  6
CONTINUOUS
 62
     7
  5
C3C
 10
0.393701
 20
-2.076892
 30
0.0
 11
0.394115
 21
-2.076633
 31
0.0
  0
LINE
  8
0
  6
CONTINUOUS
 62
     7
  5
C3D
 10
0.394115
 20
-2.076633
 30
0.0
 11
0.394528
 21
-2.076373
 31
0.0
  0
LINE
  8
0
  6
CONTINUOUS
 62
     7
  5
C3E
 10
0.394528
 20
-2.076373
 30
0.0
 11
0.39494
 21
-2.076113
 31
0.0
  0
LINE
  8
0
  6
CONTINUOUS
 62
     7
  5
C3F
 10
0.39494
 20
-2.076113
 30
0.0
 11
0.395352
 21
-2.075853
 31
0.0
  0
LINE
  8
0
  6
CONTINUOUS
 62
     7
  5
C40
 10
0.395352
 20
-2.075853
 30
0.0
 11
0.395763
 21
-2.075592
 31
0.0
  0
LINE
  8
0
  6
CONTINUOUS
 62
     7
  5
C41
 10
0.395763
 20
-2.075592
 30
0.0
 11
0.396173
 21
-2.075331
 31
0.0
  0
LINE
  8
0
  6
CONTINUOUS
 62
     7
  5
C42
 10
0.396173
 20
-2.075331
 30
0.0
 11
0.396582
 21
-2.07507
 31
0.0
  0
LINE
  8
0
  6
CONTINUOUS
 62
     7
  5
C43
 10
0.396582
 20
-2.07507
 30
0.0
 11
0.396991
 21
-2.074809
 31
0.0
  0
LINE
  8
0
  6
CONTINUOUS
 62
     7
  5
C44
 10
0.396991
 20
-2.074809
 30
0.0
 11
0.397399
 21
-2.074547
 31
0.0
  0
LINE
  8
0
  6
CONTINUOUS
 62
     7
  5
C45
 10
0.397399
 20
-2.074547
 30
0.0
 11
0.397805
 21
-2.074285
 31
0.0
  0
LINE
  8
0
  6
CONTINUOUS
 62
     7
  5
C46
 10
0.397805
 20
-2.074285
 30
0.0
 11
0.398212
 21
-2.074023
 31
0.0
  0
LINE
  8
0
  6
CONTINUOUS
 62
     7
  5
C47
 10
0.398212
 20
-2.074023
 30
0.0
 11
0.398617
 21
-2.07376
 31
0.0
  0
LINE
  8
0
  6
CONTINUOUS
 62
     7
  5
C48
 10
0.398617
 20
-2.07376
 30
0.0
 11
0.399022
 21
-2.073498
 31
0.0
  0
LINE
  8
0
  6
CONTINUOUS
 62
     7
  5
C49
 10
0.399022
 20
-2.073498
 30
0.0
 11
0.399425
 21
-2.073235
 31
0.0
  0
LINE
  8
0
  6
CONTINUOUS
 62
     7
  5
C4A
 10
0.399425
 20
-2.073235
 30
0.0
 11
0.399828
 21
-2.072971
 31
0.0
  0
LINE
  8
0
  6
CONTINUOUS
 62
     7
  5
C4B
 10
0.399828
 20
-2.072971
 30
0.0
 11
0.400231
 21
-2.072708
 31
0.0
  0
LINE
  8
0
  6
CONTINUOUS
 62
     7
  5
C4C
 10
0.400231
 20
-2.072708
 30
0.0
 11
0.400632
 21
-2.072444
 31
0.0
  0
LINE
  8
0
  6
CONTINUOUS
 62
     7
  5
C4D
 10
0.400632
 20
-2.072444
 30
0.0
 11
0.401033
 21
-2.07218
 31
0.0
  0
LINE
  8
0
  6
CONTINUOUS
 62
     7
  5
C4E
 10
0.401033
 20
-2.07218
 30
0.0
 11
0.401433
 21
-2.071916
 31
0.0
  0
LINE
  8
0
  6
CONTINUOUS
 62
     7
  5
C4F
 10
0.401433
 20
-2.071916
 30
0.0
 11
0.401832
 21
-2.071651
 31
0.0
  0
LINE
  8
0
  6
CONTINUOUS
 62
     7
  5
C50
 10
0.401832
 20
-2.071651
 30
0.0
 11
0.40223
 21
-2.071386
 31
0.0
  0
LINE
  8
0
  6
CONTINUOUS
 62
     7
  5
C51
 10
0.40223
 20
-2.071386
 30
0.0
 11
0.402628
 21
-2.071121
 31
0.0
  0
LINE
  8
0
  6
CONTINUOUS
 62
     7
  5
C52
 10
0.402628
 20
-2.071121
 30
0.0
 11
0.403024
 21
-2.070856
 31
0.0
  0
LINE
  8
0
  6
CONTINUOUS
 62
     7
  5
C53
 10
0.403024
 20
-2.070856
 30
0.0
 11
0.40342
 21
-2.07059
 31
0.0
  0
LINE
  8
0
  6
CONTINUOUS
 62
     7
  5
C54
 10
0.40342
 20
-2.07059
 30
0.0
 11
0.403815
 21
-2.070324
 31
0.0
  0
LINE
  8
0
  6
CONTINUOUS
 62
     7
  5
C55
 10
0.403815
 20
-2.070324
 30
0.0
 11
0.40421
 21
-2.070058
 31
0.0
  0
LINE
  8
0
  6
CONTINUOUS
 62
     7
  5
C56
 10
0.40421
 20
-2.070058
 30
0.0
 11
0.404603
 21
-2.069791
 31
0.0
  0
LINE
  8
0
  6
CONTINUOUS
 62
     7
  5
C57
 10
0.404603
 20
-2.069791
 30
0.0
 11
0.404996
 21
-2.069525
 31
0.0
  0
LINE
  8
0
  6
CONTINUOUS
 62
     7
  5
C58
 10
0.404996
 20
-2.069525
 30
0.0
 11
0.405388
 21
-2.069258
 31
0.0
  0
LINE
  8
0
  6
CONTINUOUS
 62
     7
  5
C59
 10
0.405388
 20
-2.069258
 30
0.0
 11
0.405779
 21
-2.068991
 31
0.0
  0
LINE
  8
0
  6
CONTINUOUS
 62
     7
  5
C5A
 10
0.405779
 20
-2.068991
 30
0.0
 11
0.406169
 21
-2.068723
 31
0.0
  0
LINE
  8
0
  6
CONTINUOUS
 62
     7
  5
C5B
 10
0.406169
 20
-2.068723
 30
0.0
 11
0.406559
 21
-2.068455
 31
0.0
  0
LINE
  8
0
  6
CONTINUOUS
 62
     7
  5
C5C
 10
0.406559
 20
-2.068455
 30
0.0
 11
0.406948
 21
-2.068187
 31
0.0
  0
LINE
  8
0
  6
CONTINUOUS
 62
     7
  5
C5D
 10
0.406948
 20
-2.068187
 30
0.0
 11
0.407336
 21
-2.067919
 31
0.0
  0
LINE
  8
0
  6
CONTINUOUS
 62
     7
  5
C5E
 10
0.407336
 20
-2.067919
 30
0.0
 11
0.407723
 21
-2.067651
 31
0.0
  0
LINE
  8
0
  6
CONTINUOUS
 62
     7
  5
C5F
 10
-0.489639
 20
-2.065753
 30
0.0
 11
-0.488813
 21
-2.069316
 31
0.0
  0
LINE
  8
0
  6
CONTINUOUS
 62
     7
  5
C60
 10
-0.488813
 20
-2.069316
 30
0.0
 11
-0.48787
 21
-2.072872
 31
0.0
  0
LINE
  8
0
  6
CONTINUOUS
 62
     7
  5
C61
 10
-0.48787
 20
-2.072872
 30
0.0
 11
-0.48681
 21
-2.076421
 31
0.0
  0
LINE
  8
0
  6
CONTINUOUS
 62
     7
  5
C62
 10
-0.48681
 20
-2.076421
 30
0.0
 11
-0.485632
 21
-2.079962
 31
0.0
  0
LINE
  8
0
  6
CONTINUOUS
 62
     7
  5
C63
 10
-0.485632
 20
-2.079962
 30
0.0
 11
-0.484338
 21
-2.083494
 31
0.0
  0
LINE
  8
0
  6
CONTINUOUS
 62
     7
  5
C64
 10
-0.484338
 20
-2.083494
 30
0.0
 11
-0.482927
 21
-2.087016
 31
0.0
  0
LINE
  8
0
  6
CONTINUOUS
 62
     7
  5
C65
 10
-0.482927
 20
-2.087016
 30
0.0
 11
-0.4814
 21
-2.090528
 31
0.0
  0
LINE
  8
0
  6
CONTINUOUS
 62
     7
  5
C66
 10
-0.4814
 20
-2.090528
 30
0.0
 11
-0.479757
 21
-2.094027
 31
0.0
  0
LINE
  8
0
  6
CONTINUOUS
 62
     7
  5
C67
 10
-0.479757
 20
-2.094027
 30
0.0
 11
-0.477999
 21
-2.097515
 31
0.0
  0
LINE
  8
0
  6
CONTINUOUS
 62
     7
  5
C68
 10
-0.477999
 20
-2.097515
 30
0.0
 11
-0.476125
 21
-2.100989
 31
0.0
  0
LINE
  8
0
  6
CONTINUOUS
 62
     7
  5
C69
 10
-0.476125
 20
-2.100989
 30
0.0
 11
-0.474137
 21
-2.104449
 31
0.0
  0
LINE
  8
0
  6
CONTINUOUS
 62
     7
  5
C6A
 10
-0.474137
 20
-2.104449
 30
0.0
 11
-0.472035
 21
-2.107895
 31
0.0
  0
LINE
  8
0
  6
CONTINUOUS
 62
     7
  5
C6B
 10
-0.472035
 20
-2.107895
 30
0.0
 11
-0.469819
 21
-2.111324
 31
0.0
  0
LINE
  8
0
  6
CONTINUOUS
 62
     7
  5
C6C
 10
-0.469819
 20
-2.111324
 30
0.0
 11
-0.467491
 21
-2.114737
 31
0.0
  0
LINE
  8
0
  6
CONTINUOUS
 62
     7
  5
C6D
 10
-0.467491
 20
-2.114737
 30
0.0
 11
-0.46505
 21
-2.118133
 31
0.0
  0
LINE
  8
0
  6
CONTINUOUS
 62
     7
  5
C6E
 10
-0.46505
 20
-2.118133
 30
0.0
 11
-0.462496
 21
-2.12151
 31
0.0
  0
LINE
  8
0
  6
CONTINUOUS
 62
     7
  5
C6F
 10
-0.462496
 20
-2.12151
 30
0.0
 11
-0.459832
 21
-2.124869
 31
0.0
  0
LINE
  8
0
  6
CONTINUOUS
 62
     7
  5
C70
 10
-0.459832
 20
-2.124869
 30
0.0
 11
-0.457057
 21
-2.128208
 31
0.0
  0
LINE
  8
0
  6
CONTINUOUS
 62
     7
  5
C71
 10
-0.457057
 20
-2.128208
 30
0.0
 11
-0.454172
 21
-2.131526
 31
0.0
  0
LINE
  8
0
  6
CONTINUOUS
 62
     7
  5
C72
 10
-0.454172
 20
-2.131526
 30
0.0
 11
-0.451178
 21
-2.134822
 31
0.0
  0
LINE
  8
0
  6
CONTINUOUS
 62
     7
  5
C73
 10
-0.451178
 20
-2.134822
 30
0.0
 11
-0.448075
 21
-2.138097
 31
0.0
  0
LINE
  8
0
  6
CONTINUOUS
 62
     7
  5
C74
 10
-0.448075
 20
-2.138097
 30
0.0
 11
-0.444864
 21
-2.141348
 31
0.0
  0
LINE
  8
0
  6
CONTINUOUS
 62
     7
  5
C75
 10
-0.444864
 20
-2.141348
 30
0.0
 11
-0.441547
 21
-2.144576
 31
0.0
  0
LINE
  8
0
  6
CONTINUOUS
 62
     7
  5
C76
 10
-0.441547
 20
-2.144576
 30
0.0
 11
-0.438123
 21
-2.147779
 31
0.0
  0
LINE
  8
0
  6
CONTINUOUS
 62
     7
  5
C77
 10
-0.438123
 20
-2.147779
 30
0.0
 11
-0.434593
 21
-2.150957
 31
0.0
  0
LINE
  8
0
  6
CONTINUOUS
 62
     7
  5
C78
 10
-0.434593
 20
-2.150957
 30
0.0
 11
-0.430959
 21
-2.154109
 31
0.0
  0
LINE
  8
0
  6
CONTINUOUS
 62
     7
  5
C79
 10
-0.430959
 20
-2.154109
 30
0.0
 11
-0.427222
 21
-2.157233
 31
0.0
  0
LINE
  8
0
  6
CONTINUOUS
 62
     7
  5
C7A
 10
-0.427222
 20
-2.157233
 30
0.0
 11
-0.423381
 21
-2.160331
 31
0.0
  0
LINE
  8
0
  6
CONTINUOUS
 62
     7
  5
C7B
 10
-0.423381
 20
-2.160331
 30
0.0
 11
-0.419439
 21
-2.1634
 31
0.0
  0
LINE
  8
0
  6
CONTINUOUS
 62
     7
  5
C7C
 10
-0.419439
 20
-2.1634
 30
0.0
 11
-0.415396
 21
-2.16644
 31
0.0
  0
LINE
  8
0
  6
CONTINUOUS
 62
     7
  5
C7D
 10
-0.415396
 20
-2.16644
 30
0.0
 11
-0.411253
 21
-2.16945
 31
0.0
  0
LINE
  8
0
  6
CONTINUOUS
 62
     7
  5
C7E
 10
-0.411253
 20
-2.16945
 30
0.0
 11
-0.407011
 21
-2.172429
 31
0.0
  0
LINE
  8
0
  6
CONTINUOUS
 62
     7
  5
C7F
 10
-0.407011
 20
-2.172429
 30
0.0
 11
-0.402671
 21
-2.175377
 31
0.0
  0
LINE
  8
0
  6
CONTINUOUS
 62
     7
  5
C80
 10
-0.402671
 20
-2.175377
 30
0.0
 11
-0.398234
 21
-2.178294
 31
0.0
  0
LINE
  8
0
  6
CONTINUOUS
 62
     7
  5
C81
 10
-0.398234
 20
-2.178294
 30
0.0
 11
-0.393701
 21
-2.181177
 31
0.0
  0
LINE
  8
0
  6
CONTINUOUS
 62
     7
  5
C82
 10
0.393701
 20
-2.181177
 30
0.0
 11
0.398234
 21
-2.178294
 31
0.0
  0
LINE
  8
0
  6
CONTINUOUS
 62
     7
  5
C83
 10
0.398234
 20
-2.178294
 30
0.0
 11
0.402671
 21
-2.175377
 31
0.0
  0
LINE
  8
0
  6
CONTINUOUS
 62
     7
  5
C84
 10
0.402671
 20
-2.175377
 30
0.0
 11
0.407011
 21
-2.172429
 31
0.0
  0
LINE
  8
0
  6
CONTINUOUS
 62
     7
  5
C85
 10
0.407011
 20
-2.172429
 30
0.0
 11
0.411253
 21
-2.16945
 31
0.0
  0
LINE
  8
0
  6
CONTINUOUS
 62
     7
  5
C86
 10
0.411253
 20
-2.16945
 30
0.0
 11
0.415396
 21
-2.16644
 31
0.0
  0
LINE
  8
0
  6
CONTINUOUS
 62
     7
  5
C87
 10
0.415396
 20
-2.16644
 30
0.0
 11
0.419439
 21
-2.1634
 31
0.0
  0
LINE
  8
0
  6
CONTINUOUS
 62
     7
  5
C88
 10
0.419439
 20
-2.1634
 30
0.0
 11
0.423381
 21
-2.160331
 31
0.0
  0
LINE
  8
0
  6
CONTINUOUS
 62
     7
  5
C89
 10
0.423381
 20
-2.160331
 30
0.0
 11
0.427222
 21
-2.157233
 31
0.0
  0
LINE
  8
0
  6
CONTINUOUS
 62
     7
  5
C8A
 10
0.427222
 20
-2.157233
 30
0.0
 11
0.430959
 21
-2.154109
 31
0.0
  0
LINE
  8
0
  6
CONTINUOUS
 62
     7
  5
C8B
 10
0.430959
 20
-2.154109
 30
0.0
 11
0.434593
 21
-2.150957
 31
0.0
  0
LINE
  8
0
  6
CONTINUOUS
 62
     7
  5
C8C
 10
0.434593
 20
-2.150957
 30
0.0
 11
0.438123
 21
-2.147779
 31
0.0
  0
LINE
  8
0
  6
CONTINUOUS
 62
     7
  5
C8D
 10
0.438123
 20
-2.147779
 30
0.0
 11
0.441547
 21
-2.144576
 31
0.0
  0
LINE
  8
0
  6
CONTINUOUS
 62
     7
  5
C8E
 10
0.441547
 20
-2.144576
 30
0.0
 11
0.444864
 21
-2.141348
 31
0.0
  0
LINE
  8
0
  6
CONTINUOUS
 62
     7
  5
C8F
 10
0.444864
 20
-2.141348
 30
0.0
 11
0.448075
 21
-2.138097
 31
0.0
  0
LINE
  8
0
  6
CONTINUOUS
 62
     7
  5
C90
 10
0.448075
 20
-2.138097
 30
0.0
 11
0.451178
 21
-2.134822
 31
0.0
  0
LINE
  8
0
  6
CONTINUOUS
 62
     7
  5
C91
 10
0.451178
 20
-2.134822
 30
0.0
 11
0.454172
 21
-2.131526
 31
0.0
  0
LINE
  8
0
  6
CONTINUOUS
 62
     7
  5
C92
 10
0.454172
 20
-2.131526
 30
0.0
 11
0.457057
 21
-2.128208
 31
0.0
  0
LINE
  8
0
  6
CONTINUOUS
 62
     7
  5
C93
 10
0.457057
 20
-2.128208
 30
0.0
 11
0.459832
 21
-2.124869
 31
0.0
  0
LINE
  8
0
  6
CONTINUOUS
 62
     7
  5
C94
 10
0.459832
 20
-2.124869
 30
0.0
 11
0.462496
 21
-2.12151
 31
0.0
  0
LINE
  8
0
  6
CONTINUOUS
 62
     7
  5
C95
 10
0.462496
 20
-2.12151
 30
0.0
 11
0.46505
 21
-2.118133
 31
0.0
  0
LINE
  8
0
  6
CONTINUOUS
 62
     7
  5
C96
 10
0.46505
 20
-2.118133
 30
0.0
 11
0.467491
 21
-2.114737
 31
0.0
  0
LINE
  8
0
  6
CONTINUOUS
 62
     7
  5
C97
 10
0.467491
 20
-2.114737
 30
0.0
 11
0.469819
 21
-2.111324
 31
0.0
  0
LINE
  8
0
  6
CONTINUOUS
 62
     7
  5
C98
 10
0.469819
 20
-2.111324
 30
0.0
 11
0.472035
 21
-2.107895
 31
0.0
  0
LINE
  8
0
  6
CONTINUOUS
 62
     7
  5
C99
 10
0.472035
 20
-2.107895
 30
0.0
 11
0.474137
 21
-2.104449
 31
0.0
  0
LINE
  8
0
  6
CONTINUOUS
 62
     7
  5
C9A
 10
0.474137
 20
-2.104449
 30
0.0
 11
0.476125
 21
-2.100989
 31
0.0
  0
LINE
  8
0
  6
CONTINUOUS
 62
     7
  5
C9B
 10
0.476125
 20
-2.100989
 30
0.0
 11
0.477999
 21
-2.097515
 31
0.0
  0
LINE
  8
0
  6
CONTINUOUS
 62
     7
  5
C9C
 10
0.477999
 20
-2.097515
 30
0.0
 11
0.479757
 21
-2.094027
 31
0.0
  0
LINE
  8
0
  6
CONTINUOUS
 62
     7
  5
C9D
 10
0.479757
 20
-2.094027
 30
0.0
 11
0.4814
 21
-2.090528
 31
0.0
  0
LINE
  8
0
  6
CONTINUOUS
 62
     7
  5
C9E
 10
0.4814
 20
-2.090528
 30
0.0
 11
0.482927
 21
-2.087016
 31
0.0
  0
LINE
  8
0
  6
CONTINUOUS
 62
     7
  5
C9F
 10
0.482927
 20
-2.087016
 30
0.0
 11
0.484338
 21
-2.083494
 31
0.0
  0
LINE
  8
0
  6
CONTINUOUS
 62
     7
  5
CA0
 10
0.484338
 20
-2.083494
 30
0.0
 11
0.485632
 21
-2.079962
 31
0.0
  0
LINE
  8
0
  6
CONTINUOUS
 62
     7
  5
CA1
 10
0.485632
 20
-2.079962
 30
0.0
 11
0.48681
 21
-2.076421
 31
0.0
  0
LINE
  8
0
  6
CONTINUOUS
 62
     7
  5
CA2
 10
0.48681
 20
-2.076421
 30
0.0
 11
0.48787
 21
-2.072872
 31
0.0
  0
LINE
  8
0
  6
CONTINUOUS
 62
     7
  5
CA3
 10
0.48787
 20
-2.072872
 30
0.0
 11
0.488813
 21
-2.069316
 31
0.0
  0
LINE
  8
0
  6
CONTINUOUS
 62
     7
  5
CA4
 10
0.488813
 20
-2.069316
 30
0.0
 11
0.489639
 21
-2.065753
 31
0.0
  0
LINE
  8
0
  6
CONTINUOUS
 62
     7
  5
CA5
 10
-0.393701
 20
-2.898191
 30
0.0
 11
-0.393701
 21
-3.765073
 31
0.0
  0
LINE
  8
0
  6
CONTINUOUS
 62
     7
  5
CA6
 10
-0.393701
 20
-2.884292
 30
0.0
 11
-0.393701
 21
-2.898191
 31
0.0
  0
LINE
  8
0
  6
CONTINUOUS
 62
     7
  5
CA7
 10
-0.393701
 20
-2.494983
 30
0.0
 11
-0.393701
 21
-2.884292
 31
0.0
  0
LINE
  8
0
  6
CONTINUOUS
 62
     7
  5
CA8
 10
-0.393701
 20
-2.439388
 30
0.0
 11
-0.393701
 21
-2.494983
 31
0.0
  0
LINE
  8
0
  6
CONTINUOUS
 62
     7
  5
CA9
 10
0.393701
 20
-2.067651
 30
0.0
 11
0.407723
 21
-2.067651
 31
0.0
  0
LINE
  8
0
  6
CONTINUOUS
 62
     7
  5
CAA
 10
-0.407723
 20
-2.067651
 30
0.0
 11
-0.393701
 21
-2.067651
 31
0.0
  0
LINE
  8
0
  6
CONTINUOUS
 62
     7
  5
CAB
 10
-0.688976
 20
-3.843321
 30
0.0
 11
-0.688976
 21
-4.578373
 31
0.0
  0
LINE
  8
0
  6
CONTINUOUS
 62
     7
  5
CAC
 10
-0.688976
 20
-4.578373
 30
0.0
 11
-0.688976
 21
-4.843752
 31
0.0
  0
LINE
  8
0
  6
CONTINUOUS
 62
     7
  5
CAD
 10
0.688976
 20
-4.843752
 30
0.0
 11
0.688976
 21
-4.578373
 31
0.0
  0
LINE
  8
0
  6
CONTINUOUS
 62
     7
  5
CAE
 10
0.688976
 20
-4.578373
 30
0.0
 11
0.688976
 21
-3.843321
 31
0.0
  0
LINE
  8
0
  6
CONTINUOUS
 62
     7
  5
CAF
 10
-2.063454
 20
-1.267044
 30
0.0
 11
-2.066929
 21
-1.267044
 31
0.0
  0
LINE
  8
0
  6
CONTINUOUS
 62
     7
  5
CB0
 10
2.066929
 20
-1.267044
 30
0.0
 11
2.063454
 21
-1.267044
 31
0.0
  0
LINE
  8
0
  6
CONTINUOUS
 62
     7
  5
CB1
 10
2.066929
 20
1.662343
 30
0.0
 11
2.066929
 21
-1.662343
 31
0.0
  0
LINE
  8
0
  6
CONTINUOUS
 62
     7
  5
CB2
 10
7.480315
 20
4.700787
 30
0.0
 11
7.283465
 21
4.700787
 31
0.0
  0
LINE
  8
0
  6
CONTINUOUS
 62
     7
  5
CB3
 10
7.283465
 20
5.015748
 30
0.0
 11
7.480315
 21
5.015748
 31
0.0
  0
ARC
  8
0
  6
CONTINUOUS
 62
     7
  5
CB4
 10
7.283465
 20
4.858268
 30
0.0
 40
0.15748
 50
90.0
 51
270.0
  0
LINE
  8
0
  6
CONTINUOUS
 62
     7
  5
CB5
 10
7.480315
 20
5.015748
 30
0.0
 11
7.480315
 21
4.700787
 31
0.0
  0
LINE
  8
0
  6
CONTINUOUS
 62
     7
  5
CB6
 10
7.480315
 20
4.504567
 30
0.0
 11
7.480315
 21
4.700787
 31
0.0
  0
LINE
  8
0
  6
CONTINUOUS
 62
     7
  5
CB7
 10
7.480315
 20
4.504567
 30
0.0
 11
7.480315
 21
4.464567
 31
0.0
  0
LINE
  8
0
  6
CONTINUOUS
 62
     7
  5
CB8
 10
7.480315
 20
0.23685
 30
0.0
 11
7.480315
 21
4.464567
 31
0.0
  0
LINE
  8
0
  6
CONTINUOUS
 62
     7
  5
CB9
 10
7.480315
 20
0.23685
 30
0.0
 11
7.480315
 21
0.19685
 31
0.0
  0
LINE
  8
0
  6
CONTINUOUS
 62
     7
  5
CBA
 10
7.480315
 20
-1.874016
 30
0.0
 11
7.480315
 21
0.19685
 31
0.0
  0
LINE
  8
0
  6
CONTINUOUS
 62
     7
  5
CBB
 10
7.480315
 20
-1.874016
 30
0.0
 11
7.480315
 21
-2.188976
 31
0.0
  0
LINE
  8
0
  6
CONTINUOUS
 62
     7
  5
CBC
 10
7.480315
 20
-2.425197
 30
0.0
 11
7.480315
 21
-2.188976
 31
0.0
  0
LINE
  8
0
  6
CONTINUOUS
 62
     7
  5
CBD
 10
7.480315
 20
-2.720472
 30
0.0
 11
7.480315
 21
-2.425197
 31
0.0
  0
LINE
  8
0
  6
CONTINUOUS
 62
     7
  5
CBE
 10
7.480315
 20
-2.956693
 30
0.0
 11
7.480315
 21
-2.720472
 31
0.0
  0
LINE
  8
0
  6
CONTINUOUS
 62
     7
  5
CBF
 10
7.480315
 20
5.547244
 30
0.0
 11
7.480315
 21
5.783465
 31
0.0
  0
LINE
  8
0
  6
CONTINUOUS
 62
     7
  5
CC0
 10
7.480315
 20
5.251969
 30
0.0
 11
7.480315
 21
5.547244
 31
0.0
  0
LINE
  8
0
  6
CONTINUOUS
 62
     7
  5
CC1
 10
7.480315
 20
5.015748
 30
0.0
 11
7.480315
 21
5.251969
 31
0.0
  0
LINE
  8
0
  6
CONTINUOUS
 62
     7
  5
CC2
 10
7.480315
 20
-2.188976
 30
0.0
 11
7.283465
 21
-2.188976
 31
0.0
  0
LINE
  8
0
  6
CONTINUOUS
 62
     7
  5
CC3
 10
7.283465
 20
-1.874016
 30
0.0
 11
7.480315
 21
-1.874016
 31
0.0
  0
ARC
  8
0
  6
CONTINUOUS
 62
     7
  5
CC4
 10
7.283465
 20
-2.031496
 30
0.0
 40
0.15748
 50
90.0
 51
270.0
  0
LINE
  8
0
  6
CONTINUOUS
 62
     7
  5
CC5
 10
-7.480315
 20
-1.874016
 30
0.0
 11
-7.283465
 21
-1.874016
 31
0.0
  0
LINE
  8
0
  6
CONTINUOUS
 62
     7
  5
CC6
 10
-7.283465
 20
-2.188976
 30
0.0
 11
-7.480315
 21
-2.188976
 31
0.0
  0
ARC
  8
0
  6
CONTINUOUS
 62
     7
  5
CC7
 10
-7.283465
 20
-2.031496
 30
0.0
 40
0.15748
 50
270.0
 51
90.0
  0
LINE
  8
0
  6
CONTINUOUS
 62
     7
  5
CC8
 10
-7.480315
 20
-2.188976
 30
0.0
 11
-7.480315
 21
-1.874016
 31
0.0
  0
LINE
  8
0
  6
CONTINUOUS
 62
     7
  5
CC9
 10
-7.480315
 20
0.19685
 30
0.0
 11
-7.480315
 21
-1.874016
 31
0.0
  0
LINE
  8
0
  6
CONTINUOUS
 62
     7
  5
CCA
 10
-7.480315
 20
0.19685
 30
0.0
 11
-7.480315
 21
0.23685
 31
0.0
  0
LINE
  8
0
  6
CONTINUOUS
 62
     7
  5
CCB
 10
-7.480315
 20
4.464567
 30
0.0
 11
-7.480315
 21
0.23685
 31
0.0
  0
LINE
  8
0
  6
CONTINUOUS
 62
     7
  5
CCC
 10
-7.480315
 20
4.464567
 30
0.0
 11
-7.480315
 21
4.504567
 31
0.0
  0
LINE
  8
0
  6
CONTINUOUS
 62
     7
  5
CCD
 10
-7.480315
 20
4.700787
 30
0.0
 11
-7.480315
 21
4.504567
 31
0.0
  0
LINE
  8
0
  6
CONTINUOUS
 62
     7
  5
CCE
 10
-7.480315
 20
4.700787
 30
0.0
 11
-7.480315
 21
5.015748
 31
0.0
  0
LINE
  8
0
  6
CONTINUOUS
 62
     7
  5
CCF
 10
-7.480315
 20
5.251969
 30
0.0
 11
-7.480315
 21
5.015748
 31
0.0
  0
LINE
  8
0
  6
CONTINUOUS
 62
     7
  5
CD0
 10
-7.480315
 20
5.547244
 30
0.0
 11
-7.480315
 21
5.251969
 31
0.0
  0
LINE
  8
0
  6
CONTINUOUS
 62
     7
  5
CD1
 10
-7.480315
 20
5.783465
 30
0.0
 11
-7.480315
 21
5.547244
 31
0.0
  0
LINE
  8
0
  6
CONTINUOUS
 62
     7
  5
CD2
 10
-7.480315
 20
-2.720472
 30
0.0
 11
-7.480315
 21
-2.956693
 31
0.0
  0
LINE
  8
0
  6
CONTINUOUS
 62
     7
  5
CD3
 10
-7.480315
 20
-2.425197
 30
0.0
 11
-7.480315
 21
-2.720472
 31
0.0
  0
LINE
  8
0
  6
CONTINUOUS
 62
     7
  5
CD4
 10
-7.480315
 20
-2.188976
 30
0.0
 11
-7.480315
 21
-2.425197
 31
0.0
  0
LINE
  8
0
  6
CONTINUOUS
 62
     7
  5
CD5
 10
-7.480315
 20
5.015748
 30
0.0
 11
-7.283465
 21
5.015748
 31
0.0
  0
LINE
  8
0
  6
CONTINUOUS
 62
     7
  5
CD6
 10
-7.283465
 20
4.700787
 30
0.0
 11
-7.480315
 21
4.700787
 31
0.0
  0
ARC
  8
0
  6
CONTINUOUS
 62
     7
  5
CD7
 10
-7.283465
 20
4.858268
 30
0.0
 40
0.15748
 50
270.0
 51
90.0
  0
LINE
  8
0
  6
CONTINUOUS
 62
     7
  5
CD8
 10
-2.768031
 20
-2.165354
 30
0.0
 11
-4.857559
 21
-2.165354
 31
0.0
  0
LINE
  8
0
  6
CONTINUOUS
 62
     7
  5
CD9
 10
-4.857559
 20
-2.165354
 30
0.0
 11
-4.897559
 21
-2.165354
 31
0.0
  0
LINE
  8
0
  6
CONTINUOUS
 62
     7
  5
CDA
 10
-4.897559
 20
0.19685
 30
0.0
 11
-2.768031
 21
0.19685
 31
0.0
  0
LINE
  8
0
  6
CONTINUOUS
 62
     7
  5
CDB
 10
-2.768031
 20
-2.165354
 30
0.0
 11
-2.768031
 21
0.19685
 31
0.0
  0
LINE
  8
0
  6
CONTINUOUS
 62
     7
  5
CDC
 10
-2.768031
 20
-2.425197
 30
0.0
 11
-2.768031
 21
-2.165354
 31
0.0
  0
LINE
  8
0
  6
CONTINUOUS
 62
     7
  5
CDD
 10
-4.857559
 20
-2.165354
 30
0.0
 11
-4.857559
 21
-2.425197
 31
0.0
  0
LINE
  8
0
  6
CONTINUOUS
 62
     7
  5
CDE
 10
-4.857559
 20
-2.425197
 30
0.0
 11
-2.768031
 21
-2.425197
 31
0.0
  0
LINE
  8
0
  6
CONTINUOUS
 62
     7
  5
CDF
 10
-4.857559
 20
-2.425197
 30
0.0
 11
-4.897559
 21
-2.425197
 31
0.0
  0
LINE
  8
0
  6
CONTINUOUS
 62
     7
  5
CE0
 10
-4.897559
 20
-2.425197
 30
0.0
 11
-4.897559
 21
0.19685
 31
0.0
  0
LINE
  8
0
  6
CONTINUOUS
 62
     7
  5
CE1
 10
-4.857559
 20
0.23685
 30
0.0
 11
-2.768031
 21
0.23685
 31
0.0
  0
LINE
  8
0
  6
CONTINUOUS
 62
     7
  5
CE2
 10
-7.480315
 20
0.23685
 30
0.0
 11
-4.897559
 21
0.23685
 31
0.0
  0
LINE
  8
0
  6
CONTINUOUS
 62
     7
  5
CE3
 10
-4.897559
 20
0.19685
 30
0.0
 11
-7.480315
 21
0.19685
 31
0.0
  0
LINE
  8
0
  6
CONTINUOUS
 62
     7
  5
CE4
 10
-4.897559
 20
0.23685
 30
0.0
 11
-4.897559
 21
4.464567
 31
0.0
  0
LINE
  8
0
  6
CONTINUOUS
 62
     7
  5
CE5
 10
-4.897559
 20
4.464567
 30
0.0
 11
-7.480315
 21
4.464567
 31
0.0
  0
LINE
  8
0
  6
CONTINUOUS
 62
     7
  5
CE6
 10
-4.857559
 20
4.464567
 30
0.0
 11
-4.857559
 21
0.23685
 31
0.0
  0
LINE
  8
0
  6
CONTINUOUS
 62
     7
  5
CE7
 10
-2.768031
 20
0.23685
 30
0.0
 11
-2.768031
 21
4.464567
 31
0.0
  0
LINE
  8
0
  6
CONTINUOUS
 62
     7
  5
CE8
 10
-2.768031
 20
4.464567
 30
0.0
 11
-4.857559
 21
4.464567
 31
0.0
  0
LINE
  8
0
  6
CONTINUOUS
 62
     7
  5
CE9
 10
7.480315
 20
0.19685
 30
0.0
 11
6.499213
 21
0.19685
 31
0.0
  0
LINE
  8
0
  6
CONTINUOUS
 62
     7
  5
CEA
 10
6.459213
 20
0.19685
 30
0.0
 11
4.795591
 21
0.19685
 31
0.0
  0
LINE
  8
0
  6
CONTINUOUS
 62
     7
  5
CEB
 10
6.499213
 20
0.23685
 30
0.0
 11
7.480315
 21
0.23685
 31
0.0
  0
LINE
  8
0
  6
CONTINUOUS
 62
     7
  5
CEC
 10
4.795591
 20
0.23685
 30
0.0
 11
6.459213
 21
0.23685
 31
0.0
  0
LINE
  8
0
  6
CONTINUOUS
 62
     7
  5
CED
 10
2.748031
 20
0.23685
 30
0.0
 11
4.755591
 21
0.23685
 31
0.0
  0
LINE
  8
0
  6
CONTINUOUS
 62
     7
  5
CEE
 10
4.755591
 20
0.19685
 30
0.0
 11
2.748031
 21
0.19685
 31
0.0
  0
LINE
  8
0
  6
CONTINUOUS
 62
     7
  5
CEF
 10
4.755591
 20
0.23685
 30
0.0
 11
4.755591
 21
4.464567
 31
0.0
  0
LINE
  8
0
  6
CONTINUOUS
 62
     7
  5
CF0
 10
-0.653137
 20
4.464567
 30
0.0
 11
-2.728031
 21
4.464567
 31
0.0
  0
LINE
  8
0
  6
CONTINUOUS
 62
     7
  5
CF1
 10
4.755591
 20
4.464567
 30
0.0
 11
0.653137
 21
4.464567
 31
0.0
  0
LINE
  8
0
  6
CONTINUOUS
 62
     7
  5
CF2
 10
-2.728031
 20
4.464567
 30
0.0
 11
-2.728031
 21
2.224409
 31
0.0
  0
LINE
  8
0
  6
CONTINUOUS
 62
     7
  5
CF3
 10
4.795591
 20
4.464567
 30
0.0
 11
4.795591
 21
0.23685
 31
0.0
  0
LINE
  8
0
  6
CONTINUOUS
 62
     7
  5
CF4
 10
6.459213
 20
0.23685
 30
0.0
 11
6.459213
 21
4.464567
 31
0.0
  0
LINE
  8
0
  6
CONTINUOUS
 62
     7
  5
CF5
 10
6.459213
 20
4.464567
 30
0.0
 11
4.795591
 21
4.464567
 31
0.0
  0
LINE
  8
0
  6
CONTINUOUS
 62
     7
  5
CF6
 10
6.499213
 20
4.464567
 30
0.0
 11
6.499213
 21
0.23685
 31
0.0
  0
LINE
  8
0
  6
CONTINUOUS
 62
     7
  5
CF7
 10
7.480315
 20
4.464567
 30
0.0
 11
6.499213
 21
4.464567
 31
0.0
  0
LINE
  8
0
  6
CONTINUOUS
 62
     7
  5
CF8
 10
6.499213
 20
4.504567
 30
0.0
 11
7.480315
 21
4.504567
 31
0.0
  0
LINE
  8
0
  6
CONTINUOUS
 62
     7
  5
CF9
 10
4.795591
 20
4.504567
 30
0.0
 11
6.459213
 21
4.504567
 31
0.0
  0
LINE
  8
0
  6
CONTINUOUS
 62
     7
  5
CFA
 10
-2.728031
 20
4.504567
 30
0.0
 11
4.755591
 21
4.504567
 31
0.0
  0
LINE
  8
0
  6
CONTINUOUS
 62
     7
  5
CFB
 10
-4.857559
 20
4.504567
 30
0.0
 11
-2.768031
 21
4.504567
 31
0.0
  0
LINE
  8
0
  6
CONTINUOUS
 62
     7
  5
CFC
 10
-7.480315
 20
4.504567
 30
0.0
 11
-4.897559
 21
4.504567
 31
0.0
  0
LINE
  8
0
  6
CONTINUOUS
 62
     7
  5
CFD
 10
-4.897559
 20
4.504567
 30
0.0
 11
-4.897559
 21
5.251969
 31
0.0
  0
LINE
  8
0
  6
CONTINUOUS
 62
     7
  5
CFE
 10
-4.897559
 20
5.251969
 30
0.0
 11
-7.480315
 21
5.251969
 31
0.0
  0
LINE
  8
0
  6
CONTINUOUS
 62
     7
  5
CFF
 10
-4.857559
 20
5.251969
 30
0.0
 11
-4.857559
 21
4.504567
 31
0.0
  0
LINE
  8
0
  6
CONTINUOUS
 62
     7
  5
D00
 10
-2.768031
 20
4.504567
 30
0.0
 11
-2.768031
 21
5.251969
 31
0.0
  0
LINE
  8
0
  6
CONTINUOUS
 62
     7
  5
D01
 10
-2.768031
 20
5.251969
 30
0.0
 11
-4.857559
 21
5.251969
 31
0.0
  0
LINE
  8
0
  6
CONTINUOUS
 62
     7
  5
D02
 10
-2.728031
 20
5.251969
 30
0.0
 11
-2.728031
 21
4.504567
 31
0.0
  0
LINE
  8
0
  6
CONTINUOUS
 62
     7
  5
D03
 10
4.755591
 20
4.504567
 30
0.0
 11
4.755591
 21
5.251969
 31
0.0
  0
LINE
  8
0
  6
CONTINUOUS
 62
     7
  5
D04
 10
4.755591
 20
5.251969
 30
0.0
 11
-2.728031
 21
5.251969
 31
0.0
  0
LINE
  8
0
  6
CONTINUOUS
 62
     7
  5
D05
 10
4.795591
 20
5.251969
 30
0.0
 11
4.795591
 21
4.504567
 31
0.0
  0
LINE
  8
0
  6
CONTINUOUS
 62
     7
  5
D06
 10
6.459213
 20
4.504567
 30
0.0
 11
6.459213
 21
5.251969
 31
0.0
  0
LINE
  8
0
  6
CONTINUOUS
 62
     7
  5
D07
 10
6.459213
 20
5.251969
 30
0.0
 11
4.795591
 21
5.251969
 31
0.0
  0
LINE
  8
0
  6
CONTINUOUS
 62
     7
  5
D08
 10
6.499213
 20
5.251969
 30
0.0
 11
6.499213
 21
4.504567
 31
0.0
  0
LINE
  8
0
  6
CONTINUOUS
 62
     7
  5
D09
 10
7.480315
 20
5.251969
 30
0.0
 11
6.499213
 21
5.251969
 31
0.0
  0
LINE
  8
0
  6
CONTINUOUS
 62
     7
  5
D0A
 10
6.459213
 20
-2.425197
 30
0.0
 11
6.459213
 21
0.19685
 31
0.0
  0
LINE
  8
0
  6
CONTINUOUS
 62
     7
  5
D0B
 10
6.499213
 20
0.19685
 30
0.0
 11
6.499213
 21
-2.425197
 31
0.0
  0
LINE
  8
0
  6
CONTINUOUS
 62
     7
  5
D0C
 10
6.499213
 20
-2.425197
 30
0.0
 11
6.459213
 21
-2.425197
 31
0.0
  0
LINE
  8
0
  6
CONTINUOUS
 62
     7
  5
D0D
 10
4.795591
 20
-2.425197
 30
0.0
 11
6.459213
 21
-2.425197
 31
0.0
  0
LINE
  8
0
  6
CONTINUOUS
 62
     7
  5
D0E
 10
4.795591
 20
-2.425197
 30
0.0
 11
4.755591
 21
-2.425197
 31
0.0
  0
LINE
  8
0
  6
CONTINUOUS
 62
     7
  5
D0F
 10
0.393701
 20
-2.425197
 30
0.0
 11
4.755591
 21
-2.425197
 31
0.0
  0
LINE
  8
0
  6
CONTINUOUS
 62
     7
  5
D10
 10
-2.728031
 20
-2.425197
 30
0.0
 11
-0.393701
 21
-2.425197
 31
0.0
  0
LINE
  8
0
  6
CONTINUOUS
 62
     7
  5
D11
 10
-2.728031
 20
-2.425197
 30
0.0
 11
-2.768031
 21
-2.425197
 31
0.0
  0
LINE
  8
0
  6
CONTINUOUS
 62
     7
  5
D12
 10
-7.480315
 20
-2.425197
 30
0.0
 11
-4.897559
 21
-2.425197
 31
0.0
  0
LINE
  8
0
  6
CONTINUOUS
 62
     7
  5
D13
 10
6.499213
 20
-2.425197
 30
0.0
 11
7.480315
 21
-2.425197
 31
0.0
  0
LINE
  8
0
  6
CONTINUOUS
 62
     7
  5
D14
 10
4.795591
 20
0.19685
 30
0.0
 11
4.795591
 21
-2.425197
 31
0.0
  0
LINE
  8
0
  6
CONTINUOUS
 62
     7
  5
D15
 10
4.755591
 20
-2.425197
 30
0.0
 11
4.755591
 21
0.19685
 31
0.0
  0
LINE
  8
0
  6
CONTINUOUS
 62
     7
  5
D16
 10
-2.728031
 20
-2.224409
 30
0.0
 11
-2.728031
 21
-2.425197
 31
0.0
  0
LINE
  8
0
  6
CONTINUOUS
 62
     7
  5
D17
 10
6.459213
 20
5.251969
 30
0.0
 11
6.499213
 21
5.251969
 31
0.0
  0
LINE
  8
0
  6
CONTINUOUS
 62
     7
  5
D18
 10
4.755591
 20
5.251969
 30
0.0
 11
4.795591
 21
5.251969
 31
0.0
  0
LINE
  8
0
  6
CONTINUOUS
 62
     7
  5
D19
 10
-2.768031
 20
5.251969
 30
0.0
 11
-2.728031
 21
5.251969
 31
0.0
  0
LINE
  8
0
  6
CONTINUOUS
 62
     7
  5
D1A
 10
-4.897559
 20
5.251969
 30
0.0
 11
-4.857559
 21
5.251969
 31
0.0
  0
LINE
  8
0
  6
CONTINUOUS
 62
     7
  5
D1B
 10
0.393701
 20
-2.956693
 30
0.0
 11
7.480315
 21
-2.956693
 31
0.0
  0
LINE
  8
0
  6
CONTINUOUS
 62
     7
  5
D1C
 10
-7.480315
 20
-2.956693
 30
0.0
 11
-0.393701
 21
-2.956693
 31
0.0
  0
LINE
  8
0
  6
CONTINUOUS
 62
     7
  5
D1D
 10
7.480315
 20
5.783465
 30
0.0
 11
-7.480315
 21
5.783465
 31
0.0
  0
LINE
  8
0
  6
CONTINUOUS
 62
     7
  5
D1E
 10
7.480315
 20
5.547244
 30
0.0
 11
-7.480315
 21
5.547244
 31
0.0
  0
LINE
  8
0
  6
CONTINUOUS
 62
     7
  5
D1F
 10
0.393701
 20
-2.720472
 30
0.0
 11
7.480315
 21
-2.720472
 31
0.0
  0
LINE
  8
0
  6
CONTINUOUS
 62
     7
  5
D20
 10
-7.480315
 20
-2.720472
 30
0.0
 11
-0.393701
 21
-2.720472
 31
0.0
  0
LINE
  8
0
  6
CONTINUOUS
 62
     7
  5
D21
 10
2.052943
 20
1.267044
 30
0.0
 11
2.066929
 21
1.267044
 31
0.0
  0
LINE
  8
0
  6
CONTINUOUS
 62
     7
  5
D22
 10
-2.066929
 20
1.267044
 30
0.0
 11
-2.052943
 21
1.267044
 31
0.0
  0
LINE
  8
0
  6
CONTINUOUS
 62
     7
  5
D23
 10
2.003923
 20
1.662343
 30
0.0
 11
2.066929
 21
1.662343
 31
0.0
  0
LINE
  8
0
  6
CONTINUOUS
 62
     7
  5
D24
 10
-2.066929
 20
1.662343
 30
0.0
 11
-2.003923
 21
1.662343
 31
0.0
  0
LINE
  8
0
  6
CONTINUOUS
 62
     7
  5
D25
 10
2.748031
 20
-2.224409
 30
0.0
 11
2.748031
 21
2.224409
 31
0.0
  0
LINE
  8
0
  6
CONTINUOUS
 62
     7
  5
D26
 10
-0.393701
 20
2.224409
 30
0.0
 11
-2.748031
 21
2.224409
 31
0.0
  0
LINE
  8
0
  6
CONTINUOUS
 62
     7
  5
D27
 10
2.748031
 20
2.224409
 30
0.0
 11
0.393701
 21
2.224409
 31
0.0
  0
LINE
  8
0
  6
CONTINUOUS
 62
     7
  5
D28
 10
-2.748031
 20
2.224409
 30
0.0
 11
-2.748031
 21
-2.224409
 31
0.0
  0
LINE
  8
0
  6
CONTINUOUS
 62
     7
  5
D29
 10
0.393701
 20
-2.224409
 30
0.0
 11
2.748031
 21
-2.224409
 31
0.0
  0
LINE
  8
0
  6
CONTINUOUS
 62
     7
  5
D2A
 10
-2.748031
 20
-2.224409
 30
0.0
 11
-0.393701
 21
-2.224409
 31
0.0
  0
LINE
  8
0
  6
CONTINUOUS
 62
     7
  5
D2B
 10
-2.066929
 20
-1.662343
 30
0.0
 11
-2.066929
 21
1.662343
 31
0.0
  0
LINE
  8
0
  6
CONTINUOUS
 62
     7
  5
D2C
 10
-2.019326
 20
-1.662343
 30
0.0
 11
-2.066929
 21
-1.662343
 31
0.0
  0
LINE
  8
0
  6
CONTINUOUS
 62
     7
  5
D2D
 10
2.066929
 20
-1.662343
 30
0.0
 11
2.019326
 21
-1.662343
 31
0.0
  0
LINE
  8
0
  6
CONTINUOUS
 62
     7
  5
D2E
 10
-4.667559
 20
8.188353
 30
0.0
 11
-4.667559
 21
8.173659
 31
0.0
  0
LINE
  8
0
  6
CONTINUOUS
 62
     7
  5
D2F
 10
-4.667559
 20
8.272465
 30
0.0
 11
-4.667559
 21
8.188353
 31
0.0
  0
LINE
  8
0
  6
CONTINUOUS
 62
     7
  5
D30
 10
-4.387559
 20
8.272465
 30
0.0
 11
-4.667559
 21
8.272465
 31
0.0
  0
LINE
  8
0
  6
CONTINUOUS
 62
     7
  5
D31
 10
-4.387559
 20
8.188353
 30
0.0
 11
-4.387559
 21
8.272465
 31
0.0
  0
LINE
  8
0
  6
CONTINUOUS
 62
     7
  5
D32
 10
-4.387559
 20
8.173659
 30
0.0
 11
-4.387559
 21
8.188353
 31
0.0
  0
LINE
  8
0
  6
CONTINUOUS
 62
     7
  5
D33
 10
-4.297559
 20
8.226465
 30
0.0
 11
-4.297559
 21
8.173229
 31
0.0
  0
LINE
  8
0
  6
CONTINUOUS
 62
     7
  5
D34
 10
-4.297559
 20
8.272465
 30
0.0
 11
-4.297559
 21
8.226465
 31
0.0
  0
LINE
  8
0
  6
CONTINUOUS
 62
     7
  5
D35
 10
-4.757559
 20
8.226465
 30
0.0
 11
-4.757559
 21
8.272465
 31
0.0
  0
LINE
  8
0
  6
CONTINUOUS
 62
     7
  5
D36
 10
-4.757559
 20
8.173229
 30
0.0
 11
-4.757559
 21
8.226465
 31
0.0
  0
LINE
  8
0
  6
CONTINUOUS
 62
     7
  5
D37
 10
-4.297559
 20
8.272465
 30
0.0
 11
-4.121559
 21
8.272465
 31
0.0
  0
LINE
  8
0
  6
CONTINUOUS
 62
     7
  5
D38
 10
-4.297559
 20
8.226465
 30
0.0
 11
-4.121559
 21
8.226465
 31
0.0
  0
LINE
  8
0
  6
CONTINUOUS
 62
     7
  5
D39
 10
-4.121559
 20
8.226465
 30
0.0
 11
-4.121559
 21
8.272465
 31
0.0
  0
LINE
  8
0
  6
CONTINUOUS
 62
     7
  5
D3A
 10
-4.121559
 20
8.173229
 30
0.0
 11
-4.121559
 21
8.226465
 31
0.0
  0
LINE
  8
0
  6
CONTINUOUS
 62
     7
  5
D3B
 10
-4.933559
 20
8.226465
 30
0.0
 11
-4.757559
 21
8.226465
 31
0.0
  0
LINE
  8
0
  6
CONTINUOUS
 62
     7
  5
D3C
 10
-4.933559
 20
8.226465
 30
0.0
 11
-4.933559
 21
8.173229
 31
0.0
  0
LINE
  8
0
  6
CONTINUOUS
 62
     7
  5
D3D
 10
-4.933559
 20
8.272465
 30
0.0
 11
-4.757559
 21
8.272465
 31
0.0
  0
LINE
  8
0
  6
CONTINUOUS
 62
     7
  5
D3E
 10
-4.933559
 20
8.272465
 30
0.0
 11
-4.933559
 21
8.226465
 31
0.0
  0
LINE
  8
0
  6
CONTINUOUS
 62
     7
  5
D3F
 10
-4.992559
 20
8.236952
 30
0.0
 11
-4.992559
 21
8.283465
 31
0.0
  0
LINE
  8
0
  6
CONTINUOUS
 62
     7
  5
D40
 10
-4.992559
 20
8.173229
 30
0.0
 11
-4.992559
 21
8.236952
 31
0.0
  0
LINE
  8
0
  6
CONTINUOUS
 62
     7
  5
D41
 10
-4.992559
 20
8.283465
 30
0.0
 11
-4.062559
 21
8.283465
 31
0.0
  0
LINE
  8
0
  6
CONTINUOUS
 62
     7
  5
D42
 10
-4.062559
 20
8.236952
 30
0.0
 11
-4.062559
 21
8.173229
 31
0.0
  0
LINE
  8
0
  6
CONTINUOUS
 62
     7
  5
D43
 10
-4.062559
 20
8.283465
 30
0.0
 11
-4.062559
 21
8.236952
 31
0.0
  0
LINE
  8
0
  6
CONTINUOUS
 62
     7
  5
D44
 10
7.480315
 20
8.173229
 30
0.0
 11
-7.480315
 21
8.173229
 31
0.0
  0
LINE
  8
0
  6
CONTINUOUS
 62
     7
  5
D45
 10
-7.480315
 20
8.236952
 30
0.0
 11
-7.480315
 21
8.136447
 31
0.0
  0
LINE
  8
0
  6
CONTINUOUS
 62
     7
  5
D46
 10
-4.992559
 20
8.283465
 30
0.0
 11
-7.480315
 21
8.283465
 31
0.0
  0
LINE
  8
0
  6
CONTINUOUS
 62
     7
  5
D47
 10
-7.480315
 20
8.283465
 30
0.0
 11
-7.480315
 21
8.236952
 31
0.0
  0
LINE
  8
0
  6
CONTINUOUS
 62
     7
  5
D48
 10
7.480315
 20
8.283465
 30
0.0
 11
7.480315
 21
8.236952
 31
0.0
  0
LINE
  8
0
  6
CONTINUOUS
 62
     7
  5
D49
 10
7.480315
 20
8.236952
 30
0.0
 11
7.480315
 21
8.136447
 31
0.0
  0
LINE
  8
0
  6
CONTINUOUS
 62
     7
  5
D4A
 10
7.480315
 20
8.173229
 30
0.0
 11
7.480315
 21
8.136447
 31
0.0
  0
LINE
  8
0
  6
CONTINUOUS
 62
     7
  5
D4B
 10
7.480315
 20
8.136447
 30
0.0
 11
7.480315
 21
6.610735
 31
0.0
  0
LINE
  8
0
  6
CONTINUOUS
 62
     7
  5
D4C
 10
7.480315
 20
6.610735
 30
0.0
 11
7.480315
 21
5.823334
 31
0.0
  0
LINE
  8
0
  6
CONTINUOUS
 62
     7
  5
D4D
 10
-7.440315
 20
5.823334
 30
0.0
 11
-7.440315
 21
5.783465
 31
0.0
  0
LINE
  8
0
  6
CONTINUOUS
 62
     7
  5
D4E
 10
-7.480315
 20
5.783465
 30
0.0
 11
-7.480315
 21
5.823334
 31
0.0
  0
LINE
  8
0
  6
CONTINUOUS
 62
     7
  5
D4F
 10
7.480315
 20
5.823334
 30
0.0
 11
-7.480315
 21
5.823334
 31
0.0
  0
LINE
  8
0
  6
CONTINUOUS
 62
     7
  5
D50
 10
7.480315
 20
8.283465
 30
0.0
 11
-4.062559
 21
8.283465
 31
0.0
  0
LINE
  8
0
  6
CONTINUOUS
 62
     7
  5
D51
 10
-7.480315
 20
8.173229
 30
0.0
 11
-7.480315
 21
8.136447
 31
0.0
  0
LINE
  8
0
  6
CONTINUOUS
 62
     7
  5
D52
 10
-7.480315
 20
8.136447
 30
0.0
 11
-7.480315
 21
6.610735
 31
0.0
  0
LINE
  8
0
  6
CONTINUOUS
 62
     7
  5
D53
 10
7.480315
 20
6.610735
 30
0.0
 11
-7.480315
 21
6.610735
 31
0.0
  0
LINE
  8
0
  6
CONTINUOUS
 62
     7
  5
D54
 10
-7.480315
 20
6.610735
 30
0.0
 11
-7.480315
 21
5.823334
 31
0.0
  0
LINE
  8
0
  6
CONTINUOUS
 62
     7
  5
D55
 10
-0.492126
 20
1.108577
 30
0.0
 11
-0.492126
 21
1.001533
 31
0.0
  0
LINE
  8
0
  6
CONTINUOUS
 62
     7
  5
D56
 10
0.492126
 20
1.001533
 30
0.0
 11
0.492126
 21
1.108577
 31
0.0
  0
ARC
  8
0
  6
CONTINUOUS
 62
     7
  5
D57
 10
-0.629921
 20
3.409835
 30
0.0
 40
0.059055
 50
180.0
 51
264.314311
  0
ARC
  8
0
  6
CONTINUOUS
 62
     7
  5
D58
 10
-0.629921
 20
4.410266
 30
0.0
 40
0.059055
 50
95.685689
 51
180.0
  0
ARC
  8
0
  6
CONTINUOUS
 62
     7
  5
D59
 10
0.629921
 20
4.410266
 30
0.0
 40
0.059055
 50
0.0
 51
84.314311
  0
ARC
  8
0
  6
CONTINUOUS
 62
     7
  5
D5A
 10
0.629921
 20
3.409835
 30
0.0
 40
0.059055
 50
275.685689
 51
0.0
  0
ARC
  8
0
  6
CONTINUOUS
 62
     7
  5
D5B
 10
0.0
 20
-1.916721
 30
0.0
 40
6.417323
 50
84.314311
 51
95.685689
  0
ARC
  8
0
  6
CONTINUOUS
 62
     7
  5
D5C
 10
0.0
 20
9.736823
 30
0.0
 40
6.417323
 50
264.314311
 51
275.685689
  0
LINE
  8
0
  6
CONTINUOUS
 62
     7
  5
D5D
 10
0.492126
 20
-1.277796
 30
0.0
 11
0.492126
 21
-1.173511
 31
0.0
  0
LINE
  8
0
  6
CONTINUOUS
 62
     7
  5
D5E
 10
-0.492126
 20
-1.173511
 30
0.0
 11
-0.492126
 21
-1.277796
 31
0.0
  0
ARC
  8
0
  6
CONTINUOUS
 62
     7
  5
D5F
 10
-0.629921
 20
-4.843752
 30
0.0
 40
0.059055
 50
180.0
 51
264.314311
  0
ARC
  8
0
  6
CONTINUOUS
 62
     7
  5
D60
 10
-0.629921
 20
-3.843321
 30
0.0
 40
0.059055
 50
95.685689
 51
180.0
  0
ARC
  8
0
  6
CONTINUOUS
 62
     7
  5
D61
 10
0.629921
 20
-3.843321
 30
0.0
 40
0.059055
 50
0.0
 51
84.314311
  0
ARC
  8
0
  6
CONTINUOUS
 62
     7
  5
D62
 10
0.629921
 20
-4.843752
 30
0.0
 40
0.059055
 50
275.685689
 51
0.0
  0
ARC
  8
0
  6
CONTINUOUS
 62
     7
  5
D63
 10
0.0
 20
-10.170308
 30
0.0
 40
6.417323
 50
84.314311
 51
95.685689
  0
ARC
  8
0
  6
CONTINUOUS
 62
     7
  5
D64
 10
0.0
 20
1.483236
 30
0.0
 40
6.417323
 50
264.314311
 51
275.685689
  0
LINE
  8
0
  6
CONTINUOUS
 62
     3
  5
D65
 10
-2.015764
 20
-5.858268
 30
0.0
 11
-1.763764
 21
-5.858268
 31
0.0
  0
LINE
  8
0
  6
CONTINUOUS
 62
     3
  5
D66
 10
-1.889764
 20
-5.732268
 30
0.0
 11
-1.889764
 21
-5.984268
 31
0.0
  0
LINE
  8
0
  6
CONTINUOUS
 62
     3
  5
D67
 10
-0.515764
 20
-5.858268
 30
0.0
 11
-0.263764
 21
-5.858268
 31
0.0
  0
LINE
  8
0
  6
CONTINUOUS
 62
     3
  5
D68
 10
-0.389764
 20
-5.732268
 30
0.0
 11
-0.389764
 21
-5.984268
 31
0.0
  0
LINE
  8
0
  6
CONTINUOUS
 62
     3
  5
D69
 10
0.984236
 20
-5.858268
 30
0.0
 11
1.236236
 21
-5.858268
 31
0.0
  0
LINE
  8
0
  6
CONTINUOUS
 62
     3
  5
D6A
 10
1.110236
 20
-5.732268
 30
0.0
 11
1.110236
 21
-5.984268
 31
0.0
  0
LINE
  8
0
  6
CONTINUOUS
 62
     3
  5
D6B
 10
2.484236
 20
-5.858268
 30
0.0
 11
2.736236
 21
-5.858268
 31
0.0
  0
LINE
  8
0
  6
CONTINUOUS
 62
     3
  5
D6C
 10
2.610236
 20
-5.732268
 30
0.0
 11
2.610236
 21
-5.984268
 31
0.0
  0
ENDSEC
  0
EOF
