  0
SECTION
  2
HEADER
  9
$ACADVER
  1
AC1009
  9
$DWGCODEPAGE
  3
ansi_1250
  9
$INSBASE
 10
0.0
 20
0.0
 30
0.0
  9
$EXTMIN
 10
-0.135
 20
-0.797
 30
0.0
  9
$EXTMAX
 10
0.926
 20
0.797
 30
0.0
  9
$LIMMIN
 10
0.0
 20
0.0
  9
$LIMMAX
 10
0.0
 20
0.0
  9
$ORTHOMODE
 70
     0
  9
$REGENMODE
 70
     1
  9
$FILLMODE
 70
     1
  9
$QTEXTMODE
 70
     0
  9
$MIRRTEXT
 70
     1
  9
$DRAGMODE
 70
     2
  9
$LTSCALE
 40
1.0
  9
$OSMODE
 70
     0
  9
$ATTMODE
 70
     1
  9
$TEXTSIZE
 40
0.2
  9
$TRACEWID
 40
0.05
  9
$TEXTSTYLE
  7
STANDARD
  9
$CLAYER
  8
0
  9
$CELTYPE
  6
CONTINUOUS
  9
$CECOLOR
 62
   256
  9
$DIMSCALE
 40
1.0
  9
$DIMASZ
 40
0.18
  9
$DIMEXO
 40
0.0625
  9
$DIMDLI
 40
0.38
  9
$DIMRND
 40
0.0
  9
$DIMDLE
 40
0.0
  9
$DIMEXE
 40
0.18
  9
$DIMTP
 40
0.0
  9
$DIMTM
 40
0.0
  9
$DIMTXT
 40
0.18
  9
$DIMCEN
 40
0.09
  9
$DIMTSZ
 40
0.0
  9
$DIMTOL
 70
     0
  9
$DIMLIM
 70
     0
  9
$DIMTIH
 70
     1
  9
$DIMTOH
 70
     1
  9
$DIMSE1
 70
     0
  9
$DIMSE2
 70
     0
  9
$DIMTAD
 70
     0
  9
$DIMZIN
 70
     0
  9
$DIMBLK
  1

  9
$DIMASO
 70
     1
  9
$DIMSHO
 70
     1
  9
$DIMPOST
  1

  9
$DIMAPOST
  1

  9
$DIMALT
 70
     0
  9
$DIMALTD
 70
     2
  9
$DIMALTF
 40
25.4
  9
$DIMLFAC
 40
1.0
  9
$DIMTOFL
 70
     0
  9
$DIMTVP
 40
0.0
  9
$DIMTIX
 70
     0
  9
$DIMSOXD
 70
     0
  9
$DIMSAH
 70
     0
  9
$DIMBLK1
  1

  9
$DIMBLK2
  1

  9
$DIMSTYLE
  2
STANDARD
  9
$DIMCLRD
 70
     0
  9
$DIMCLRE
 70
     0
  9
$DIMCLRT
 70
     0
  9
$DIMTFAC
 40
1.0
  9
$DIMGAP
 40
0.09
  9
$LUNITS
 70
     2
  9
$LUPREC
 70
     4
  9
$AXISMODE
 70
     0
  9
$AXISUNIT
 10
0.0
 20
0.0
  9
$SKETCHINC
 40
0.1
  9
$FILLETRAD
 40
0.0
  9
$AUNITS
 70
     0
  9
$AUPREC
 70
     0
  9
$MENU
  1
acad
  9
$ELEVATION
 40
0.0
  9
$PELEVATION
 40
0.0
  9
$THICKNESS
 40
0.0
  9
$LIMCHECK
 70
     0
  9
$BLIPMODE
 70
     1
  9
$CHAMFERA
 40
0.0
  9
$CHAMFERB
 40
0.0
  9
$SKPOLY
 70
     0
  9
$TDCREATE
 40
0.000000000
  9
$TDUPDATE
 40
0.000000000
  9
$TDINDWG
 40
0.0000000000
  9
$TDUSRTIMER
 40
0.0000000000
  9
$USRTIMER
 70
     1
  9
$ANGBASE
 50
0.0
  9
$ANGDIR
 70
     0
  9
$PDMODE
 70
     0
  9
$PDSIZE
 40
0.0
  9
$PLINEWID
 40
0.0
  9
$COORDS
 70
     0
  9
$SPLFRAME
 70
     0
  9
$SPLINETYPE
 70
     6
  9
$SPLINESEGS
 70
     8
  9
$ATTDIA
 70
     0
  9
$ATTREQ
 70
     1
  9
$HANDLING
 70
     1
  9
$HANDSEED
  5
6C5
  9
$SURFTAB1
 70
     6
  9
$SURFTAB2
 70
     6
  9
$SURFTYPE
 70
     6
  9
$SURFU
 70
     6
  9
$SURFV
 70
     6
  9
$UCSNAME
  2

  9
$UCSORG
 10
0.0
 20
0.0
 30
0.0
  9
$UCSXDIR
 10
1.0
 20
0.0
 30
0.0
  9
$UCSYDIR
 10
0.0
 20
1.0
 30
0.0
  9
$PUCSNAME
  2

  9
$PUCSORG
 10
0.0
 20
0.0
 30
0.0
  9
$PUCSXDIR
 10
1.0
 20
0.0
 30
0.0
  9
$PUCSYDIR
 10
0.0
 20
1.0
 30
0.0
  9
$USERI1
 70
     0
  9
$USERI2
 70
     0
  9
$USERI3
 70
     0
  9
$USERI4
 70
     0
  9
$USERI5
 70
     0
  9
$USERR1
 40
0.0
  9
$USERR2
 40
0.0
  9
$USERR3
 40
0.0
  9
$USERR4
 40
0.0
  9
$USERR5
 40
0.0
  9
$WORLDVIEW
 70
     1
  9
$SHADEDGE
 70
     3
  9
$SHADEDIF
 70
    70
  9
$TILEMODE
 70
     1
  9
$MAXACTVP
 70
    16
  9
$PINSBASE
 10
0.0
 20
0.0
 30
0.0
  9
$PLIMCHECK
 70
     0
  9
$PEXTMIN
 10
1.000000E+20
 20
1.000000E+20
 30
1.000000E+20
  9
$PEXTMAX
 10
-1.000000E+20
 20
-1.000000E+20
 30
-1.000000E+20
  9
$PLIMMIN
 10
0.0
 20
0.0
  9
$PLIMMAX
 10
12.0
 20
9.0
  9
$UNITMODE
 70
     0
  9
$VISRETAIN
 70
     0
  9
$PLINEGEN
 70
     1
  9
$PSLTSCALE
 70
     0
  9
$TREEDEPTH
 70
  3020
  0
ENDSEC
  0
SECTION
  2
TABLES
  0
TABLE
  2
VPORT
 70
     1
  0
VPORT
  2
*ACTIVE
 70
     0
 10
0.0
 20
0.0
 11
1.0
 21
1.0
 12
6.591288
 22
4.579184
 13
0.0
 23
0.0
 14
1.0
 24
1.0
 15
0.0
 25
0.0
 16
0.0
 26
0.0
 36
1.0
 17
0.0
 27
0.0
 37
0.0
 40
9.158369
 41
0.688564
 42
50.0
 43
0.0
 44
0.0
 50
0.0
 51
0.0
 71
     0
 72
   100
 73
     1
 74
     1
 75
     0
 76
     0
 77
     0
 78
     0
  0
ENDTAB
  0
TABLE
  2
LTYPE
 70
     5
  0
LTYPE
  2
CONTINUOUS
 70
    64
  3
Solid line
 72
    65
 73
     0
 40
0.0
  0
LTYPE
  2
CENTER
 70
    64
  3
Center ____ _ ____ _ ____ _ ____ _ ____ _ ____
 72
    65
 73
     4
 40
50.8
 49
31.75
 49
-6.35
 49
6.35
 49
-6.35
  0
LTYPE
  2
HIDDEN
 70
    64
  3
Hidden __ __ __ __ __ __ __ __ __ __ __ __ __ __
 72
    65
 73
     2
 40
9.525
 49
6.35
 49
-3.175
  0
LTYPE
  2
CENTER2
 70
    64
  3
Center (.5x) ___ _ ___ _ ___ _ ___ _ ___ _ ___
 72
    65
 73
     4
 40
28.575
 49
19.05
 49
-3.175
 49
3.175
 49
-3.175
  0
LTYPE
  2
HIDDEN2
 70
    64
  3
Hidden (.5x) _ _ _ _ _ _ _ _ _ _ _ _ _ _ _ _ _
 72
    65
 73
     2
 40
4.7625
 49
3.175
 49
-1.5875
  0
ENDTAB
  0
TABLE
  2
LAYER
 70
     1
  0
LAYER
  2
0
 70
     0
 62
     7
  6
CONTINUOUS
  0
ENDTAB
  0
TABLE
  2
STYLE
 70
     1
  0
STYLE
  2
STANDARD
 70
     0
 40
0.0
 41
1.0
 50
0.0
 71
     0
 42
0.0
  3
txt
  4

  0
ENDTAB
  0
TABLE
  2
VIEW
 70
     0
  0
ENDTAB
  0
TABLE
  2
UCS
 70
     0
  0
ENDTAB
  0
TABLE
  2
APPID
 70
     1
  0
APPID
  2
ACAD
 70
     0
  0
ENDTAB
  0
TABLE
  2
DIMSTYLE
 70
     1
  0
DIMSTYLE
  2
STANDARD
 70
     0
  3

  4

  5

  6

  7

 40
1.0
 41
0.18
 42
0.0625
 43
0.38
 44
0.18
 45
0.0
 46
0.0
 47
0.0
 48
0.0
 71
     0
 72
     0
 73
     1
 74
     1
 75
     0
 76
     0
 77
     0
 78
     0
140
0.18
141
0.09
142
0.0
143
25.4
144
1.0
145
0.0
146
1.0
147
0.09
170
     0
171
     2
172
     0
173
     0
174
     0
175
     0
176
     0
177
     0
178
     0
  0
ENDTAB
  0
ENDSEC
  0
SECTION
  2
BLOCKS
  0
ENDSEC
  0
SECTION
  2
ENTITIES
  0
LINE
  8
0
  6
CONTINUOUS
 62
     7
  5
386
 10
0.387
 20
-0.797
 30
0.0
 11
0.387
 21
-0.796
 31
0.0
  0
LINE
  8
0
  6
CONTINUOUS
 62
     7
  5
387
 10
0.797388
 20
-0.50653
 30
0.0
 11
0.795779
 21
-0.507874
 31
0.0
  0
LINE
  8
0
  6
CONTINUOUS
 62
     7
  5
388
 10
0.795779
 20
-0.507874
 30
0.0
 11
0.794134
 21
-0.509188
 31
0.0
  0
LINE
  8
0
  6
CONTINUOUS
 62
     7
  5
389
 10
0.794134
 20
-0.509188
 30
0.0
 11
0.792454
 21
-0.51047
 31
0.0
  0
LINE
  8
0
  6
CONTINUOUS
 62
     7
  5
38A
 10
0.792454
 20
-0.51047
 30
0.0
 11
0.79074
 21
-0.51172
 31
0.0
  0
LINE
  8
0
  6
CONTINUOUS
 62
     7
  5
38B
 10
0.79074
 20
-0.51172
 30
0.0
 11
0.788992
 21
-0.512937
 31
0.0
  0
LINE
  8
0
  6
CONTINUOUS
 62
     7
  5
38C
 10
0.788992
 20
-0.512937
 30
0.0
 11
0.787212
 21
-0.51412
 31
0.0
  0
LINE
  8
0
  6
CONTINUOUS
 62
     7
  5
38D
 10
0.787212
 20
-0.51412
 30
0.0
 11
0.7854
 21
-0.515269
 31
0.0
  0
LINE
  8
0
  6
CONTINUOUS
 62
     7
  5
38E
 10
0.7854
 20
-0.515269
 30
0.0
 11
0.783557
 21
-0.516383
 31
0.0
  0
LINE
  8
0
  6
CONTINUOUS
 62
     7
  5
38F
 10
0.783557
 20
-0.516383
 30
0.0
 11
0.781685
 21
-0.517461
 31
0.0
  0
LINE
  8
0
  6
CONTINUOUS
 62
     7
  5
390
 10
0.781685
 20
-0.517461
 30
0.0
 11
0.779784
 21
-0.518504
 31
0.0
  0
LINE
  8
0
  6
CONTINUOUS
 62
     7
  5
391
 10
0.779784
 20
-0.518504
 30
0.0
 11
0.777856
 21
-0.51951
 31
0.0
  0
LINE
  8
0
  6
CONTINUOUS
 62
     7
  5
392
 10
0.777856
 20
-0.51951
 30
0.0
 11
0.7759
 21
-0.52048
 31
0.0
  0
LINE
  8
0
  6
CONTINUOUS
 62
     7
  5
393
 10
0.7759
 20
-0.52048
 30
0.0
 11
0.773919
 21
-0.521412
 31
0.0
  0
LINE
  8
0
  6
CONTINUOUS
 62
     7
  5
394
 10
0.773919
 20
-0.521412
 30
0.0
 11
0.771913
 21
-0.522305
 31
0.0
  0
LINE
  8
0
  6
CONTINUOUS
 62
     7
  5
395
 10
0.771913
 20
-0.522305
 30
0.0
 11
0.769883
 21
-0.523161
 31
0.0
  0
LINE
  8
0
  6
CONTINUOUS
 62
     7
  5
396
 10
0.769883
 20
-0.523161
 30
0.0
 11
0.767831
 21
-0.523977
 31
0.0
  0
LINE
  8
0
  6
CONTINUOUS
 62
     7
  5
397
 10
0.767831
 20
-0.523977
 30
0.0
 11
0.765757
 21
-0.524754
 31
0.0
  0
LINE
  8
0
  6
CONTINUOUS
 62
     7
  5
398
 10
0.765757
 20
-0.524754
 30
0.0
 11
0.763663
 21
-0.525492
 31
0.0
  0
LINE
  8
0
  6
CONTINUOUS
 62
     7
  5
399
 10
0.763663
 20
-0.525492
 30
0.0
 11
0.761549
 21
-0.526189
 31
0.0
  0
LINE
  8
0
  6
CONTINUOUS
 62
     7
  5
39A
 10
0.761549
 20
-0.526189
 30
0.0
 11
0.759417
 21
-0.526846
 31
0.0
  0
LINE
  8
0
  6
CONTINUOUS
 62
     7
  5
39B
 10
0.759417
 20
-0.526846
 30
0.0
 11
0.757268
 21
-0.527462
 31
0.0
  0
LINE
  8
0
  6
CONTINUOUS
 62
     7
  5
39C
 10
0.757268
 20
-0.527462
 30
0.0
 11
0.755102
 21
-0.528037
 31
0.0
  0
LINE
  8
0
  6
CONTINUOUS
 62
     7
  5
39D
 10
0.755102
 20
-0.528037
 30
0.0
 11
0.752922
 21
-0.528571
 31
0.0
  0
LINE
  8
0
  6
CONTINUOUS
 62
     7
  5
39E
 10
0.752922
 20
-0.528571
 30
0.0
 11
0.750727
 21
-0.529063
 31
0.0
  0
LINE
  8
0
  6
CONTINUOUS
 62
     7
  5
39F
 10
0.750727
 20
-0.529063
 30
0.0
 11
0.74852
 21
-0.529513
 31
0.0
  0
LINE
  8
0
  6
CONTINUOUS
 62
     7
  5
3A0
 10
0.74852
 20
-0.529513
 30
0.0
 11
0.746301
 21
-0.529921
 31
0.0
  0
LINE
  8
0
  6
CONTINUOUS
 62
     7
  5
3A1
 10
0.746301
 20
-0.529921
 30
0.0
 11
0.744072
 21
-0.530287
 31
0.0
  0
LINE
  8
0
  6
CONTINUOUS
 62
     7
  5
3A2
 10
0.744072
 20
-0.530287
 30
0.0
 11
0.741834
 21
-0.530609
 31
0.0
  0
LINE
  8
0
  6
CONTINUOUS
 62
     7
  5
3A3
 10
0.741834
 20
-0.530609
 30
0.0
 11
0.739587
 21
-0.53089
 31
0.0
  0
LINE
  8
0
  6
CONTINUOUS
 62
     7
  5
3A4
 10
0.739587
 20
-0.53089
 30
0.0
 11
0.737333
 21
-0.531127
 31
0.0
  0
LINE
  8
0
  6
CONTINUOUS
 62
     7
  5
3A5
 10
0.737333
 20
-0.531127
 30
0.0
 11
0.735074
 21
-0.531322
 31
0.0
  0
LINE
  8
0
  6
CONTINUOUS
 62
     7
  5
3A6
 10
0.735074
 20
-0.531322
 30
0.0
 11
0.732809
 21
-0.531473
 31
0.0
  0
LINE
  8
0
  6
CONTINUOUS
 62
     7
  5
3A7
 10
0.732809
 20
-0.531473
 30
0.0
 11
0.730541
 21
-0.531581
 31
0.0
  0
LINE
  8
0
  6
CONTINUOUS
 62
     7
  5
3A8
 10
0.730541
 20
-0.531581
 30
0.0
 11
0.728271
 21
-0.531646
 31
0.0
  0
LINE
  8
0
  6
CONTINUOUS
 62
     7
  5
3A9
 10
0.728271
 20
-0.531646
 30
0.0
 11
0.726
 21
-0.531667
 31
0.0
  0
LINE
  8
0
  6
CONTINUOUS
 62
     7
  5
3AA
 10
0.726
 20
-0.531667
 30
0.0
 11
0.723729
 21
-0.531646
 31
0.0
  0
LINE
  8
0
  6
CONTINUOUS
 62
     7
  5
3AB
 10
0.723729
 20
-0.531646
 30
0.0
 11
0.721459
 21
-0.531581
 31
0.0
  0
LINE
  8
0
  6
CONTINUOUS
 62
     7
  5
3AC
 10
0.721459
 20
-0.531581
 30
0.0
 11
0.719191
 21
-0.531473
 31
0.0
  0
LINE
  8
0
  6
CONTINUOUS
 62
     7
  5
3AD
 10
0.719191
 20
-0.531473
 30
0.0
 11
0.716926
 21
-0.531322
 31
0.0
  0
LINE
  8
0
  6
CONTINUOUS
 62
     7
  5
3AE
 10
0.716926
 20
-0.531322
 30
0.0
 11
0.714667
 21
-0.531127
 31
0.0
  0
LINE
  8
0
  6
CONTINUOUS
 62
     7
  5
3AF
 10
0.714667
 20
-0.531127
 30
0.0
 11
0.712413
 21
-0.53089
 31
0.0
  0
LINE
  8
0
  6
CONTINUOUS
 62
     7
  5
3B0
 10
0.712413
 20
-0.53089
 30
0.0
 11
0.710166
 21
-0.530609
 31
0.0
  0
LINE
  8
0
  6
CONTINUOUS
 62
     7
  5
3B1
 10
0.710166
 20
-0.530609
 30
0.0
 11
0.707928
 21
-0.530287
 31
0.0
  0
LINE
  8
0
  6
CONTINUOUS
 62
     7
  5
3B2
 10
0.707928
 20
-0.530287
 30
0.0
 11
0.705699
 21
-0.529921
 31
0.0
  0
LINE
  8
0
  6
CONTINUOUS
 62
     7
  5
3B3
 10
0.705699
 20
-0.529921
 30
0.0
 11
0.70348
 21
-0.529513
 31
0.0
  0
LINE
  8
0
  6
CONTINUOUS
 62
     7
  5
3B4
 10
0.70348
 20
-0.529513
 30
0.0
 11
0.701273
 21
-0.529063
 31
0.0
  0
LINE
  8
0
  6
CONTINUOUS
 62
     7
  5
3B5
 10
0.701273
 20
-0.529063
 30
0.0
 11
0.699078
 21
-0.528571
 31
0.0
  0
LINE
  8
0
  6
CONTINUOUS
 62
     7
  5
3B6
 10
0.699078
 20
-0.528571
 30
0.0
 11
0.696898
 21
-0.528037
 31
0.0
  0
LINE
  8
0
  6
CONTINUOUS
 62
     7
  5
3B7
 10
0.696898
 20
-0.528037
 30
0.0
 11
0.694732
 21
-0.527462
 31
0.0
  0
LINE
  8
0
  6
CONTINUOUS
 62
     7
  5
3B8
 10
0.694732
 20
-0.527462
 30
0.0
 11
0.692583
 21
-0.526846
 31
0.0
  0
LINE
  8
0
  6
CONTINUOUS
 62
     7
  5
3B9
 10
0.692583
 20
-0.526846
 30
0.0
 11
0.690451
 21
-0.526189
 31
0.0
  0
LINE
  8
0
  6
CONTINUOUS
 62
     7
  5
3BA
 10
0.690451
 20
-0.526189
 30
0.0
 11
0.688337
 21
-0.525492
 31
0.0
  0
LINE
  8
0
  6
CONTINUOUS
 62
     7
  5
3BB
 10
0.688337
 20
-0.525492
 30
0.0
 11
0.686243
 21
-0.524754
 31
0.0
  0
LINE
  8
0
  6
CONTINUOUS
 62
     7
  5
3BC
 10
0.686243
 20
-0.524754
 30
0.0
 11
0.684169
 21
-0.523977
 31
0.0
  0
LINE
  8
0
  6
CONTINUOUS
 62
     7
  5
3BD
 10
0.684169
 20
-0.523977
 30
0.0
 11
0.682117
 21
-0.523161
 31
0.0
  0
LINE
  8
0
  6
CONTINUOUS
 62
     7
  5
3BE
 10
0.682117
 20
-0.523161
 30
0.0
 11
0.680087
 21
-0.522305
 31
0.0
  0
LINE
  8
0
  6
CONTINUOUS
 62
     7
  5
3BF
 10
0.680087
 20
-0.522305
 30
0.0
 11
0.678081
 21
-0.521412
 31
0.0
  0
LINE
  8
0
  6
CONTINUOUS
 62
     7
  5
3C0
 10
0.678081
 20
-0.521412
 30
0.0
 11
0.6761
 21
-0.52048
 31
0.0
  0
LINE
  8
0
  6
CONTINUOUS
 62
     7
  5
3C1
 10
0.6761
 20
-0.52048
 30
0.0
 11
0.674144
 21
-0.51951
 31
0.0
  0
LINE
  8
0
  6
CONTINUOUS
 62
     7
  5
3C2
 10
0.674144
 20
-0.51951
 30
0.0
 11
0.672216
 21
-0.518504
 31
0.0
  0
LINE
  8
0
  6
CONTINUOUS
 62
     7
  5
3C3
 10
0.672216
 20
-0.518504
 30
0.0
 11
0.670315
 21
-0.517461
 31
0.0
  0
LINE
  8
0
  6
CONTINUOUS
 62
     7
  5
3C4
 10
0.670315
 20
-0.517461
 30
0.0
 11
0.668443
 21
-0.516383
 31
0.0
  0
LINE
  8
0
  6
CONTINUOUS
 62
     7
  5
3C5
 10
0.668443
 20
-0.516383
 30
0.0
 11
0.6666
 21
-0.515269
 31
0.0
  0
LINE
  8
0
  6
CONTINUOUS
 62
     7
  5
3C6
 10
0.6666
 20
-0.515269
 30
0.0
 11
0.664788
 21
-0.51412
 31
0.0
  0
LINE
  8
0
  6
CONTINUOUS
 62
     7
  5
3C7
 10
0.664788
 20
-0.51412
 30
0.0
 11
0.663008
 21
-0.512937
 31
0.0
  0
LINE
  8
0
  6
CONTINUOUS
 62
     7
  5
3C8
 10
0.663008
 20
-0.512937
 30
0.0
 11
0.66126
 21
-0.51172
 31
0.0
  0
LINE
  8
0
  6
CONTINUOUS
 62
     7
  5
3C9
 10
0.66126
 20
-0.51172
 30
0.0
 11
0.659546
 21
-0.51047
 31
0.0
  0
LINE
  8
0
  6
CONTINUOUS
 62
     7
  5
3CA
 10
0.659546
 20
-0.51047
 30
0.0
 11
0.657866
 21
-0.509188
 31
0.0
  0
LINE
  8
0
  6
CONTINUOUS
 62
     7
  5
3CB
 10
0.657866
 20
-0.509188
 30
0.0
 11
0.656221
 21
-0.507874
 31
0.0
  0
LINE
  8
0
  6
CONTINUOUS
 62
     7
  5
3CC
 10
0.656221
 20
-0.507874
 30
0.0
 11
0.654612
 21
-0.50653
 31
0.0
  0
LINE
  8
0
  6
CONTINUOUS
 62
     7
  5
3CD
 10
0.826
 20
-0.417293
 30
0.0
 11
0.826
 21
-0.295853
 31
0.0
  0
LINE
  8
0
  6
CONTINUOUS
 62
     7
  5
3CE
 10
0.795
 20
-0.295853
 30
0.0
 11
0.826
 21
-0.295853
 31
0.0
  0
LINE
  8
0
  6
CONTINUOUS
 62
     7
  5
3CF
 10
0.626
 20
-0.295853
 30
0.0
 11
0.657
 21
-0.295853
 31
0.0
  0
LINE
  8
0
  6
CONTINUOUS
 62
     7
  5
3D0
 10
0.626
 20
-0.295853
 30
0.0
 11
0.626
 21
-0.417293
 31
0.0
  0
LINE
  8
0
  6
CONTINUOUS
 62
     7
  5
3D1
 10
0.778515
 20
-0.417256
 30
0.0
 11
0.779407
 21
-0.416361
 31
0.0
  0
LINE
  8
0
  6
CONTINUOUS
 62
     7
  5
3D2
 10
0.779407
 20
-0.416361
 30
0.0
 11
0.780277
 21
-0.41545
 31
0.0
  0
LINE
  8
0
  6
CONTINUOUS
 62
     7
  5
3D3
 10
0.780277
 20
-0.41545
 30
0.0
 11
0.781125
 21
-0.414525
 31
0.0
  0
LINE
  8
0
  6
CONTINUOUS
 62
     7
  5
3D4
 10
0.781125
 20
-0.414525
 30
0.0
 11
0.781951
 21
-0.413586
 31
0.0
  0
LINE
  8
0
  6
CONTINUOUS
 62
     7
  5
3D5
 10
0.781951
 20
-0.413586
 30
0.0
 11
0.782754
 21
-0.412633
 31
0.0
  0
LINE
  8
0
  6
CONTINUOUS
 62
     7
  5
3D6
 10
0.782754
 20
-0.412633
 30
0.0
 11
0.783533
 21
-0.411666
 31
0.0
  0
LINE
  8
0
  6
CONTINUOUS
 62
     7
  5
3D7
 10
0.783533
 20
-0.411666
 30
0.0
 11
0.78429
 21
-0.410687
 31
0.0
  0
LINE
  8
0
  6
CONTINUOUS
 62
     7
  5
3D8
 10
0.78429
 20
-0.410687
 30
0.0
 11
0.785023
 21
-0.409695
 31
0.0
  0
LINE
  8
0
  6
CONTINUOUS
 62
     7
  5
3D9
 10
0.785023
 20
-0.409695
 30
0.0
 11
0.785731
 21
-0.40869
 31
0.0
  0
LINE
  8
0
  6
CONTINUOUS
 62
     7
  5
3DA
 10
0.785731
 20
-0.40869
 30
0.0
 11
0.786416
 21
-0.407674
 31
0.0
  0
LINE
  8
0
  6
CONTINUOUS
 62
     7
  5
3DB
 10
0.786416
 20
-0.407674
 30
0.0
 11
0.787075
 21
-0.406647
 31
0.0
  0
LINE
  8
0
  6
CONTINUOUS
 62
     7
  5
3DC
 10
0.787075
 20
-0.406647
 30
0.0
 11
0.78771
 21
-0.405609
 31
0.0
  0
LINE
  8
0
  6
CONTINUOUS
 62
     7
  5
3DD
 10
0.78771
 20
-0.405609
 30
0.0
 11
0.78832
 21
-0.40456
 31
0.0
  0
LINE
  8
0
  6
CONTINUOUS
 62
     7
  5
3DE
 10
0.78832
 20
-0.40456
 30
0.0
 11
0.788905
 21
-0.403501
 31
0.0
  0
LINE
  8
0
  6
CONTINUOUS
 62
     7
  5
3DF
 10
0.788905
 20
-0.403501
 30
0.0
 11
0.789464
 21
-0.402432
 31
0.0
  0
LINE
  8
0
  6
CONTINUOUS
 62
     7
  5
3E0
 10
0.789464
 20
-0.402432
 30
0.0
 11
0.789997
 21
-0.401354
 31
0.0
  0
LINE
  8
0
  6
CONTINUOUS
 62
     7
  5
3E1
 10
0.789997
 20
-0.401354
 30
0.0
 11
0.790504
 21
-0.400268
 31
0.0
  0
LINE
  8
0
  6
CONTINUOUS
 62
     7
  5
3E2
 10
0.790504
 20
-0.400268
 30
0.0
 11
0.790985
 21
-0.399173
 31
0.0
  0
LINE
  8
0
  6
CONTINUOUS
 62
     7
  5
3E3
 10
0.790985
 20
-0.399173
 30
0.0
 11
0.791439
 21
-0.39807
 31
0.0
  0
LINE
  8
0
  6
CONTINUOUS
 62
     7
  5
3E4
 10
0.791439
 20
-0.39807
 30
0.0
 11
0.791867
 21
-0.396959
 31
0.0
  0
LINE
  8
0
  6
CONTINUOUS
 62
     7
  5
3E5
 10
0.791867
 20
-0.396959
 30
0.0
 11
0.792268
 21
-0.395842
 31
0.0
  0
LINE
  8
0
  6
CONTINUOUS
 62
     7
  5
3E6
 10
0.792268
 20
-0.395842
 30
0.0
 11
0.792643
 21
-0.394718
 31
0.0
  0
LINE
  8
0
  6
CONTINUOUS
 62
     7
  5
3E7
 10
0.792643
 20
-0.394718
 30
0.0
 11
0.79299
 21
-0.393588
 31
0.0
  0
LINE
  8
0
  6
CONTINUOUS
 62
     7
  5
3E8
 10
0.79299
 20
-0.393588
 30
0.0
 11
0.793309
 21
-0.392452
 31
0.0
  0
LINE
  8
0
  6
CONTINUOUS
 62
     7
  5
3E9
 10
0.793309
 20
-0.392452
 30
0.0
 11
0.793602
 21
-0.391311
 31
0.0
  0
LINE
  8
0
  6
CONTINUOUS
 62
     7
  5
3EA
 10
0.793602
 20
-0.391311
 30
0.0
 11
0.793867
 21
-0.390166
 31
0.0
  0
LINE
  8
0
  6
CONTINUOUS
 62
     7
  5
3EB
 10
0.793867
 20
-0.390166
 30
0.0
 11
0.794104
 21
-0.389016
 31
0.0
  0
LINE
  8
0
  6
CONTINUOUS
 62
     7
  5
3EC
 10
0.794104
 20
-0.389016
 30
0.0
 11
0.794314
 21
-0.387862
 31
0.0
  0
LINE
  8
0
  6
CONTINUOUS
 62
     7
  5
3ED
 10
0.794314
 20
-0.387862
 30
0.0
 11
0.794496
 21
-0.386705
 31
0.0
  0
LINE
  8
0
  6
CONTINUOUS
 62
     7
  5
3EE
 10
0.794496
 20
-0.386705
 30
0.0
 11
0.79465
 21
-0.385545
 31
0.0
  0
LINE
  8
0
  6
CONTINUOUS
 62
     7
  5
3EF
 10
0.79465
 20
-0.385545
 30
0.0
 11
0.794776
 21
-0.384383
 31
0.0
  0
LINE
  8
0
  6
CONTINUOUS
 62
     7
  5
3F0
 10
0.794776
 20
-0.384383
 30
0.0
 11
0.794874
 21
-0.383219
 31
0.0
  0
LINE
  8
0
  6
CONTINUOUS
 62
     7
  5
3F1
 10
0.794874
 20
-0.383219
 30
0.0
 11
0.794944
 21
-0.382054
 31
0.0
  0
LINE
  8
0
  6
CONTINUOUS
 62
     7
  5
3F2
 10
0.794944
 20
-0.382054
 30
0.0
 11
0.794986
 21
-0.380887
 31
0.0
  0
LINE
  8
0
  6
CONTINUOUS
 62
     7
  5
3F3
 10
0.794986
 20
-0.380887
 30
0.0
 11
0.795
 21
-0.379721
 31
0.0
  0
LINE
  8
0
  6
CONTINUOUS
 62
     7
  5
3F4
 10
0.657
 20
-0.379721
 30
0.0
 11
0.657014
 21
-0.380887
 31
0.0
  0
LINE
  8
0
  6
CONTINUOUS
 62
     7
  5
3F5
 10
0.657014
 20
-0.380887
 30
0.0
 11
0.657056
 21
-0.382054
 31
0.0
  0
LINE
  8
0
  6
CONTINUOUS
 62
     7
  5
3F6
 10
0.657056
 20
-0.382054
 30
0.0
 11
0.657126
 21
-0.383219
 31
0.0
  0
LINE
  8
0
  6
CONTINUOUS
 62
     7
  5
3F7
 10
0.657126
 20
-0.383219
 30
0.0
 11
0.657224
 21
-0.384383
 31
0.0
  0
LINE
  8
0
  6
CONTINUOUS
 62
     7
  5
3F8
 10
0.657224
 20
-0.384383
 30
0.0
 11
0.65735
 21
-0.385545
 31
0.0
  0
LINE
  8
0
  6
CONTINUOUS
 62
     7
  5
3F9
 10
0.65735
 20
-0.385545
 30
0.0
 11
0.657504
 21
-0.386705
 31
0.0
  0
LINE
  8
0
  6
CONTINUOUS
 62
     7
  5
3FA
 10
0.657504
 20
-0.386705
 30
0.0
 11
0.657686
 21
-0.387862
 31
0.0
  0
LINE
  8
0
  6
CONTINUOUS
 62
     7
  5
3FB
 10
0.657686
 20
-0.387862
 30
0.0
 11
0.657896
 21
-0.389016
 31
0.0
  0
LINE
  8
0
  6
CONTINUOUS
 62
     7
  5
3FC
 10
0.657896
 20
-0.389016
 30
0.0
 11
0.658133
 21
-0.390166
 31
0.0
  0
LINE
  8
0
  6
CONTINUOUS
 62
     7
  5
3FD
 10
0.658133
 20
-0.390166
 30
0.0
 11
0.658398
 21
-0.391311
 31
0.0
  0
LINE
  8
0
  6
CONTINUOUS
 62
     7
  5
3FE
 10
0.658398
 20
-0.391311
 30
0.0
 11
0.658691
 21
-0.392452
 31
0.0
  0
LINE
  8
0
  6
CONTINUOUS
 62
     7
  5
3FF
 10
0.658691
 20
-0.392452
 30
0.0
 11
0.65901
 21
-0.393588
 31
0.0
  0
LINE
  8
0
  6
CONTINUOUS
 62
     7
  5
400
 10
0.65901
 20
-0.393588
 30
0.0
 11
0.659357
 21
-0.394718
 31
0.0
  0
LINE
  8
0
  6
CONTINUOUS
 62
     7
  5
401
 10
0.659357
 20
-0.394718
 30
0.0
 11
0.659732
 21
-0.395842
 31
0.0
  0
LINE
  8
0
  6
CONTINUOUS
 62
     7
  5
402
 10
0.659732
 20
-0.395842
 30
0.0
 11
0.660133
 21
-0.396959
 31
0.0
  0
LINE
  8
0
  6
CONTINUOUS
 62
     7
  5
403
 10
0.660133
 20
-0.396959
 30
0.0
 11
0.660561
 21
-0.39807
 31
0.0
  0
LINE
  8
0
  6
CONTINUOUS
 62
     7
  5
404
 10
0.660561
 20
-0.39807
 30
0.0
 11
0.661015
 21
-0.399173
 31
0.0
  0
LINE
  8
0
  6
CONTINUOUS
 62
     7
  5
405
 10
0.661015
 20
-0.399173
 30
0.0
 11
0.661496
 21
-0.400268
 31
0.0
  0
LINE
  8
0
  6
CONTINUOUS
 62
     7
  5
406
 10
0.661496
 20
-0.400268
 30
0.0
 11
0.662003
 21
-0.401354
 31
0.0
  0
LINE
  8
0
  6
CONTINUOUS
 62
     7
  5
407
 10
0.662003
 20
-0.401354
 30
0.0
 11
0.662536
 21
-0.402432
 31
0.0
  0
LINE
  8
0
  6
CONTINUOUS
 62
     7
  5
408
 10
0.662536
 20
-0.402432
 30
0.0
 11
0.663095
 21
-0.403501
 31
0.0
  0
LINE
  8
0
  6
CONTINUOUS
 62
     7
  5
409
 10
0.663095
 20
-0.403501
 30
0.0
 11
0.66368
 21
-0.40456
 31
0.0
  0
LINE
  8
0
  6
CONTINUOUS
 62
     7
  5
40A
 10
0.66368
 20
-0.40456
 30
0.0
 11
0.66429
 21
-0.405609
 31
0.0
  0
LINE
  8
0
  6
CONTINUOUS
 62
     7
  5
40B
 10
0.66429
 20
-0.405609
 30
0.0
 11
0.664925
 21
-0.406647
 31
0.0
  0
LINE
  8
0
  6
CONTINUOUS
 62
     7
  5
40C
 10
0.664925
 20
-0.406647
 30
0.0
 11
0.665584
 21
-0.407674
 31
0.0
  0
LINE
  8
0
  6
CONTINUOUS
 62
     7
  5
40D
 10
0.665584
 20
-0.407674
 30
0.0
 11
0.666269
 21
-0.40869
 31
0.0
  0
LINE
  8
0
  6
CONTINUOUS
 62
     7
  5
40E
 10
0.666269
 20
-0.40869
 30
0.0
 11
0.666977
 21
-0.409695
 31
0.0
  0
LINE
  8
0
  6
CONTINUOUS
 62
     7
  5
40F
 10
0.666977
 20
-0.409695
 30
0.0
 11
0.66771
 21
-0.410687
 31
0.0
  0
LINE
  8
0
  6
CONTINUOUS
 62
     7
  5
410
 10
0.66771
 20
-0.410687
 30
0.0
 11
0.668467
 21
-0.411666
 31
0.0
  0
LINE
  8
0
  6
CONTINUOUS
 62
     7
  5
411
 10
0.668467
 20
-0.411666
 30
0.0
 11
0.669246
 21
-0.412633
 31
0.0
  0
LINE
  8
0
  6
CONTINUOUS
 62
     7
  5
412
 10
0.669246
 20
-0.412633
 30
0.0
 11
0.670049
 21
-0.413586
 31
0.0
  0
LINE
  8
0
  6
CONTINUOUS
 62
     7
  5
413
 10
0.670049
 20
-0.413586
 30
0.0
 11
0.670875
 21
-0.414525
 31
0.0
  0
LINE
  8
0
  6
CONTINUOUS
 62
     7
  5
414
 10
0.670875
 20
-0.414525
 30
0.0
 11
0.671723
 21
-0.41545
 31
0.0
  0
LINE
  8
0
  6
CONTINUOUS
 62
     7
  5
415
 10
0.671723
 20
-0.41545
 30
0.0
 11
0.672593
 21
-0.416361
 31
0.0
  0
LINE
  8
0
  6
CONTINUOUS
 62
     7
  5
416
 10
0.672593
 20
-0.416361
 30
0.0
 11
0.673485
 21
-0.417256
 31
0.0
  0
LINE
  8
0
  6
CONTINUOUS
 62
     7
  5
417
 10
0.543
 20
-0.417293
 30
0.0
 11
0.926
 21
-0.417293
 31
0.0
  0
LINE
  8
0
  6
CONTINUOUS
 62
     7
  5
418
 10
0.926
 20
-0.312193
 30
0.0
 11
0.926
 21
-0.249559
 31
0.0
  0
LINE
  8
0
  6
CONTINUOUS
 62
     7
  5
419
 10
0.776391
 20
-0.249559
 30
0.0
 11
0.926
 21
-0.249559
 31
0.0
  0
LINE
  8
0
  6
CONTINUOUS
 62
     7
  5
41A
 10
0.543
 20
-0.249559
 30
0.0
 11
0.675609
 21
-0.249559
 31
0.0
  0
LINE
  8
0
  6
CONTINUOUS
 62
     7
  5
41B
 10
0.926
 20
-0.417293
 30
0.0
 11
0.926
 21
-0.326026
 31
0.0
  0
LINE
  8
0
  6
CONTINUOUS
 62
     7
  5
41C
 10
0.543
 20
-0.228592
 30
0.0
 11
0.926
 21
-0.228592
 31
0.0
  0
LINE
  8
0
  6
CONTINUOUS
 62
     7
  5
41D
 10
0.926
 20
-0.50654
 30
0.0
 11
0.926
 21
-0.500894
 31
0.0
  0
LINE
  8
0
  6
CONTINUOUS
 62
     7
  5
41E
 10
0.926
 20
-0.500894
 30
0.0
 11
0.926
 21
-0.43826
 31
0.0
  0
LINE
  8
0
  6
CONTINUOUS
 62
     7
  5
41F
 10
0.543
 20
-0.43826
 30
0.0
 11
0.926
 21
-0.43826
 31
0.0
  0
LINE
  8
0
  6
CONTINUOUS
 62
     7
  5
420
 10
0.926
 20
-0.43826
 30
0.0
 11
0.926
 21
-0.417293
 31
0.0
  0
LINE
  8
0
  6
CONTINUOUS
 62
     7
  5
421
 10
0.926
 20
-0.326026
 30
0.0
 11
0.926
 21
-0.312193
 31
0.0
  0
LINE
  8
0
  6
CONTINUOUS
 62
     7
  5
422
 10
0.926
 20
-0.249559
 30
0.0
 11
0.926
 21
-0.228592
 31
0.0
  0
LINE
  8
0
  6
CONTINUOUS
 62
     7
  5
423
 10
0.726
 20
-0.321231
 30
0.0
 11
0.717001
 21
-0.320552
 31
0.0
  0
LINE
  8
0
  6
CONTINUOUS
 62
     7
  5
424
 10
0.717001
 20
-0.320552
 30
0.0
 11
0.708291
 21
-0.318536
 31
0.0
  0
LINE
  8
0
  6
CONTINUOUS
 62
     7
  5
425
 10
0.708291
 20
-0.318536
 30
0.0
 11
0.70015
 21
-0.315248
 31
0.0
  0
LINE
  8
0
  6
CONTINUOUS
 62
     7
  5
426
 10
0.70015
 20
-0.315248
 30
0.0
 11
0.69284
 21
-0.310794
 31
0.0
  0
LINE
  8
0
  6
CONTINUOUS
 62
     7
  5
427
 10
0.69284
 20
-0.310794
 30
0.0
 11
0.686596
 21
-0.305317
 31
0.0
  0
LINE
  8
0
  6
CONTINUOUS
 62
     7
  5
428
 10
0.686596
 20
-0.305317
 30
0.0
 11
0.681618
 21
-0.298992
 31
0.0
  0
LINE
  8
0
  6
CONTINUOUS
 62
     7
  5
429
 10
0.681618
 20
-0.298992
 30
0.0
 11
0.678067
 21
-0.292024
 31
0.0
  0
LINE
  8
0
  6
CONTINUOUS
 62
     7
  5
42A
 10
0.678067
 20
-0.292024
 30
0.0
 11
0.676056
 21
-0.284636
 31
0.0
  0
LINE
  8
0
  6
CONTINUOUS
 62
     7
  5
42B
 10
0.676056
 20
-0.284636
 30
0.0
 11
0.675651
 21
-0.277066
 31
0.0
  0
LINE
  8
0
  6
CONTINUOUS
 62
     7
  5
42C
 10
0.675651
 20
-0.277066
 30
0.0
 11
0.676864
 21
-0.269557
 31
0.0
  0
LINE
  8
0
  6
CONTINUOUS
 62
     7
  5
42D
 10
0.676864
 20
-0.269557
 30
0.0
 11
0.679656
 21
-0.26235
 31
0.0
  0
LINE
  8
0
  6
CONTINUOUS
 62
     7
  5
42E
 10
0.679656
 20
-0.26235
 30
0.0
 11
0.683938
 21
-0.255676
 31
0.0
  0
LINE
  8
0
  6
CONTINUOUS
 62
     7
  5
42F
 10
0.683938
 20
-0.255676
 30
0.0
 11
0.689571
 21
-0.249752
 31
0.0
  0
LINE
  8
0
  6
CONTINUOUS
 62
     7
  5
430
 10
0.689571
 20
-0.249752
 30
0.0
 11
0.696376
 21
-0.244766
 31
0.0
  0
LINE
  8
0
  6
CONTINUOUS
 62
     7
  5
431
 10
0.696376
 20
-0.244766
 30
0.0
 11
0.704132
 21
-0.240879
 31
0.0
  0
LINE
  8
0
  6
CONTINUOUS
 62
     7
  5
432
 10
0.704132
 20
-0.240879
 30
0.0
 11
0.712592
 21
-0.238217
 31
0.0
  0
LINE
  8
0
  6
CONTINUOUS
 62
     7
  5
433
 10
0.712592
 20
-0.238217
 30
0.0
 11
0.721482
 21
-0.236863
 31
0.0
  0
LINE
  8
0
  6
CONTINUOUS
 62
     7
  5
434
 10
0.721482
 20
-0.236863
 30
0.0
 11
0.730518
 21
-0.236863
 31
0.0
  0
LINE
  8
0
  6
CONTINUOUS
 62
     7
  5
435
 10
0.730518
 20
-0.236863
 30
0.0
 11
0.739408
 21
-0.238217
 31
0.0
  0
LINE
  8
0
  6
CONTINUOUS
 62
     7
  5
436
 10
0.739408
 20
-0.238217
 30
0.0
 11
0.747868
 21
-0.240879
 31
0.0
  0
LINE
  8
0
  6
CONTINUOUS
 62
     7
  5
437
 10
0.747868
 20
-0.240879
 30
0.0
 11
0.755624
 21
-0.244766
 31
0.0
  0
LINE
  8
0
  6
CONTINUOUS
 62
     7
  5
438
 10
0.755624
 20
-0.244766
 30
0.0
 11
0.762429
 21
-0.249752
 31
0.0
  0
LINE
  8
0
  6
CONTINUOUS
 62
     7
  5
439
 10
0.762429
 20
-0.249752
 30
0.0
 11
0.768062
 21
-0.255676
 31
0.0
  0
LINE
  8
0
  6
CONTINUOUS
 62
     7
  5
43A
 10
0.768062
 20
-0.255676
 30
0.0
 11
0.772344
 21
-0.26235
 31
0.0
  0
LINE
  8
0
  6
CONTINUOUS
 62
     7
  5
43B
 10
0.772344
 20
-0.26235
 30
0.0
 11
0.775136
 21
-0.269557
 31
0.0
  0
LINE
  8
0
  6
CONTINUOUS
 62
     7
  5
43C
 10
0.775136
 20
-0.269557
 30
0.0
 11
0.776349
 21
-0.277066
 31
0.0
  0
LINE
  8
0
  6
CONTINUOUS
 62
     7
  5
43D
 10
0.776349
 20
-0.277066
 30
0.0
 11
0.775944
 21
-0.284636
 31
0.0
  0
LINE
  8
0
  6
CONTINUOUS
 62
     7
  5
43E
 10
0.775944
 20
-0.284636
 30
0.0
 11
0.773933
 21
-0.292024
 31
0.0
  0
LINE
  8
0
  6
CONTINUOUS
 62
     7
  5
43F
 10
0.773933
 20
-0.292024
 30
0.0
 11
0.770382
 21
-0.298992
 31
0.0
  0
LINE
  8
0
  6
CONTINUOUS
 62
     7
  5
440
 10
0.770382
 20
-0.298992
 30
0.0
 11
0.765404
 21
-0.305317
 31
0.0
  0
LINE
  8
0
  6
CONTINUOUS
 62
     7
  5
441
 10
0.765404
 20
-0.305317
 30
0.0
 11
0.75916
 21
-0.310794
 31
0.0
  0
LINE
  8
0
  6
CONTINUOUS
 62
     7
  5
442
 10
0.75916
 20
-0.310794
 30
0.0
 11
0.75185
 21
-0.315248
 31
0.0
  0
LINE
  8
0
  6
CONTINUOUS
 62
     7
  5
443
 10
0.75185
 20
-0.315248
 30
0.0
 11
0.743709
 21
-0.318536
 31
0.0
  0
LINE
  8
0
  6
CONTINUOUS
 62
     7
  5
444
 10
0.743709
 20
-0.318536
 30
0.0
 11
0.734999
 21
-0.320552
 31
0.0
  0
LINE
  8
0
  6
CONTINUOUS
 62
     7
  5
445
 10
0.734999
 20
-0.320552
 30
0.0
 11
0.726
 21
-0.321231
 31
0.0
  0
LINE
  8
0
  6
CONTINUOUS
 62
     7
  5
446
 10
0.795
 20
-0.289093
 30
0.0
 11
0.794931
 21
-0.291689
 31
0.0
  0
LINE
  8
0
  6
CONTINUOUS
 62
     7
  5
447
 10
0.794931
 20
-0.291689
 30
0.0
 11
0.794722
 21
-0.29428
 31
0.0
  0
LINE
  8
0
  6
CONTINUOUS
 62
     7
  5
448
 10
0.794722
 20
-0.29428
 30
0.0
 11
0.794376
 21
-0.29686
 31
0.0
  0
LINE
  8
0
  6
CONTINUOUS
 62
     7
  5
449
 10
0.794376
 20
-0.29686
 30
0.0
 11
0.793891
 21
-0.299425
 31
0.0
  0
LINE
  8
0
  6
CONTINUOUS
 62
     7
  5
44A
 10
0.793891
 20
-0.299425
 30
0.0
 11
0.79327
 21
-0.301969
 31
0.0
  0
LINE
  8
0
  6
CONTINUOUS
 62
     7
  5
44B
 10
0.79327
 20
-0.301969
 30
0.0
 11
0.792513
 21
-0.304488
 31
0.0
  0
LINE
  8
0
  6
CONTINUOUS
 62
     7
  5
44C
 10
0.792513
 20
-0.304488
 30
0.0
 11
0.791623
 21
-0.306975
 31
0.0
  0
LINE
  8
0
  6
CONTINUOUS
 62
     7
  5
44D
 10
0.791623
 20
-0.306975
 30
0.0
 11
0.7906
 21
-0.309426
 31
0.0
  0
LINE
  8
0
  6
CONTINUOUS
 62
     7
  5
44E
 10
0.7906
 20
-0.309426
 30
0.0
 11
0.789447
 21
-0.311836
 31
0.0
  0
LINE
  8
0
  6
CONTINUOUS
 62
     7
  5
44F
 10
0.789447
 20
-0.311836
 30
0.0
 11
0.788167
 21
-0.314201
 31
0.0
  0
LINE
  8
0
  6
CONTINUOUS
 62
     7
  5
450
 10
0.788167
 20
-0.314201
 30
0.0
 11
0.786761
 21
-0.316515
 31
0.0
  0
LINE
  8
0
  6
CONTINUOUS
 62
     7
  5
451
 10
0.786761
 20
-0.316515
 30
0.0
 11
0.785233
 21
-0.318773
 31
0.0
  0
LINE
  8
0
  6
CONTINUOUS
 62
     7
  5
452
 10
0.785233
 20
-0.318773
 30
0.0
 11
0.783586
 21
-0.320972
 31
0.0
  0
LINE
  8
0
  6
CONTINUOUS
 62
     7
  5
453
 10
0.783586
 20
-0.320972
 30
0.0
 11
0.781822
 21
-0.323107
 31
0.0
  0
LINE
  8
0
  6
CONTINUOUS
 62
     7
  5
454
 10
0.781822
 20
-0.323107
 30
0.0
 11
0.779946
 21
-0.325173
 31
0.0
  0
LINE
  8
0
  6
CONTINUOUS
 62
     7
  5
455
 10
0.779946
 20
-0.325173
 30
0.0
 11
0.777962
 21
-0.327166
 31
0.0
  0
LINE
  8
0
  6
CONTINUOUS
 62
     7
  5
456
 10
0.777962
 20
-0.327166
 30
0.0
 11
0.775873
 21
-0.329083
 31
0.0
  0
LINE
  8
0
  6
CONTINUOUS
 62
     7
  5
457
 10
0.775873
 20
-0.329083
 30
0.0
 11
0.773683
 21
-0.330919
 31
0.0
  0
LINE
  8
0
  6
CONTINUOUS
 62
     7
  5
458
 10
0.773683
 20
-0.330919
 30
0.0
 11
0.771398
 21
-0.332672
 31
0.0
  0
LINE
  8
0
  6
CONTINUOUS
 62
     7
  5
459
 10
0.771398
 20
-0.332672
 30
0.0
 11
0.769021
 21
-0.334336
 31
0.0
  0
LINE
  8
0
  6
CONTINUOUS
 62
     7
  5
45A
 10
0.769021
 20
-0.334336
 30
0.0
 11
0.766557
 21
-0.335909
 31
0.0
  0
LINE
  8
0
  6
CONTINUOUS
 62
     7
  5
45B
 10
0.766557
 20
-0.335909
 30
0.0
 11
0.764012
 21
-0.337388
 31
0.0
  0
LINE
  8
0
  6
CONTINUOUS
 62
     7
  5
45C
 10
0.764012
 20
-0.337388
 30
0.0
 11
0.76139
 21
-0.33877
 31
0.0
  0
LINE
  8
0
  6
CONTINUOUS
 62
     7
  5
45D
 10
0.76139
 20
-0.33877
 30
0.0
 11
0.758697
 21
-0.340051
 31
0.0
  0
LINE
  8
0
  6
CONTINUOUS
 62
     7
  5
45E
 10
0.758697
 20
-0.340051
 30
0.0
 11
0.755938
 21
-0.34123
 31
0.0
  0
LINE
  8
0
  6
CONTINUOUS
 62
     7
  5
45F
 10
0.755938
 20
-0.34123
 30
0.0
 11
0.753119
 21
-0.342304
 31
0.0
  0
LINE
  8
0
  6
CONTINUOUS
 62
     7
  5
460
 10
0.753119
 20
-0.342304
 30
0.0
 11
0.750245
 21
-0.343271
 31
0.0
  0
LINE
  8
0
  6
CONTINUOUS
 62
     7
  5
461
 10
0.750245
 20
-0.343271
 30
0.0
 11
0.747322
 21
-0.344129
 31
0.0
  0
LINE
  8
0
  6
CONTINUOUS
 62
     7
  5
462
 10
0.747322
 20
-0.344129
 30
0.0
 11
0.744357
 21
-0.344875
 31
0.0
  0
LINE
  8
0
  6
CONTINUOUS
 62
     7
  5
463
 10
0.744357
 20
-0.344875
 30
0.0
 11
0.741354
 21
-0.34551
 31
0.0
  0
LINE
  8
0
  6
CONTINUOUS
 62
     7
  5
464
 10
0.741354
 20
-0.34551
 30
0.0
 11
0.73832
 21
-0.346031
 31
0.0
  0
LINE
  8
0
  6
CONTINUOUS
 62
     7
  5
465
 10
0.73832
 20
-0.346031
 30
0.0
 11
0.735262
 21
-0.346437
 31
0.0
  0
LINE
  8
0
  6
CONTINUOUS
 62
     7
  5
466
 10
0.735262
 20
-0.346437
 30
0.0
 11
0.732185
 21
-0.346728
 31
0.0
  0
LINE
  8
0
  6
CONTINUOUS
 62
     7
  5
467
 10
0.732185
 20
-0.346728
 30
0.0
 11
0.729096
 21
-0.346903
 31
0.0
  0
LINE
  8
0
  6
CONTINUOUS
 62
     7
  5
468
 10
0.729096
 20
-0.346903
 30
0.0
 11
0.726
 21
-0.346961
 31
0.0
  0
LINE
  8
0
  6
CONTINUOUS
 62
     7
  5
469
 10
0.657
 20
-0.289093
 30
0.0
 11
0.657278
 21
-0.283905
 31
0.0
  0
LINE
  8
0
  6
CONTINUOUS
 62
     7
  5
46A
 10
0.657278
 20
-0.283905
 30
0.0
 11
0.658109
 21
-0.27876
 31
0.0
  0
LINE
  8
0
  6
CONTINUOUS
 62
     7
  5
46B
 10
0.658109
 20
-0.27876
 30
0.0
 11
0.659487
 21
-0.273697
 31
0.0
  0
LINE
  8
0
  6
CONTINUOUS
 62
     7
  5
46C
 10
0.659487
 20
-0.273697
 30
0.0
 11
0.6614
 21
-0.268759
 31
0.0
  0
LINE
  8
0
  6
CONTINUOUS
 62
     7
  5
46D
 10
0.6614
 20
-0.268759
 30
0.0
 11
0.663833
 21
-0.263984
 31
0.0
  0
LINE
  8
0
  6
CONTINUOUS
 62
     7
  5
46E
 10
0.663833
 20
-0.263984
 30
0.0
 11
0.666767
 21
-0.259412
 31
0.0
  0
LINE
  8
0
  6
CONTINUOUS
 62
     7
  5
46F
 10
0.666767
 20
-0.259412
 30
0.0
 11
0.670178
 21
-0.255078
 31
0.0
  0
LINE
  8
0
  6
CONTINUOUS
 62
     7
  5
470
 10
0.670178
 20
-0.255078
 30
0.0
 11
0.674038
 21
-0.251019
 31
0.0
  0
LINE
  8
0
  6
CONTINUOUS
 62
     7
  5
471
 10
0.674038
 20
-0.251019
 30
0.0
 11
0.678317
 21
-0.247266
 31
0.0
  0
LINE
  8
0
  6
CONTINUOUS
 62
     7
  5
472
 10
0.678317
 20
-0.247266
 30
0.0
 11
0.682979
 21
-0.243849
 31
0.0
  0
LINE
  8
0
  6
CONTINUOUS
 62
     7
  5
473
 10
0.682979
 20
-0.243849
 30
0.0
 11
0.687988
 21
-0.240797
 31
0.0
  0
LINE
  8
0
  6
CONTINUOUS
 62
     7
  5
474
 10
0.687988
 20
-0.240797
 30
0.0
 11
0.693303
 21
-0.238134
 31
0.0
  0
LINE
  8
0
  6
CONTINUOUS
 62
     7
  5
475
 10
0.693303
 20
-0.238134
 30
0.0
 11
0.698881
 21
-0.235881
 31
0.0
  0
LINE
  8
0
  6
CONTINUOUS
 62
     7
  5
476
 10
0.698881
 20
-0.235881
 30
0.0
 11
0.704678
 21
-0.234057
 31
0.0
  0
LINE
  8
0
  6
CONTINUOUS
 62
     7
  5
477
 10
0.704678
 20
-0.234057
 30
0.0
 11
0.710646
 21
-0.232675
 31
0.0
  0
LINE
  8
0
  6
CONTINUOUS
 62
     7
  5
478
 10
0.710646
 20
-0.232675
 30
0.0
 11
0.716738
 21
-0.231748
 31
0.0
  0
LINE
  8
0
  6
CONTINUOUS
 62
     7
  5
479
 10
0.716738
 20
-0.231748
 30
0.0
 11
0.722904
 21
-0.231283
 31
0.0
  0
LINE
  8
0
  6
CONTINUOUS
 62
     7
  5
47A
 10
0.722904
 20
-0.231283
 30
0.0
 11
0.729096
 21
-0.231283
 31
0.0
  0
LINE
  8
0
  6
CONTINUOUS
 62
     7
  5
47B
 10
0.729096
 20
-0.231283
 30
0.0
 11
0.735262
 21
-0.231748
 31
0.0
  0
LINE
  8
0
  6
CONTINUOUS
 62
     7
  5
47C
 10
0.735262
 20
-0.231748
 30
0.0
 11
0.741354
 21
-0.232675
 31
0.0
  0
LINE
  8
0
  6
CONTINUOUS
 62
     7
  5
47D
 10
0.741354
 20
-0.232675
 30
0.0
 11
0.747322
 21
-0.234057
 31
0.0
  0
LINE
  8
0
  6
CONTINUOUS
 62
     7
  5
47E
 10
0.747322
 20
-0.234057
 30
0.0
 11
0.753119
 21
-0.235881
 31
0.0
  0
LINE
  8
0
  6
CONTINUOUS
 62
     7
  5
47F
 10
0.753119
 20
-0.235881
 30
0.0
 11
0.758697
 21
-0.238134
 31
0.0
  0
LINE
  8
0
  6
CONTINUOUS
 62
     7
  5
480
 10
0.758697
 20
-0.238134
 30
0.0
 11
0.764012
 21
-0.240797
 31
0.0
  0
LINE
  8
0
  6
CONTINUOUS
 62
     7
  5
481
 10
0.764012
 20
-0.240797
 30
0.0
 11
0.769021
 21
-0.243849
 31
0.0
  0
LINE
  8
0
  6
CONTINUOUS
 62
     7
  5
482
 10
0.769021
 20
-0.243849
 30
0.0
 11
0.773683
 21
-0.247266
 31
0.0
  0
LINE
  8
0
  6
CONTINUOUS
 62
     7
  5
483
 10
0.773683
 20
-0.247266
 30
0.0
 11
0.777962
 21
-0.251019
 31
0.0
  0
LINE
  8
0
  6
CONTINUOUS
 62
     7
  5
484
 10
0.777962
 20
-0.251019
 30
0.0
 11
0.781822
 21
-0.255078
 31
0.0
  0
LINE
  8
0
  6
CONTINUOUS
 62
     7
  5
485
 10
0.781822
 20
-0.255078
 30
0.0
 11
0.785233
 21
-0.259412
 31
0.0
  0
LINE
  8
0
  6
CONTINUOUS
 62
     7
  5
486
 10
0.785233
 20
-0.259412
 30
0.0
 11
0.788167
 21
-0.263984
 31
0.0
  0
LINE
  8
0
  6
CONTINUOUS
 62
     7
  5
487
 10
0.788167
 20
-0.263984
 30
0.0
 11
0.7906
 21
-0.268759
 31
0.0
  0
LINE
  8
0
  6
CONTINUOUS
 62
     7
  5
488
 10
0.7906
 20
-0.268759
 30
0.0
 11
0.792513
 21
-0.273697
 31
0.0
  0
LINE
  8
0
  6
CONTINUOUS
 62
     7
  5
489
 10
0.792513
 20
-0.273697
 30
0.0
 11
0.793891
 21
-0.27876
 31
0.0
  0
LINE
  8
0
  6
CONTINUOUS
 62
     7
  5
48A
 10
0.793891
 20
-0.27876
 30
0.0
 11
0.794722
 21
-0.283905
 31
0.0
  0
LINE
  8
0
  6
CONTINUOUS
 62
     7
  5
48B
 10
0.794722
 20
-0.283905
 30
0.0
 11
0.795
 21
-0.289093
 31
0.0
  0
LINE
  8
0
  6
CONTINUOUS
 62
     7
  5
48C
 10
0.726
 20
-0.346961
 30
0.0
 11
0.722904
 21
-0.346903
 31
0.0
  0
LINE
  8
0
  6
CONTINUOUS
 62
     7
  5
48D
 10
0.722904
 20
-0.346903
 30
0.0
 11
0.719815
 21
-0.346728
 31
0.0
  0
LINE
  8
0
  6
CONTINUOUS
 62
     7
  5
48E
 10
0.719815
 20
-0.346728
 30
0.0
 11
0.716738
 21
-0.346437
 31
0.0
  0
LINE
  8
0
  6
CONTINUOUS
 62
     7
  5
48F
 10
0.716738
 20
-0.346437
 30
0.0
 11
0.71368
 21
-0.346031
 31
0.0
  0
LINE
  8
0
  6
CONTINUOUS
 62
     7
  5
490
 10
0.71368
 20
-0.346031
 30
0.0
 11
0.710646
 21
-0.34551
 31
0.0
  0
LINE
  8
0
  6
CONTINUOUS
 62
     7
  5
491
 10
0.710646
 20
-0.34551
 30
0.0
 11
0.707643
 21
-0.344875
 31
0.0
  0
LINE
  8
0
  6
CONTINUOUS
 62
     7
  5
492
 10
0.707643
 20
-0.344875
 30
0.0
 11
0.704678
 21
-0.344129
 31
0.0
  0
LINE
  8
0
  6
CONTINUOUS
 62
     7
  5
493
 10
0.704678
 20
-0.344129
 30
0.0
 11
0.701755
 21
-0.343271
 31
0.0
  0
LINE
  8
0
  6
CONTINUOUS
 62
     7
  5
494
 10
0.701755
 20
-0.343271
 30
0.0
 11
0.698881
 21
-0.342304
 31
0.0
  0
LINE
  8
0
  6
CONTINUOUS
 62
     7
  5
495
 10
0.698881
 20
-0.342304
 30
0.0
 11
0.696062
 21
-0.34123
 31
0.0
  0
LINE
  8
0
  6
CONTINUOUS
 62
     7
  5
496
 10
0.696062
 20
-0.34123
 30
0.0
 11
0.693303
 21
-0.340051
 31
0.0
  0
LINE
  8
0
  6
CONTINUOUS
 62
     7
  5
497
 10
0.693303
 20
-0.340051
 30
0.0
 11
0.69061
 21
-0.33877
 31
0.0
  0
LINE
  8
0
  6
CONTINUOUS
 62
     7
  5
498
 10
0.69061
 20
-0.33877
 30
0.0
 11
0.687988
 21
-0.337388
 31
0.0
  0
LINE
  8
0
  6
CONTINUOUS
 62
     7
  5
499
 10
0.687988
 20
-0.337388
 30
0.0
 11
0.685443
 21
-0.335909
 31
0.0
  0
LINE
  8
0
  6
CONTINUOUS
 62
     7
  5
49A
 10
0.685443
 20
-0.335909
 30
0.0
 11
0.682979
 21
-0.334336
 31
0.0
  0
LINE
  8
0
  6
CONTINUOUS
 62
     7
  5
49B
 10
0.682979
 20
-0.334336
 30
0.0
 11
0.680602
 21
-0.332672
 31
0.0
  0
LINE
  8
0
  6
CONTINUOUS
 62
     7
  5
49C
 10
0.680602
 20
-0.332672
 30
0.0
 11
0.678317
 21
-0.330919
 31
0.0
  0
LINE
  8
0
  6
CONTINUOUS
 62
     7
  5
49D
 10
0.678317
 20
-0.330919
 30
0.0
 11
0.676127
 21
-0.329083
 31
0.0
  0
LINE
  8
0
  6
CONTINUOUS
 62
     7
  5
49E
 10
0.676127
 20
-0.329083
 30
0.0
 11
0.674038
 21
-0.327166
 31
0.0
  0
LINE
  8
0
  6
CONTINUOUS
 62
     7
  5
49F
 10
0.674038
 20
-0.327166
 30
0.0
 11
0.672054
 21
-0.325173
 31
0.0
  0
LINE
  8
0
  6
CONTINUOUS
 62
     7
  5
4A0
 10
0.672054
 20
-0.325173
 30
0.0
 11
0.670178
 21
-0.323107
 31
0.0
  0
LINE
  8
0
  6
CONTINUOUS
 62
     7
  5
4A1
 10
0.670178
 20
-0.323107
 30
0.0
 11
0.668414
 21
-0.320972
 31
0.0
  0
LINE
  8
0
  6
CONTINUOUS
 62
     7
  5
4A2
 10
0.668414
 20
-0.320972
 30
0.0
 11
0.666767
 21
-0.318773
 31
0.0
  0
LINE
  8
0
  6
CONTINUOUS
 62
     7
  5
4A3
 10
0.666767
 20
-0.318773
 30
0.0
 11
0.665239
 21
-0.316515
 31
0.0
  0
LINE
  8
0
  6
CONTINUOUS
 62
     7
  5
4A4
 10
0.665239
 20
-0.316515
 30
0.0
 11
0.663833
 21
-0.314201
 31
0.0
  0
LINE
  8
0
  6
CONTINUOUS
 62
     7
  5
4A5
 10
0.663833
 20
-0.314201
 30
0.0
 11
0.662553
 21
-0.311836
 31
0.0
  0
LINE
  8
0
  6
CONTINUOUS
 62
     7
  5
4A6
 10
0.662553
 20
-0.311836
 30
0.0
 11
0.6614
 21
-0.309426
 31
0.0
  0
LINE
  8
0
  6
CONTINUOUS
 62
     7
  5
4A7
 10
0.6614
 20
-0.309426
 30
0.0
 11
0.660377
 21
-0.306975
 31
0.0
  0
LINE
  8
0
  6
CONTINUOUS
 62
     7
  5
4A8
 10
0.660377
 20
-0.306975
 30
0.0
 11
0.659487
 21
-0.304488
 31
0.0
  0
LINE
  8
0
  6
CONTINUOUS
 62
     7
  5
4A9
 10
0.659487
 20
-0.304488
 30
0.0
 11
0.65873
 21
-0.301969
 31
0.0
  0
LINE
  8
0
  6
CONTINUOUS
 62
     7
  5
4AA
 10
0.65873
 20
-0.301969
 30
0.0
 11
0.658109
 21
-0.299425
 31
0.0
  0
LINE
  8
0
  6
CONTINUOUS
 62
     7
  5
4AB
 10
0.658109
 20
-0.299425
 30
0.0
 11
0.657624
 21
-0.29686
 31
0.0
  0
LINE
  8
0
  6
CONTINUOUS
 62
     7
  5
4AC
 10
0.657624
 20
-0.29686
 30
0.0
 11
0.657278
 21
-0.29428
 31
0.0
  0
LINE
  8
0
  6
CONTINUOUS
 62
     7
  5
4AD
 10
0.657278
 20
-0.29428
 30
0.0
 11
0.657069
 21
-0.291689
 31
0.0
  0
LINE
  8
0
  6
CONTINUOUS
 62
     7
  5
4AE
 10
0.657069
 20
-0.291689
 30
0.0
 11
0.657
 21
-0.289093
 31
0.0
  0
LINE
  8
0
  6
CONTINUOUS
 62
     7
  5
4AF
 10
0.632177
 20
-0.50654
 30
0.0
 11
0.631147
 21
-0.507039
 31
0.0
  0
LINE
  8
0
  6
CONTINUOUS
 62
     7
  5
4B0
 10
0.642091
 20
-0.506494
 30
0.0
 11
0.642324
 21
-0.506795
 31
0.0
  0
LINE
  8
0
  6
CONTINUOUS
 62
     7
  5
4B1
 10
0.642324
 20
-0.506795
 30
0.0
 11
0.642559
 21
-0.507095
 31
0.0
  0
LINE
  8
0
  6
CONTINUOUS
 62
     7
  5
4B2
 10
0.642559
 20
-0.507095
 30
0.0
 11
0.642796
 21
-0.507394
 31
0.0
  0
LINE
  8
0
  6
CONTINUOUS
 62
     7
  5
4B3
 10
0.642796
 20
-0.507394
 30
0.0
 11
0.643034
 21
-0.507692
 31
0.0
  0
LINE
  8
0
  6
CONTINUOUS
 62
     7
  5
4B4
 10
0.643034
 20
-0.507692
 30
0.0
 11
0.643274
 21
-0.50799
 31
0.0
  0
LINE
  8
0
  6
CONTINUOUS
 62
     7
  5
4B5
 10
0.643274
 20
-0.50799
 30
0.0
 11
0.643515
 21
-0.508286
 31
0.0
  0
LINE
  8
0
  6
CONTINUOUS
 62
     7
  5
4B6
 10
0.643515
 20
-0.508286
 30
0.0
 11
0.643758
 21
-0.508582
 31
0.0
  0
LINE
  8
0
  6
CONTINUOUS
 62
     7
  5
4B7
 10
0.643758
 20
-0.508582
 30
0.0
 11
0.644002
 21
-0.508876
 31
0.0
  0
LINE
  8
0
  6
CONTINUOUS
 62
     7
  5
4B8
 10
0.644002
 20
-0.508876
 30
0.0
 11
0.644248
 21
-0.50917
 31
0.0
  0
LINE
  8
0
  6
CONTINUOUS
 62
     7
  5
4B9
 10
0.644248
 20
-0.50917
 30
0.0
 11
0.644495
 21
-0.509463
 31
0.0
  0
LINE
  8
0
  6
CONTINUOUS
 62
     7
  5
4BA
 10
0.644495
 20
-0.509463
 30
0.0
 11
0.644743
 21
-0.509755
 31
0.0
  0
LINE
  8
0
  6
CONTINUOUS
 62
     7
  5
4BB
 10
0.644743
 20
-0.509755
 30
0.0
 11
0.644994
 21
-0.510046
 31
0.0
  0
LINE
  8
0
  6
CONTINUOUS
 62
     7
  5
4BC
 10
0.644994
 20
-0.510046
 30
0.0
 11
0.645245
 21
-0.510337
 31
0.0
  0
LINE
  8
0
  6
CONTINUOUS
 62
     7
  5
4BD
 10
0.645245
 20
-0.510337
 30
0.0
 11
0.645498
 21
-0.510626
 31
0.0
  0
LINE
  8
0
  6
CONTINUOUS
 62
     7
  5
4BE
 10
0.645498
 20
-0.510626
 30
0.0
 11
0.645753
 21
-0.510915
 31
0.0
  0
LINE
  8
0
  6
CONTINUOUS
 62
     7
  5
4BF
 10
0.645753
 20
-0.510915
 30
0.0
 11
0.646009
 21
-0.511202
 31
0.0
  0
LINE
  8
0
  6
CONTINUOUS
 62
     7
  5
4C0
 10
0.646009
 20
-0.511202
 30
0.0
 11
0.646267
 21
-0.511489
 31
0.0
  0
LINE
  8
0
  6
CONTINUOUS
 62
     7
  5
4C1
 10
0.646267
 20
-0.511489
 30
0.0
 11
0.646526
 21
-0.511774
 31
0.0
  0
LINE
  8
0
  6
CONTINUOUS
 62
     7
  5
4C2
 10
0.646526
 20
-0.511774
 30
0.0
 11
0.646786
 21
-0.512059
 31
0.0
  0
LINE
  8
0
  6
CONTINUOUS
 62
     7
  5
4C3
 10
0.646786
 20
-0.512059
 30
0.0
 11
0.647048
 21
-0.512343
 31
0.0
  0
LINE
  8
0
  6
CONTINUOUS
 62
     7
  5
4C4
 10
0.647048
 20
-0.512343
 30
0.0
 11
0.647311
 21
-0.512626
 31
0.0
  0
LINE
  8
0
  6
CONTINUOUS
 62
     7
  5
4C5
 10
0.647311
 20
-0.512626
 30
0.0
 11
0.647576
 21
-0.512908
 31
0.0
  0
LINE
  8
0
  6
CONTINUOUS
 62
     7
  5
4C6
 10
0.647576
 20
-0.512908
 30
0.0
 11
0.647842
 21
-0.513189
 31
0.0
  0
LINE
  8
0
  6
CONTINUOUS
 62
     7
  5
4C7
 10
0.647842
 20
-0.513189
 30
0.0
 11
0.64811
 21
-0.513469
 31
0.0
  0
LINE
  8
0
  6
CONTINUOUS
 62
     7
  5
4C8
 10
0.64811
 20
-0.513469
 30
0.0
 11
0.648379
 21
-0.513748
 31
0.0
  0
LINE
  8
0
  6
CONTINUOUS
 62
     7
  5
4C9
 10
0.648379
 20
-0.513748
 30
0.0
 11
0.64865
 21
-0.514026
 31
0.0
  0
LINE
  8
0
  6
CONTINUOUS
 62
     7
  5
4CA
 10
0.64865
 20
-0.514026
 30
0.0
 11
0.648921
 21
-0.514303
 31
0.0
  0
LINE
  8
0
  6
CONTINUOUS
 62
     7
  5
4CB
 10
0.648921
 20
-0.514303
 30
0.0
 11
0.649195
 21
-0.514579
 31
0.0
  0
LINE
  8
0
  6
CONTINUOUS
 62
     7
  5
4CC
 10
0.649195
 20
-0.514579
 30
0.0
 11
0.64947
 21
-0.514854
 31
0.0
  0
LINE
  8
0
  6
CONTINUOUS
 62
     7
  5
4CD
 10
0.64947
 20
-0.514854
 30
0.0
 11
0.649746
 21
-0.515128
 31
0.0
  0
LINE
  8
0
  6
CONTINUOUS
 62
     7
  5
4CE
 10
0.649746
 20
-0.515128
 30
0.0
 11
0.650023
 21
-0.515402
 31
0.0
  0
LINE
  8
0
  6
CONTINUOUS
 62
     7
  5
4CF
 10
0.650023
 20
-0.515402
 30
0.0
 11
0.650302
 21
-0.515674
 31
0.0
  0
LINE
  8
0
  6
CONTINUOUS
 62
     7
  5
4D0
 10
0.650302
 20
-0.515674
 30
0.0
 11
0.650582
 21
-0.515945
 31
0.0
  0
LINE
  8
0
  6
CONTINUOUS
 62
     7
  5
4D1
 10
0.650582
 20
-0.515945
 30
0.0
 11
0.650864
 21
-0.516215
 31
0.0
  0
LINE
  8
0
  6
CONTINUOUS
 62
     7
  5
4D2
 10
0.650864
 20
-0.516215
 30
0.0
 11
0.651147
 21
-0.516484
 31
0.0
  0
LINE
  8
0
  6
CONTINUOUS
 62
     7
  5
4D3
 10
0.651147
 20
-0.516484
 30
0.0
 11
0.651147
 21
-0.536091
 31
0.0
  0
LINE
  8
0
  6
CONTINUOUS
 62
     7
  5
4D4
 10
0.821067
 20
-0.506493
 30
0.0
 11
0.819035
 21
-0.51123
 31
0.0
  0
LINE
  8
0
  6
CONTINUOUS
 62
     7
  5
4D5
 10
0.819035
 20
-0.51123
 30
0.0
 11
0.816667
 21
-0.515856
 31
0.0
  0
LINE
  8
0
  6
CONTINUOUS
 62
     7
  5
4D6
 10
0.816667
 20
-0.515856
 30
0.0
 11
0.813973
 21
-0.520355
 31
0.0
  0
LINE
  8
0
  6
CONTINUOUS
 62
     7
  5
4D7
 10
0.813973
 20
-0.520355
 30
0.0
 11
0.810962
 21
-0.52471
 31
0.0
  0
LINE
  8
0
  6
CONTINUOUS
 62
     7
  5
4D8
 10
0.810962
 20
-0.52471
 30
0.0
 11
0.807644
 21
-0.528906
 31
0.0
  0
LINE
  8
0
  6
CONTINUOUS
 62
     7
  5
4D9
 10
0.807644
 20
-0.528906
 30
0.0
 11
0.804033
 21
-0.532927
 31
0.0
  0
LINE
  8
0
  6
CONTINUOUS
 62
     7
  5
4DA
 10
0.804033
 20
-0.532927
 30
0.0
 11
0.80014
 21
-0.536759
 31
0.0
  0
LINE
  8
0
  6
CONTINUOUS
 62
     7
  5
4DB
 10
0.80014
 20
-0.536759
 30
0.0
 11
0.79598
 21
-0.540388
 31
0.0
  0
LINE
  8
0
  6
CONTINUOUS
 62
     7
  5
4DC
 10
0.79598
 20
-0.540388
 30
0.0
 11
0.791568
 21
-0.543802
 31
0.0
  0
LINE
  8
0
  6
CONTINUOUS
 62
     7
  5
4DD
 10
0.791568
 20
-0.543802
 30
0.0
 11
0.78692
 21
-0.546987
 31
0.0
  0
LINE
  8
0
  6
CONTINUOUS
 62
     7
  5
4DE
 10
0.78692
 20
-0.546987
 30
0.0
 11
0.782052
 21
-0.549933
 31
0.0
  0
LINE
  8
0
  6
CONTINUOUS
 62
     7
  5
4DF
 10
0.782052
 20
-0.549933
 30
0.0
 11
0.776982
 21
-0.552628
 31
0.0
  0
LINE
  8
0
  6
CONTINUOUS
 62
     7
  5
4E0
 10
0.776982
 20
-0.552628
 30
0.0
 11
0.771729
 21
-0.555063
 31
0.0
  0
LINE
  8
0
  6
CONTINUOUS
 62
     7
  5
4E1
 10
0.771729
 20
-0.555063
 30
0.0
 11
0.76631
 21
-0.55723
 31
0.0
  0
LINE
  8
0
  6
CONTINUOUS
 62
     7
  5
4E2
 10
0.76631
 20
-0.55723
 30
0.0
 11
0.760747
 21
-0.55912
 31
0.0
  0
LINE
  8
0
  6
CONTINUOUS
 62
     7
  5
4E3
 10
0.760747
 20
-0.55912
 30
0.0
 11
0.755058
 21
-0.560727
 31
0.0
  0
LINE
  8
0
  6
CONTINUOUS
 62
     7
  5
4E4
 10
0.755058
 20
-0.560727
 30
0.0
 11
0.749265
 21
-0.562045
 31
0.0
  0
LINE
  8
0
  6
CONTINUOUS
 62
     7
  5
4E5
 10
0.749265
 20
-0.562045
 30
0.0
 11
0.743388
 21
-0.563068
 31
0.0
  0
LINE
  8
0
  6
CONTINUOUS
 62
     7
  5
4E6
 10
0.743388
 20
-0.563068
 30
0.0
 11
0.737448
 21
-0.563794
 31
0.0
  0
LINE
  8
0
  6
CONTINUOUS
 62
     7
  5
4E7
 10
0.737448
 20
-0.563794
 30
0.0
 11
0.731467
 21
-0.56422
 31
0.0
  0
LINE
  8
0
  6
CONTINUOUS
 62
     7
  5
4E8
 10
0.731467
 20
-0.56422
 30
0.0
 11
0.725466
 21
-0.564345
 31
0.0
  0
LINE
  8
0
  6
CONTINUOUS
 62
     7
  5
4E9
 10
0.725466
 20
-0.564345
 30
0.0
 11
0.719467
 21
-0.564167
 31
0.0
  0
LINE
  8
0
  6
CONTINUOUS
 62
     7
  5
4EA
 10
0.719467
 20
-0.564167
 30
0.0
 11
0.713492
 21
-0.563687
 31
0.0
  0
LINE
  8
0
  6
CONTINUOUS
 62
     7
  5
4EB
 10
0.713492
 20
-0.563687
 30
0.0
 11
0.707561
 21
-0.562908
 31
0.0
  0
LINE
  8
0
  6
CONTINUOUS
 62
     7
  5
4EC
 10
0.707561
 20
-0.562908
 30
0.0
 11
0.701697
 21
-0.561831
 31
0.0
  0
LINE
  8
0
  6
CONTINUOUS
 62
     7
  5
4ED
 10
0.701697
 20
-0.561831
 30
0.0
 11
0.695921
 21
-0.560462
 31
0.0
  0
LINE
  8
0
  6
CONTINUOUS
 62
     7
  5
4EE
 10
0.695921
 20
-0.560462
 30
0.0
 11
0.690253
 21
-0.558804
 31
0.0
  0
LINE
  8
0
  6
CONTINUOUS
 62
     7
  5
4EF
 10
0.690253
 20
-0.558804
 30
0.0
 11
0.684714
 21
-0.556864
 31
0.0
  0
LINE
  8
0
  6
CONTINUOUS
 62
     7
  5
4F0
 10
0.684714
 20
-0.556864
 30
0.0
 11
0.679324
 21
-0.554649
 31
0.0
  0
LINE
  8
0
  6
CONTINUOUS
 62
     7
  5
4F1
 10
0.679324
 20
-0.554649
 30
0.0
 11
0.674102
 21
-0.552167
 31
0.0
  0
LINE
  8
0
  6
CONTINUOUS
 62
     7
  5
4F2
 10
0.674102
 20
-0.552167
 30
0.0
 11
0.669066
 21
-0.549426
 31
0.0
  0
LINE
  8
0
  6
CONTINUOUS
 62
     7
  5
4F3
 10
0.669066
 20
-0.549426
 30
0.0
 11
0.664236
 21
-0.546437
 31
0.0
  0
LINE
  8
0
  6
CONTINUOUS
 62
     7
  5
4F4
 10
0.664236
 20
-0.546437
 30
0.0
 11
0.659629
 21
-0.54321
 31
0.0
  0
LINE
  8
0
  6
CONTINUOUS
 62
     7
  5
4F5
 10
0.659629
 20
-0.54321
 30
0.0
 11
0.655261
 21
-0.539758
 31
0.0
  0
LINE
  8
0
  6
CONTINUOUS
 62
     7
  5
4F6
 10
0.655261
 20
-0.539758
 30
0.0
 11
0.651147
 21
-0.536091
 31
0.0
  0
LINE
  8
0
  6
CONTINUOUS
 62
     7
  5
4F7
 10
0.631147
 20
-0.507039
 30
0.0
 11
0.631141
 21
-0.507024
 31
0.0
  0
LINE
  8
0
  6
CONTINUOUS
 62
     7
  5
4F8
 10
0.631141
 20
-0.507024
 30
0.0
 11
0.631136
 21
-0.50701
 31
0.0
  0
LINE
  8
0
  6
CONTINUOUS
 62
     7
  5
4F9
 10
0.631136
 20
-0.50701
 30
0.0
 11
0.63113
 21
-0.506996
 31
0.0
  0
LINE
  8
0
  6
CONTINUOUS
 62
     7
  5
4FA
 10
0.63113
 20
-0.506996
 30
0.0
 11
0.631124
 21
-0.506981
 31
0.0
  0
LINE
  8
0
  6
CONTINUOUS
 62
     7
  5
4FB
 10
0.631124
 20
-0.506981
 30
0.0
 11
0.631119
 21
-0.506967
 31
0.0
  0
LINE
  8
0
  6
CONTINUOUS
 62
     7
  5
4FC
 10
0.631119
 20
-0.506967
 30
0.0
 11
0.631113
 21
-0.506953
 31
0.0
  0
LINE
  8
0
  6
CONTINUOUS
 62
     7
  5
4FD
 10
0.631113
 20
-0.506953
 30
0.0
 11
0.631107
 21
-0.506938
 31
0.0
  0
LINE
  8
0
  6
CONTINUOUS
 62
     7
  5
4FE
 10
0.631107
 20
-0.506938
 30
0.0
 11
0.631102
 21
-0.506924
 31
0.0
  0
LINE
  8
0
  6
CONTINUOUS
 62
     7
  5
4FF
 10
0.631102
 20
-0.506924
 30
0.0
 11
0.631096
 21
-0.50691
 31
0.0
  0
LINE
  8
0
  6
CONTINUOUS
 62
     7
  5
500
 10
0.631096
 20
-0.50691
 30
0.0
 11
0.63109
 21
-0.506895
 31
0.0
  0
LINE
  8
0
  6
CONTINUOUS
 62
     7
  5
501
 10
0.63109
 20
-0.506895
 30
0.0
 11
0.631085
 21
-0.506881
 31
0.0
  0
LINE
  8
0
  6
CONTINUOUS
 62
     7
  5
502
 10
0.631085
 20
-0.506881
 30
0.0
 11
0.631079
 21
-0.506867
 31
0.0
  0
LINE
  8
0
  6
CONTINUOUS
 62
     7
  5
503
 10
0.631079
 20
-0.506867
 30
0.0
 11
0.631073
 21
-0.506852
 31
0.0
  0
LINE
  8
0
  6
CONTINUOUS
 62
     7
  5
504
 10
0.631073
 20
-0.506852
 30
0.0
 11
0.631067
 21
-0.506838
 31
0.0
  0
LINE
  8
0
  6
CONTINUOUS
 62
     7
  5
505
 10
0.631067
 20
-0.506838
 30
0.0
 11
0.631062
 21
-0.506823
 31
0.0
  0
LINE
  8
0
  6
CONTINUOUS
 62
     7
  5
506
 10
0.631062
 20
-0.506823
 30
0.0
 11
0.631056
 21
-0.506809
 31
0.0
  0
LINE
  8
0
  6
CONTINUOUS
 62
     7
  5
507
 10
0.631056
 20
-0.506809
 30
0.0
 11
0.63105
 21
-0.506795
 31
0.0
  0
LINE
  8
0
  6
CONTINUOUS
 62
     7
  5
508
 10
0.63105
 20
-0.506795
 30
0.0
 11
0.631045
 21
-0.50678
 31
0.0
  0
LINE
  8
0
  6
CONTINUOUS
 62
     7
  5
509
 10
0.631045
 20
-0.50678
 30
0.0
 11
0.631039
 21
-0.506766
 31
0.0
  0
LINE
  8
0
  6
CONTINUOUS
 62
     7
  5
50A
 10
0.631039
 20
-0.506766
 30
0.0
 11
0.631034
 21
-0.506752
 31
0.0
  0
LINE
  8
0
  6
CONTINUOUS
 62
     7
  5
50B
 10
0.631034
 20
-0.506752
 30
0.0
 11
0.631028
 21
-0.506737
 31
0.0
  0
LINE
  8
0
  6
CONTINUOUS
 62
     7
  5
50C
 10
0.631028
 20
-0.506737
 30
0.0
 11
0.631022
 21
-0.506723
 31
0.0
  0
LINE
  8
0
  6
CONTINUOUS
 62
     7
  5
50D
 10
0.631022
 20
-0.506723
 30
0.0
 11
0.631017
 21
-0.506708
 31
0.0
  0
LINE
  8
0
  6
CONTINUOUS
 62
     7
  5
50E
 10
0.631017
 20
-0.506708
 30
0.0
 11
0.631011
 21
-0.506694
 31
0.0
  0
LINE
  8
0
  6
CONTINUOUS
 62
     7
  5
50F
 10
0.631011
 20
-0.506694
 30
0.0
 11
0.631005
 21
-0.50668
 31
0.0
  0
LINE
  8
0
  6
CONTINUOUS
 62
     7
  5
510
 10
0.631005
 20
-0.50668
 30
0.0
 11
0.631
 21
-0.506665
 31
0.0
  0
LINE
  8
0
  6
CONTINUOUS
 62
     7
  5
511
 10
0.631
 20
-0.506665
 30
0.0
 11
0.630994
 21
-0.506651
 31
0.0
  0
LINE
  8
0
  6
CONTINUOUS
 62
     7
  5
512
 10
0.630994
 20
-0.506651
 30
0.0
 11
0.630988
 21
-0.506637
 31
0.0
  0
LINE
  8
0
  6
CONTINUOUS
 62
     7
  5
513
 10
0.630988
 20
-0.506637
 30
0.0
 11
0.630983
 21
-0.506622
 31
0.0
  0
LINE
  8
0
  6
CONTINUOUS
 62
     7
  5
514
 10
0.630983
 20
-0.506622
 30
0.0
 11
0.630977
 21
-0.506608
 31
0.0
  0
LINE
  8
0
  6
CONTINUOUS
 62
     7
  5
515
 10
0.630977
 20
-0.506608
 30
0.0
 11
0.630972
 21
-0.506593
 31
0.0
  0
LINE
  8
0
  6
CONTINUOUS
 62
     7
  5
516
 10
0.630972
 20
-0.506593
 30
0.0
 11
0.630966
 21
-0.506579
 31
0.0
  0
LINE
  8
0
  6
CONTINUOUS
 62
     7
  5
517
 10
0.630966
 20
-0.506579
 30
0.0
 11
0.63096
 21
-0.506565
 31
0.0
  0
LINE
  8
0
  6
CONTINUOUS
 62
     7
  5
518
 10
0.63096
 20
-0.506565
 30
0.0
 11
0.630955
 21
-0.50655
 31
0.0
  0
LINE
  8
0
  6
CONTINUOUS
 62
     7
  5
519
 10
0.630955
 20
-0.50655
 30
0.0
 11
0.630949
 21
-0.506536
 31
0.0
  0
LINE
  8
0
  6
CONTINUOUS
 62
     7
  5
51A
 10
0.654612
 20
0.50653
 30
0.0
 11
0.657866
 21
0.509188
 31
0.0
  0
LINE
  8
0
  6
CONTINUOUS
 62
     7
  5
51B
 10
0.657866
 20
0.509188
 30
0.0
 11
0.66126
 21
0.51172
 31
0.0
  0
LINE
  8
0
  6
CONTINUOUS
 62
     7
  5
51C
 10
0.66126
 20
0.51172
 30
0.0
 11
0.664788
 21
0.51412
 31
0.0
  0
LINE
  8
0
  6
CONTINUOUS
 62
     7
  5
51D
 10
0.664788
 20
0.51412
 30
0.0
 11
0.668443
 21
0.516383
 31
0.0
  0
LINE
  8
0
  6
CONTINUOUS
 62
     7
  5
51E
 10
0.668443
 20
0.516383
 30
0.0
 11
0.672216
 21
0.518504
 31
0.0
  0
LINE
  8
0
  6
CONTINUOUS
 62
     7
  5
51F
 10
0.672216
 20
0.518504
 30
0.0
 11
0.6761
 21
0.52048
 31
0.0
  0
LINE
  8
0
  6
CONTINUOUS
 62
     7
  5
520
 10
0.6761
 20
0.52048
 30
0.0
 11
0.680087
 21
0.522305
 31
0.0
  0
LINE
  8
0
  6
CONTINUOUS
 62
     7
  5
521
 10
0.680087
 20
0.522305
 30
0.0
 11
0.684169
 21
0.523977
 31
0.0
  0
LINE
  8
0
  6
CONTINUOUS
 62
     7
  5
522
 10
0.684169
 20
0.523977
 30
0.0
 11
0.688337
 21
0.525492
 31
0.0
  0
LINE
  8
0
  6
CONTINUOUS
 62
     7
  5
523
 10
0.688337
 20
0.525492
 30
0.0
 11
0.692583
 21
0.526846
 31
0.0
  0
LINE
  8
0
  6
CONTINUOUS
 62
     7
  5
524
 10
0.692583
 20
0.526846
 30
0.0
 11
0.696898
 21
0.528037
 31
0.0
  0
LINE
  8
0
  6
CONTINUOUS
 62
     7
  5
525
 10
0.696898
 20
0.528037
 30
0.0
 11
0.701273
 21
0.529063
 31
0.0
  0
LINE
  8
0
  6
CONTINUOUS
 62
     7
  5
526
 10
0.701273
 20
0.529063
 30
0.0
 11
0.705699
 21
0.529921
 31
0.0
  0
LINE
  8
0
  6
CONTINUOUS
 62
     7
  5
527
 10
0.705699
 20
0.529921
 30
0.0
 11
0.710166
 21
0.530609
 31
0.0
  0
LINE
  8
0
  6
CONTINUOUS
 62
     7
  5
528
 10
0.710166
 20
0.530609
 30
0.0
 11
0.714667
 21
0.531127
 31
0.0
  0
LINE
  8
0
  6
CONTINUOUS
 62
     7
  5
529
 10
0.714667
 20
0.531127
 30
0.0
 11
0.719191
 21
0.531473
 31
0.0
  0
LINE
  8
0
  6
CONTINUOUS
 62
     7
  5
52A
 10
0.719191
 20
0.531473
 30
0.0
 11
0.723729
 21
0.531646
 31
0.0
  0
LINE
  8
0
  6
CONTINUOUS
 62
     7
  5
52B
 10
0.723729
 20
0.531646
 30
0.0
 11
0.728271
 21
0.531646
 31
0.0
  0
LINE
  8
0
  6
CONTINUOUS
 62
     7
  5
52C
 10
0.728271
 20
0.531646
 30
0.0
 11
0.732809
 21
0.531473
 31
0.0
  0
LINE
  8
0
  6
CONTINUOUS
 62
     7
  5
52D
 10
0.732809
 20
0.531473
 30
0.0
 11
0.737333
 21
0.531127
 31
0.0
  0
LINE
  8
0
  6
CONTINUOUS
 62
     7
  5
52E
 10
0.737333
 20
0.531127
 30
0.0
 11
0.741834
 21
0.530609
 31
0.0
  0
LINE
  8
0
  6
CONTINUOUS
 62
     7
  5
52F
 10
0.741834
 20
0.530609
 30
0.0
 11
0.746301
 21
0.529921
 31
0.0
  0
LINE
  8
0
  6
CONTINUOUS
 62
     7
  5
530
 10
0.746301
 20
0.529921
 30
0.0
 11
0.750727
 21
0.529063
 31
0.0
  0
LINE
  8
0
  6
CONTINUOUS
 62
     7
  5
531
 10
0.750727
 20
0.529063
 30
0.0
 11
0.755102
 21
0.528037
 31
0.0
  0
LINE
  8
0
  6
CONTINUOUS
 62
     7
  5
532
 10
0.755102
 20
0.528037
 30
0.0
 11
0.759417
 21
0.526846
 31
0.0
  0
LINE
  8
0
  6
CONTINUOUS
 62
     7
  5
533
 10
0.759417
 20
0.526846
 30
0.0
 11
0.763663
 21
0.525492
 31
0.0
  0
LINE
  8
0
  6
CONTINUOUS
 62
     7
  5
534
 10
0.763663
 20
0.525492
 30
0.0
 11
0.767831
 21
0.523977
 31
0.0
  0
LINE
  8
0
  6
CONTINUOUS
 62
     7
  5
535
 10
0.767831
 20
0.523977
 30
0.0
 11
0.771913
 21
0.522305
 31
0.0
  0
LINE
  8
0
  6
CONTINUOUS
 62
     7
  5
536
 10
0.771913
 20
0.522305
 30
0.0
 11
0.7759
 21
0.52048
 31
0.0
  0
LINE
  8
0
  6
CONTINUOUS
 62
     7
  5
537
 10
0.7759
 20
0.52048
 30
0.0
 11
0.779784
 21
0.518504
 31
0.0
  0
LINE
  8
0
  6
CONTINUOUS
 62
     7
  5
538
 10
0.779784
 20
0.518504
 30
0.0
 11
0.783557
 21
0.516383
 31
0.0
  0
LINE
  8
0
  6
CONTINUOUS
 62
     7
  5
539
 10
0.783557
 20
0.516383
 30
0.0
 11
0.787212
 21
0.51412
 31
0.0
  0
LINE
  8
0
  6
CONTINUOUS
 62
     7
  5
53A
 10
0.787212
 20
0.51412
 30
0.0
 11
0.79074
 21
0.51172
 31
0.0
  0
LINE
  8
0
  6
CONTINUOUS
 62
     7
  5
53B
 10
0.79074
 20
0.51172
 30
0.0
 11
0.794134
 21
0.509188
 31
0.0
  0
LINE
  8
0
  6
CONTINUOUS
 62
     7
  5
53C
 10
0.794134
 20
0.509188
 30
0.0
 11
0.797388
 21
0.50653
 31
0.0
  0
LINE
  8
0
  6
CONTINUOUS
 62
     7
  5
53D
 10
0.657
 20
0.295853
 30
0.0
 11
0.626
 21
0.295853
 31
0.0
  0
LINE
  8
0
  6
CONTINUOUS
 62
     7
  5
53E
 10
0.826
 20
0.295853
 30
0.0
 11
0.795
 21
0.295853
 31
0.0
  0
LINE
  8
0
  6
CONTINUOUS
 62
     7
  5
53F
 10
0.826
 20
0.295853
 30
0.0
 11
0.826
 21
0.417293
 31
0.0
  0
LINE
  8
0
  6
CONTINUOUS
 62
     7
  5
540
 10
0.626
 20
0.417293
 30
0.0
 11
0.626
 21
0.295853
 31
0.0
  0
LINE
  8
0
  6
CONTINUOUS
 62
     7
  5
541
 10
0.795
 20
0.379721
 30
0.0
 11
0.794986
 21
0.380887
 31
0.0
  0
LINE
  8
0
  6
CONTINUOUS
 62
     7
  5
542
 10
0.794986
 20
0.380887
 30
0.0
 11
0.794944
 21
0.382054
 31
0.0
  0
LINE
  8
0
  6
CONTINUOUS
 62
     7
  5
543
 10
0.794944
 20
0.382054
 30
0.0
 11
0.794874
 21
0.383219
 31
0.0
  0
LINE
  8
0
  6
CONTINUOUS
 62
     7
  5
544
 10
0.794874
 20
0.383219
 30
0.0
 11
0.794776
 21
0.384383
 31
0.0
  0
LINE
  8
0
  6
CONTINUOUS
 62
     7
  5
545
 10
0.794776
 20
0.384383
 30
0.0
 11
0.79465
 21
0.385545
 31
0.0
  0
LINE
  8
0
  6
CONTINUOUS
 62
     7
  5
546
 10
0.79465
 20
0.385545
 30
0.0
 11
0.794496
 21
0.386705
 31
0.0
  0
LINE
  8
0
  6
CONTINUOUS
 62
     7
  5
547
 10
0.794496
 20
0.386705
 30
0.0
 11
0.794314
 21
0.387862
 31
0.0
  0
LINE
  8
0
  6
CONTINUOUS
 62
     7
  5
548
 10
0.794314
 20
0.387862
 30
0.0
 11
0.794104
 21
0.389016
 31
0.0
  0
LINE
  8
0
  6
CONTINUOUS
 62
     7
  5
549
 10
0.794104
 20
0.389016
 30
0.0
 11
0.793867
 21
0.390166
 31
0.0
  0
LINE
  8
0
  6
CONTINUOUS
 62
     7
  5
54A
 10
0.793867
 20
0.390166
 30
0.0
 11
0.793602
 21
0.391311
 31
0.0
  0
LINE
  8
0
  6
CONTINUOUS
 62
     7
  5
54B
 10
0.793602
 20
0.391311
 30
0.0
 11
0.793309
 21
0.392452
 31
0.0
  0
LINE
  8
0
  6
CONTINUOUS
 62
     7
  5
54C
 10
0.793309
 20
0.392452
 30
0.0
 11
0.79299
 21
0.393588
 31
0.0
  0
LINE
  8
0
  6
CONTINUOUS
 62
     7
  5
54D
 10
0.79299
 20
0.393588
 30
0.0
 11
0.792643
 21
0.394718
 31
0.0
  0
LINE
  8
0
  6
CONTINUOUS
 62
     7
  5
54E
 10
0.792643
 20
0.394718
 30
0.0
 11
0.792268
 21
0.395842
 31
0.0
  0
LINE
  8
0
  6
CONTINUOUS
 62
     7
  5
54F
 10
0.792268
 20
0.395842
 30
0.0
 11
0.791867
 21
0.396959
 31
0.0
  0
LINE
  8
0
  6
CONTINUOUS
 62
     7
  5
550
 10
0.791867
 20
0.396959
 30
0.0
 11
0.791439
 21
0.39807
 31
0.0
  0
LINE
  8
0
  6
CONTINUOUS
 62
     7
  5
551
 10
0.791439
 20
0.39807
 30
0.0
 11
0.790985
 21
0.399173
 31
0.0
  0
LINE
  8
0
  6
CONTINUOUS
 62
     7
  5
552
 10
0.790985
 20
0.399173
 30
0.0
 11
0.790504
 21
0.400268
 31
0.0
  0
LINE
  8
0
  6
CONTINUOUS
 62
     7
  5
553
 10
0.790504
 20
0.400268
 30
0.0
 11
0.789997
 21
0.401354
 31
0.0
  0
LINE
  8
0
  6
CONTINUOUS
 62
     7
  5
554
 10
0.789997
 20
0.401354
 30
0.0
 11
0.789464
 21
0.402432
 31
0.0
  0
LINE
  8
0
  6
CONTINUOUS
 62
     7
  5
555
 10
0.789464
 20
0.402432
 30
0.0
 11
0.788905
 21
0.403501
 31
0.0
  0
LINE
  8
0
  6
CONTINUOUS
 62
     7
  5
556
 10
0.788905
 20
0.403501
 30
0.0
 11
0.78832
 21
0.40456
 31
0.0
  0
LINE
  8
0
  6
CONTINUOUS
 62
     7
  5
557
 10
0.78832
 20
0.40456
 30
0.0
 11
0.78771
 21
0.405609
 31
0.0
  0
LINE
  8
0
  6
CONTINUOUS
 62
     7
  5
558
 10
0.78771
 20
0.405609
 30
0.0
 11
0.787075
 21
0.406647
 31
0.0
  0
LINE
  8
0
  6
CONTINUOUS
 62
     7
  5
559
 10
0.787075
 20
0.406647
 30
0.0
 11
0.786416
 21
0.407674
 31
0.0
  0
LINE
  8
0
  6
CONTINUOUS
 62
     7
  5
55A
 10
0.786416
 20
0.407674
 30
0.0
 11
0.785731
 21
0.40869
 31
0.0
  0
LINE
  8
0
  6
CONTINUOUS
 62
     7
  5
55B
 10
0.785731
 20
0.40869
 30
0.0
 11
0.785023
 21
0.409695
 31
0.0
  0
LINE
  8
0
  6
CONTINUOUS
 62
     7
  5
55C
 10
0.785023
 20
0.409695
 30
0.0
 11
0.78429
 21
0.410687
 31
0.0
  0
LINE
  8
0
  6
CONTINUOUS
 62
     7
  5
55D
 10
0.78429
 20
0.410687
 30
0.0
 11
0.783533
 21
0.411666
 31
0.0
  0
LINE
  8
0
  6
CONTINUOUS
 62
     7
  5
55E
 10
0.783533
 20
0.411666
 30
0.0
 11
0.782754
 21
0.412633
 31
0.0
  0
LINE
  8
0
  6
CONTINUOUS
 62
     7
  5
55F
 10
0.782754
 20
0.412633
 30
0.0
 11
0.781951
 21
0.413586
 31
0.0
  0
LINE
  8
0
  6
CONTINUOUS
 62
     7
  5
560
 10
0.781951
 20
0.413586
 30
0.0
 11
0.781125
 21
0.414525
 31
0.0
  0
LINE
  8
0
  6
CONTINUOUS
 62
     7
  5
561
 10
0.781125
 20
0.414525
 30
0.0
 11
0.780277
 21
0.41545
 31
0.0
  0
LINE
  8
0
  6
CONTINUOUS
 62
     7
  5
562
 10
0.780277
 20
0.41545
 30
0.0
 11
0.779407
 21
0.416361
 31
0.0
  0
LINE
  8
0
  6
CONTINUOUS
 62
     7
  5
563
 10
0.779407
 20
0.416361
 30
0.0
 11
0.778515
 21
0.417256
 31
0.0
  0
LINE
  8
0
  6
CONTINUOUS
 62
     7
  5
564
 10
0.673485
 20
0.417256
 30
0.0
 11
0.672593
 21
0.416361
 31
0.0
  0
LINE
  8
0
  6
CONTINUOUS
 62
     7
  5
565
 10
0.672593
 20
0.416361
 30
0.0
 11
0.671723
 21
0.41545
 31
0.0
  0
LINE
  8
0
  6
CONTINUOUS
 62
     7
  5
566
 10
0.671723
 20
0.41545
 30
0.0
 11
0.670875
 21
0.414525
 31
0.0
  0
LINE
  8
0
  6
CONTINUOUS
 62
     7
  5
567
 10
0.670875
 20
0.414525
 30
0.0
 11
0.670049
 21
0.413586
 31
0.0
  0
LINE
  8
0
  6
CONTINUOUS
 62
     7
  5
568
 10
0.670049
 20
0.413586
 30
0.0
 11
0.669246
 21
0.412633
 31
0.0
  0
LINE
  8
0
  6
CONTINUOUS
 62
     7
  5
569
 10
0.669246
 20
0.412633
 30
0.0
 11
0.668467
 21
0.411666
 31
0.0
  0
LINE
  8
0
  6
CONTINUOUS
 62
     7
  5
56A
 10
0.668467
 20
0.411666
 30
0.0
 11
0.66771
 21
0.410687
 31
0.0
  0
LINE
  8
0
  6
CONTINUOUS
 62
     7
  5
56B
 10
0.66771
 20
0.410687
 30
0.0
 11
0.666977
 21
0.409695
 31
0.0
  0
LINE
  8
0
  6
CONTINUOUS
 62
     7
  5
56C
 10
0.666977
 20
0.409695
 30
0.0
 11
0.666269
 21
0.40869
 31
0.0
  0
LINE
  8
0
  6
CONTINUOUS
 62
     7
  5
56D
 10
0.666269
 20
0.40869
 30
0.0
 11
0.665584
 21
0.407674
 31
0.0
  0
LINE
  8
0
  6
CONTINUOUS
 62
     7
  5
56E
 10
0.665584
 20
0.407674
 30
0.0
 11
0.664925
 21
0.406647
 31
0.0
  0
LINE
  8
0
  6
CONTINUOUS
 62
     7
  5
56F
 10
0.664925
 20
0.406647
 30
0.0
 11
0.66429
 21
0.405609
 31
0.0
  0
LINE
  8
0
  6
CONTINUOUS
 62
     7
  5
570
 10
0.66429
 20
0.405609
 30
0.0
 11
0.66368
 21
0.40456
 31
0.0
  0
LINE
  8
0
  6
CONTINUOUS
 62
     7
  5
571
 10
0.66368
 20
0.40456
 30
0.0
 11
0.663095
 21
0.403501
 31
0.0
  0
LINE
  8
0
  6
CONTINUOUS
 62
     7
  5
572
 10
0.663095
 20
0.403501
 30
0.0
 11
0.662536
 21
0.402432
 31
0.0
  0
LINE
  8
0
  6
CONTINUOUS
 62
     7
  5
573
 10
0.662536
 20
0.402432
 30
0.0
 11
0.662003
 21
0.401354
 31
0.0
  0
LINE
  8
0
  6
CONTINUOUS
 62
     7
  5
574
 10
0.662003
 20
0.401354
 30
0.0
 11
0.661496
 21
0.400268
 31
0.0
  0
LINE
  8
0
  6
CONTINUOUS
 62
     7
  5
575
 10
0.661496
 20
0.400268
 30
0.0
 11
0.661015
 21
0.399173
 31
0.0
  0
LINE
  8
0
  6
CONTINUOUS
 62
     7
  5
576
 10
0.661015
 20
0.399173
 30
0.0
 11
0.660561
 21
0.39807
 31
0.0
  0
LINE
  8
0
  6
CONTINUOUS
 62
     7
  5
577
 10
0.660561
 20
0.39807
 30
0.0
 11
0.660133
 21
0.396959
 31
0.0
  0
LINE
  8
0
  6
CONTINUOUS
 62
     7
  5
578
 10
0.660133
 20
0.396959
 30
0.0
 11
0.659732
 21
0.395842
 31
0.0
  0
LINE
  8
0
  6
CONTINUOUS
 62
     7
  5
579
 10
0.659732
 20
0.395842
 30
0.0
 11
0.659357
 21
0.394718
 31
0.0
  0
LINE
  8
0
  6
CONTINUOUS
 62
     7
  5
57A
 10
0.659357
 20
0.394718
 30
0.0
 11
0.65901
 21
0.393588
 31
0.0
  0
LINE
  8
0
  6
CONTINUOUS
 62
     7
  5
57B
 10
0.65901
 20
0.393588
 30
0.0
 11
0.658691
 21
0.392452
 31
0.0
  0
LINE
  8
0
  6
CONTINUOUS
 62
     7
  5
57C
 10
0.658691
 20
0.392452
 30
0.0
 11
0.658398
 21
0.391311
 31
0.0
  0
LINE
  8
0
  6
CONTINUOUS
 62
     7
  5
57D
 10
0.658398
 20
0.391311
 30
0.0
 11
0.658133
 21
0.390166
 31
0.0
  0
LINE
  8
0
  6
CONTINUOUS
 62
     7
  5
57E
 10
0.658133
 20
0.390166
 30
0.0
 11
0.657896
 21
0.389016
 31
0.0
  0
LINE
  8
0
  6
CONTINUOUS
 62
     7
  5
57F
 10
0.657896
 20
0.389016
 30
0.0
 11
0.657686
 21
0.387862
 31
0.0
  0
LINE
  8
0
  6
CONTINUOUS
 62
     7
  5
580
 10
0.657686
 20
0.387862
 30
0.0
 11
0.657504
 21
0.386705
 31
0.0
  0
LINE
  8
0
  6
CONTINUOUS
 62
     7
  5
581
 10
0.657504
 20
0.386705
 30
0.0
 11
0.65735
 21
0.385545
 31
0.0
  0
LINE
  8
0
  6
CONTINUOUS
 62
     7
  5
582
 10
0.65735
 20
0.385545
 30
0.0
 11
0.657224
 21
0.384383
 31
0.0
  0
LINE
  8
0
  6
CONTINUOUS
 62
     7
  5
583
 10
0.657224
 20
0.384383
 30
0.0
 11
0.657126
 21
0.383219
 31
0.0
  0
LINE
  8
0
  6
CONTINUOUS
 62
     7
  5
584
 10
0.657126
 20
0.383219
 30
0.0
 11
0.657056
 21
0.382054
 31
0.0
  0
LINE
  8
0
  6
CONTINUOUS
 62
     7
  5
585
 10
0.657056
 20
0.382054
 30
0.0
 11
0.657014
 21
0.380887
 31
0.0
  0
LINE
  8
0
  6
CONTINUOUS
 62
     7
  5
586
 10
0.657014
 20
0.380887
 30
0.0
 11
0.657
 21
0.379721
 31
0.0
  0
LINE
  8
0
  6
CONTINUOUS
 62
     7
  5
587
 10
0.776391
 20
0.249559
 30
0.0
 11
0.926
 21
0.249559
 31
0.0
  0
LINE
  8
0
  6
CONTINUOUS
 62
     7
  5
588
 10
0.543
 20
0.249559
 30
0.0
 11
0.675609
 21
0.249559
 31
0.0
  0
LINE
  8
0
  6
CONTINUOUS
 62
     7
  5
589
 10
0.926
 20
0.249559
 30
0.0
 11
0.926
 21
0.312193
 31
0.0
  0
LINE
  8
0
  6
CONTINUOUS
 62
     7
  5
58A
 10
0.543
 20
0.417293
 30
0.0
 11
0.926
 21
0.417293
 31
0.0
  0
LINE
  8
0
  6
CONTINUOUS
 62
     7
  5
58B
 10
0.926
 20
0.326026
 30
0.0
 11
0.926
 21
0.43826
 31
0.0
  0
LINE
  8
0
  6
CONTINUOUS
 62
     7
  5
58C
 10
0.926
 20
0.43826
 30
0.0
 11
0.926
 21
0.500894
 31
0.0
  0
LINE
  8
0
  6
CONTINUOUS
 62
     7
  5
58D
 10
0.543
 20
0.43826
 30
0.0
 11
0.926
 21
0.43826
 31
0.0
  0
LINE
  8
0
  6
CONTINUOUS
 62
     7
  5
58E
 10
0.926
 20
0.500894
 30
0.0
 11
0.926
 21
0.50654
 31
0.0
  0
LINE
  8
0
  6
CONTINUOUS
 62
     7
  5
58F
 10
0.543
 20
0.228592
 30
0.0
 11
0.926
 21
0.228592
 31
0.0
  0
LINE
  8
0
  6
CONTINUOUS
 62
     7
  5
590
 10
0.926
 20
0.228592
 30
0.0
 11
0.926
 21
0.249559
 31
0.0
  0
LINE
  8
0
  6
CONTINUOUS
 62
     7
  5
591
 10
0.926
 20
0.312193
 30
0.0
 11
0.926
 21
0.326026
 31
0.0
  0
LINE
  8
0
  6
CONTINUOUS
 62
     7
  5
592
 10
0.926
 20
0.417293
 30
0.0
 11
0.926
 21
0.43826
 31
0.0
  0
LINE
  8
0
  6
CONTINUOUS
 62
     7
  5
593
 10
0.726
 20
0.236693
 30
0.0
 11
0.717001
 21
0.237373
 31
0.0
  0
LINE
  8
0
  6
CONTINUOUS
 62
     7
  5
594
 10
0.717001
 20
0.237373
 30
0.0
 11
0.708291
 21
0.239389
 31
0.0
  0
LINE
  8
0
  6
CONTINUOUS
 62
     7
  5
595
 10
0.708291
 20
0.239389
 30
0.0
 11
0.70015
 21
0.242677
 31
0.0
  0
LINE
  8
0
  6
CONTINUOUS
 62
     7
  5
596
 10
0.70015
 20
0.242677
 30
0.0
 11
0.69284
 21
0.247131
 31
0.0
  0
LINE
  8
0
  6
CONTINUOUS
 62
     7
  5
597
 10
0.69284
 20
0.247131
 30
0.0
 11
0.686596
 21
0.252608
 31
0.0
  0
LINE
  8
0
  6
CONTINUOUS
 62
     7
  5
598
 10
0.686596
 20
0.252608
 30
0.0
 11
0.681618
 21
0.258932
 31
0.0
  0
LINE
  8
0
  6
CONTINUOUS
 62
     7
  5
599
 10
0.681618
 20
0.258932
 30
0.0
 11
0.678067
 21
0.2659
 31
0.0
  0
LINE
  8
0
  6
CONTINUOUS
 62
     7
  5
59A
 10
0.678067
 20
0.2659
 30
0.0
 11
0.676056
 21
0.273288
 31
0.0
  0
LINE
  8
0
  6
CONTINUOUS
 62
     7
  5
59B
 10
0.676056
 20
0.273288
 30
0.0
 11
0.675651
 21
0.280859
 31
0.0
  0
LINE
  8
0
  6
CONTINUOUS
 62
     7
  5
59C
 10
0.675651
 20
0.280859
 30
0.0
 11
0.676864
 21
0.288368
 31
0.0
  0
LINE
  8
0
  6
CONTINUOUS
 62
     7
  5
59D
 10
0.676864
 20
0.288368
 30
0.0
 11
0.679656
 21
0.295575
 31
0.0
  0
LINE
  8
0
  6
CONTINUOUS
 62
     7
  5
59E
 10
0.679656
 20
0.295575
 30
0.0
 11
0.683938
 21
0.302248
 31
0.0
  0
LINE
  8
0
  6
CONTINUOUS
 62
     7
  5
59F
 10
0.683938
 20
0.302248
 30
0.0
 11
0.689571
 21
0.308173
 31
0.0
  0
LINE
  8
0
  6
CONTINUOUS
 62
     7
  5
5A0
 10
0.689571
 20
0.308173
 30
0.0
 11
0.696376
 21
0.313159
 31
0.0
  0
LINE
  8
0
  6
CONTINUOUS
 62
     7
  5
5A1
 10
0.696376
 20
0.313159
 30
0.0
 11
0.704132
 21
0.317045
 31
0.0
  0
LINE
  8
0
  6
CONTINUOUS
 62
     7
  5
5A2
 10
0.704132
 20
0.317045
 30
0.0
 11
0.712592
 21
0.319708
 31
0.0
  0
LINE
  8
0
  6
CONTINUOUS
 62
     7
  5
5A3
 10
0.712592
 20
0.319708
 30
0.0
 11
0.721482
 21
0.321061
 31
0.0
  0
LINE
  8
0
  6
CONTINUOUS
 62
     7
  5
5A4
 10
0.721482
 20
0.321061
 30
0.0
 11
0.730518
 21
0.321061
 31
0.0
  0
LINE
  8
0
  6
CONTINUOUS
 62
     7
  5
5A5
 10
0.730518
 20
0.321061
 30
0.0
 11
0.739408
 21
0.319708
 31
0.0
  0
LINE
  8
0
  6
CONTINUOUS
 62
     7
  5
5A6
 10
0.739408
 20
0.319708
 30
0.0
 11
0.747868
 21
0.317045
 31
0.0
  0
LINE
  8
0
  6
CONTINUOUS
 62
     7
  5
5A7
 10
0.747868
 20
0.317045
 30
0.0
 11
0.755624
 21
0.313159
 31
0.0
  0
LINE
  8
0
  6
CONTINUOUS
 62
     7
  5
5A8
 10
0.755624
 20
0.313159
 30
0.0
 11
0.762429
 21
0.308173
 31
0.0
  0
LINE
  8
0
  6
CONTINUOUS
 62
     7
  5
5A9
 10
0.762429
 20
0.308173
 30
0.0
 11
0.768062
 21
0.302248
 31
0.0
  0
LINE
  8
0
  6
CONTINUOUS
 62
     7
  5
5AA
 10
0.768062
 20
0.302248
 30
0.0
 11
0.772344
 21
0.295575
 31
0.0
  0
LINE
  8
0
  6
CONTINUOUS
 62
     7
  5
5AB
 10
0.772344
 20
0.295575
 30
0.0
 11
0.775136
 21
0.288368
 31
0.0
  0
LINE
  8
0
  6
CONTINUOUS
 62
     7
  5
5AC
 10
0.775136
 20
0.288368
 30
0.0
 11
0.776349
 21
0.280859
 31
0.0
  0
LINE
  8
0
  6
CONTINUOUS
 62
     7
  5
5AD
 10
0.776349
 20
0.280859
 30
0.0
 11
0.775944
 21
0.273288
 31
0.0
  0
LINE
  8
0
  6
CONTINUOUS
 62
     7
  5
5AE
 10
0.775944
 20
0.273288
 30
0.0
 11
0.773933
 21
0.2659
 31
0.0
  0
LINE
  8
0
  6
CONTINUOUS
 62
     7
  5
5AF
 10
0.773933
 20
0.2659
 30
0.0
 11
0.770382
 21
0.258932
 31
0.0
  0
LINE
  8
0
  6
CONTINUOUS
 62
     7
  5
5B0
 10
0.770382
 20
0.258932
 30
0.0
 11
0.765404
 21
0.252608
 31
0.0
  0
LINE
  8
0
  6
CONTINUOUS
 62
     7
  5
5B1
 10
0.765404
 20
0.252608
 30
0.0
 11
0.75916
 21
0.247131
 31
0.0
  0
LINE
  8
0
  6
CONTINUOUS
 62
     7
  5
5B2
 10
0.75916
 20
0.247131
 30
0.0
 11
0.75185
 21
0.242677
 31
0.0
  0
LINE
  8
0
  6
CONTINUOUS
 62
     7
  5
5B3
 10
0.75185
 20
0.242677
 30
0.0
 11
0.743709
 21
0.239389
 31
0.0
  0
LINE
  8
0
  6
CONTINUOUS
 62
     7
  5
5B4
 10
0.743709
 20
0.239389
 30
0.0
 11
0.734999
 21
0.237373
 31
0.0
  0
LINE
  8
0
  6
CONTINUOUS
 62
     7
  5
5B5
 10
0.734999
 20
0.237373
 30
0.0
 11
0.726
 21
0.236693
 31
0.0
  0
LINE
  8
0
  6
CONTINUOUS
 62
     7
  5
5B6
 10
0.795
 20
0.289093
 30
0.0
 11
0.794931
 21
0.286496
 31
0.0
  0
LINE
  8
0
  6
CONTINUOUS
 62
     7
  5
5B7
 10
0.794931
 20
0.286496
 30
0.0
 11
0.794722
 21
0.283905
 31
0.0
  0
LINE
  8
0
  6
CONTINUOUS
 62
     7
  5
5B8
 10
0.794722
 20
0.283905
 30
0.0
 11
0.794376
 21
0.281325
 31
0.0
  0
LINE
  8
0
  6
CONTINUOUS
 62
     7
  5
5B9
 10
0.794376
 20
0.281325
 30
0.0
 11
0.793891
 21
0.27876
 31
0.0
  0
LINE
  8
0
  6
CONTINUOUS
 62
     7
  5
5BA
 10
0.793891
 20
0.27876
 30
0.0
 11
0.79327
 21
0.276216
 31
0.0
  0
LINE
  8
0
  6
CONTINUOUS
 62
     7
  5
5BB
 10
0.79327
 20
0.276216
 30
0.0
 11
0.792513
 21
0.273697
 31
0.0
  0
LINE
  8
0
  6
CONTINUOUS
 62
     7
  5
5BC
 10
0.792513
 20
0.273697
 30
0.0
 11
0.791623
 21
0.27121
 31
0.0
  0
LINE
  8
0
  6
CONTINUOUS
 62
     7
  5
5BD
 10
0.791623
 20
0.27121
 30
0.0
 11
0.7906
 21
0.268759
 31
0.0
  0
LINE
  8
0
  6
CONTINUOUS
 62
     7
  5
5BE
 10
0.7906
 20
0.268759
 30
0.0
 11
0.789447
 21
0.266349
 31
0.0
  0
LINE
  8
0
  6
CONTINUOUS
 62
     7
  5
5BF
 10
0.789447
 20
0.266349
 30
0.0
 11
0.788167
 21
0.263984
 31
0.0
  0
LINE
  8
0
  6
CONTINUOUS
 62
     7
  5
5C0
 10
0.788167
 20
0.263984
 30
0.0
 11
0.786761
 21
0.261671
 31
0.0
  0
LINE
  8
0
  6
CONTINUOUS
 62
     7
  5
5C1
 10
0.786761
 20
0.261671
 30
0.0
 11
0.785233
 21
0.259412
 31
0.0
  0
LINE
  8
0
  6
CONTINUOUS
 62
     7
  5
5C2
 10
0.785233
 20
0.259412
 30
0.0
 11
0.783586
 21
0.257213
 31
0.0
  0
LINE
  8
0
  6
CONTINUOUS
 62
     7
  5
5C3
 10
0.783586
 20
0.257213
 30
0.0
 11
0.781822
 21
0.255078
 31
0.0
  0
LINE
  8
0
  6
CONTINUOUS
 62
     7
  5
5C4
 10
0.781822
 20
0.255078
 30
0.0
 11
0.779946
 21
0.253012
 31
0.0
  0
LINE
  8
0
  6
CONTINUOUS
 62
     7
  5
5C5
 10
0.779946
 20
0.253012
 30
0.0
 11
0.777962
 21
0.251019
 31
0.0
  0
LINE
  8
0
  6
CONTINUOUS
 62
     7
  5
5C6
 10
0.777962
 20
0.251019
 30
0.0
 11
0.775873
 21
0.249102
 31
0.0
  0
LINE
  8
0
  6
CONTINUOUS
 62
     7
  5
5C7
 10
0.775873
 20
0.249102
 30
0.0
 11
0.773683
 21
0.247266
 31
0.0
  0
LINE
  8
0
  6
CONTINUOUS
 62
     7
  5
5C8
 10
0.773683
 20
0.247266
 30
0.0
 11
0.771398
 21
0.245514
 31
0.0
  0
LINE
  8
0
  6
CONTINUOUS
 62
     7
  5
5C9
 10
0.771398
 20
0.245514
 30
0.0
 11
0.769021
 21
0.243849
 31
0.0
  0
LINE
  8
0
  6
CONTINUOUS
 62
     7
  5
5CA
 10
0.769021
 20
0.243849
 30
0.0
 11
0.766557
 21
0.242276
 31
0.0
  0
LINE
  8
0
  6
CONTINUOUS
 62
     7
  5
5CB
 10
0.766557
 20
0.242276
 30
0.0
 11
0.764012
 21
0.240797
 31
0.0
  0
LINE
  8
0
  6
CONTINUOUS
 62
     7
  5
5CC
 10
0.764012
 20
0.240797
 30
0.0
 11
0.76139
 21
0.239416
 31
0.0
  0
LINE
  8
0
  6
CONTINUOUS
 62
     7
  5
5CD
 10
0.76139
 20
0.239416
 30
0.0
 11
0.758697
 21
0.238134
 31
0.0
  0
LINE
  8
0
  6
CONTINUOUS
 62
     7
  5
5CE
 10
0.758697
 20
0.238134
 30
0.0
 11
0.755938
 21
0.236955
 31
0.0
  0
LINE
  8
0
  6
CONTINUOUS
 62
     7
  5
5CF
 10
0.755938
 20
0.236955
 30
0.0
 11
0.753119
 21
0.235881
 31
0.0
  0
LINE
  8
0
  6
CONTINUOUS
 62
     7
  5
5D0
 10
0.753119
 20
0.235881
 30
0.0
 11
0.750245
 21
0.234914
 31
0.0
  0
LINE
  8
0
  6
CONTINUOUS
 62
     7
  5
5D1
 10
0.750245
 20
0.234914
 30
0.0
 11
0.747322
 21
0.234057
 31
0.0
  0
LINE
  8
0
  6
CONTINUOUS
 62
     7
  5
5D2
 10
0.747322
 20
0.234057
 30
0.0
 11
0.744357
 21
0.23331
 31
0.0
  0
LINE
  8
0
  6
CONTINUOUS
 62
     7
  5
5D3
 10
0.744357
 20
0.23331
 30
0.0
 11
0.741354
 21
0.232675
 31
0.0
  0
LINE
  8
0
  6
CONTINUOUS
 62
     7
  5
5D4
 10
0.741354
 20
0.232675
 30
0.0
 11
0.73832
 21
0.232154
 31
0.0
  0
LINE
  8
0
  6
CONTINUOUS
 62
     7
  5
5D5
 10
0.73832
 20
0.232154
 30
0.0
 11
0.735262
 21
0.231748
 31
0.0
  0
LINE
  8
0
  6
CONTINUOUS
 62
     7
  5
5D6
 10
0.735262
 20
0.231748
 30
0.0
 11
0.732185
 21
0.231457
 31
0.0
  0
LINE
  8
0
  6
CONTINUOUS
 62
     7
  5
5D7
 10
0.732185
 20
0.231457
 30
0.0
 11
0.729096
 21
0.231283
 31
0.0
  0
LINE
  8
0
  6
CONTINUOUS
 62
     7
  5
5D8
 10
0.729096
 20
0.231283
 30
0.0
 11
0.726
 21
0.231224
 31
0.0
  0
LINE
  8
0
  6
CONTINUOUS
 62
     7
  5
5D9
 10
0.657
 20
0.289093
 30
0.0
 11
0.657278
 21
0.29428
 31
0.0
  0
LINE
  8
0
  6
CONTINUOUS
 62
     7
  5
5DA
 10
0.657278
 20
0.29428
 30
0.0
 11
0.658109
 21
0.299425
 31
0.0
  0
LINE
  8
0
  6
CONTINUOUS
 62
     7
  5
5DB
 10
0.658109
 20
0.299425
 30
0.0
 11
0.659487
 21
0.304488
 31
0.0
  0
LINE
  8
0
  6
CONTINUOUS
 62
     7
  5
5DC
 10
0.659487
 20
0.304488
 30
0.0
 11
0.6614
 21
0.309426
 31
0.0
  0
LINE
  8
0
  6
CONTINUOUS
 62
     7
  5
5DD
 10
0.6614
 20
0.309426
 30
0.0
 11
0.663833
 21
0.314201
 31
0.0
  0
LINE
  8
0
  6
CONTINUOUS
 62
     7
  5
5DE
 10
0.663833
 20
0.314201
 30
0.0
 11
0.666767
 21
0.318773
 31
0.0
  0
LINE
  8
0
  6
CONTINUOUS
 62
     7
  5
5DF
 10
0.666767
 20
0.318773
 30
0.0
 11
0.670178
 21
0.323107
 31
0.0
  0
LINE
  8
0
  6
CONTINUOUS
 62
     7
  5
5E0
 10
0.670178
 20
0.323107
 30
0.0
 11
0.674038
 21
0.327166
 31
0.0
  0
LINE
  8
0
  6
CONTINUOUS
 62
     7
  5
5E1
 10
0.674038
 20
0.327166
 30
0.0
 11
0.678317
 21
0.330919
 31
0.0
  0
LINE
  8
0
  6
CONTINUOUS
 62
     7
  5
5E2
 10
0.678317
 20
0.330919
 30
0.0
 11
0.682979
 21
0.334336
 31
0.0
  0
LINE
  8
0
  6
CONTINUOUS
 62
     7
  5
5E3
 10
0.682979
 20
0.334336
 30
0.0
 11
0.687988
 21
0.337388
 31
0.0
  0
LINE
  8
0
  6
CONTINUOUS
 62
     7
  5
5E4
 10
0.687988
 20
0.337388
 30
0.0
 11
0.693303
 21
0.340051
 31
0.0
  0
LINE
  8
0
  6
CONTINUOUS
 62
     7
  5
5E5
 10
0.693303
 20
0.340051
 30
0.0
 11
0.698881
 21
0.342304
 31
0.0
  0
LINE
  8
0
  6
CONTINUOUS
 62
     7
  5
5E6
 10
0.698881
 20
0.342304
 30
0.0
 11
0.704678
 21
0.344129
 31
0.0
  0
LINE
  8
0
  6
CONTINUOUS
 62
     7
  5
5E7
 10
0.704678
 20
0.344129
 30
0.0
 11
0.710646
 21
0.34551
 31
0.0
  0
LINE
  8
0
  6
CONTINUOUS
 62
     7
  5
5E8
 10
0.710646
 20
0.34551
 30
0.0
 11
0.716738
 21
0.346437
 31
0.0
  0
LINE
  8
0
  6
CONTINUOUS
 62
     7
  5
5E9
 10
0.716738
 20
0.346437
 30
0.0
 11
0.722904
 21
0.346903
 31
0.0
  0
LINE
  8
0
  6
CONTINUOUS
 62
     7
  5
5EA
 10
0.722904
 20
0.346903
 30
0.0
 11
0.729096
 21
0.346903
 31
0.0
  0
LINE
  8
0
  6
CONTINUOUS
 62
     7
  5
5EB
 10
0.729096
 20
0.346903
 30
0.0
 11
0.735262
 21
0.346437
 31
0.0
  0
LINE
  8
0
  6
CONTINUOUS
 62
     7
  5
5EC
 10
0.735262
 20
0.346437
 30
0.0
 11
0.741354
 21
0.34551
 31
0.0
  0
LINE
  8
0
  6
CONTINUOUS
 62
     7
  5
5ED
 10
0.741354
 20
0.34551
 30
0.0
 11
0.747322
 21
0.344129
 31
0.0
  0
LINE
  8
0
  6
CONTINUOUS
 62
     7
  5
5EE
 10
0.747322
 20
0.344129
 30
0.0
 11
0.753119
 21
0.342304
 31
0.0
  0
LINE
  8
0
  6
CONTINUOUS
 62
     7
  5
5EF
 10
0.753119
 20
0.342304
 30
0.0
 11
0.758697
 21
0.340051
 31
0.0
  0
LINE
  8
0
  6
CONTINUOUS
 62
     7
  5
5F0
 10
0.758697
 20
0.340051
 30
0.0
 11
0.764012
 21
0.337388
 31
0.0
  0
LINE
  8
0
  6
CONTINUOUS
 62
     7
  5
5F1
 10
0.764012
 20
0.337388
 30
0.0
 11
0.769021
 21
0.334336
 31
0.0
  0
LINE
  8
0
  6
CONTINUOUS
 62
     7
  5
5F2
 10
0.769021
 20
0.334336
 30
0.0
 11
0.773683
 21
0.330919
 31
0.0
  0
LINE
  8
0
  6
CONTINUOUS
 62
     7
  5
5F3
 10
0.773683
 20
0.330919
 30
0.0
 11
0.777962
 21
0.327166
 31
0.0
  0
LINE
  8
0
  6
CONTINUOUS
 62
     7
  5
5F4
 10
0.777962
 20
0.327166
 30
0.0
 11
0.781822
 21
0.323107
 31
0.0
  0
LINE
  8
0
  6
CONTINUOUS
 62
     7
  5
5F5
 10
0.781822
 20
0.323107
 30
0.0
 11
0.785233
 21
0.318773
 31
0.0
  0
LINE
  8
0
  6
CONTINUOUS
 62
     7
  5
5F6
 10
0.785233
 20
0.318773
 30
0.0
 11
0.788167
 21
0.314201
 31
0.0
  0
LINE
  8
0
  6
CONTINUOUS
 62
     7
  5
5F7
 10
0.788167
 20
0.314201
 30
0.0
 11
0.7906
 21
0.309426
 31
0.0
  0
LINE
  8
0
  6
CONTINUOUS
 62
     7
  5
5F8
 10
0.7906
 20
0.309426
 30
0.0
 11
0.792513
 21
0.304488
 31
0.0
  0
LINE
  8
0
  6
CONTINUOUS
 62
     7
  5
5F9
 10
0.792513
 20
0.304488
 30
0.0
 11
0.793891
 21
0.299425
 31
0.0
  0
LINE
  8
0
  6
CONTINUOUS
 62
     7
  5
5FA
 10
0.793891
 20
0.299425
 30
0.0
 11
0.794722
 21
0.29428
 31
0.0
  0
LINE
  8
0
  6
CONTINUOUS
 62
     7
  5
5FB
 10
0.794722
 20
0.29428
 30
0.0
 11
0.795
 21
0.289093
 31
0.0
  0
LINE
  8
0
  6
CONTINUOUS
 62
     7
  5
5FC
 10
0.726
 20
0.231224
 30
0.0
 11
0.722904
 21
0.231283
 31
0.0
  0
LINE
  8
0
  6
CONTINUOUS
 62
     7
  5
5FD
 10
0.722904
 20
0.231283
 30
0.0
 11
0.719815
 21
0.231457
 31
0.0
  0
LINE
  8
0
  6
CONTINUOUS
 62
     7
  5
5FE
 10
0.719815
 20
0.231457
 30
0.0
 11
0.716738
 21
0.231748
 31
0.0
  0
LINE
  8
0
  6
CONTINUOUS
 62
     7
  5
5FF
 10
0.716738
 20
0.231748
 30
0.0
 11
0.71368
 21
0.232154
 31
0.0
  0
LINE
  8
0
  6
CONTINUOUS
 62
     7
  5
600
 10
0.71368
 20
0.232154
 30
0.0
 11
0.710646
 21
0.232675
 31
0.0
  0
LINE
  8
0
  6
CONTINUOUS
 62
     7
  5
601
 10
0.710646
 20
0.232675
 30
0.0
 11
0.707643
 21
0.23331
 31
0.0
  0
LINE
  8
0
  6
CONTINUOUS
 62
     7
  5
602
 10
0.707643
 20
0.23331
 30
0.0
 11
0.704678
 21
0.234057
 31
0.0
  0
LINE
  8
0
  6
CONTINUOUS
 62
     7
  5
603
 10
0.704678
 20
0.234057
 30
0.0
 11
0.701755
 21
0.234914
 31
0.0
  0
LINE
  8
0
  6
CONTINUOUS
 62
     7
  5
604
 10
0.701755
 20
0.234914
 30
0.0
 11
0.698881
 21
0.235881
 31
0.0
  0
LINE
  8
0
  6
CONTINUOUS
 62
     7
  5
605
 10
0.698881
 20
0.235881
 30
0.0
 11
0.696062
 21
0.236955
 31
0.0
  0
LINE
  8
0
  6
CONTINUOUS
 62
     7
  5
606
 10
0.696062
 20
0.236955
 30
0.0
 11
0.693303
 21
0.238134
 31
0.0
  0
LINE
  8
0
  6
CONTINUOUS
 62
     7
  5
607
 10
0.693303
 20
0.238134
 30
0.0
 11
0.69061
 21
0.239416
 31
0.0
  0
LINE
  8
0
  6
CONTINUOUS
 62
     7
  5
608
 10
0.69061
 20
0.239416
 30
0.0
 11
0.687988
 21
0.240797
 31
0.0
  0
LINE
  8
0
  6
CONTINUOUS
 62
     7
  5
609
 10
0.687988
 20
0.240797
 30
0.0
 11
0.685443
 21
0.242276
 31
0.0
  0
LINE
  8
0
  6
CONTINUOUS
 62
     7
  5
60A
 10
0.685443
 20
0.242276
 30
0.0
 11
0.682979
 21
0.243849
 31
0.0
  0
LINE
  8
0
  6
CONTINUOUS
 62
     7
  5
60B
 10
0.682979
 20
0.243849
 30
0.0
 11
0.680602
 21
0.245514
 31
0.0
  0
LINE
  8
0
  6
CONTINUOUS
 62
     7
  5
60C
 10
0.680602
 20
0.245514
 30
0.0
 11
0.678317
 21
0.247266
 31
0.0
  0
LINE
  8
0
  6
CONTINUOUS
 62
     7
  5
60D
 10
0.678317
 20
0.247266
 30
0.0
 11
0.676127
 21
0.249102
 31
0.0
  0
LINE
  8
0
  6
CONTINUOUS
 62
     7
  5
60E
 10
0.676127
 20
0.249102
 30
0.0
 11
0.674038
 21
0.251019
 31
0.0
  0
LINE
  8
0
  6
CONTINUOUS
 62
     7
  5
60F
 10
0.674038
 20
0.251019
 30
0.0
 11
0.672054
 21
0.253012
 31
0.0
  0
LINE
  8
0
  6
CONTINUOUS
 62
     7
  5
610
 10
0.672054
 20
0.253012
 30
0.0
 11
0.670178
 21
0.255078
 31
0.0
  0
LINE
  8
0
  6
CONTINUOUS
 62
     7
  5
611
 10
0.670178
 20
0.255078
 30
0.0
 11
0.668414
 21
0.257213
 31
0.0
  0
LINE
  8
0
  6
CONTINUOUS
 62
     7
  5
612
 10
0.668414
 20
0.257213
 30
0.0
 11
0.666767
 21
0.259412
 31
0.0
  0
LINE
  8
0
  6
CONTINUOUS
 62
     7
  5
613
 10
0.666767
 20
0.259412
 30
0.0
 11
0.665239
 21
0.261671
 31
0.0
  0
LINE
  8
0
  6
CONTINUOUS
 62
     7
  5
614
 10
0.665239
 20
0.261671
 30
0.0
 11
0.663833
 21
0.263984
 31
0.0
  0
LINE
  8
0
  6
CONTINUOUS
 62
     7
  5
615
 10
0.663833
 20
0.263984
 30
0.0
 11
0.662553
 21
0.266349
 31
0.0
  0
LINE
  8
0
  6
CONTINUOUS
 62
     7
  5
616
 10
0.662553
 20
0.266349
 30
0.0
 11
0.6614
 21
0.268759
 31
0.0
  0
LINE
  8
0
  6
CONTINUOUS
 62
     7
  5
617
 10
0.6614
 20
0.268759
 30
0.0
 11
0.660377
 21
0.27121
 31
0.0
  0
LINE
  8
0
  6
CONTINUOUS
 62
     7
  5
618
 10
0.660377
 20
0.27121
 30
0.0
 11
0.659487
 21
0.273697
 31
0.0
  0
LINE
  8
0
  6
CONTINUOUS
 62
     7
  5
619
 10
0.659487
 20
0.273697
 30
0.0
 11
0.65873
 21
0.276216
 31
0.0
  0
LINE
  8
0
  6
CONTINUOUS
 62
     7
  5
61A
 10
0.65873
 20
0.276216
 30
0.0
 11
0.658109
 21
0.27876
 31
0.0
  0
LINE
  8
0
  6
CONTINUOUS
 62
     7
  5
61B
 10
0.658109
 20
0.27876
 30
0.0
 11
0.657624
 21
0.281325
 31
0.0
  0
LINE
  8
0
  6
CONTINUOUS
 62
     7
  5
61C
 10
0.657624
 20
0.281325
 30
0.0
 11
0.657278
 21
0.283905
 31
0.0
  0
LINE
  8
0
  6
CONTINUOUS
 62
     7
  5
61D
 10
0.657278
 20
0.283905
 30
0.0
 11
0.657069
 21
0.286496
 31
0.0
  0
LINE
  8
0
  6
CONTINUOUS
 62
     7
  5
61E
 10
0.657069
 20
0.286496
 30
0.0
 11
0.657
 21
0.289093
 31
0.0
  0
LINE
  8
0
  6
CONTINUOUS
 62
     7
  5
61F
 10
0.800853
 20
0.516484
 30
0.0
 11
0.800853
 21
0.536091
 31
0.0
  0
LINE
  8
0
  6
CONTINUOUS
 62
     7
  5
620
 10
0.809909
 20
0.506494
 30
0.0
 11
0.809676
 21
0.506795
 31
0.0
  0
LINE
  8
0
  6
CONTINUOUS
 62
     7
  5
621
 10
0.809676
 20
0.506795
 30
0.0
 11
0.809441
 21
0.507095
 31
0.0
  0
LINE
  8
0
  6
CONTINUOUS
 62
     7
  5
622
 10
0.809441
 20
0.507095
 30
0.0
 11
0.809204
 21
0.507394
 31
0.0
  0
LINE
  8
0
  6
CONTINUOUS
 62
     7
  5
623
 10
0.809204
 20
0.507394
 30
0.0
 11
0.808966
 21
0.507692
 31
0.0
  0
LINE
  8
0
  6
CONTINUOUS
 62
     7
  5
624
 10
0.808966
 20
0.507692
 30
0.0
 11
0.808726
 21
0.50799
 31
0.0
  0
LINE
  8
0
  6
CONTINUOUS
 62
     7
  5
625
 10
0.808726
 20
0.50799
 30
0.0
 11
0.808485
 21
0.508286
 31
0.0
  0
LINE
  8
0
  6
CONTINUOUS
 62
     7
  5
626
 10
0.808485
 20
0.508286
 30
0.0
 11
0.808242
 21
0.508582
 31
0.0
  0
LINE
  8
0
  6
CONTINUOUS
 62
     7
  5
627
 10
0.808242
 20
0.508582
 30
0.0
 11
0.807998
 21
0.508876
 31
0.0
  0
LINE
  8
0
  6
CONTINUOUS
 62
     7
  5
628
 10
0.807998
 20
0.508876
 30
0.0
 11
0.807752
 21
0.50917
 31
0.0
  0
LINE
  8
0
  6
CONTINUOUS
 62
     7
  5
629
 10
0.807752
 20
0.50917
 30
0.0
 11
0.807505
 21
0.509463
 31
0.0
  0
LINE
  8
0
  6
CONTINUOUS
 62
     7
  5
62A
 10
0.807505
 20
0.509463
 30
0.0
 11
0.807257
 21
0.509755
 31
0.0
  0
LINE
  8
0
  6
CONTINUOUS
 62
     7
  5
62B
 10
0.807257
 20
0.509755
 30
0.0
 11
0.807006
 21
0.510046
 31
0.0
  0
LINE
  8
0
  6
CONTINUOUS
 62
     7
  5
62C
 10
0.807006
 20
0.510046
 30
0.0
 11
0.806755
 21
0.510337
 31
0.0
  0
LINE
  8
0
  6
CONTINUOUS
 62
     7
  5
62D
 10
0.806755
 20
0.510337
 30
0.0
 11
0.806502
 21
0.510626
 31
0.0
  0
LINE
  8
0
  6
CONTINUOUS
 62
     7
  5
62E
 10
0.806502
 20
0.510626
 30
0.0
 11
0.806247
 21
0.510915
 31
0.0
  0
LINE
  8
0
  6
CONTINUOUS
 62
     7
  5
62F
 10
0.806247
 20
0.510915
 30
0.0
 11
0.805991
 21
0.511202
 31
0.0
  0
LINE
  8
0
  6
CONTINUOUS
 62
     7
  5
630
 10
0.805991
 20
0.511202
 30
0.0
 11
0.805733
 21
0.511489
 31
0.0
  0
LINE
  8
0
  6
CONTINUOUS
 62
     7
  5
631
 10
0.805733
 20
0.511489
 30
0.0
 11
0.805474
 21
0.511774
 31
0.0
  0
LINE
  8
0
  6
CONTINUOUS
 62
     7
  5
632
 10
0.805474
 20
0.511774
 30
0.0
 11
0.805214
 21
0.512059
 31
0.0
  0
LINE
  8
0
  6
CONTINUOUS
 62
     7
  5
633
 10
0.805214
 20
0.512059
 30
0.0
 11
0.804952
 21
0.512343
 31
0.0
  0
LINE
  8
0
  6
CONTINUOUS
 62
     7
  5
634
 10
0.804952
 20
0.512343
 30
0.0
 11
0.804689
 21
0.512626
 31
0.0
  0
LINE
  8
0
  6
CONTINUOUS
 62
     7
  5
635
 10
0.804689
 20
0.512626
 30
0.0
 11
0.804424
 21
0.512908
 31
0.0
  0
LINE
  8
0
  6
CONTINUOUS
 62
     7
  5
636
 10
0.804424
 20
0.512908
 30
0.0
 11
0.804158
 21
0.513189
 31
0.0
  0
LINE
  8
0
  6
CONTINUOUS
 62
     7
  5
637
 10
0.804158
 20
0.513189
 30
0.0
 11
0.80389
 21
0.513469
 31
0.0
  0
LINE
  8
0
  6
CONTINUOUS
 62
     7
  5
638
 10
0.80389
 20
0.513469
 30
0.0
 11
0.803621
 21
0.513748
 31
0.0
  0
LINE
  8
0
  6
CONTINUOUS
 62
     7
  5
639
 10
0.803621
 20
0.513748
 30
0.0
 11
0.80335
 21
0.514026
 31
0.0
  0
LINE
  8
0
  6
CONTINUOUS
 62
     7
  5
63A
 10
0.80335
 20
0.514026
 30
0.0
 11
0.803079
 21
0.514303
 31
0.0
  0
LINE
  8
0
  6
CONTINUOUS
 62
     7
  5
63B
 10
0.803079
 20
0.514303
 30
0.0
 11
0.802805
 21
0.514579
 31
0.0
  0
LINE
  8
0
  6
CONTINUOUS
 62
     7
  5
63C
 10
0.802805
 20
0.514579
 30
0.0
 11
0.80253
 21
0.514854
 31
0.0
  0
LINE
  8
0
  6
CONTINUOUS
 62
     7
  5
63D
 10
0.80253
 20
0.514854
 30
0.0
 11
0.802254
 21
0.515128
 31
0.0
  0
LINE
  8
0
  6
CONTINUOUS
 62
     7
  5
63E
 10
0.802254
 20
0.515128
 30
0.0
 11
0.801977
 21
0.515402
 31
0.0
  0
LINE
  8
0
  6
CONTINUOUS
 62
     7
  5
63F
 10
0.801977
 20
0.515402
 30
0.0
 11
0.801698
 21
0.515674
 31
0.0
  0
LINE
  8
0
  6
CONTINUOUS
 62
     7
  5
640
 10
0.801698
 20
0.515674
 30
0.0
 11
0.801418
 21
0.515945
 31
0.0
  0
LINE
  8
0
  6
CONTINUOUS
 62
     7
  5
641
 10
0.801418
 20
0.515945
 30
0.0
 11
0.801136
 21
0.516215
 31
0.0
  0
LINE
  8
0
  6
CONTINUOUS
 62
     7
  5
642
 10
0.801136
 20
0.516215
 30
0.0
 11
0.800853
 21
0.516484
 31
0.0
  0
LINE
  8
0
  6
CONTINUOUS
 62
     7
  5
643
 10
0.819823
 20
0.50654
 30
0.0
 11
0.820853
 21
0.507039
 31
0.0
  0
LINE
  8
0
  6
CONTINUOUS
 62
     7
  5
644
 10
0.820853
 20
0.507039
 30
0.0
 11
0.820859
 21
0.507024
 31
0.0
  0
LINE
  8
0
  6
CONTINUOUS
 62
     7
  5
645
 10
0.820859
 20
0.507024
 30
0.0
 11
0.820864
 21
0.50701
 31
0.0
  0
LINE
  8
0
  6
CONTINUOUS
 62
     7
  5
646
 10
0.820864
 20
0.50701
 30
0.0
 11
0.82087
 21
0.506996
 31
0.0
  0
LINE
  8
0
  6
CONTINUOUS
 62
     7
  5
647
 10
0.82087
 20
0.506996
 30
0.0
 11
0.820876
 21
0.506981
 31
0.0
  0
LINE
  8
0
  6
CONTINUOUS
 62
     7
  5
648
 10
0.820876
 20
0.506981
 30
0.0
 11
0.820881
 21
0.506967
 31
0.0
  0
LINE
  8
0
  6
CONTINUOUS
 62
     7
  5
649
 10
0.820881
 20
0.506967
 30
0.0
 11
0.820887
 21
0.506953
 31
0.0
  0
LINE
  8
0
  6
CONTINUOUS
 62
     7
  5
64A
 10
0.820887
 20
0.506953
 30
0.0
 11
0.820893
 21
0.506938
 31
0.0
  0
LINE
  8
0
  6
CONTINUOUS
 62
     7
  5
64B
 10
0.820893
 20
0.506938
 30
0.0
 11
0.820898
 21
0.506924
 31
0.0
  0
LINE
  8
0
  6
CONTINUOUS
 62
     7
  5
64C
 10
0.820898
 20
0.506924
 30
0.0
 11
0.820904
 21
0.50691
 31
0.0
  0
LINE
  8
0
  6
CONTINUOUS
 62
     7
  5
64D
 10
0.820904
 20
0.50691
 30
0.0
 11
0.82091
 21
0.506895
 31
0.0
  0
LINE
  8
0
  6
CONTINUOUS
 62
     7
  5
64E
 10
0.82091
 20
0.506895
 30
0.0
 11
0.820915
 21
0.506881
 31
0.0
  0
LINE
  8
0
  6
CONTINUOUS
 62
     7
  5
64F
 10
0.820915
 20
0.506881
 30
0.0
 11
0.820921
 21
0.506867
 31
0.0
  0
LINE
  8
0
  6
CONTINUOUS
 62
     7
  5
650
 10
0.820921
 20
0.506867
 30
0.0
 11
0.820927
 21
0.506852
 31
0.0
  0
LINE
  8
0
  6
CONTINUOUS
 62
     7
  5
651
 10
0.820927
 20
0.506852
 30
0.0
 11
0.820933
 21
0.506838
 31
0.0
  0
LINE
  8
0
  6
CONTINUOUS
 62
     7
  5
652
 10
0.820933
 20
0.506838
 30
0.0
 11
0.820938
 21
0.506823
 31
0.0
  0
LINE
  8
0
  6
CONTINUOUS
 62
     7
  5
653
 10
0.820938
 20
0.506823
 30
0.0
 11
0.820944
 21
0.506809
 31
0.0
  0
LINE
  8
0
  6
CONTINUOUS
 62
     7
  5
654
 10
0.820944
 20
0.506809
 30
0.0
 11
0.82095
 21
0.506795
 31
0.0
  0
LINE
  8
0
  6
CONTINUOUS
 62
     7
  5
655
 10
0.82095
 20
0.506795
 30
0.0
 11
0.820955
 21
0.50678
 31
0.0
  0
LINE
  8
0
  6
CONTINUOUS
 62
     7
  5
656
 10
0.820955
 20
0.50678
 30
0.0
 11
0.820961
 21
0.506766
 31
0.0
  0
LINE
  8
0
  6
CONTINUOUS
 62
     7
  5
657
 10
0.820961
 20
0.506766
 30
0.0
 11
0.820966
 21
0.506752
 31
0.0
  0
LINE
  8
0
  6
CONTINUOUS
 62
     7
  5
658
 10
0.820966
 20
0.506752
 30
0.0
 11
0.820972
 21
0.506737
 31
0.0
  0
LINE
  8
0
  6
CONTINUOUS
 62
     7
  5
659
 10
0.820972
 20
0.506737
 30
0.0
 11
0.820978
 21
0.506723
 31
0.0
  0
LINE
  8
0
  6
CONTINUOUS
 62
     7
  5
65A
 10
0.820978
 20
0.506723
 30
0.0
 11
0.820983
 21
0.506708
 31
0.0
  0
LINE
  8
0
  6
CONTINUOUS
 62
     7
  5
65B
 10
0.820983
 20
0.506708
 30
0.0
 11
0.820989
 21
0.506694
 31
0.0
  0
LINE
  8
0
  6
CONTINUOUS
 62
     7
  5
65C
 10
0.820989
 20
0.506694
 30
0.0
 11
0.820995
 21
0.50668
 31
0.0
  0
LINE
  8
0
  6
CONTINUOUS
 62
     7
  5
65D
 10
0.820995
 20
0.50668
 30
0.0
 11
0.821
 21
0.506665
 31
0.0
  0
LINE
  8
0
  6
CONTINUOUS
 62
     7
  5
65E
 10
0.821
 20
0.506665
 30
0.0
 11
0.821006
 21
0.506651
 31
0.0
  0
LINE
  8
0
  6
CONTINUOUS
 62
     7
  5
65F
 10
0.821006
 20
0.506651
 30
0.0
 11
0.821012
 21
0.506637
 31
0.0
  0
LINE
  8
0
  6
CONTINUOUS
 62
     7
  5
660
 10
0.821012
 20
0.506637
 30
0.0
 11
0.821017
 21
0.506622
 31
0.0
  0
LINE
  8
0
  6
CONTINUOUS
 62
     7
  5
661
 10
0.821017
 20
0.506622
 30
0.0
 11
0.821023
 21
0.506608
 31
0.0
  0
LINE
  8
0
  6
CONTINUOUS
 62
     7
  5
662
 10
0.821023
 20
0.506608
 30
0.0
 11
0.821028
 21
0.506593
 31
0.0
  0
LINE
  8
0
  6
CONTINUOUS
 62
     7
  5
663
 10
0.821028
 20
0.506593
 30
0.0
 11
0.821034
 21
0.506579
 31
0.0
  0
LINE
  8
0
  6
CONTINUOUS
 62
     7
  5
664
 10
0.821034
 20
0.506579
 30
0.0
 11
0.82104
 21
0.506565
 31
0.0
  0
LINE
  8
0
  6
CONTINUOUS
 62
     7
  5
665
 10
0.82104
 20
0.506565
 30
0.0
 11
0.821045
 21
0.50655
 31
0.0
  0
LINE
  8
0
  6
CONTINUOUS
 62
     7
  5
666
 10
0.821045
 20
0.50655
 30
0.0
 11
0.821051
 21
0.506536
 31
0.0
  0
LINE
  8
0
  6
CONTINUOUS
 62
     7
  5
667
 10
0.630933
 20
0.506493
 30
0.0
 11
0.632965
 21
0.51123
 31
0.0
  0
LINE
  8
0
  6
CONTINUOUS
 62
     7
  5
668
 10
0.632965
 20
0.51123
 30
0.0
 11
0.635333
 21
0.515856
 31
0.0
  0
LINE
  8
0
  6
CONTINUOUS
 62
     7
  5
669
 10
0.635333
 20
0.515856
 30
0.0
 11
0.638027
 21
0.520355
 31
0.0
  0
LINE
  8
0
  6
CONTINUOUS
 62
     7
  5
66A
 10
0.638027
 20
0.520355
 30
0.0
 11
0.641038
 21
0.52471
 31
0.0
  0
LINE
  8
0
  6
CONTINUOUS
 62
     7
  5
66B
 10
0.641038
 20
0.52471
 30
0.0
 11
0.644356
 21
0.528906
 31
0.0
  0
LINE
  8
0
  6
CONTINUOUS
 62
     7
  5
66C
 10
0.644356
 20
0.528906
 30
0.0
 11
0.647967
 21
0.532927
 31
0.0
  0
LINE
  8
0
  6
CONTINUOUS
 62
     7
  5
66D
 10
0.647967
 20
0.532927
 30
0.0
 11
0.65186
 21
0.536759
 31
0.0
  0
LINE
  8
0
  6
CONTINUOUS
 62
     7
  5
66E
 10
0.65186
 20
0.536759
 30
0.0
 11
0.65602
 21
0.540388
 31
0.0
  0
LINE
  8
0
  6
CONTINUOUS
 62
     7
  5
66F
 10
0.65602
 20
0.540388
 30
0.0
 11
0.660432
 21
0.543802
 31
0.0
  0
LINE
  8
0
  6
CONTINUOUS
 62
     7
  5
670
 10
0.660432
 20
0.543802
 30
0.0
 11
0.66508
 21
0.546987
 31
0.0
  0
LINE
  8
0
  6
CONTINUOUS
 62
     7
  5
671
 10
0.66508
 20
0.546987
 30
0.0
 11
0.669948
 21
0.549933
 31
0.0
  0
LINE
  8
0
  6
CONTINUOUS
 62
     7
  5
672
 10
0.669948
 20
0.549933
 30
0.0
 11
0.675018
 21
0.552628
 31
0.0
  0
LINE
  8
0
  6
CONTINUOUS
 62
     7
  5
673
 10
0.675018
 20
0.552628
 30
0.0
 11
0.680271
 21
0.555063
 31
0.0
  0
LINE
  8
0
  6
CONTINUOUS
 62
     7
  5
674
 10
0.680271
 20
0.555063
 30
0.0
 11
0.68569
 21
0.55723
 31
0.0
  0
LINE
  8
0
  6
CONTINUOUS
 62
     7
  5
675
 10
0.68569
 20
0.55723
 30
0.0
 11
0.691253
 21
0.55912
 31
0.0
  0
LINE
  8
0
  6
CONTINUOUS
 62
     7
  5
676
 10
0.691253
 20
0.55912
 30
0.0
 11
0.696942
 21
0.560727
 31
0.0
  0
LINE
  8
0
  6
CONTINUOUS
 62
     7
  5
677
 10
0.696942
 20
0.560727
 30
0.0
 11
0.702735
 21
0.562045
 31
0.0
  0
LINE
  8
0
  6
CONTINUOUS
 62
     7
  5
678
 10
0.702735
 20
0.562045
 30
0.0
 11
0.708612
 21
0.563068
 31
0.0
  0
LINE
  8
0
  6
CONTINUOUS
 62
     7
  5
679
 10
0.708612
 20
0.563068
 30
0.0
 11
0.714552
 21
0.563794
 31
0.0
  0
LINE
  8
0
  6
CONTINUOUS
 62
     7
  5
67A
 10
0.714552
 20
0.563794
 30
0.0
 11
0.720533
 21
0.56422
 31
0.0
  0
LINE
  8
0
  6
CONTINUOUS
 62
     7
  5
67B
 10
0.720533
 20
0.56422
 30
0.0
 11
0.726534
 21
0.564345
 31
0.0
  0
LINE
  8
0
  6
CONTINUOUS
 62
     7
  5
67C
 10
0.726534
 20
0.564345
 30
0.0
 11
0.732533
 21
0.564167
 31
0.0
  0
LINE
  8
0
  6
CONTINUOUS
 62
     7
  5
67D
 10
0.732533
 20
0.564167
 30
0.0
 11
0.738508
 21
0.563687
 31
0.0
  0
LINE
  8
0
  6
CONTINUOUS
 62
     7
  5
67E
 10
0.738508
 20
0.563687
 30
0.0
 11
0.744439
 21
0.562908
 31
0.0
  0
LINE
  8
0
  6
CONTINUOUS
 62
     7
  5
67F
 10
0.744439
 20
0.562908
 30
0.0
 11
0.750303
 21
0.561831
 31
0.0
  0
LINE
  8
0
  6
CONTINUOUS
 62
     7
  5
680
 10
0.750303
 20
0.561831
 30
0.0
 11
0.756079
 21
0.560462
 31
0.0
  0
LINE
  8
0
  6
CONTINUOUS
 62
     7
  5
681
 10
0.756079
 20
0.560462
 30
0.0
 11
0.761747
 21
0.558804
 31
0.0
  0
LINE
  8
0
  6
CONTINUOUS
 62
     7
  5
682
 10
0.761747
 20
0.558804
 30
0.0
 11
0.767286
 21
0.556864
 31
0.0
  0
LINE
  8
0
  6
CONTINUOUS
 62
     7
  5
683
 10
0.767286
 20
0.556864
 30
0.0
 11
0.772676
 21
0.554649
 31
0.0
  0
LINE
  8
0
  6
CONTINUOUS
 62
     7
  5
684
 10
0.772676
 20
0.554649
 30
0.0
 11
0.777898
 21
0.552167
 31
0.0
  0
LINE
  8
0
  6
CONTINUOUS
 62
     7
  5
685
 10
0.777898
 20
0.552167
 30
0.0
 11
0.782934
 21
0.549426
 31
0.0
  0
LINE
  8
0
  6
CONTINUOUS
 62
     7
  5
686
 10
0.782934
 20
0.549426
 30
0.0
 11
0.787764
 21
0.546437
 31
0.0
  0
LINE
  8
0
  6
CONTINUOUS
 62
     7
  5
687
 10
0.787764
 20
0.546437
 30
0.0
 11
0.792371
 21
0.54321
 31
0.0
  0
LINE
  8
0
  6
CONTINUOUS
 62
     7
  5
688
 10
0.792371
 20
0.54321
 30
0.0
 11
0.796739
 21
0.539758
 31
0.0
  0
LINE
  8
0
  6
CONTINUOUS
 62
     7
  5
689
 10
0.796739
 20
0.539758
 30
0.0
 11
0.800853
 21
0.536091
 31
0.0
  0
CIRCLE
  8
0
  6
CONTINUOUS
 62
     7
  5
68A
 10
0.605
 20
0.0
 30
0.0
 40
0.06
  0
ARC
  8
0
  6
CONTINUOUS
 62
     7
  5
68B
 10
0.705
 20
0.1
 30
0.0
 40
0.03
 50
0.0
 51
90.0
  0
LINE
  8
0
  6
CONTINUOUS
 62
     7
  5
68C
 10
0.505
 20
0.13
 30
0.0
 11
0.705
 21
0.13
 31
0.0
  0
ARC
  8
0
  6
CONTINUOUS
 62
     7
  5
68D
 10
0.505
 20
0.1
 30
0.0
 40
0.03
 50
90.0
 51
180.0
  0
LINE
  8
0
  6
CONTINUOUS
 62
     7
  5
68E
 10
0.475
 20
-0.1
 30
0.0
 11
0.475
 21
0.1
 31
0.0
  0
ARC
  8
0
  6
CONTINUOUS
 62
     7
  5
68F
 10
0.505
 20
-0.1
 30
0.0
 40
0.03
 50
180.0
 51
270.0
  0
LINE
  8
0
  6
CONTINUOUS
 62
     7
  5
690
 10
0.705
 20
-0.13
 30
0.0
 11
0.505
 21
-0.13
 31
0.0
  0
ARC
  8
0
  6
CONTINUOUS
 62
     7
  5
691
 10
0.705
 20
-0.1
 30
0.0
 40
0.03
 50
270.0
 51
360.0
  0
LINE
  8
0
  6
CONTINUOUS
 62
     7
  5
692
 10
0.735
 20
0.1
 30
0.0
 11
0.735
 21
-0.1
 31
0.0
  0
LINE
  8
0
  6
CONTINUOUS
 62
     7
  5
693
 10
0.793
 20
0.192
 30
0.0
 11
0.793
 21
0.228592
 31
0.0
  0
LINE
  8
0
  6
CONTINUOUS
 62
     7
  5
694
 10
0.793
 20
0.192
 30
0.0
 11
0.387
 21
0.192
 31
0.0
  0
LINE
  8
0
  6
CONTINUOUS
 62
     7
  5
695
 10
0.543
 20
0.757
 30
0.0
 11
0.543
 21
0.192
 31
0.0
  0
LINE
  8
0
  6
CONTINUOUS
 62
     7
  5
696
 10
0.793
 20
-0.228592
 30
0.0
 11
0.793
 21
-0.192
 31
0.0
  0
LINE
  8
0
  6
CONTINUOUS
 62
     7
  5
697
 10
0.387
 20
-0.192
 30
0.0
 11
0.387
 21
-0.093
 31
0.0
  0
LINE
  8
0
  6
CONTINUOUS
 62
     7
  5
698
 10
0.387
 20
0.093
 30
0.0
 11
0.387
 21
0.192
 31
0.0
  0
LINE
  8
0
  6
CONTINUOUS
 62
     7
  5
699
 10
0.793
 20
-0.192
 30
0.0
 11
0.793
 21
0.192
 31
0.0
  0
ARC
  8
0
  6
CONTINUOUS
 62
     7
  5
69A
 10
0.503
 20
-0.757
 30
0.0
 40
0.04
 50
270.0
 51
360.0
  0
LINE
  8
0
  6
CONTINUOUS
 62
     7
  5
69B
 10
0.543
 20
-0.192
 30
0.0
 11
0.543
 21
-0.757
 31
0.0
  0
LINE
  8
0
  6
CONTINUOUS
 62
     7
  5
69C
 10
0.387
 20
0.797
 30
0.0
 11
0.503
 21
0.797
 31
0.0
  0
LINE
  8
0
  6
CONTINUOUS
 62
     7
  5
69D
 10
0.503
 20
-0.797
 30
0.0
 11
0.387
 21
-0.797
 31
0.0
  0
LINE
  8
0
  6
CONTINUOUS
 62
     7
  5
69E
 10
0.387
 20
-0.192
 30
0.0
 11
0.793
 21
-0.192
 31
0.0
  0
ARC
  8
0
  6
CONTINUOUS
 62
     7
  5
69F
 10
0.503
 20
0.757
 30
0.0
 40
0.04
 50
0.0
 51
90.0
  0
LINE
  8
0
  6
CONTINUOUS
 62
     7
  5
6A0
 10
0.387
 20
0.192
 30
0.0
 11
0.387
 21
0.796
 31
0.0
  0
CIRCLE
  8
0
  6
CONTINUOUS
 62
     7
  5
6A1
 10
-0.005
 20
0.609
 30
0.0
 40
0.052
  0
LINE
  8
0
  6
CONTINUOUS
 62
     7
  5
6A2
 10
-0.135
 20
0.73
 30
0.0
 11
0.125
 21
0.73
 31
0.0
  0
ARC
  8
0
  6
CONTINUOUS
 62
     7
  5
6A3
 10
-0.005
 20
0.609
 30
0.0
 40
0.13
 50
270.0
 51
0.0
  0
LINE
  8
0
  6
CONTINUOUS
 62
     7
  5
6A4
 10
0.125
 20
0.73
 30
0.0
 11
0.125
 21
0.609
 31
0.0
  0
LINE
  8
0
  6
CONTINUOUS
 62
     7
  5
6A5
 10
-0.135
 20
0.609
 30
0.0
 11
-0.135
 21
0.73
 31
0.0
  0
ARC
  8
0
  6
CONTINUOUS
 62
     7
  5
6A6
 10
-0.005
 20
0.609
 30
0.0
 40
0.13
 50
180.0
 51
270.0
  0
LINE
  8
0
  6
CONTINUOUS
 62
     7
  5
6A7
 10
-0.135
 20
0.797
 30
0.0
 11
-0.135
 21
0.73
 31
0.0
  0
LINE
  8
0
  6
CONTINUOUS
 62
     7
  5
6A8
 10
0.0
 20
0.479
 30
0.0
 11
-0.005
 21
0.479
 31
0.0
  0
LINE
  8
0
  6
CONTINUOUS
 62
     7
  5
6A9
 10
0.0
 20
-0.447
 30
0.0
 11
0.0
 21
0.479
 31
0.0
  0
LINE
  8
0
  6
CONTINUOUS
 62
     7
  5
6AA
 10
0.0
 20
-0.447
 30
0.0
 11
0.13
 21
-0.447
 31
0.0
  0
LINE
  8
0
  6
CONTINUOUS
 62
     7
  5
6AB
 10
0.13
 20
-0.447
 30
0.0
 11
0.13
 21
-0.797
 31
0.0
  0
LINE
  8
0
  6
CONTINUOUS
 62
     7
  5
6AC
 10
0.386
 20
-0.797
 30
0.0
 11
0.13
 21
-0.797
 31
0.0
  0
LINE
  8
0
  6
CONTINUOUS
 62
     7
  5
6AD
 10
0.386
 20
-0.797
 30
0.0
 11
0.386
 21
-0.093
 31
0.0
  0
LINE
  8
0
  6
CONTINUOUS
 62
     7
  5
6AE
 10
0.386
 20
0.093
 30
0.0
 11
0.386
 21
0.797
 31
0.0
  0
LINE
  8
0
  6
CONTINUOUS
 62
     7
  5
6AF
 10
-0.135
 20
0.797
 30
0.0
 11
0.386
 21
0.797
 31
0.0
  0
LINE
  8
0
  6
CONTINUOUS
 62
     7
  5
6B0
 10
0.387
 20
-0.093
 30
0.0
 11
0.387
 21
0.093
 31
0.0
  0
LINE
  8
0
  6
CONTINUOUS
 62
     7
  5
6B1
 10
0.387
 20
0.093
 30
0.0
 11
0.308
 21
0.093
 31
0.0
  0
ARC
  8
0
  6
CONTINUOUS
 62
     7
  5
6B2
 10
0.308
 20
0.0
 30
0.0
 40
0.093
 50
90.0
 51
270.0
  0
LINE
  8
0
  6
CONTINUOUS
 62
     7
  5
6B3
 10
0.308
 20
-0.093
 30
0.0
 11
0.387
 21
-0.093
 31
0.0
  0
LINE
  8
0
  6
CONTINUOUS
 62
     7
  5
6B4
 10
0.387
 20
-0.796
 30
0.0
 11
0.386
 21
-0.796
 31
0.0
  0
LINE
  8
0
  6
CONTINUOUS
 62
     7
  5
6B5
 10
0.386
 20
0.796
 30
0.0
 11
0.387
 21
0.796
 31
0.0
  0
LINE
  8
0
  6
CONTINUOUS
 62
     7
  5
6B6
 10
0.387
 20
-0.796
 30
0.0
 11
0.387
 21
-0.192
 31
0.0
  0
LINE
  8
0
  6
CONTINUOUS
 62
     7
  5
6B7
 10
0.543
 20
-0.50654
 30
0.0
 11
0.926
 21
-0.50654
 31
0.0
  0
LINE
  8
0
  6
CONTINUOUS
 62
     7
  5
6B8
 10
0.795
 20
-0.379721
 30
0.0
 11
0.795
 21
-0.289093
 31
0.0
  0
LINE
  8
0
  6
CONTINUOUS
 62
     7
  5
6B9
 10
0.657
 20
-0.289093
 30
0.0
 11
0.657
 21
-0.379721
 31
0.0
  0
LINE
  8
0
  6
CONTINUOUS
 62
     7
  5
6BA
 10
0.926
 20
0.50654
 30
0.0
 11
0.543
 21
0.50654
 31
0.0
  0
LINE
  8
0
  6
CONTINUOUS
 62
     7
  5
6BB
 10
0.657
 20
0.379721
 30
0.0
 11
0.657
 21
0.289093
 31
0.0
  0
LINE
  8
0
  6
CONTINUOUS
 62
     7
  5
6BC
 10
0.795
 20
0.289093
 30
0.0
 11
0.795
 21
0.379721
 31
0.0
  0
LINE
  8
0
  6
CONTINUOUS
 62
     3
  5
6BD
 10
0.726
 20
-0.548441
 30
0.0
 11
0.726
 21
-0.34568
 31
0.0
  0
LINE
  8
0
  6
CONTINUOUS
 62
     3
  5
6BE
 10
0.8088
 20
-0.415122
 30
0.0
 11
0.6432
 21
-0.415122
 31
0.0
  0
LINE
  8
0
  6
CONTINUOUS
 62
     3
  5
6BF
 10
0.846
 20
-0.4478
 30
0.0
 11
0.606
 21
-0.4478
 31
0.0
  0
LINE
  8
0
  6
CONTINUOUS
 62
     3
  5
6C0
 10
0.726
 20
0.34568
 30
0.0
 11
0.726
 21
0.548441
 31
0.0
  0
LINE
  8
0
  6
CONTINUOUS
 62
     3
  5
6C1
 10
0.8088
 20
0.415122
 30
0.0
 11
0.6432
 21
0.415122
 31
0.0
  0
LINE
  8
0
  6
CONTINUOUS
 62
     3
  5
6C2
 10
0.846
 20
0.4478
 30
0.0
 11
0.606
 21
0.4478
 31
0.0
  0
ENDSEC
  0
EOF
