999
DXF file: C:\Users\sesa63760\Dev\_Creo\CAD\MCADID0005475_3D-CAD\drw0001_1.dxf
999
Pro/ENGINEER 2019471 by Parametric Technology Corporation
  0
SECTION
  2
HEADER
  9
$ACADVER
  1
AC1024
  9
$DWGCODEPAGE
  3
ANSI_1252
  9
$EXTMAX
 10
67.7331691415
 20
95.7940535001
 30
0.0
  9
$EXTMIN
 10
0.0
 20
0.0
 30
0.0
  9
$LIMMIN
 10
0.0
 20
0.0
  9
$LIMMAX
 10
67.7331691415
 20
95.7940535001
  9
$VIEWCTR
 10
33.8665845707
 20
47.89702675
  9
$VIEWSIZE
 40
95.7940535001
  9
$CLAYER
  8
0
  9
$LTSCALE
 40
6.244353117
  9
$CELTYPE
  6
BYLAYER
  9
$DIMSCALE
 40
1.0
  9
$DIMASZ
 40
0.8063472517
  9
$DIMEXO
 40
1.0
  9
$DIMDLI
 40
4.3142803354
  9
$DIMEXE
 40
1.0
  9
$DIMCEN
 40
1.0218032373
  9
$DIMLFAC
 40
1.0
  9
$DIMBLK
  1
_FILLED
  9
$DIMALT
 70
0
  9
$DIMALTF
 40
0.0393700787
  9
$DIMTXT
 40
1.1288861524
  9
$DIMTOL
 70
1
  9
$DIMLIM
 70
0
  9
$DIMTFAC
 40
1.0
  9
$DIMTP
 40
0.01
  9
$DIMTM
 40
0.01
  9
$DIMGAP
 40
0.625
  9
$DIMDSEP
 70
46
  9
$AUNITS
 70
0
  9
$PDMODE
 70
3
  9
$PDSIZE
 40
0.3125
  9
$HANDSEED
  5
30B
  9
$TILEMODE
 70
1
  9
$MEASUREMENT
 70
1
  9
$INSUNITS
 70
4
  0
ENDSEC
  0
SECTION
  2
CLASSES
  0
CLASS
  1
ACDBDICTIONARYWDFLT
  2
AcDbDictionaryWithDefault
  3
AutoCAD 2000
 90
0
 91
1
280
0
281
0
  0
CLASS
  1
ACDBPLACEHOLDER
  2
AcDbPlaceHolder
  3
AutoCAD 2000
 90
0
 91
1
280
0
281
0
  0
CLASS
  1
LAYOUT
  2
AcDbLayout
  3
AutoCAD 2000
 90
0
 91
0
280
0
281
0
  0
ENDSEC
  0
SECTION
  2
TABLES
  0
TABLE
  2
VPORT
  5
8
100
AcDbSymbolTable
 70
2
  0
VPORT
  5
1F4
100
AcDbSymbolTableRecord
100
AcDbViewportTableRecord
  2
*ACTIVE
 70
0
 10
0.0
 20
0.0
 11
1.0
 21
1.0
 12
33.8665845707
 22
47.89702675
 13
0.0
 23
0.0
 14
1.0
 24
1.0
 15
0.0
 25
0.0
 16
0.0
 26
0.0
 36
1.0
 17
0.0
 27
0.0
 37
0.0
 40
95.7940535001
 41
0.7070707071
 42
50.0
 43
0.0
 44
0.0
 50
0.0
 51
0.0
 71
0
 72
100
 73
1
 74
1
 75
0
 76
0
 77
0
 78
0
  0
ENDTAB
  0
TABLE
  2
LTYPE
  5
5
100
AcDbSymbolTable
 70
6
  0
LTYPE
  5
14
100
AcDbSymbolTableRecord
100
AcDbLinetypeTableRecord
  2
BYBLOCK
 70
0
  3

 72
65
 73
0
 40
0.0
  0
LTYPE
  5
15
100
AcDbSymbolTableRecord
100
AcDbLinetypeTableRecord
  2
BYLAYER
 70
0
  3

 72
65
 73
0
 40
0.0
  0
LTYPE
  5
16
100
AcDbSymbolTableRecord
100
AcDbLinetypeTableRecord
  2
CONTINUOUS
 70
64
  3
Solid line
 72
65
 73
0
 40
0.0
  0
LTYPE
  5
1F5
100
AcDbSymbolTableRecord
100
AcDbLinetypeTableRecord
  2
CENTER
 70
64
  3
____ _ ____ _ ____ _ ____ _ ____ _ ____ _ ____
 72
65
 73
4
 40
0.6
 49
0.375
 74
0
 49
-0.075
 74
0
 49
0.075
 74
0
 49
-0.075
 74
0
  0
LTYPE
  5
1F6
100
AcDbSymbolTableRecord
100
AcDbLinetypeTableRecord
  2
HIDDEN
 70
64
  3
- - - - - - - - - - - - - - - - - - - -
 72
65
 73
2
 40
0.2
 49
0.1
 74
0
 49
-0.1
 74
0
  0
LTYPE
  5
1F7
100
AcDbSymbolTableRecord
100
AcDbLinetypeTableRecord
  2
PHANTOM
 70
64
  3
_____ _ _ _____ _ _ _____ _ _ _____
 72
65
 73
6
 40
0.8
 49
0.45
 74
0
 49
-0.05
 74
0
 49
0.1
 74
0
 49
-0.05
 74
0
 49
0.1
 74
0
 49
-0.05
 74
0
  0
LTYPE
  5
1F8
100
AcDbSymbolTableRecord
100
AcDbLinetypeTableRecord
  2
DOT
 70
64
  3
. . . . . . . . . . . . . . . . . . . .
 72
65
 73
2
 40
0.2
 49
0.1
 74
0
 49
-0.1
 74
0
  0
LTYPE
  5
1F9
100
AcDbSymbolTableRecord
100
AcDbLinetypeTableRecord
  2
DASHED
 70
64
  3
- - - - - - - - - - - - - - - - - - - -
 72
65
 73
2
 40
0.2
 49
0.1
 74
0
 49
-0.1
 74
0
  0
ENDTAB
  0
TABLE
  2
LAYER
  5
2
100
AcDbSymbolTable
 70
36
  0
LAYER
  5
10
100
AcDbSymbolTableRecord
100
AcDbLayerTableRecord
  2
0
 70
0
 62
7
  6
CONTINUOUS
370
-3
390
F
  0
LAYER
  5
1FA
100
AcDbSymbolTableRecord
100
AcDbLayerTableRecord
  2
DEFAULT_1
 70
0
 62
7
  6
CENTER
370
-3
390
F
  0
LAYER
  5
1FB
100
AcDbSymbolTableRecord
100
AcDbLayerTableRecord
  2
DEFAULT_2
 70
0
 62
7
  6
HIDDEN
370
-3
390
F
  0
LAYER
  5
1FC
100
AcDbSymbolTableRecord
100
AcDbLayerTableRecord
  2
DEFAULT_3
 70
0
 62
7
  6
PHANTOM
370
-3
390
F
  0
LAYER
  5
1FD
100
AcDbSymbolTableRecord
100
AcDbLayerTableRecord
  2
00_COMPONENTS
 70
0
 62
7
  6
CONTINUOUS
370
-3
390
F
  0
LAYER
  5
1FE
100
AcDbSymbolTableRecord
100
AcDbLayerTableRecord
  2
01_1_DEFAULT_DATUMS
 70
0
 62
7
  6
CONTINUOUS
370
-3
390
F
  0
LAYER
  5
1FF
100
AcDbSymbolTableRecord
100
AcDbLayerTableRecord
  2
01_PLANES
 70
0
 62
7
  6
CONTINUOUS
370
-3
390
F
  0
LAYER
  5
200
100
AcDbSymbolTableRecord
100
AcDbLayerTableRecord
  2
02_COORD_SYS
 70
0
 62
7
  6
CONTINUOUS
370
-3
390
F
  0
LAYER
  5
201
100
AcDbSymbolTableRecord
100
AcDbLayerTableRecord
  2
03_AXES
 70
0
 62
7
  6
CONTINUOUS
370
-3
390
F
  0
LAYER
  5
202
100
AcDbSymbolTableRecord
100
AcDbLayerTableRecord
  2
04_POINTS
 70
0
 62
7
  6
CONTINUOUS
370
-3
390
F
  0
LAYER
  5
203
100
AcDbSymbolTableRecord
100
AcDbLayerTableRecord
  2
05_CURVES
 70
0
 62
7
  6
CONTINUOUS
370
-3
390
F
  0
LAYER
  5
204
100
AcDbSymbolTableRecord
100
AcDbLayerTableRecord
  2
06_SURFS
 70
0
 62
7
  6
CONTINUOUS
370
-3
390
F
  0
LAYER
  5
205
100
AcDbSymbolTableRecord
100
AcDbLayerTableRecord
  2
07_COSMETICS
 70
0
 62
7
  6
CONTINUOUS
370
-3
390
F
  0
LAYER
  5
206
100
AcDbSymbolTableRecord
100
AcDbLayerTableRecord
  2
10_NOTES
 70
0
 62
7
  6
CONTINUOUS
370
-3
390
F
  0
LAYER
  5
207
100
AcDbSymbolTableRecord
100
AcDbLayerTableRecord
  2
11_NOTES_PUB
 70
0
 62
7
  6
CONTINUOUS
370
-3
390
F
  0
LAYER
  5
208
100
AcDbSymbolTableRecord
100
AcDbLayerTableRecord
  2
13_REF_GTOL
 70
0
 62
7
  6
CONTINUOUS
370
-3
390
F
  0
LAYER
  5
209
100
AcDbSymbolTableRecord
100
AcDbLayerTableRecord
  2
16_MISC
 70
0
 62
7
  6
CONTINUOUS
370
-3
390
F
  0
LAYER
  5
20A
100
AcDbSymbolTableRecord
100
AcDbLayerTableRecord
  2
17_NO_PRINT
 70
0
 62
7
  6
CONTINUOUS
370
-3
390
F
  0
LAYER
  5
20B
100
AcDbSymbolTableRecord
100
AcDbLayerTableRecord
  2
18_DATUM_CAMS_JOINTS
 70
0
 62
7
  6
CONTINUOUS
370
-3
390
F
  0
LAYER
  5
20C
100
AcDbSymbolTableRecord
100
AcDbLayerTableRecord
  2
19_DATUM_FUNCTIONAL
 70
0
 62
7
  6
CONTINUOUS
370
-3
390
F
  0
LAYER
  5
20D
100
AcDbSymbolTableRecord
100
AcDbLayerTableRecord
  2
20_DATUM_KINEMATIC_SCHEME
 70
0
 62
7
  6
CONTINUOUS
370
-3
390
F
  0
ENDTAB
  0
TABLE
  2
STYLE
  5
3
100
AcDbSymbolTable
 70
1
  0
STYLE
  5
11
100
AcDbSymbolTableRecord
100
AcDbTextStyleTableRecord
  2
STANDARD
 70
0
 40
0.0
 41
1.0
 50
0.0
 71
0
 42
0.2
  3
ARIAL.TTF
  4

  0
STYLE
  5
20E
100
AcDbSymbolTableRecord
100
AcDbTextStyleTableRecord
  2
TEXTSTYLE_1
 70
0
 40
0.0
 41
0.8
 50
0.0
 71
0
 42
0.2
  3
gdt
  4

  0
ENDTAB
  0
TABLE
  2
VIEW
  5
6
100
AcDbSymbolTable
 70
0
  0
ENDTAB
  0
TABLE
  2
UCS
  5
7
100
AcDbSymbolTable
 70
0
  0
ENDTAB
  0
TABLE
  2
APPID
  5
9
100
AcDbSymbolTable
 70
1
  0
APPID
  5
20F
100
AcDbSymbolTableRecord
100
AcDbRegAppTableRecord
  2
ACAD
 70
0
  0
ENDTAB
  0
TABLE
  2
BLOCK_RECORD
  5
1
100
AcDbSymbolTable
 70
0
  0
BLOCK_RECORD
  5
210
100
AcDbSymbolTableRecord
100
AcDbBlockTableRecord
  2
*Model_Space
  0
BLOCK_RECORD
  5
211
100
AcDbSymbolTableRecord
100
AcDbBlockTableRecord
  2
*Paper_Space
  0
BLOCK_RECORD
  5
212
100
AcDbSymbolTableRecord
100
AcDbBlockTableRecord
  2
_FILLED
  0
ENDTAB
  0
TABLE
  2
DIMSTYLE
  5
A
100
AcDbSymbolTable
 70
1
100
AcDbDimStyleTable
 71
0
  0
DIMSTYLE
105
213
100
AcDbSymbolTableRecord
100
AcDbDimStyleTableRecord
  2
STANDARD
 70
0
  3

  4

 40
1.0
 41
0.8063472517
 42
1.0
 43
0.38
 44
1.0
 45
0.0
 46
0.0
 47
0.01
 48
0.01
140
1.1288861524
141
0.09
142
0.0
143
25.4
144
1.0
145
0.0
146
1.0
147
0.625
 71
1
 72
0
 73
0
 74
0
 75
0
 76
0
 77
1
 78
8
 79
2
170
0
171
1
172
0
173
0
174
0
175
0
176
0
177
0
178
0
270
2
179
2
271
2
272
2
273
2
274
2
275
0
280
0
281
0
282
0
283
1
284
8
285
0
286
0
287
3
288
0
340
11
278
46
341
212
342
212
343
212
344
212
  0
ENDTAB
  0
ENDSEC
  0
SECTION
  2
BLOCKS
  0
BLOCK
  5
20
100
AcDbEntity
  8
0
100
AcDbBlockBegin
  2
*Model_Space
 70
0
 10
0.0
 20
0.0
 30
0.0
  3
*Model_Space
  1

  0
ENDBLK
  5
21
100
AcDbEntity
  8
0
100
AcDbBlockEnd
  0
BLOCK
  5
1C
100
AcDbEntity
  8
0
100
AcDbBlockBegin
  2
*Paper_Space
 70
0
 10
0.0
 20
0.0
 30
0.0
  3
*Paper_Space
  1

  0
ENDBLK
  5
1D
100
AcDbEntity
  8
0
100
AcDbBlockEnd
  0
BLOCK
  5
214
100
AcDbEntity
  8
0
100
AcDbBlockBegin
  2
_FILLED
 70
64
 10
0.0
 20
0.0
  3
_FILLED
  1

  0
SOLID
  5
215
100
AcDbEntity
  8
0
  6
BYBLOCK
 62
0
100
AcDbTrace
 10
0.0
 20
0.0
 11
-1.0
 21
0.25
 12
-1.0
 22
-0.25
 13
-1.0
 23
-0.25
  0
ENDBLK
  5
216
100
AcDbEntity
  8
0
  6
BYBLOCK
 62
0
100
AcDbBlockEnd
  0
ENDSEC
  0
SECTION
  2
ENTITIES
  0
LINE
  5
217
100
AcDbEntity
  8
0
100
AcDbLine
 62
7
  6
BYLAYER
 10
10.7809969737
 20
52.0250174915
 11
9.1796215363
 21
50.5397596094
  0
LINE
  5
218
100
AcDbEntity
  8
0
100
AcDbLine
 62
7
  6
BYLAYER
 10
16.296406904
 20
55.2093218917
 11
10.7809969737
 21
52.0250174915
  0
LINE
  5
219
100
AcDbEntity
  8
0
100
AcDbLine
 62
7
  6
BYLAYER
 10
42.2303049869
 20
65.120610411
 11
41.0341133193
 21
64.6994708896
  0
LINE
  5
21A
100
AcDbEntity
  8
0
100
AcDbLine
 62
7
  6
BYLAYER
 10
27.758161631
 20
58.1894283001
 11
22.4681257039
 21
55.1352428646
  0
LINE
  5
21B
100
AcDbEntity
  8
0
100
AcDbLine
 62
7
  6
BYLAYER
 10
28.1546627609
 20
58.3842756897
 11
28.1772808418
 21
58.3973341668
  0
LINE
  5
21C
100
AcDbEntity
  8
0
100
AcDbLine
 62
7
  6
BYLAYER
 10
45.3769108801
 20
67.5325651555
 11
41.8413916941
 21
65.4913443862
  0
LINE
  5
21D
100
AcDbEntity
  8
0
100
AcDbLine
 62
7
  6
BYLAYER
 10
47.8929828181
 20
68.6595045268
 11
46.2609326653
 21
67.7172455563
  0
LINE
  5
21E
100
AcDbEntity
  8
0
100
AcDbLine
 62
7
  6
BYLAYER
 10
41.8413916941
 20
65.1656376179
 11
41.0340755971
 21
64.6995362343
  0
LINE
  5
21F
100
AcDbEntity
  8
0
100
AcDbLine
 62
7
  6
BYLAYER
 10
39.796643882
 20
63.985108965
 11
38.9481192774
 21
63.4952159803
  0
LINE
  5
220
100
AcDbEntity
  8
0
100
AcDbLine
 62
7
  6
BYLAYER
 10
37.7106875622
 20
62.7807887111
 11
36.8621629576
 21
62.2908957264
  0
LINE
  5
221
100
AcDbEntity
  8
0
100
AcDbLine
 62
7
  6
BYLAYER
 10
35.6247312425
 20
61.5764684571
 11
30.5117167808
 21
58.6244858023
  0
LINE
  5
222
100
AcDbEntity
  8
0
100
AcDbLine
 62
7
  6
BYLAYER
 10
49.6422493825
 20
69.0629177389
 11
49.6561970678
 21
69.069122893
  0
LINE
  5
223
100
AcDbEntity
  8
0
100
AcDbLine
 62
7
  6
BYLAYER
 10
28.1757478219
 20
58.3930582218
 11
28.1908806008
 21
58.3992688423
  0
LINE
  5
224
100
AcDbEntity
  8
0
100
AcDbLine
 62
7
  6
BYLAYER
 10
35.6247689646
 20
61.5764031125
 11
36.8209606322
 21
61.9975426339
  0
LINE
  5
225
100
AcDbEntity
  8
0
100
AcDbLine
 62
7
  6
BYLAYER
 10
43.9980692902
 20
66.1861726377
 11
46.6850638716
 21
67.7375004224
  0
LINE
  5
226
100
AcDbEntity
  8
0
100
AcDbLine
 62
7
  6
BYLAYER
 10
30.7988695448
 20
58.5653256979
 11
30.9463198393
 21
58.650455657
  0
LINE
  5
227
100
AcDbEntity
  8
0
100
AcDbLine
 62
7
  6
BYLAYER
 10
42.2303049869
 20
65.120610411
 11
40.9928732717
 21
64.4061831418
  0
LINE
  5
228
100
AcDbEntity
  8
0
100
AcDbLine
 62
7
  6
BYLAYER
 10
40.1443486671
 20
63.9162901571
 11
38.9069169519
 21
63.2018628878
  0
LINE
  5
229
100
AcDbEntity
  8
0
100
AcDbLine
 62
7
  6
BYLAYER
 10
38.0583923473
 20
62.7119699032
 11
36.8209606322
 21
61.9975426339
  0
LINE
  5
22A
100
AcDbEntity
  8
0
100
AcDbLine
 62
7
  6
BYLAYER
 10
46.6850638716
 20
67.4170142265
 11
49.6548999879
 21
69.1316396728
  0
LINE
  5
22B
100
AcDbEntity
  8
0
100
AcDbLine
 62
7
  6
BYLAYER
 10
46.1547427649
 20
66.0260385282
 11
45.781271439
 21
65.8104160448
  0
LINE
  5
22C
100
AcDbEntity
  8
0
100
AcDbLine
 62
7
  6
BYLAYER
 10
46.0789380192
 20
65.7476917036
 11
47.3242585299
 21
66.4666735439
  0
LINE
  5
22D
100
AcDbEntity
  8
0
100
AcDbLine
 62
7
  6
BYLAYER
 10
34.0152465095
 20
57.1946137286
 11
33.9925832605
 21
57.1815291738
  0
LINE
  5
22E
100
AcDbEntity
  8
0
100
AcDbLine
 62
7
  6
BYLAYER
 10
47.5577829503
 20
64.9216801376
 11
48.1195788903
 21
65.2460312386
  0
LINE
  5
22F
100
AcDbEntity
  8
0
100
AcDbLine
 62
7
  6
BYLAYER
 10
35.6189220861
 20
57.3003221691
 11
34.6255247359
 21
56.7267873651
  0
LINE
  5
230
100
AcDbEntity
  8
0
100
AcDbLine
 62
7
  6
BYLAYER
 10
53.2611843155
 20
63.9408614054
 11
50.5741897341
 21
62.3895336207
  0
LINE
  5
231
100
AcDbEntity
  8
0
100
AcDbLine
 62
7
  6
BYLAYER
 10
56.2310204318
 20
65.3350006558
 11
53.441255262
 21
63.7243385984
  0
LINE
  5
232
100
AcDbEntity
  8
0
100
AcDbLine
 62
7
  6
BYLAYER
 10
38.2705876769
 20
53.9347576479
 11
39.5080193921
 21
54.6491849172
  0
LINE
  5
233
100
AcDbEntity
  8
0
100
AcDbLine
 62
7
  6
BYLAYER
 10
40.3565439967
 20
55.1390779018
 11
41.5939757118
 21
55.8535051711
  0
LINE
  5
234
100
AcDbEntity
  8
0
100
AcDbLine
 62
7
  6
BYLAYER
 10
42.4425003165
 20
56.3433981557
 11
43.6799320316
 21
57.057825425
  0
LINE
  5
235
100
AcDbEntity
  8
0
100
AcDbLine
 62
7
  6
BYLAYER
 10
44.5284566363
 20
57.5477184096
 11
45.7658883514
 21
58.2621456789
  0
LINE
  5
236
100
AcDbEntity
  8
0
100
AcDbLine
 62
7
  6
BYLAYER
 10
46.614412956
 20
58.7520386636
 11
47.8518446712
 21
59.4664659328
  0
LINE
  5
237
100
AcDbEntity
  8
0
100
AcDbLine
 62
7
  6
BYLAYER
 10
48.7003692758
 20
59.9563589175
 11
49.937800991
 21
60.6707861868
  0
LINE
  5
238
100
AcDbEntity
  8
0
100
AcDbLine
 62
7
  6
BYLAYER
 10
49.937800991
 20
60.3288116979
 11
48.8566218271
 21
59.7045963427
  0
LINE
  5
239
100
AcDbEntity
  8
0
100
AcDbLine
 62
7
  6
BYLAYER
 10
47.8518446712
 20
59.124491444
 11
46.7706655073
 21
58.5002760887
  0
LINE
  5
23A
100
AcDbEntity
  8
0
100
AcDbLine
 62
7
  6
BYLAYER
 10
45.7658883514
 20
57.92017119
 11
44.6847091876
 21
57.2959558348
  0
LINE
  5
23B
100
AcDbEntity
  8
0
100
AcDbLine
 62
7
  6
BYLAYER
 10
43.6799320316
 20
56.7158509361
 11
42.5987528678
 21
56.0916355809
  0
LINE
  5
23C
100
AcDbEntity
  8
0
100
AcDbLine
 62
7
  6
BYLAYER
 10
41.5939757118
 20
55.5115306822
 11
40.512796548
 21
54.887315327
  0
LINE
  5
23D
100
AcDbEntity
  8
0
100
AcDbLine
 62
7
  6
BYLAYER
 10
39.5080193921
 20
54.3072104283
 11
38.4268402282
 21
53.682995073
  0
LINE
  5
23E
100
AcDbEntity
  8
0
100
AcDbLine
 62
7
  6
BYLAYER
 10
51.033818121
 20
60.1842145774
 11
54.569337307
 21
62.2254353468
  0
LINE
  5
23F
100
AcDbEntity
  8
0
100
AcDbLine
 62
7
  6
BYLAYER
 10
50.3078528964
 20
46.7797408071
 11
51.033818121
 21
46.8222329741
  0
LINE
  5
240
100
AcDbEntity
  8
0
100
AcDbLine
 62
7
  6
BYLAYER
 10
54.569337307
 20
61.8563831969
 11
51.033818121
 21
59.8151624275
  0
LWPOLYLINE
  5
241
100
AcDbEntity
  8
0
100
AcDbPolyline
 62
7
  6
BYLAYER
 90
8
 70
0
 10
26.7359420619
 20
53.2509701911
 10
27.6584049214
 20
52.6302352347
 10
30.0597764813
 20
50.2921457469
 10
32.0642245749
 20
47.3324970014
 10
33.455694409
 20
44.0632267973
 10
34.0737426696
 20
40.8632800748
 10
34.0711881099
 20
39.3978331465
 10
33.8181542344
 20
38.3963470182
  0
LWPOLYLINE
  5
242
100
AcDbEntity
  8
0
100
AcDbPolyline
 62
7
  6
BYLAYER
 90
8
 70
0
 10
26.8508286167
 20
53.4217009978
 10
28.0728861894
 20
52.5992333889
 10
30.3845724346
 20
50.3482344865
 10
32.3133227054
 20
47.5012459548
 10
33.6501269824
 20
44.3667831769
 10
34.2501217795
 20
41.284513831
 10
34.2501217795
 20
39.8685628921
 10
33.8305781716
 20
38.1977364701
  0
LWPOLYLINE
  5
243
100
AcDbEntity
  8
0
100
AcDbPolyline
 62
7
  6
BYLAYER
 90
3
 70
0
 10
33.8512360922
 20
37.8674964779
 10
33.426381556
 20
34.8609456817
 10
33.0967772623
 20
34.261324326
  0
LINE
  5
244
100
AcDbEntity
  8
0
100
AcDbLine
 62
7
  6
BYLAYER
 10
41.3481840182
 20
47.0599562239
 11
42.4019842714
 21
47.668364452
  0
LINE
  5
245
100
AcDbEntity
  8
0
100
AcDbLine
 62
7
  6
BYLAYER
 10
43.434140338
 20
48.2642764778
 11
44.4879405911
 21
48.8726847059
  0
LINE
  5
246
100
AcDbEntity
  8
0
100
AcDbLine
 62
7
  6
BYLAYER
 10
45.5200966578
 20
49.4685967318
 11
46.5738969109
 21
50.0770049599
  0
LINE
  5
247
100
AcDbEntity
  8
0
100
AcDbLine
 62
7
  6
BYLAYER
 10
47.6060529776
 20
50.6729169857
 11
48.6598532307
 21
51.2813252138
  0
LINE
  5
248
100
AcDbEntity
  8
0
100
AcDbLine
 62
7
  6
BYLAYER
 10
49.6920092974
 20
51.8772372396
 11
50.7458095505
 21
52.4856454677
  0
LINE
  5
249
100
AcDbEntity
  8
0
100
AcDbLine
 62
7
  6
BYLAYER
 10
51.7779656171
 20
53.0815574935
 11
52.8317658703
 21
53.6899657216
  0
LINE
  5
24A
100
AcDbEntity
  8
0
100
AcDbLine
 62
7
  6
BYLAYER
 10
53.0844392679
 20
53.5440879677
 11
51.8470075527
 21
52.8296606984
  0
LINE
  5
24B
100
AcDbEntity
  8
0
100
AcDbLine
 62
7
  6
BYLAYER
 10
50.9984829481
 20
52.3397677138
 11
49.761051233
 21
51.6253404445
  0
LINE
  5
24C
100
AcDbEntity
  8
0
100
AcDbLine
 62
7
  6
BYLAYER
 10
48.9125266283
 20
51.1354474599
 11
47.6750949132
 21
50.4210201906
  0
LINE
  5
24D
100
AcDbEntity
  8
0
100
AcDbLine
 62
7
  6
BYLAYER
 10
46.8265703085
 20
49.9311272059
 11
45.5891385934
 21
49.2166999367
  0
LINE
  5
24E
100
AcDbEntity
  8
0
100
AcDbLine
 62
7
  6
BYLAYER
 10
44.7406139887
 20
48.726806952
 11
43.5031822736
 21
48.0123796827
  0
LINE
  5
24F
100
AcDbEntity
  8
0
100
AcDbLine
 62
7
  6
BYLAYER
 10
42.654657669
 20
47.5224866981
 11
41.4172259538
 21
46.8080594288
  0
LWPOLYLINE
  5
250
100
AcDbEntity
  8
0
100
AcDbPolyline
 62
7
  6
BYLAYER
 90
3
 70
0
 10
24.4444016283
 20
54.2170671424
 10
25.1161689641
 20
54.0964471314
 10
26.3912111225
 20
53.4829432646
  0
LWPOLYLINE
  5
251
100
AcDbEntity
  8
0
100
AcDbPolyline
 62
7
  6
BYLAYER
 90
3
 70
0
 10
24.428811589
 20
54.2274168628
 10
25.628771044
 20
54.0103120031
 10
26.453817034
 20
53.6129238927
  0
LWPOLYLINE
  5
252
100
AcDbEntity
  8
0
100
AcDbPolyline
 62
7
  6
BYLAYER
 90
3
 70
0
 10
26.964509358
 20
53.9772356628
 10
24.4415573692
 20
54.9528480994
 10
23.2053200548
 20
54.9035655849
  0
LINE
  5
253
100
AcDbEntity
  8
0
100
AcDbLine
 62
7
  6
BYLAYER
 10
42.4019842714
 20
47.668364452
 11
42.654657669
 21
47.5224866981
  0
LINE
  5
254
100
AcDbEntity
  8
0
100
AcDbLine
 62
7
  6
BYLAYER
 10
39.508019392
 20
54.6491849172
 11
39.508019392
 21
54.3072104283
  0
LINE
  5
255
100
AcDbEntity
  8
0
100
AcDbLine
 62
7
  6
BYLAYER
 10
44.4879405911
 20
48.8726847059
 11
44.7406139887
 21
48.726806952
  0
LINE
  5
256
100
AcDbEntity
  8
0
100
AcDbLine
 62
7
  6
BYLAYER
 10
41.5939757118
 20
55.8535051711
 11
41.5939757118
 21
55.5115306822
  0
LINE
  5
257
100
AcDbEntity
  8
0
100
AcDbLine
 62
7
  6
BYLAYER
 10
41.8413916941
 20
65.4913443862
 11
41.8413916941
 21
65.1222922363
  0
LINE
  5
258
100
AcDbEntity
  8
0
100
AcDbLine
 62
7
  6
BYLAYER
 10
42.1596737958
 20
42.6043587743
 11
42.1596737958
 21
42.1211111211
  0
LINE
  5
259
100
AcDbEntity
  8
0
100
AcDbLine
 62
7
  6
BYLAYER
 10
43.6799320316
 20
57.057825425
 11
43.6799320316
 21
56.7158509361
  0
LINE
  5
25A
100
AcDbEntity
  8
0
100
AcDbLine
 62
7
  6
BYLAYER
 10
25.0309331782
 20
27.3432566514
 11
26.6323086156
 21
28.8285145335
  0
LINE
  5
25B
100
AcDbEntity
  8
0
100
AcDbLine
 62
7
  6
BYLAYER
 10
41.0581174063
 20
43.3347195813
 11
43.5031822736
 21
44.7463700142
  0
LINE
  5
25C
100
AcDbEntity
  8
0
100
AcDbLine
 62
7
  6
BYLAYER
 10
47.6750949132
 20
47.1550105221
 11
48.9125266283
 21
47.8694377913
  0
LINE
  5
25D
100
AcDbEntity
  8
0
100
AcDbLine
 62
7
  6
BYLAYER
 10
49.761051233
 20
48.359330776
 11
50.9984829481
 21
49.0737580453
  0
LINE
  5
25E
100
AcDbEntity
  8
0
100
AcDbLine
 62
7
  6
BYLAYER
 10
51.8470075527
 20
49.5636510299
 11
53.0844392679
 21
50.2780782992
  0
LINE
  5
25F
100
AcDbEntity
  8
0
100
AcDbLine
 62
7
  6
BYLAYER
 10
40.7749483081
 20
41.8048919134
 11
42.1596737958
 21
42.6043587743
  0
LINE
  5
260
100
AcDbEntity
  8
0
100
AcDbLine
 62
7
  6
BYLAYER
 10
42.1596737958
 20
42.1211111211
 11
40.5697386575
 21
41.2031671204
  0
LINE
  5
261
100
AcDbEntity
  8
0
100
AcDbLine
 62
7
  6
BYLAYER
 10
57.9929376016
 20
51.1657652647
 11
51.1340303807
 21
47.2057969721
  0
LINE
  5
262
100
AcDbEntity
  8
0
100
AcDbLine
 62
7
  6
BYLAYER
 10
49.8965986655
 20
46.4913697029
 11
49.0480740609
 21
46.0014767182
  0
LINE
  5
263
100
AcDbEntity
  8
0
100
AcDbLine
 62
7
  6
BYLAYER
 10
47.8106423458
 20
45.2870494489
 11
46.9621177411
 21
44.7971564643
  0
LINE
  5
264
100
AcDbEntity
  8
0
100
AcDbLine
 62
7
  6
BYLAYER
 10
45.724686026
 20
44.082729195
 11
40.5287048466
 21
41.0828459693
  0
LINE
  5
265
100
AcDbEntity
  8
0
100
AcDbLine
 62
7
  6
BYLAYER
 10
54.569337307
 20
48.8634537435
 11
51.033818121
 21
46.8222329741
  0
LINE
  5
266
100
AcDbEntity
  8
0
100
AcDbLine
 62
7
  6
BYLAYER
 10
30.9463198393
 20
58.650455657
 11
31.2573991284
 21
58.4708580087
  0
LINE
  5
267
100
AcDbEntity
  8
0
100
AcDbLine
 62
7
  6
BYLAYER
 10
46.5738969109
 20
50.0770049599
 11
46.8265703085
 21
49.9311272059
  0
LINE
  5
268
100
AcDbEntity
  8
0
100
AcDbLine
 62
7
  6
BYLAYER
 10
45.7658883514
 20
58.2621456789
 11
45.7658883514
 21
57.92017119
  0
LINE
  5
269
100
AcDbEntity
  8
0
100
AcDbLine
 62
7
  6
BYLAYER
 10
32.1477185459
 20
32.0128189337
 11
30.5462847896
 21
30.5276620276
  0
LINE
  5
26A
100
AcDbEntity
  8
0
100
AcDbLine
 62
7
  6
BYLAYER
 10
38.1974455036
 20
38.583207994
 11
38.1282930103
 21
38.5423967992
  0
LINE
  5
26B
100
AcDbEntity
  8
0
100
AcDbLine
 62
7
  6
BYLAYER
 10
38.1974455036
 20
38.583207994
 11
38.9271822074
 21
39.0045191614
  0
LINE
  5
26C
100
AcDbEntity
  8
0
100
AcDbLine
 62
7
  6
BYLAYER
 10
38.1283448514
 20
38.5423069371
 11
33.5751200097
 21
35.9135170408
  0
LINE
  5
26D
100
AcDbEntity
  8
0
100
AcDbLine
 62
7
  6
BYLAYER
 10
28.1786465464
 20
58.3874818123
 11
28.1957980962
 21
58.3897746101
  0
LINE
  5
26E
100
AcDbEntity
  8
0
100
AcDbLine
 62
7
  6
BYLAYER
 10
48.6598532307
 20
51.2813252138
 11
48.9125266283
 21
51.1354474599
  0
LINE
  5
26F
100
AcDbEntity
  8
0
100
AcDbLine
 62
7
  6
BYLAYER
 10
46.1547427649
 20
66.5001427733
 11
46.1547427649
 21
66.0260385282
  0
LINE
  5
270
100
AcDbEntity
  8
0
100
AcDbLine
 62
7
  6
BYLAYER
 10
46.6850638716
 20
67.7375004224
 11
46.6850638716
 21
67.4170142265
  0
LINE
  5
271
100
AcDbEntity
  8
0
100
AcDbLine
 62
7
  6
BYLAYER
 10
47.5689563272
 20
66.3630138349
 11
47.5689563272
 21
66.7130987617
  0
LINE
  5
272
100
AcDbEntity
  8
0
100
AcDbLine
 62
7
  6
BYLAYER
 10
47.8307312487
 20
66.6343043946
 11
47.8307312487
 21
66.2118814326
  0
LINE
  5
273
100
AcDbEntity
  8
0
100
AcDbLine
 62
7
  6
BYLAYER
 10
47.8518446712
 20
59.4664659328
 11
47.8518446712
 21
59.124491444
  0
LINE
  5
274
100
AcDbEntity
  8
0
100
AcDbLine
 62
7
  6
BYLAYER
 10
47.9578713864
 20
65.4852934932
 11
47.9578713864
 21
66.0760585871
  0
LINE
  5
275
100
AcDbEntity
  8
0
100
AcDbLine
 62
7
  6
BYLAYER
 10
48.0639225365
 20
65.4240662183
 11
48.0639225365
 21
65.2138982196
  0
LINE
  5
276
100
AcDbEntity
  8
0
100
AcDbLine
 62
7
  6
BYLAYER
 10
48.1346335091
 20
65.3832421428
 11
48.1346335091
 21
65.2460085411
  0
LINE
  5
277
100
AcDbEntity
  8
0
100
AcDbLine
 62
7
  6
BYLAYER
 10
30.5463431084
 20
30.5275610516
 11
25.0309331782
 21
27.3432566514
  0
LINE
  5
278
100
AcDbEntity
  8
0
100
AcDbLine
 62
7
  6
BYLAYER
 10
50.7458095505
 20
52.4856454677
 11
50.9984829481
 21
52.3397677138
  0
LINE
  5
279
100
AcDbEntity
  8
0
100
AcDbLine
 62
7
  6
BYLAYER
 10
49.5842237542
 20
65.1371048517
 11
49.5842237542
 21
64.5463397578
  0
LINE
  5
27A
100
AcDbEntity
  8
0
100
AcDbLine
 62
7
  6
BYLAYER
 10
49.6548999879
 20
69.1316396728
 11
49.6548999879
 21
68.7437371227
  0
LINE
  5
27B
100
AcDbEntity
  8
0
100
AcDbLine
 62
7
  6
BYLAYER
 10
49.937800991
 20
60.6707861868
 11
49.937800991
 21
60.3288116979
  0
LINE
  5
27C
100
AcDbEntity
  8
0
100
AcDbLine
 62
7
  6
BYLAYER
 10
50.4680761719
 20
64.5943092284
 11
50.4680761719
 21
64.383883381
  0
LINE
  5
27D
100
AcDbEntity
  8
0
100
AcDbLine
 62
7
  6
BYLAYER
 10
52.8317658703
 20
53.6899657216
 11
53.0844392679
 21
53.5440879677
  0
LINE
  5
27E
100
AcDbEntity
  8
0
100
AcDbLine
 62
7
  6
BYLAYER
 10
50.8427300315
 20
64.4729424646
 11
50.8427300315
 21
64.8953654266
  0
LINE
  5
27F
100
AcDbEntity
  8
0
100
AcDbLine
 62
7
  6
BYLAYER
 10
51.033818121
 20
46.8222329741
 11
51.033818121
 21
47.1712189875
  0
LINE
  5
280
100
AcDbEntity
  8
0
100
AcDbLine
 62
7
  6
BYLAYER
 10
51.033818121
 20
59.8151624275
 11
51.033818121
 21
60.1842145774
  0
LINE
  5
281
100
AcDbEntity
  8
0
100
AcDbLine
 62
7
  6
BYLAYER
 10
51.104504953
 20
64.6718949891
 11
51.104504953
 21
64.3218100623
  0
LINE
  5
282
100
AcDbEntity
  8
0
100
AcDbLine
 62
7
  6
BYLAYER
 10
49.6548999879
 20
69.0391588597
 11
49.6706281202
 21
69.041915924
  0
LINE
  5
283
100
AcDbEntity
  8
0
100
AcDbLine
 62
7
  6
BYLAYER
 10
54.569337307
 20
62.2254353468
 11
54.569337307
 21
61.8563831969
  0
LINE
  5
284
100
AcDbEntity
  8
0
100
AcDbLine
 62
7
  6
BYLAYER
 10
54.569337307
 20
49.1891605117
 11
54.569337307
 21
48.8634537435
  0
LWPOLYLINE
  5
285
100
AcDbEntity
  8
0
100
AcDbPolyline
 62
7
  6
BYLAYER
 90
4
 70
0
 10
43.9980692902
 20
66.1861726377
 10
46.1547136433
 20
65.731724254
 10
48.4175453811
 20
64.4253072962
 10
49.8626487502
 20
63.0611957805
  0
LINE
  5
286
100
AcDbEntity
  8
0
100
AcDbLine
 62
7
  6
BYLAYER
 10
44.3996982745
 20
65.1484275176
 11
44.9858305474
 21
64.9760252263
  0
LINE
  5
287
100
AcDbEntity
  8
0
100
AcDbLine
 62
7
  6
BYLAYER
 10
49.5842237542
 20
64.5463397578
 11
47.9578713864
 21
65.4852934932
  0
LINE
  5
288
100
AcDbEntity
  8
0
100
AcDbLine
 62
7
  6
BYLAYER
 10
51.104504953
 20
64.3218100623
 11
50.8427300315
 21
64.4729424646
  0
LINE
  5
289
100
AcDbEntity
  8
0
100
AcDbLine
 62
7
  6
BYLAYER
 10
47.5689563272
 20
66.3630138349
 11
47.8307312487
 21
66.2118814326
  0
ARC
  5
28A
100
AcDbEntity
  8
0
100
AcDbCircle
 62
7
  6
BYLAYER
 10
40.3606638517
 20
52.7466570583
 40
17.0802119191
100
AcDbArc
 50
33.707733431
 51
40.9492473465
  0
ARC
  5
28B
100
AcDbEntity
  8
0
100
AcDbCircle
 62
7
  6
BYLAYER
 10
36.8654260989
 20
50.6787352434
 40
16.8587554162
100
AcDbArc
 50
32.8157737525
 51
38.7760488478
  0
ARC
  5
28C
100
AcDbEntity
  8
0
100
AcDbCircle
 62
7
  6
BYLAYER
 10
33.282429658
 20
48.632442412
 40
16.7376225
100
AcDbArc
 50
36.2262632528
 51
37.2001912572
  0
ARC
  5
28D
100
AcDbEntity
  8
0
100
AcDbCircle
 62
7
  6
BYLAYER
 10
35.3683859777
 20
49.8367626659
 40
16.7376225001
100
AcDbArc
 50
36.2262632528
 51
37.2001912572
  0
ARC
  5
28E
100
AcDbEntity
  8
0
100
AcDbCircle
 62
7
  6
BYLAYER
 10
27.0245606989
 20
45.0194816505
 40
16.7376224997
100
AcDbArc
 50
36.2262632528
 51
37.2001912572
  0
ARC
  5
28F
100
AcDbEntity
  8
0
100
AcDbCircle
 62
7
  6
BYLAYER
 10
24.9386043791
 20
43.8151613965
 40
16.7376224998
100
AcDbArc
 50
36.2262632528
 51
37.2001912572
  0
ARC
  5
290
100
AcDbEntity
  8
0
100
AcDbCircle
 62
7
  6
BYLAYER
 10
29.1105170188
 20
46.2238019044
 40
16.7376224996
100
AcDbArc
 50
36.2262632528
 51
37.2001912572
  0
ARC
  5
291
100
AcDbEntity
  8
0
100
AcDbCircle
 62
7
  6
BYLAYER
 10
31.1964733385
 20
47.4281221583
 40
16.7376224997
100
AcDbArc
 50
36.2262632528
 51
37.2001912572
  0
ARC
  5
292
100
AcDbEntity
  8
0
100
AcDbCircle
 62
7
  6
BYLAYER
 10
43.9657705857
 20
54.9078075202
 40
16.0985313142
100
AcDbArc
 50
38.7892233161
 51
40.3692300557
  0
ARC
  5
293
100
AcDbEntity
  8
0
100
AcDbCircle
 62
7
  6
BYLAYER
 10
38.7625661128
 20
52.1394236289
 40
15.6390283399
100
AcDbArc
 50
40.9513977175
 51
44.6427140319
  0
ARC
  5
294
100
AcDbEntity
  8
0
100
AcDbCircle
 62
7
  6
BYLAYER
 10
42.6762627266
 20
55.0640475368
 40
12.7806885454
100
AcDbArc
 50
48.7419574909
 51
50.2849961333
  0
ARC
  5
295
100
AcDbEntity
  8
0
100
AcDbCircle
 62
7
  6
BYLAYER
 10
21.1181114125
 20
44.3519009076
 40
10.5442645583
100
AcDbArc
 50
57.8001561903
 51
59.9939297175
  0
ARC
  5
296
100
AcDbEntity
  8
0
100
AcDbCircle
 62
7
  6
BYLAYER
 10
22.1320556651
 20
45.2569421113
 40
9.4302760215
100
AcDbArc
 50
59.9744952682
 51
62.7316091383
  0
ARC
  5
297
100
AcDbEntity
  8
0
100
AcDbCircle
 62
7
  6
BYLAYER
 10
29.4112873946
 20
51.6290527948
 40
7.1047403656
100
AcDbArc
 50
72.9910025527
 51
73.562775167
  0
ARC
  5
298
100
AcDbEntity
  8
0
100
AcDbCircle
 62
7
  6
BYLAYER
 10
29.545544089
 20
52.1094647722
 40
6.6059766555
100
AcDbArc
 50
73.5005879093
 51
78.0275876527
  0
ARC
  5
299
100
AcDbEntity
  8
0
100
AcDbCircle
 62
7
  6
BYLAYER
 10
45.8505841579
 20
60.5299908994
 40
6.4174469806
100
AcDbArc
 50
72.0277201841
 51
74.4686439887
  0
ARC
  5
29A
100
AcDbEntity
  8
0
100
AcDbCircle
 62
7
  6
BYLAYER
 10
49.7452552661
 20
64.9044196742
 40
4.2281855438
100
AcDbArc
 50
91.2244898302
 51
93.3806039926
  0
ARC
  5
29B
100
AcDbEntity
  8
0
100
AcDbCircle
 62
7
  6
BYLAYER
 10
43.5624934973
 20
47.4532764108
 40
4.0303681704
100
AcDbArc
 50
323.7992306709
 51
325.0104795471
  0
ARC
  5
29C
100
AcDbEntity
  8
0
100
AcDbCircle
 62
7
  6
BYLAYER
 10
45.6484498172
 20
48.6575966646
 40
4.0303681703
100
AcDbArc
 50
323.7992306709
 51
325.0104795472
  0
ARC
  5
29D
100
AcDbEntity
  8
0
100
AcDbCircle
 62
7
  6
BYLAYER
 10
47.7344061369
 20
49.8619169186
 40
4.0303681704
100
AcDbArc
 50
323.7992306709
 51
325.0104795471
  0
ARC
  5
29E
100
AcDbEntity
  8
0
100
AcDbCircle
 62
7
  6
BYLAYER
 10
29.6058265584
 20
54.9300303281
 40
3.7466901908
100
AcDbArc
 50
112.4384799053
 51
112.7877739748
  0
ARC
  5
29F
100
AcDbEntity
  8
0
100
AcDbCircle
 62
7
  6
BYLAYER
 10
38.6595145039
 20
59.0140446817
 40
3.7464648392
100
AcDbArc
 50
99.2330458089
 51
104.0025610626
  0
ARC
  5
2A0
100
AcDbEntity
  8
0
100
AcDbCircle
 62
7
  6
BYLAYER
 10
40.7454708236
 20
60.2183649356
 40
3.7464648392
100
AcDbArc
 50
99.2330458089
 51
104.0025610625
  0
ARC
  5
2A1
100
AcDbEntity
  8
0
100
AcDbCircle
 62
7
  6
BYLAYER
 10
29.6260722715
 20
54.9488728215
 40
3.7404453261
100
AcDbArc
 50
112.7877942107
 51
113.1891135712
  0
ARC
  5
2A2
100
AcDbEntity
  8
0
100
AcDbCircle
 62
7
  6
BYLAYER
 10
29.6148300676
 20
54.9737923824
 40
3.7131122369
100
AcDbArc
 50
113.1810673929
 51
120.0016041689
  0
ARC
  5
2A3
100
AcDbEntity
  8
0
100
AcDbCircle
 62
7
  6
BYLAYER
 10
43.1199192836
 20
61.8718600949
 40
3.4928415227
100
AcDbArc
 50
105.4093374965
 51
111.4717389756
  0
ARC
  5
2A4
100
AcDbEntity
  8
0
100
AcDbCircle
 62
7
  6
BYLAYER
 10
49.4284960114
 20
50.1669305256
 40
3.4172677777
100
AcDbArc
 50
289.3503091635
 51
298.3009126485
  0
ARC
  5
2A5
100
AcDbEntity
  8
0
100
AcDbCircle
 62
7
  6
BYLAYER
 10
38.5735501845
 20
59.3332066976
 40
3.4172305591
100
AcDbArc
 50
123.2906012254
 51
131.7704759204
  0
ARC
  5
2A6
100
AcDbEntity
  8
0
100
AcDbCircle
 62
7
  6
BYLAYER
 10
40.6595065043
 20
60.5375269515
 40
3.4172305591
100
AcDbArc
 50
123.2906012254
 51
131.7704759204
  0
ARC
  5
2A7
100
AcDbEntity
  8
0
100
AcDbCircle
 62
7
  6
BYLAYER
 10
42.7454628241
 20
61.7418472054
 40
3.4172305591
100
AcDbArc
 50
123.2906012254
 51
131.7704759204
  0
ARC
  5
2A8
100
AcDbEntity
  8
0
100
AcDbCircle
 62
7
  6
BYLAYER
 10
45.2596262337
 20
47.7505956578
 40
3.4089998535
100
AcDbArc
 50
289.3449056524
 51
299.9610288364
  0
ARC
  5
2A9
100
AcDbEntity
  8
0
100
AcDbCircle
 62
7
  6
BYLAYER
 10
47.3455825535
 20
48.9549159117
 40
3.4089998535
100
AcDbArc
 50
289.3449056524
 51
299.9610288364
  0
ARC
  5
2AA
100
AcDbEntity
  8
0
100
AcDbCircle
 62
7
  6
BYLAYER
 10
39.3993840008
 20
59.8553907833
 40
3.3778103164
100
AcDbArc
 50
114.8804766646
 51
119.9958451436
  0
ARC
  5
2AB
100
AcDbEntity
  8
0
100
AcDbCircle
 62
7
  6
BYLAYER
 10
41.4853403205
 20
61.0597110373
 40
3.3778103163
100
AcDbArc
 50
114.8804766646
 51
119.9958451436
  0
ARC
  5
2AC
100
AcDbEntity
  8
0
100
AcDbCircle
 62
7
  6
BYLAYER
 10
38.5482701547
 20
59.370574996
 40
3.3721187053
100
AcDbArc
 50
120.0008717214
 51
123.2800568173
  0
ARC
  5
2AD
100
AcDbEntity
  8
0
100
AcDbCircle
 62
7
  6
BYLAYER
 10
40.6342264745
 20
60.5748952499
 40
3.3721187053
100
AcDbArc
 50
120.0008717213
 51
123.2800568173
  0
ARC
  5
2AE
100
AcDbEntity
  8
0
100
AcDbCircle
 62
7
  6
BYLAYER
 10
42.7201827943
 20
61.7792155039
 40
3.3721187053
100
AcDbArc
 50
120.0008717214
 51
123.2800568173
  0
ARC
  5
2AF
100
AcDbEntity
  8
0
100
AcDbCircle
 62
7
  6
BYLAYER
 10
49.4502261798
 20
50.1221246446
 40
3.3675158921
100
AcDbArc
 50
298.3368095199
 51
300.000907908
  0
ARC
  5
2B0
100
AcDbEntity
  8
0
100
AcDbCircle
 62
7
  6
BYLAYER
 10
48.623213147
 20
64.3735177349
 40
1.0074138319
100
AcDbArc
 50
109.8404046384
 51
119.9945005986
  0
SPLINE
  5
2B1
100
AcDbEntity
  8
0
100
AcDbSpline
 62
7
  6
BYLAYER
 70
0
 71
3
 72
15
 73
11
 74
0
 42
0.0000001
 43
0.0000001
 44
0.0000000001
 40
0.0
 40
0.0
 40
0.0
 40
0.0
 40
0.1298422529
 40
0.2611899478
 40
0.3925250553
 40
0.5223738671
 40
0.6492911214
 40
0.7719393531
 40
0.8891632669
 40
1.0
 40
1.0
 40
1.0
 40
1.0
 10
29.0782454475
 20
50.16913135
 30
0.0
 10
29.4423117368
 20
49.716230751
 30
0.0
 10
30.1386502327
 20
48.7756372131
 30
0.0
 10
31.0744290838
 20
47.2870824159
 30
0.0
 10
31.895726881
 20
45.7322670869
 30
0.0
 10
32.588643291
 20
44.1377077561
 30
0.0
 10
33.1414069767
 20
42.5302533179
 30
0.0
 10
33.5447873417
 20
40.9369254297
 30
0.0
 10
33.7918031209
 20
39.3847544051
 30
0.0
 10
33.8512360922
 20
38.3635283131
 30
0.0
 10
33.8512360922
 20
37.8674964779
 30
0.0
  0
SPLINE
  5
2B2
100
AcDbEntity
  8
0
100
AcDbSpline
 62
7
  6
BYLAYER
 70
0
 71
3
 72
36
 73
32
 74
0
 42
0.0000001
 43
0.0000001
 44
0.0000000001
 40
0.0
 40
0.0
 40
0.0
 40
0.0
 40
0.0238572387
 40
0.0488709122
 40
0.0751817474
 40
0.1028927548
 40
0.132046126
 40
0.1626327584
 40
0.1946017248
 40
0.2278678348
 40
0.262314892
 40
0.2978018825
 40
0.371208208
 40
0.4466592987
 40
0.5225560162
 40
0.5972700505
 40
0.6337074697
 40
0.6692814695
 40
0.7038288848
 40
0.7372073605
 40
0.769298412
 40
0.8000127473
 40
0.829297267
 40
0.8571389174
 40
0.8835744477
 40
0.8962963205
 40
0.9087061477
 40
0.9326636657
 40
0.9556742484
 40
0.9780125871
 40
1.0
 40
1.0
 40
1.0
 40
1.0
 10
9.1796215363
 20
50.5397596094
 30
0.0
 10
9.0253760919
 20
50.3203194343
 30
0.0
 10
8.7407861863
 20
49.8480859499
 30
0.0
 10
8.3980659327
 20
49.0733440413
 30
0.0
 10
8.1329094304
 20
48.2233749898
 30
0.0
 10
7.9471401831
 20
47.3053794691
 30
0.0
 10
7.8418210168
 20
46.3265470645
 30
0.0
 10
7.8177980782
 20
45.2946458715
 30
0.0
 10
7.8750312647
 20
44.2178811818
 30
0.0
 10
8.0130596884
 20
43.1048330844
 30
0.0
 10
8.2307439691
 20
41.9643509682
 30
0.0
 10
8.6292686191
 20
40.401974591
 30
0.0
 10
9.3166719295
 20
38.4417185191
 30
0.0
 10
10.403636635
 20
36.1556012182
 30
0.0
 10
11.7278315415
 20
33.9810366053
 30
0.0
 10
13.0050369294
 20
32.3047584593
 30
0.0
 10
14.1110200557
 20
31.0797814665
 30
0.0
 10
14.9642992444
 20
30.2377907729
 30
0.0
 10
15.8413284204
 20
29.4718536641
 30
0.0
 10
16.7350705728
 20
28.7880377582
 30
0.0
 10
17.6384262388
 20
28.1918637801
 30
0.0
 10
18.5442409838
 20
27.6881604819
 30
0.0
 10
19.4453523785
 20
27.2809291281
 30
0.0
 10
20.3346539717
 20
26.9736700547
 30
0.0
 10
21.0694777622
 20
26.8008495765
 30
0.0
 10
21.6434604185
 20
26.7169693182
 30
0.0
 10
22.1936053542
 20
26.6696663266
 30
0.0
 10
22.8632005453
 20
26.6742932308
 30
0.0
 10
23.6369900428
 20
26.786194885
 30
0.0
 10
24.3648985503
 20
27.00406579
 30
0.0
 10
24.8168493905
 20
27.2196518223
 30
0.0
 10
25.0309337334
 20
27.3432556896
 30
0.0
  0
SPLINE
  5
2B3
100
AcDbEntity
  8
0
100
AcDbSpline
 62
7
  6
BYLAYER
 70
0
 71
3
 72
9
 73
5
 74
0
 42
0.0000001
 43
0.0000001
 44
0.0000000001
 40
0.0
 40
0.0
 40
0.0
 40
0.0
 40
0.2366756224
 40
1.0
 40
1.0
 40
1.0
 40
1.0
 10
47.9927875869
 20
66.0891459301
 30
0.0
 10
47.9815071271
 20
66.1005852217
 30
0.0
 10
47.9319130179
 20
66.1470066799
 30
0.0
 10
47.8756045355
 20
66.1859744145
 30
0.0
 10
47.8307312487
 20
66.2118814326
 30
0.0
  0
SPLINE
  5
2B4
100
AcDbEntity
  8
0
100
AcDbSpline
 62
7
  6
BYLAYER
 70
0
 71
3
 72
11
 73
7
 74
0
 42
0.0000001
 43
0.0000001
 44
0.0000000001
 40
0.0
 40
0.0
 40
0.0
 40
0.0
 40
0.2578601862
 40
0.5110725091
 40
0.7582703922
 40
1.0
 40
1.0
 40
1.0
 40
1.0
 10
46.6036952577
 20
66.3212270743
 30
0.0
 10
46.6598494357
 20
66.3536494775
 30
0.0
 10
46.774453283
 20
66.4125515429
 30
0.0
 10
46.9555998146
 20
66.4748746054
 30
0.0
 10
47.1419767639
 20
66.5003454368
 30
0.0
 10
47.2660487141
 20
66.4842066616
 30
0.0
 10
47.3242536423
 20
66.4666820095
 30
0.0
  0
SPLINE
  5
2B5
100
AcDbEntity
  8
0
100
AcDbSpline
 62
7
  6
BYLAYER
 70
0
 71
3
 72
24
 73
20
 74
0
 42
0.0000001
 43
0.0000001
 44
0.0000000001
 40
0.0
 40
0.0
 40
0.0
 40
0.0
 40
0.0213237187
 40
0.0430397559
 40
0.0883086869
 40
0.1370581025
 40
0.189980144
 40
0.247315529
 40
0.3089320018
 40
0.3744063762
 40
0.4430957022
 40
0.5141966904
 40
0.5867964248
 40
0.6599180305
 40
0.7325610917
 40
0.8037495258
 40
0.87256296
 40
0.9382026374
 40
1.0
 40
1.0
 40
1.0
 40
1.0
 10
49.6561970678
 20
69.069122893
 30
0.0
 10
49.7783610072
 20
69.1231267023
 30
0.0
 10
50.0319926808
 20
69.2168787273
 30
0.0
 10
50.5711274574
 20
69.3454056475
 30
0.0
 10
51.3011656437
 20
69.3883425175
 30
0.0
 10
52.2171526522
 20
69.2562292973
 30
0.0
 10
53.1684245377
 20
68.947497115
 30
0.0
 10
54.1367171519
 20
68.4697035717
 30
0.0
 10
55.103728278
 20
67.8330313011
 30
0.0
 10
56.0506102753
 20
67.050366675
 30
0.0
 10
56.9586256089
 20
66.1374437807
 30
0.0
 10
57.8095851392
 20
65.1126330017
 30
0.0
 10
58.5863411962
 20
63.9966205097
 30
0.0
 10
59.273175233
 20
62.8119861024
 30
0.0
 10
59.8562159104
 20
61.5827068529
 30
0.0
 10
60.3236111732
 20
60.3336614488
 30
0.0
 10
60.6660258943
 20
59.0899370316
 30
0.0
 10
60.8763654986
 20
57.876793726
 30
0.0
 10
60.9273818682
 20
57.078037808
 30
0.0
 10
60.9273818682
 20
56.6909497528
 30
0.0
  0
SPLINE
  5
2B6
100
AcDbEntity
  8
0
100
AcDbSpline
 62
7
  6
BYLAYER
 70
0
 71
3
 72
19
 73
15
 74
0
 42
0.0000001
 43
0.0000001
 44
0.0000000001
 40
0.0
 40
0.0
 40
0.0
 40
0.0
 40
0.1417381687
 40
0.2847140401
 40
0.4253847547
 40
0.5603571539
 40
0.6248074143
 40
0.6867986062
 40
0.746093192
 40
0.8025319115
 40
0.8560416009
 40
0.9066594704
 40
0.9545457377
 40
1.0
 40
1.0
 40
1.0
 40
1.0
 10
56.5138643219
 20
64.9928486238
 30
0.0
 10
56.9186903244
 20
64.4892427027
 30
0.0
 10
57.6728103541
 20
63.4287959175
 30
0.0
 10
58.6161484531
 20
61.7301349309
 30
0.0
 10
59.3520788531
 20
59.9649885847
 30
0.0
 10
59.7766102969
 20
58.4691543671
 30
0.0
 10
59.9851298239
 20
57.2949767674
 30
0.0
 10
60.0733305423
 20
56.4520583
 30
0.0
 10
60.0948439724
 20
55.6412622637
 30
0.0
 10
60.0494986042
 20
54.8700247563
 30
0.0
 10
59.9374632578
 20
54.1454520655
 30
0.0
 10
59.7596155351
 20
53.4741542141
 30
0.0
 10
59.5173475273
 20
52.86252735
 30
0.0
 10
59.3090788215
 20
52.4895873278
 30
0.0
 10
59.1948587671
 20
52.3166968234
 30
0.0
  0
SPLINE
  5
2B7
100
AcDbEntity
  8
0
100
AcDbSpline
 62
7
  6
BYLAYER
 70
0
 71
3
 72
11
 73
7
 74
0
 42
0.0000001
 43
0.0000001
 44
0.0000000001
 40
0.0
 40
0.0
 40
0.0
 40
0.0
 40
0.257951224
 40
0.5091983388
 40
0.7557980344
 40
1.0
 40
1.0
 40
1.0
 40
1.0
 10
59.1948587671
 20
52.3166968234
 30
0.0
 10
59.1153127752
 20
52.1962911141
 30
0.0
 10
58.9458016449
 20
51.9665294909
 30
0.0
 10
58.6576126338
 20
51.6558879565
 30
0.0
 10
58.3408728347
 20
51.3860776086
 30
0.0
 10
58.1112517063
 20
51.23407347
 30
0.0
 10
57.9929375743
 20
51.1657653302
 30
0.0
  0
SPLINE
  5
2B8
100
AcDbEntity
  8
0
100
AcDbSpline
 62
7
  6
BYLAYER
 70
0
 71
3
 72
9
 73
5
 74
0
 42
0.0000001
 43
0.0000001
 44
0.0000000001
 40
0.0
 40
0.0
 40
0.0
 40
0.0
 40
0.4949029281
 40
1.0
 40
1.0
 40
1.0
 40
1.0
 10
37.9782489561
 20
62.9196978368
 30
0.0
 10
38.1238416708
 20
62.9872257467
 30
0.0
 10
38.4281213236
 20
63.1027989784
 30
0.0
 10
38.7452472426
 20
63.1755531825
 30
0.0
 10
38.9069169519
 20
63.2018628878
 30
0.0
  0
SPLINE
  5
2B9
100
AcDbEntity
  8
0
100
AcDbSpline
 62
7
  6
BYLAYER
 70
0
 71
3
 72
9
 73
5
 74
0
 42
0.0000001
 43
0.0000001
 44
0.0000000001
 40
0.0
 40
0.0
 40
0.0
 40
0.0
 40
0.4949029281
 40
1.0
 40
1.0
 40
1.0
 40
1.0
 10
40.0642052759
 20
64.1240180908
 30
0.0
 10
40.2097979905
 20
64.1915460006
 30
0.0
 10
40.5140776433
 20
64.3071192323
 30
0.0
 10
40.8312035624
 20
64.3798734364
 30
0.0
 10
40.9928732717
 20
64.4061831418
 30
0.0
  0
SPLINE
  5
2BA
100
AcDbEntity
  8
0
100
AcDbSpline
 62
7
  6
BYLAYER
 70
0
 71
3
 72
11
 73
7
 74
0
 42
0.0000001
 43
0.0000001
 44
0.0000000001
 40
0.0
 40
0.0
 40
0.0
 40
0.0
 40
0.2441407053
 40
0.4907228748
 40
0.7420509031
 40
1.0
 40
1.0
 40
1.0
 40
1.0
 10
47.8929828455
 20
68.6595044613
 30
0.0
 10
48.0116371571
 20
68.7280090022
 30
0.0
 10
48.2588299811
 20
68.8512117812
 30
0.0
 10
48.6521698123
 20
68.9908550442
 30
0.0
 10
49.0667238037
 20
69.0849430032
 30
0.0
 10
49.3514190089
 20
69.1167039206
 30
0.0
 10
49.4959257527
 20
69.1252475298
 30
0.0
  0
SPLINE
  5
2BB
100
AcDbEntity
  8
0
100
AcDbSpline
 62
7
  6
BYLAYER
 70
0
 71
3
 72
36
 73
32
 74
0
 42
0.0000001
 43
0.0000001
 44
0.0000000001
 40
0.0
 40
0.0
 40
0.0
 40
0.0
 40
0.02198746
 40
0.044325809
 40
0.06733628
 40
0.0912937043
 40
0.1037035289
 40
0.1164254177
 40
0.1428609965
 40
0.1707026751
 40
0.1999871789
 40
0.2307014528
 40
0.2627924071
 40
0.2961707916
 40
0.3307181331
 40
0.3662920886
 40
0.4027294809
 40
0.4774434641
 40
0.5533400883
 40
0.628791029
 40
0.7021972085
 40
0.7376841588
 40
0.7721312088
 40
0.8053973558
 40
0.8373662805
 40
0.8679529168
 40
0.8971064777
 40
0.9248177165
 40
0.9511288127
 40
0.9761426986
 40
1.0
 40
1.0
 40
1.0
 40
1.0
 10
16.2964068127
 20
55.2093220848
 30
0.0
 10
16.5104916573
 20
55.3329260108
 30
0.0
 10
16.9624433454
 20
55.5485115655
 30
0.0
 10
17.6903513317
 20
55.766381049
 30
0.0
 10
18.4641383281
 20
55.8782833021
 30
0.0
 10
19.1337310481
 20
55.8829087028
 30
0.0
 10
19.6838749099
 20
55.8356057799
 30
0.0
 10
20.2578581442
 20
55.7517256841
 30
0.0
 10
20.9926827412
 20
55.5789048724
 30
0.0
 10
21.8819846427
 20
55.2716453747
 30
0.0
 10
22.7830952466
 20
54.8644142471
 30
0.0
 10
23.6889079669
 20
54.3607119306
 30
0.0
 10
24.5922612951
 20
53.7645400381
 30
0.0
 10
25.4860009524
 20
53.0807262155
 30
0.0
 10
26.3630285998
 20
52.3147914228
 30
0.0
 10
27.2163069568
 20
51.4728026486
 30
0.0
 10
28.3222894019
 20
50.247827486
 30
0.0
 10
29.5994946342
 20
48.5715523696
 30
0.0
 10
30.9236893188
 20
46.396992324
 30
0.0
 10
32.0106547047
 20
44.1108809142
 30
0.0
 10
32.6980585596
 20
42.150629727
 30
0.0
 10
33.0965862874
 20
40.588256792
 30
0.0
 10
33.314271318
 20
39.4477752722
 30
0.0
 10
33.4523035938
 20
38.334728111
 30
0.0
 10
33.5095390352
 20
37.2579638084
 30
0.0
 10
33.4855187774
 20
36.2260611386
 30
0.0
 10
33.3802019737
 20
35.2472239288
 30
0.0
 10
33.1944341998
 20
34.3292205398
 30
0.0
 10
32.9292775781
 20
33.4792433649
 30
0.0
 10
32.5865549505
 20
32.7044961468
 30
0.0
 10
32.3019643547
 20
32.2322596274
 30
0.0
 10
32.1477185459
 20
32.0128189337
 30
0.0
  0
SPLINE
  5
2BC
100
AcDbEntity
  8
0
100
AcDbSpline
 62
7
  6
BYLAYER
 70
0
 71
3
 72
15
 73
11
 74
0
 42
0.0000001
 43
0.0000001
 44
0.0000000001
 40
0.0
 40
0.0
 40
0.0
 40
0.0
 40
0.1002463454
 40
0.2076085738
 40
0.3225981036
 40
0.4452325162
 40
0.5751270482
 40
0.7115552612
 40
0.8535850521
 40
1.0
 40
1.0
 40
1.0
 40
1.0
 10
20.2446166907
 20
55.698879822
 30
0.0
 10
20.6024363692
 20
55.6865031909
 30
0.0
 10
21.3421329281
 20
55.5958671296
 30
0.0
 10
22.4557752788
 20
55.2875166056
 30
0.0
 10
23.5940939757
 20
54.8080933938
 30
0.0
 10
24.7410959829
 20
54.1649328144
 30
0.0
 10
25.8810181333
 20
53.3673891021
 30
0.0
 10
26.9980219159
 20
52.4268726971
 30
0.0
 10
28.0760882131
 20
51.3568271258
 30
0.0
 10
28.7506187224
 20
50.5767009172
 30
0.0
 10
29.0782454475
 20
50.16913135
 30
0.0
  0
SPLINE
  5
2BD
100
AcDbEntity
  8
0
100
AcDbSpline
 62
7
  6
BYLAYER
 70
0
 71
3
 72
23
 73
19
 74
0
 42
0.0000001
 43
0.0000001
 44
0.0000000001
 40
0.0
 40
0.0
 40
0.0
 40
0.0
 40
0.0740887048
 40
0.1490335323
 40
0.2241567355
 40
0.2988347279
 40
0.3724257021
 40
0.4443243961
 40
0.5139730202
 40
0.5808786708
 40
0.6446363135
 40
0.7049541732
 40
0.7616813104
 40
0.8148399869
 40
0.8646601608
 40
0.9116072965
 40
0.9564132739
 40
1.0
 40
1.0
 40
1.0
 40
1.0
 10
37.2325957589
 20
54.1597371592
 30
0.0
 10
37.4924622925
 20
53.8364616675
 30
0.0
 10
37.9928354425
 20
53.1678764814
 30
0.0
 10
38.6769601779
 20
52.1148246931
 30
0.0
 10
39.2922851719
 20
51.0163002003
 30
0.0
 10
39.8309256914
 20
49.8866033006
 30
0.0
 10
40.2859616953
 20
48.7400670095
 30
0.0
 10
40.6515813601
 20
47.5914094302
 30
0.0
 10
40.923117783
 20
46.4552902484
 30
0.0
 10
41.0970697741
 20
45.3461638496
 30
0.0
 10
41.1711408887
 20
44.2780854813
 30
0.0
 10
41.1442701252
 20
43.2645161236
 30
0.0
 10
41.0165438169
 20
42.3181582334
 30
0.0
 10
40.7890633778
 20
41.4508593949
 30
0.0
 10
40.4638878402
 20
40.6737223115
 30
0.0
 10
40.044091589
 20
39.9969612952
 30
0.0
 10
39.5342873728
 20
39.4308471565
 30
0.0
 10
39.1358379503
 20
39.1310992938
 30
0.0
 10
38.9272125899
 20
39.0045367027
 30
0.0
  0
SPLINE
  5
2BE
100
AcDbEntity
  8
0
100
AcDbSpline
 62
7
  6
BYLAYER
 70
0
 71
3
 72
11
 73
7
 74
0
 42
0.0000001
 43
0.0000001
 44
0.0000000001
 40
0.0
 40
0.0
 40
0.0
 40
0.0
 40
0.2363700042
 40
0.4828786322
 40
0.738013688
 40
1.0
 40
1.0
 40
1.0
 40
1.0
 10
34.0152465095
 20
57.1946137286
 30
0.0
 10
34.3041382285
 20
56.9976504352
 30
0.0
 10
34.8768349162
 20
56.5691684606
 30
0.0
 10
35.6979309433
 20
55.8482505524
 30
0.0
 10
36.4910732793
 20
55.0426750757
 30
0.0
 10
36.9897924903
 20
54.4617858493
 30
0.0
 10
37.2325957589
 20
54.1597371592
 30
0.0
  0
SPLINE
  5
2BF
100
AcDbEntity
  8
0
100
AcDbSpline
 62
7
  6
BYLAYER
 70
0
 71
3
 72
11
 73
7
 74
0
 42
0.0000001
 43
0.0000001
 44
0.0000000001
 40
0.0
 40
0.0
 40
0.0
 40
0.0
 40
0.2349185274
 40
0.4777441278
 40
0.7318510838
 40
1.0
 40
1.0
 40
1.0
 40
1.0
 10
28.1908806008
 20
58.3992688423
 30
0.0
 10
28.3916603912
 20
58.4811599648
 30
0.0
 10
28.8152241873
 20
58.6124109533
 30
0.0
 10
29.487060862
 20
58.7049725728
 30
0.0
 10
30.1955697489
 20
58.6951864939
 30
0.0
 10
30.6737464183
 20
58.6229982858
 30
0.0
 10
30.9158924656
 20
58.5717455538
 30
0.0
  0
SPLINE
  5
2C0
100
AcDbEntity
  8
0
100
AcDbSpline
 62
7
  6
BYLAYER
 70
0
 71
3
 72
9
 73
5
 74
0
 42
0.0000001
 43
0.0000001
 44
0.0000000001
 40
0.0
 40
0.0
 40
0.0
 40
0.0
 40
0.4787079202
 40
1.0
 40
1.0
 40
1.0
 40
1.0
 10
31.4895793643
 20
58.4230235153
 30
0.0
 10
31.9171102979
 20
58.2922464622
 30
0.0
 10
32.7855738524
 20
57.9357046132
 30
0.0
 10
33.590323699
 20
57.4557854531
 30
0.0
 10
33.9925832605
 20
57.1815291738
 30
0.0
  0
SPLINE
  5
2C1
100
AcDbEntity
  8
0
100
AcDbSpline
 62
7
  6
BYLAYER
 70
0
 71
3
 72
9
 73
5
 74
0
 42
0.0000001
 43
0.0000001
 44
0.0000000001
 40
0.0
 40
0.0
 40
0.0
 40
0.0
 40
0.4898744513
 40
1.0
 40
1.0
 40
1.0
 40
1.0
 10
45.3769108801
 20
67.5325651555
 30
0.0
 10
45.5823295688
 20
67.602395193
 30
0.0
 10
46.0152680929
 20
67.7071630506
 30
0.0
 10
46.4591329067
 20
67.738311347
 30
0.0
 10
46.6850638716
 20
67.7375004224
 30
0.0
  0
SPLINE
  5
2C2
100
AcDbEntity
  8
0
100
AcDbSpline
 62
7
  6
BYLAYER
 70
0
 71
3
 72
11
 73
7
 74
0
 42
0.0000001
 43
0.0000001
 44
0.0000000001
 40
0.0
 40
0.0
 40
0.0
 40
0.0
 40
0.2943365768
 40
0.5556655664
 40
0.7877949591
 40
1.0
 40
1.0
 40
1.0
 40
1.0
 10
47.9578713864
 20
66.0760585871
 30
0.0
 10
47.9832371462
 20
66.0954033673
 30
0.0
 10
48.0287371729
 20
66.1352984657
 30
0.0
 10
48.0823380109
 20
66.2024889816
 30
0.0
 10
48.1156572065
 20
66.2721929612
 30
0.0
 10
48.1236330227
 20
66.3205685216
 30
0.0
 10
48.1236200278
 20
66.3435675222
 30
0.0
  0
SPLINE
  5
2C3
100
AcDbEntity
  8
0
100
AcDbSpline
 62
7
  6
BYLAYER
 70
0
 71
3
 72
9
 73
5
 74
0
 42
0.0000001
 43
0.0000001
 44
0.0000000001
 40
0.0
 40
0.0
 40
0.0
 40
0.0
 40
0.2380692805
 40
1.0
 40
1.0
 40
1.0
 40
1.0
 10
47.5689563272
 20
66.3630138349
 30
0.0
 10
47.5506688296
 20
66.3735718877
 30
0.0
 10
47.4723668578
 20
66.4153340707
 30
0.0
 10
47.3889664347
 20
66.4471979347
 30
0.0
 10
47.3242536423
 20
66.4666820095
 30
0.0
  0
SPLINE
  5
2C4
100
AcDbEntity
  8
0
100
AcDbSpline
 62
7
  6
BYLAYER
 70
0
 71
3
 72
9
 73
5
 74
0
 42
0.0000001
 43
0.0000001
 44
0.0000000001
 40
0.0
 40
0.0
 40
0.0
 40
0.0
 40
0.2344700123
 40
1.0
 40
1.0
 40
1.0
 40
1.0
 10
51.2840681031
 20
64.1805337842
 30
0.0
 10
51.2720698992
 20
64.1938164149
 30
0.0
 10
51.218221043
 20
64.2480448536
 30
0.0
 10
51.1551158686
 20
64.2925904976
 30
0.0
 10
51.104504953
 20
64.3218100623
 30
0.0
  0
SPLINE
  5
2C5
100
AcDbEntity
  8
0
100
AcDbSpline
 62
7
  6
BYLAYER
 70
0
 71
3
 72
12
 73
8
 74
0
 42
0.0000001
 43
0.0000001
 44
0.0000000001
 40
0.0
 40
0.0
 40
0.0
 40
0.0
 40
0.112176891
 40
0.232512997
 40
0.4890440265
 40
0.7515327575
 40
1.0
 40
1.0
 40
1.0
 40
1.0
 10
50.8427300315
 20
64.4729424646
 30
0.0
 10
50.8007737866
 20
64.4971653659
 30
0.0
 10
50.7098749145
 20
64.5407283079
 30
0.0
 10
50.5091378765
 20
64.6076635335
 30
0.0
 10
50.2340044996
 20
64.6500384201
 30
0.0
 10
49.9010652384
 20
64.6370741963
 30
0.0
 10
49.6844794119
 20
64.5845975628
 30
0.0
 10
49.5842237542
 20
64.5463397578
 30
0.0
  0
SPLINE
  5
2C6
100
AcDbEntity
  8
0
100
AcDbSpline
 62
7
  6
BYLAYER
 70
0
 71
3
 72
9
 73
5
 74
0
 42
0.0000001
 43
0.0000001
 44
0.0000000001
 40
0.0
 40
0.0
 40
0.0
 40
0.0
 40
0.48887781
 40
1.0
 40
1.0
 40
1.0
 40
1.0
 10
50.1797170546
 20
64.6871318784
 30
0.0
 10
50.3476582199
 20
64.5370800208
 30
0.0
 10
50.6656804828
 20
64.2009624604
 30
0.0
 10
50.9325262235
 20
63.8234838379
 30
0.0
 10
51.0551664261
 20
63.6224868851
 30
0.0
  0
SPLINE
  5
2C7
100
AcDbEntity
  8
0
100
AcDbSpline
 62
7
  6
BYLAYER
 70
0
 71
3
 72
11
 73
7
 74
0
 42
0.0000001
 43
0.0000001
 44
0.0000000001
 40
0.0
 40
0.0
 40
0.0
 40
0.0
 40
0.2565128192
 40
0.5127677249
 40
0.7625217528
 40
1.0
 40
1.0
 40
1.0
 40
1.0
 10
40.526625115
 20
54.9110064797
 30
0.0
 10
40.9095126423
 20
54.3883945373
 30
0.0
 10
41.6157967134
 20
53.2990675642
 30
0.0
 10
42.4805592186
 20
51.5739517134
 30
0.0
 10
43.1284456811
 20
49.8071941276
 30
0.0
 10
43.4090547493
 20
48.6047356702
 30
0.0
 10
43.5031822736
 20
48.0123796827
 30
0.0
  0
SPLINE
  5
2C8
100
AcDbEntity
  8
0
100
AcDbSpline
 62
7
  6
BYLAYER
 70
0
 71
3
 72
11
 73
7
 74
0
 42
0.0000001
 43
0.0000001
 44
0.0000000001
 40
0.0
 40
0.0
 40
0.0
 40
0.0
 40
0.2565128192
 40
0.5127677249
 40
0.7625217528
 40
1.0
 40
1.0
 40
1.0
 40
1.0
 10
42.6125814348
 20
56.1153267336
 30
0.0
 10
42.9954689621
 20
55.5927147913
 30
0.0
 10
43.7017530332
 20
54.5033878182
 30
0.0
 10
44.5665155384
 20
52.7782719674
 30
0.0
 10
45.2144020008
 20
51.0115143815
 30
0.0
 10
45.4950110691
 20
49.8090559241
 30
0.0
 10
45.5891385934
 20
49.2166999367
 30
0.0
  0
SPLINE
  5
2C9
100
AcDbEntity
  8
0
100
AcDbSpline
 62
7
  6
BYLAYER
 70
0
 71
3
 72
11
 73
7
 74
0
 42
0.0000001
 43
0.0000001
 44
0.0000000001
 40
0.0
 40
0.0
 40
0.0
 40
0.0
 40
0.2565128192
 40
0.5127677249
 40
0.7625217528
 40
1.0
 40
1.0
 40
1.0
 40
1.0
 10
44.6985377546
 20
57.3196469875
 30
0.0
 10
45.0814252818
 20
56.7970350452
 30
0.0
 10
45.787709353
 20
55.7077080721
 30
0.0
 10
46.6524718582
 20
53.9825922213
 30
0.0
 10
47.3003583206
 20
52.2158346355
 30
0.0
 10
47.5809673889
 20
51.013376178
 30
0.0
 10
47.6750949132
 20
50.4210201906
 30
0.0
  0
SPLINE
  5
2CA
100
AcDbEntity
  8
0
100
AcDbSpline
 62
7
  6
BYLAYER
 70
0
 71
3
 72
10
 73
6
 74
0
 42
0.0000001
 43
0.0000001
 44
0.0000000001
 40
0.0
 40
0.0
 40
0.0
 40
0.0
 40
0.2673341604
 40
0.5227111786
 40
1.0
 40
1.0
 40
1.0
 40
1.0
 10
47.6750949132
 20
47.1550105221
 30
0.0
 10
47.6379319543
 20
46.9640506083
 30
0.0
 10
47.549293876
 20
46.5933922115
 30
0.0
 10
47.3138824563
 20
45.9042977203
 30
0.0
 10
47.0635767212
 20
45.4267020594
 30
0.0
 10
46.8644005885
 20
45.1421560871
 30
0.0
  0
SPLINE
  5
2CB
100
AcDbEntity
  8
0
100
AcDbSpline
 62
7
  6
BYLAYER
 70
0
 71
3
 72
9
 73
5
 74
0
 42
0.0000001
 43
0.0000001
 44
0.0000000001
 40
0.0
 40
0.0
 40
0.0
 40
0.0
 40
0.5074087214
 40
1.0
 40
1.0
 40
1.0
 40
1.0
 10
46.814808692
 20
45.0728744566
 30
0.0
 10
46.6668840673
 20
44.8707794836
 30
0.0
 10
46.3367763744
 20
44.4987870367
 30
0.0
 10
45.9352441777
 20
44.2042999948
 30
0.0
 10
45.7246859834
 20
44.0827292385
 30
0.0
  0
SPLINE
  5
2CC
100
AcDbEntity
  8
0
100
AcDbSpline
 62
7
  6
BYLAYER
 70
0
 71
3
 72
11
 73
7
 74
0
 42
0.0000001
 43
0.0000001
 44
0.0000000001
 40
0.0
 40
0.0
 40
0.0
 40
0.0
 40
0.2565128192
 40
0.5127677249
 40
0.7625217528
 40
1.0
 40
1.0
 40
1.0
 40
1.0
 10
46.7844940743
 20
58.5239672414
 30
0.0
 10
47.1673816016
 20
58.0013552991
 30
0.0
 10
47.8736656727
 20
56.912028326
 30
0.0
 10
48.7384281779
 20
55.1869124752
 30
0.0
 10
49.3863146404
 20
53.4201548894
 30
0.0
 10
49.6669237087
 20
52.2176964319
 30
0.0
 10
49.761051233
 20
51.6253404445
 30
0.0
  0
SPLINE
  5
2CD
100
AcDbEntity
  8
0
100
AcDbSpline
 62
7
  6
BYLAYER
 70
0
 71
3
 72
10
 73
6
 74
0
 42
0.0000001
 43
0.0000001
 44
0.0000000001
 40
0.0
 40
0.0
 40
0.0
 40
0.0
 40
0.2673341604
 40
0.5227111786
 40
1.0
 40
1.0
 40
1.0
 40
1.0
 10
49.761051233
 20
48.359330776
 30
0.0
 10
49.7238882741
 20
48.1683708622
 30
0.0
 10
49.6352501958
 20
47.7977124654
 30
0.0
 10
49.399838776
 20
47.1086179743
 30
0.0
 10
49.149533041
 20
46.6310223133
 30
0.0
 10
48.9503569083
 20
46.3464763411
 30
0.0
  0
SPLINE
  5
2CE
100
AcDbEntity
  8
0
100
AcDbSpline
 62
7
  6
BYLAYER
 70
0
 71
3
 72
9
 73
5
 74
0
 42
0.0000001
 43
0.0000001
 44
0.0000000001
 40
0.0
 40
0.0
 40
0.0
 40
0.0
 40
0.5074087214
 40
1.0
 40
1.0
 40
1.0
 40
1.0
 10
48.9007650118
 20
46.2771947106
 30
0.0
 10
48.7528403871
 20
46.0750997375
 30
0.0
 10
48.4227326942
 20
45.7031072907
 30
0.0
 10
48.0212004975
 20
45.4086202487
 30
0.0
 10
47.8106423032
 20
45.2870494924
 30
0.0
  0
SPLINE
  5
2CF
100
AcDbEntity
  8
0
100
AcDbSpline
 62
7
  6
BYLAYER
 70
0
 71
3
 72
11
 73
7
 74
0
 42
0.0000001
 43
0.0000001
 44
0.0000000001
 40
0.0
 40
0.0
 40
0.0
 40
0.0
 40
0.2565128192
 40
0.5127677249
 40
0.7625217528
 40
1.0
 40
1.0
 40
1.0
 40
1.0
 10
48.8704503941
 20
59.7282874953
 30
0.0
 10
49.2533379214
 20
59.205675553
 30
0.0
 10
49.9596219925
 20
58.1163485799
 30
0.0
 10
50.8243844977
 20
56.3912327291
 30
0.0
 10
51.4722709602
 20
54.6244751433
 30
0.0
 10
51.7528800285
 20
53.4220166859
 30
0.0
 10
51.8470075527
 20
52.8296606984
 30
0.0
  0
SPLINE
  5
2D0
100
AcDbEntity
  8
0
100
AcDbSpline
 62
7
  6
BYLAYER
 70
0
 71
3
 72
9
 73
5
 74
0
 42
0.0000001
 43
0.0000001
 44
0.0000000001
 40
0.0
 40
0.0
 40
0.0
 40
0.0
 40
0.2434089592
 40
1.0
 40
1.0
 40
1.0
 40
1.0
 10
51.2840681031
 20
64.1805337842
 30
0.0
 10
51.2900919
 20
64.1738651302
 30
0.0
 10
51.3136998067
 20
64.1454438413
 30
0.0
 10
51.3327286728
 20
64.1133484213
 30
0.0
 10
51.344637665
 20
64.0880814697
 30
0.0
  0
SPLINE
  5
2D1
100
AcDbEntity
  8
0
100
AcDbSpline
 62
7
  6
BYLAYER
 70
0
 71
3
 72
9
 73
5
 74
0
 42
0.0000001
 43
0.0000001
 44
0.0000000001
 40
0.0
 40
0.0
 40
0.0
 40
0.0
 40
0.2441607908
 40
1.0
 40
1.0
 40
1.0
 40
1.0
 10
51.344637665
 20
64.0880814697
 30
0.0
 10
51.3483599814
 20
64.0801839425
 30
0.0
 10
51.3626506736
 20
64.0473907792
 30
0.0
 10
51.3732441583
 20
64.0130366834
 30
0.0
 10
51.3794453174
 20
63.9867301416
 30
0.0
  0
SPLINE
  5
2D2
100
AcDbEntity
  8
0
100
AcDbSpline
 62
7
  6
BYLAYER
 70
0
 71
3
 72
10
 73
6
 74
0
 42
0.0000001
 43
0.0000001
 44
0.0000000001
 40
0.0
 40
0.0
 40
0.0
 40
0.0
 40
0.2673341604
 40
0.5227111786
 40
1.0
 40
1.0
 40
1.0
 40
1.0
 10
51.8470075527
 20
49.5636510299
 30
0.0
 10
51.8098445938
 20
49.3726911161
 30
0.0
 10
51.7212065156
 20
49.0020327193
 30
0.0
 10
51.4857950958
 20
48.3129382282
 30
0.0
 10
51.2354893607
 20
47.8353425672
 30
0.0
 10
51.0363132281
 20
47.550796595
 30
0.0
  0
SPLINE
  5
2D3
100
AcDbEntity
  8
0
100
AcDbSpline
 62
7
  6
BYLAYER
 70
0
 71
3
 72
9
 73
5
 74
0
 42
0.0000001
 43
0.0000001
 44
0.0000000001
 40
0.0
 40
0.0
 40
0.0
 40
0.0
 40
0.5074087214
 40
1.0
 40
1.0
 40
1.0
 40
1.0
 10
50.9867213316
 20
47.4815149645
 30
0.0
 10
50.8387967069
 20
47.2794199914
 30
0.0
 10
50.508689014
 20
46.9074275446
 30
0.0
 10
50.1071568173
 20
46.6129405026
 30
0.0
 10
49.896598623
 20
46.4913697463
 30
0.0
  0
SPLINE
  5
2D4
100
AcDbEntity
  8
0
100
AcDbSpline
 62
7
  6
BYLAYER
 70
0
 71
3
 72
11
 73
7
 74
0
 42
0.0000001
 43
0.0000001
 44
0.0000000001
 40
0.0
 40
0.0
 40
0.0
 40
0.0
 40
0.2629316336
 40
0.5119570221
 40
0.7547058991
 40
1.0
 40
1.0
 40
1.0
 40
1.0
 10
51.1045108409
 20
63.6424574916
 30
0.0
 10
51.1493350871
 20
63.6654409056
 30
0.0
 10
51.2319603374
 20
63.7205772823
 30
0.0
 10
51.3273190914
 20
63.8318235515
 30
0.0
 10
51.3851990769
 20
63.9627766168
 30
0.0
 10
51.3974046451
 20
64.0568722424
 30
0.0
 10
51.3974007939
 20
64.1038663103
 30
0.0
  0
LINE
  5
2D5
100
AcDbEntity
  8
0
100
AcDbLine
 62
7
  6
BYLAYER
 10
51.1045108409
 20
63.6424574916
 11
49.9007804712
 21
63.025202675
  0
SPLINE
  5
2D6
100
AcDbEntity
  8
0
100
AcDbSpline
 62
7
  6
BYLAYER
 70
0
 71
3
 72
14
 73
10
 74
0
 42
0.0000001
 43
0.0000001
 44
0.0000000001
 40
0.0
 40
0.0
 40
0.0
 40
0.0
 40
0.1457162359
 40
0.2851417897
 40
0.5444987264
 40
0.6653282959
 40
0.7809156345
 40
0.8921060926
 40
1.0
 40
1.0
 40
1.0
 40
1.0
 10
60.9273818682
 20
56.6909497528
 30
0.0
 10
60.9273818682
 20
56.4775608987
 30
0.0
 10
60.9125609921
 20
56.0597141214
 30
0.0
 10
60.8218994206
 20
55.2671099545
 30
0.0
 10
60.6397246871
 20
54.5225514105
 30
0.0
 10
60.3563617671
 20
53.8527164976
 30
0.0
 10
60.1049843304
 20
53.4086074334
 30
0.0
 10
59.8113173576
 20
53.0146156109
 30
0.0
 10
59.5859885319
 20
52.7845301974
 30
0.0
 10
59.4676511606
 20
52.6798369174
 30
0.0
  0
SPLINE
  5
2D7
100
AcDbEntity
  8
0
100
AcDbSpline
 62
7
  6
BYLAYER
 70
0
 71
3
 72
11
 73
7
 74
0
 42
0.0000001
 43
0.0000001
 44
0.0000000001
 40
0.0
 40
0.0
 40
0.0
 40
0.0
 40
0.2565128192
 40
0.5127677249
 40
0.7625217528
 40
1.0
 40
1.0
 40
1.0
 40
1.0
 10
38.4406687952
 20
53.7066862257
 30
0.0
 10
38.8235563225
 20
53.1840742834
 30
0.0
 10
39.5298403936
 20
52.0947473103
 30
0.0
 10
40.3946028988
 20
50.3696314595
 30
0.0
 10
41.0424893613
 20
48.6028738737
 30
0.0
 10
41.3230984295
 20
47.4004154162
 30
0.0
 10
41.4172259538
 20
46.8080594288
 30
0.0
  0
SPLINE
  5
2D8
100
AcDbEntity
  8
0
100
AcDbSpline
 62
7
  6
BYLAYER
 70
0
 71
3
 72
36
 73
32
 74
0
 42
0.0000001
 43
0.0000001
 44
0.0000000001
 40
0.0
 40
0.0
 40
0.0
 40
0.0
 40
0.0238572387
 40
0.0488709122
 40
0.0751817474
 40
0.1028927548
 40
0.132046126
 40
0.1626327584
 40
0.1946017248
 40
0.2278678348
 40
0.262314892
 40
0.2978018825
 40
0.371208208
 40
0.4466592987
 40
0.5225560162
 40
0.5972700505
 40
0.6337074697
 40
0.6692814695
 40
0.7038288848
 40
0.7372073605
 40
0.769298412
 40
0.8000127473
 40
0.829297267
 40
0.8571389174
 40
0.8835744477
 40
0.8962963205
 40
0.9087061477
 40
0.9326636657
 40
0.9556742484
 40
0.9780125871
 40
1.0
 40
1.0
 40
1.0
 40
1.0
 10
26.6323086156
 20
28.8285145335
 30
0.0
 10
26.7865540599
 20
29.0479547086
 30
0.0
 10
27.0711439656
 20
29.520188193
 30
0.0
 10
27.4138642191
 20
30.2949301015
 30
0.0
 10
27.6790207215
 20
31.1448991531
 30
0.0
 10
27.8647899688
 20
32.0628946737
 30
0.0
 10
27.9701091351
 20
33.0417270784
 30
0.0
 10
27.9941320737
 20
34.0736282713
 30
0.0
 10
27.9368988872
 20
35.1503929611
 30
0.0
 10
27.7988704635
 20
36.2634410584
 30
0.0
 10
27.5811861828
 20
37.4039231746
 30
0.0
 10
27.1826615327
 20
38.9662995518
 30
0.0
 10
26.4952582224
 20
40.9265556237
 30
0.0
 10
25.4082935169
 20
43.2126729246
 30
0.0
 10
24.0840986103
 20
45.3872375376
 30
0.0
 10
22.8068932225
 20
47.0635156835
 30
0.0
 10
21.7009100961
 20
48.2884926763
 30
0.0
 10
20.8476309074
 20
49.1304833699
 30
0.0
 10
19.9706017314
 20
49.8964204788
 30
0.0
 10
19.076859579
 20
50.5802363847
 30
0.0
 10
18.173503913
 20
51.1764103627
 30
0.0
 10
17.2676891681
 20
51.680113661
 30
0.0
 10
16.3665777733
 20
52.0873450147
 30
0.0
 10
15.4772761801
 20
52.3946040881
 30
0.0
 10
14.7424523897
 20
52.5674245663
 30
0.0
 10
14.1684697334
 20
52.6513048246
 30
0.0
 10
13.6183247976
 20
52.6986078163
 30
0.0
 10
12.9487296065
 20
52.693980912
 30
0.0
 10
12.174940109
 20
52.5820792578
 30
0.0
 10
11.4470316016
 20
52.3642083529
 30
0.0
 10
10.9950807613
 20
52.1486223205
 30
0.0
 10
10.7809964184
 20
52.0250184532
 30
0.0
  0
SPLINE
  5
2D9
100
AcDbEntity
  8
0
100
AcDbSpline
 62
7
  6
BYLAYER
 70
0
 71
3
 72
9
 73
5
 74
0
 42
0.0000001
 43
0.0000001
 44
0.0000000001
 40
0.0
 40
0.0
 40
0.0
 40
0.0
 40
0.4968371578
 40
1.0
 40
1.0
 40
1.0
 40
1.0
 10
46.9621176986
 20
44.7971565077
 30
0.0
 10
47.0973370656
 20
44.8752286092
 30
0.0
 10
47.3588409418
 20
45.0515837062
 30
0.0
 10
47.5935084158
 20
45.2622280988
 30
0.0
 10
47.7040229352
 20
45.375324602
 30
0.0
  0
SPLINE
  5
2DA
100
AcDbEntity
  8
0
100
AcDbSpline
 62
7
  6
BYLAYER
 70
0
 71
3
 72
11
 73
7
 74
0
 42
0.0000001
 43
0.0000001
 44
0.0000000001
 40
0.0
 40
0.0
 40
0.0
 40
0.0
 40
0.2305435946
 40
0.4722305892
 40
0.7281434821
 40
1.0
 40
1.0
 40
1.0
 40
1.0
 10
47.7040229352
 20
45.375324602
 30
0.0
 10
47.8548600737
 20
45.5296857936
 30
0.0
 10
48.1359704081
 20
45.8741286574
 30
0.0
 10
48.4770305758
 20
46.4672669182
 30
0.0
 10
48.7425350242
 20
47.1392581611
 30
0.0
 10
48.863910693
 20
47.6196273595
 30
0.0
 10
48.9125266283
 20
47.8694377913
 30
0.0
  0
SPLINE
  5
2DB
100
AcDbEntity
  8
0
100
AcDbSpline
 62
7
  6
BYLAYER
 70
0
 71
3
 72
9
 73
5
 74
0
 42
0.0000001
 43
0.0000001
 44
0.0000000001
 40
0.0
 40
0.0
 40
0.0
 40
0.0
 40
0.2474254074
 40
1.0
 40
1.0
 40
1.0
 40
1.0
 10
51.3974007939
 20
64.1038663103
 30
0.0
 10
51.3974001671
 20
64.1115153906
 30
0.0
 10
51.3967507866
 20
64.1424277221
 30
0.0
 10
51.3935472469
 20
64.1732776899
 30
0.0
 10
51.3898248364
 20
64.1962435853
 30
0.0
  0
SPLINE
  5
2DC
100
AcDbEntity
  8
0
100
AcDbSpline
 62
7
  6
BYLAYER
 70
0
 71
3
 72
9
 73
5
 74
0
 42
0.0000001
 43
0.0000001
 44
0.0000000001
 40
0.0
 40
0.0
 40
0.0
 40
0.0
 40
0.246855691
 40
1.0
 40
1.0
 40
1.0
 40
1.0
 10
51.3898248364
 20
64.1962435853
 30
0.0
 10
51.3885390083
 20
64.2041766688
 30
0.0
 10
51.382695976
 20
64.2362081593
 30
0.0
 10
51.3743558229
 20
64.2677761815
 30
0.0
 10
51.3668194969
 20
64.2911085658
 30
0.0
  0
SPLINE
  5
2DD
100
AcDbEntity
  8
0
100
AcDbSpline
 62
7
  6
BYLAYER
 70
0
 71
3
 72
9
 73
5
 74
0
 42
0.0000001
 43
0.0000001
 44
0.0000000001
 40
0.0
 40
0.0
 40
0.0
 40
0.0
 40
0.2443704094
 40
1.0
 40
1.0
 40
1.0
 40
1.0
 10
51.3668194969
 20
64.2911085658
 30
0.0
 10
51.3626665415
 20
64.3039660714
 30
0.0
 10
51.3441057001
 20
64.3560685566
 30
0.0
 10
51.3194943608
 20
64.4059618764
 30
0.0
 10
51.2982199048
 20
64.4419194521
 30
0.0
  0
SPLINE
  5
2DE
100
AcDbEntity
  8
0
100
AcDbSpline
 62
7
  6
BYLAYER
 70
0
 71
3
 72
9
 73
5
 74
0
 42
0.0000001
 43
0.0000001
 44
0.0000000001
 40
0.0
 40
0.0
 40
0.0
 40
0.0
 40
0.2411166749
 40
1.0
 40
1.0
 40
1.0
 40
1.0
 10
51.2982199048
 20
64.4419194521
 30
0.0
 10
51.2858844957
 20
64.4627684651
 30
0.0
 10
51.2309052418
 20
64.5469570238
 30
0.0
 10
51.1618239261
 20
64.6216180444
 30
0.0
 10
51.104504953
 20
64.6718949891
 30
0.0
  0
SPLINE
  5
2DF
100
AcDbEntity
  8
0
100
AcDbSpline
 62
7
  6
BYLAYER
 70
0
 71
3
 72
9
 73
5
 74
0
 42
0.0000001
 43
0.0000001
 44
0.0000000001
 40
0.0
 40
0.0
 40
0.0
 40
0.0
 40
0.4968371578
 40
1.0
 40
1.0
 40
1.0
 40
1.0
 10
49.0480740183
 20
46.0014767617
 30
0.0
 10
49.1832933854
 20
46.0795488632
 30
0.0
 10
49.4447972615
 20
46.2559039601
 30
0.0
 10
49.6794647356
 20
46.4665483528
 30
0.0
 10
49.789979255
 20
46.5796448559
 30
0.0
  0
SPLINE
  5
2E0
100
AcDbEntity
  8
0
100
AcDbSpline
 62
7
  6
BYLAYER
 70
0
 71
3
 72
11
 73
7
 74
0
 42
0.0000001
 43
0.0000001
 44
0.0000000001
 40
0.0
 40
0.0
 40
0.0
 40
0.0
 40
0.2305435946
 40
0.4722305892
 40
0.7281434821
 40
1.0
 40
1.0
 40
1.0
 40
1.0
 10
49.789979255
 20
46.5796448559
 30
0.0
 10
49.9408163935
 20
46.7340060475
 30
0.0
 10
50.2219267278
 20
47.0784489114
 30
0.0
 10
50.5629868956
 20
47.6715871721
 30
0.0
 10
50.828491344
 20
48.3435784151
 30
0.0
 10
50.9498670128
 20
48.8239476134
 30
0.0
 10
50.9984829481
 20
49.0737580453
 30
0.0
  0
SPLINE
  5
2E1
100
AcDbEntity
  8
0
100
AcDbSpline
 62
7
  6
BYLAYER
 70
0
 71
3
 72
13
 73
9
 74
0
 42
0.0000001
 43
0.0000001
 44
0.0000000001
 40
0.0
 40
0.0
 40
0.0
 40
0.0
 40
0.1140242255
 40
0.2292608094
 40
0.346859142
 40
0.4678332032
 40
0.7229830207
 40
1.0
 40
1.0
 40
1.0
 40
1.0
 10
51.1340303381
 20
47.2057970156
 30
0.0
 10
51.2574799495
 20
47.2770735701
 30
0.0
 10
51.4968341809
 20
47.4363840907
 30
0.0
 10
51.8254877171
 20
47.7208879174
 30
0.0
 10
52.1229200356
 20
48.0497262916
 30
0.0
 10
52.4818912343
 20
48.5533223001
 30
0.0
 10
52.8419032939
 20
49.2929779117
 30
0.0
 10
53.0182833645
 20
49.9381396621
 30
0.0
 10
53.0844392679
 20
50.2780782992
 30
0.0
  0
SPLINE
  5
2E2
100
AcDbEntity
  8
0
100
AcDbSpline
 62
7
  6
BYLAYER
 70
0
 71
3
 72
11
 73
7
 74
0
 42
0.0000001
 43
0.0000001
 44
0.0000000001
 40
0.0
 40
0.0
 40
0.0
 40
0.0
 40
0.2213106226
 40
0.4606852524
 40
0.7201686693
 40
1.0
 40
1.0
 40
1.0
 40
1.0
 10
31.6109827044
 20
58.3972588633
 30
0.0
 10
31.9054231173
 20
58.4126496153
 30
0.0
 10
32.5229204837
 20
58.3776925744
 30
0.0
 10
33.4592401861
 20
58.1501217691
 30
0.0
 10
34.4212428236
 20
57.7527318232
 30
0.0
 10
35.045469623
 20
57.3928056113
 30
0.0
 10
35.3577466118
 20
57.1891684339
 30
0.0
  0
SPLINE
  5
2E3
100
AcDbEntity
  8
0
100
AcDbSpline
 62
7
  6
BYLAYER
 70
0
 71
3
 72
13
 73
9
 74
0
 42
0.0000001
 43
0.0000001
 44
0.0000000001
 40
0.0
 40
0.0
 40
0.0
 40
0.0
 40
0.285922429
 40
0.5468503901
 40
0.6681325625
 40
0.7836273605
 40
0.893980737
 40
1.0
 40
1.0
 40
1.0
 40
1.0
 10
35.6189220861
 20
57.3003221691
 30
0.0
 10
35.2281809486
 20
57.5708044618
 30
0.0
 10
34.4462289529
 20
58.0408929203
 30
0.0
 10
33.4100656597
 20
58.4576369495
 30
0.0
 10
32.6040866361
 20
58.6497881962
 30
0.0
 10
32.0304940847
 20
58.7227915144
 30
0.0
 10
31.477607586
 20
58.7273946371
 30
0.0
 10
31.1193208914
 20
58.6839433468
 30
0.0
 10
30.9463198393
 20
58.650455657
 30
0.0
  0
SPLINE
  5
2E4
100
AcDbEntity
  8
0
100
AcDbSpline
 62
7
  6
BYLAYER
 70
0
 71
3
 72
10
 73
6
 74
0
 42
0.0000001
 43
0.0000001
 44
0.0000000001
 40
0.0
 40
0.0
 40
0.0
 40
0.0
 40
0.2355353909
 40
0.4794159588
 40
1.0
 40
1.0
 40
1.0
 40
1.0
 10
42.1918250714
 20
65.2391413478
 30
0.0
 10
42.358765634
 20
65.2852691869
 30
0.0
 10
42.7058423354
 20
65.3546174112
 30
0.0
 10
43.4413386344
 20
65.4004456625
 30
0.0
 10
44.0053842694
 20
65.327719464
 30
0.0
 10
44.3784766217
 20
65.2420531917
 30
0.0
  0
SPLINE
  5
2E5
100
AcDbEntity
  8
0
100
AcDbSpline
 62
7
  6
BYLAYER
 70
0
 71
3
 72
12
 73
8
 74
0
 42
0.0000001
 43
0.0000001
 44
0.0000000001
 40
0.0
 40
0.0
 40
0.0
 40
0.0
 40
0.2207352674
 40
0.3393985546
 40
0.463205094
 40
0.7243630991
 40
1.0
 40
1.0
 40
1.0
 40
1.0
 10
44.9695552147
 20
65.074906824
 30
0.0
 10
45.4169222693
 20
64.925113697
 30
0.0
 10
46.0821244713
 20
64.6233540838
 30
0.0
 10
46.9298145331
 20
64.1111545015
 30
0.0
 10
47.8082316623
 20
63.487324159
 30
0.0
 10
48.8717715508
 20
62.5525527625
 30
0.0
 10
49.6394101885
 20
61.6961635185
 30
0.0
 10
50.0085090195
 20
61.2370024082
 30
0.0
  0
SPLINE
  5
2E6
100
AcDbEntity
  8
0
100
AcDbSpline
 62
7
  6
BYLAYER
 70
0
 71
3
 72
19
 73
15
 74
0
 42
0.0000001
 43
0.0000001
 44
0.0000000001
 40
0.0
 40
0.0
 40
0.0
 40
0.0
 40
0.1531279274
 40
0.3015046379
 40
0.4426316152
 40
0.5098550626
 40
0.5745618251
 40
0.6366102282
 40
0.6959247319
 40
0.8062654777
 40
0.8576544113
 40
0.9068152602
 40
0.9541210082
 40
1.0
 40
1.0
 40
1.0
 40
1.0
 10
51.033818121
 20
60.1842145774
 30
0.0
 10
50.71333175
 20
60.6632181407
 30
0.0
 10
50.036311271
 20
61.5766746592
 30
0.0
 10
48.9121743506
 20
62.8099446452
 30
0.0
 10
47.9019227763
 20
63.6994781851
 30
0.0
 10
47.0694449504
 20
64.3032040716
 30
0.0
 10
46.4506400422
 20
64.6917056619
 30
0.0
 10
45.8314083027
 20
65.0204525228
 30
0.0
 10
45.0308655656
 20
65.3675581772
 30
0.0
 10
44.2259768011
 20
65.6011741746
 30
0.0
 10
43.4366660725
 20
65.6974496257
 30
0.0
 10
42.8787734052
 20
65.7006089292
 30
0.0
 10
42.3454962624
 20
65.6359531657
 30
0.0
 10
42.0048790417
 20
65.5469202818
 30
0.0
 10
41.8413916941
 20
65.4913443862
 30
0.0
  0
SPLINE
  5
2E7
100
AcDbEntity
  8
0
100
AcDbSpline
 62
7
  6
BYLAYER
 70
0
 71
3
 72
12
 73
8
 74
0
 42
0.0000001
 43
0.0000001
 44
0.0000000001
 40
0.0
 40
0.0
 40
0.0
 40
0.0
 40
0.2438197772
 40
0.4367177316
 40
0.631738513
 40
0.8218807073
 40
1.0
 40
1.0
 40
1.0
 40
1.0
 10
50.8427300315
 20
64.8953654266
 30
0.0
 10
50.7596836059
 20
64.9643287373
 30
0.0
 10
50.5914963607
 20
65.0655365745
 30
0.0
 10
50.3254944887
 20
65.1555937701
 30
0.0
 10
50.0712893231
 20
65.1951390116
 30
0.0
 10
49.8208313282
 20
65.1915672566
 30
0.0
 10
49.6595826595
 20
65.1603398463
 30
0.0
 10
49.5842237542
 20
65.1371048517
 30
0.0
  0
SPLINE
  5
2E8
100
AcDbEntity
  8
0
100
AcDbSpline
 62
7
  6
BYLAYER
 70
0
 71
3
 72
9
 73
5
 74
0
 42
0.0000001
 43
0.0000001
 44
0.0000000001
 40
0.0
 40
0.0
 40
0.0
 40
0.0
 40
0.2500322707
 40
1.0
 40
1.0
 40
1.0
 40
1.0
 10
44.443336006
 20
66.0923922723
 30
0.0
 10
44.8776235314
 20
66.3134949728
 30
0.0
 10
46.6146117885
 20
67.1976691271
 30
0.0
 10
48.3518583915
 20
68.0813357794
 30
0.0
 10
49.6548999879
 20
68.7437371227
 30
0.0
  0
SPLINE
  5
2E9
100
AcDbEntity
  8
0
100
AcDbSpline
 62
7
  6
BYLAYER
 70
0
 71
3
 72
9
 73
5
 74
0
 42
0.0000001
 43
0.0000001
 44
0.0000000001
 40
0.0
 40
0.0
 40
0.0
 40
0.0
 40
0.5144014232
 40
1.0
 40
1.0
 40
1.0
 40
1.0
 10
49.5842237542
 20
65.1371048517
 30
0.0
 10
49.3214808821
 20
65.3239548198
 30
0.0
 10
48.7945853125
 20
65.6652212678
 30
0.0
 10
48.2360897005
 20
65.9526623684
 30
0.0
 10
47.9578713864
 20
66.0760585871
 30
0.0
  0
SPLINE
  5
2EA
100
AcDbEntity
  8
0
100
AcDbSpline
 62
7
  6
BYLAYER
 70
0
 71
3
 72
10
 73
6
 74
0
 42
0.0000001
 43
0.0000001
 44
0.0000000001
 40
0.0
 40
0.0
 40
0.0
 40
0.0
 40
0.2299950222
 40
0.4815560816
 40
1.0
 40
1.0
 40
1.0
 40
1.0
 10
46.1547427649
 20
66.0260385282
 30
0.0
 10
46.1904207121
 20
66.0466370777
 30
0.0
 10
46.2628326405
 20
66.093692313
 30
0.0
 10
46.4089445091
 20
66.1971847339
 30
0.0
 10
46.5232729337
 20
66.274792684
 30
0.0
 10
46.6036952577
 20
66.3212270743
 30
0.0
  0
SPLINE
  5
2EB
100
AcDbEntity
  8
0
100
AcDbSpline
 62
7
  6
BYLAYER
 70
0
 71
3
 72
15
 73
11
 74
0
 42
0.0000001
 43
0.0000001
 44
0.0000000001
 40
0.0
 40
0.0
 40
0.0
 40
0.0
 40
0.1043243247
 40
0.2213124498
 40
0.3483720296
 40
0.4824426833
 40
0.6195548565
 40
0.7549667645
 40
0.88354173
 40
1.0
 40
1.0
 40
1.0
 40
1.0
 10
47.5689563272
 20
66.7130987617
 30
0.0
 10
47.5201764822
 20
66.7266366938
 30
0.0
 10
47.4141604671
 20
66.746376223
 30
0.0
 10
47.2451406437
 20
66.7567804407
 30
0.0
 10
47.0615265639
 20
66.7497439214
 30
0.0
 10
46.8695223685
 20
66.726184969
 30
0.0
 10
46.6758803173
 20
66.6874809604
 30
0.0
 10
46.4880053596
 20
66.6360062324
 30
0.0
 10
46.3137730949
 20
66.5745075241
 30
0.0
 10
46.2050293328
 20
66.5259269661
 30
0.0
 10
46.1547427649
 20
66.5001427733
 30
0.0
  0
SPLINE
  5
2EC
100
AcDbEntity
  8
0
100
AcDbSpline
 62
7
  6
BYLAYER
 70
0
 71
3
 72
11
 73
7
 74
0
 42
0.0000001
 43
0.0000001
 44
0.0000000001
 40
0.0
 40
0.0
 40
0.0
 40
0.0
 40
0.2657243519
 40
0.5225187024
 40
0.7679338751
 40
1.0
 40
1.0
 40
1.0
 40
1.0
 10
30.8889683325
 20
50.497264019
 30
0.0
 10
30.5963708988
 20
50.8612569424
 30
0.0
 10
29.9928534703
 20
51.5549847974
 30
0.0
 10
29.0241647589
 20
52.497153476
 30
0.0
 10
28.0204717897
 20
53.3111800847
 30
0.0
 10
27.317729453
 20
53.7733085593
 30
0.0
 10
26.964509358
 20
53.9772356628
 30
0.0
  0
SPLINE
  5
2ED
100
AcDbEntity
  8
0
100
AcDbSpline
 62
7
  6
BYLAYER
 70
0
 71
3
 72
9
 73
5
 74
0
 42
0.0000001
 43
0.0000001
 44
0.0000000001
 40
0.0
 40
0.0
 40
0.0
 40
0.0
 40
0.5110632289
 40
1.0
 40
1.0
 40
1.0
 40
1.0
 10
43.7108838159
 20
51.6687529443
 30
0.0
 10
43.8899485487
 20
51.2072416769
 30
0.0
 10
44.1982132858
 20
50.2871756284
 30
0.0
 10
44.4111623739
 20
49.3400195263
 30
0.0
 10
44.4879405911
 20
48.8726847059
 30
0.0
  0
SPLINE
  5
2EE
100
AcDbEntity
  8
0
100
AcDbSpline
 62
7
  6
BYLAYER
 70
0
 71
3
 72
9
 73
5
 74
0
 42
0.0000001
 43
0.0000001
 44
0.0000000001
 40
0.0
 40
0.0
 40
0.0
 40
0.0
 40
0.5013154646
 40
1.0
 40
1.0
 40
1.0
 40
1.0
 10
41.5939757118
 20
55.5115306822
 30
0.0
 10
42.0301043291
 20
54.9202483863
 30
0.0
 10
42.8215643868
 20
53.6811534081
 30
0.0
 10
43.4465108062
 20
52.3501329171
 30
0.0
 10
43.7108838159
 20
51.6687529443
 30
0.0
  0
SPLINE
  5
2EF
100
AcDbEntity
  8
0
100
AcDbSpline
 62
7
  6
BYLAYER
 70
0
 71
3
 72
12
 73
8
 74
0
 42
0.0000001
 43
0.0000001
 44
0.0000000001
 40
0.0
 40
0.0
 40
0.0
 40
0.0
 40
0.1169104031
 40
0.2377111118
 40
0.4877968666
 40
0.7441474041
 40
1.0
 40
1.0
 40
1.0
 40
1.0
 10
44.7406139887
 20
48.726806952
 30
0.0
 10
44.6925315771
 20
49.0293954309
 30
0.0
 10
44.571986131
 20
49.6412235013
 30
0.0
 10
44.2408157154
 20
50.876702506
 30
0.0
 10
43.66302784
 20
52.420499751
 30
0.0
 10
42.7476213981
 20
54.2006235824
 30
0.0
 10
41.9993720331
 20
55.3194312743
 30
0.0
 10
41.5939757118
 20
55.8535051711
 30
0.0
  0
SPLINE
  5
2F0
100
AcDbEntity
  8
0
100
AcDbSpline
 62
7
  6
BYLAYER
 70
0
 71
3
 72
9
 73
5
 74
0
 42
0.0000001
 43
0.0000001
 44
0.0000000001
 40
0.0
 40
0.0
 40
0.0
 40
0.0
 40
0.5110632289
 40
1.0
 40
1.0
 40
1.0
 40
1.0
 10
45.7968401357
 20
52.8730731983
 30
0.0
 10
45.9759048685
 20
52.4115619308
 30
0.0
 10
46.2841696056
 20
51.4914958823
 30
0.0
 10
46.4971186937
 20
50.5443397802
 30
0.0
 10
46.5738969109
 20
50.0770049599
 30
0.0
  0
SPLINE
  5
2F1
100
AcDbEntity
  8
0
100
AcDbSpline
 62
7
  6
BYLAYER
 70
0
 71
3
 72
9
 73
5
 74
0
 42
0.0000001
 43
0.0000001
 44
0.0000000001
 40
0.0
 40
0.0
 40
0.0
 40
0.0
 40
0.5013154646
 40
1.0
 40
1.0
 40
1.0
 40
1.0
 10
43.6799320316
 20
56.7158509361
 30
0.0
 10
44.1160606489
 20
56.1245686403
 30
0.0
 10
44.9075207066
 20
54.885473662
 30
0.0
 10
45.5324671259
 20
53.5544531711
 30
0.0
 10
45.7968401357
 20
52.8730731983
 30
0.0
  0
SPLINE
  5
2F2
100
AcDbEntity
  8
0
100
AcDbSpline
 62
7
  6
BYLAYER
 70
0
 71
3
 72
12
 73
8
 74
0
 42
0.0000001
 43
0.0000001
 44
0.0000000001
 40
0.0
 40
0.0
 40
0.0
 40
0.0
 40
0.1169104031
 40
0.2377111118
 40
0.4877968666
 40
0.7441474041
 40
1.0
 40
1.0
 40
1.0
 40
1.0
 10
46.8265703085
 20
49.9311272059
 30
0.0
 10
46.7784878969
 20
50.2337156848
 30
0.0
 10
46.6579424508
 20
50.8455437552
 30
0.0
 10
46.3267720351
 20
52.0810227599
 30
0.0
 10
45.7489841597
 20
53.6248200049
 30
0.0
 10
44.8335777179
 20
55.4049438363
 30
0.0
 10
44.0853283529
 20
56.5237515283
 30
0.0
 10
43.6799320316
 20
57.057825425
 30
0.0
  0
SPLINE
  5
2F3
100
AcDbEntity
  8
0
100
AcDbSpline
 62
7
  6
BYLAYER
 70
0
 71
3
 72
9
 73
5
 74
0
 42
0.0000001
 43
0.0000001
 44
0.0000000001
 40
0.0
 40
0.0
 40
0.0
 40
0.0
 40
0.5110632289
 40
1.0
 40
1.0
 40
1.0
 40
1.0
 10
47.8827964554
 20
54.0773934522
 30
0.0
 10
48.0618611883
 20
53.6158821847
 30
0.0
 10
48.3701259254
 20
52.6958161362
 30
0.0
 10
48.5830750135
 20
51.7486600342
 30
0.0
 10
48.6598532307
 20
51.2813252138
 30
0.0
  0
SPLINE
  5
2F4
100
AcDbEntity
  8
0
100
AcDbSpline
 62
7
  6
BYLAYER
 70
0
 71
3
 72
9
 73
5
 74
0
 42
0.0000001
 43
0.0000001
 44
0.0000000001
 40
0.0
 40
0.0
 40
0.0
 40
0.0
 40
0.5013154646
 40
1.0
 40
1.0
 40
1.0
 40
1.0
 10
45.7658883514
 20
57.92017119
 30
0.0
 10
46.2020169687
 20
57.3288888942
 30
0.0
 10
46.9934770264
 20
56.089793916
 30
0.0
 10
47.6184234457
 20
54.758773425
 30
0.0
 10
47.8827964554
 20
54.0773934522
 30
0.0
  0
SPLINE
  5
2F5
100
AcDbEntity
  8
0
100
AcDbSpline
 62
7
  6
BYLAYER
 70
0
 71
3
 72
12
 73
8
 74
0
 42
0.0000001
 43
0.0000001
 44
0.0000000001
 40
0.0
 40
0.0
 40
0.0
 40
0.0
 40
0.1169104031
 40
0.2377111118
 40
0.4877968666
 40
0.7441474041
 40
1.0
 40
1.0
 40
1.0
 40
1.0
 10
48.9125266283
 20
51.1354474599
 30
0.0
 10
48.8644442167
 20
51.4380359387
 30
0.0
 10
48.7438987705
 20
52.0498640091
 30
0.0
 10
48.4127283549
 20
53.2853430138
 30
0.0
 10
47.8349404795
 20
54.8291402588
 30
0.0
 10
46.9195340377
 20
56.6092640902
 30
0.0
 10
46.1712846726
 20
57.7280717822
 30
0.0
 10
45.7658883514
 20
58.2621456789
 30
0.0
  0
SPLINE
  5
2F6
100
AcDbEntity
  8
0
100
AcDbSpline
 62
7
  6
BYLAYER
 70
0
 71
3
 72
12
 73
8
 74
0
 42
0.0000001
 43
0.0000001
 44
0.0000000001
 40
0.0
 40
0.0
 40
0.0
 40
0.0
 40
0.2721137157
 40
0.5263612646
 40
0.7669711888
 40
0.8840595916
 40
1.0
 40
1.0
 40
1.0
 40
1.0
 10
48.5576833108
 20
47.5881490506
 30
0.0
 10
48.4842878533
 20
47.3236851961
 30
0.0
 10
48.3063430271
 20
46.8208348124
 30
0.0
 10
47.9289576458
 20
46.1411642175
 30
0.0
 10
47.5297565685
 20
45.6644215643
 30
0.0
 10
47.1688676835
 20
45.350291982
 30
0.0
 10
46.9757196007
 20
45.2153993149
 30
0.0
 10
46.8763701413
 20
45.1537176913
 30
0.0
  0
SPLINE
  5
2F7
100
AcDbEntity
  8
0
100
AcDbSpline
 62
7
  6
BYLAYER
 70
0
 71
3
 72
12
 73
8
 74
0
 42
0.0000001
 43
0.0000001
 44
0.0000000001
 40
0.0
 40
0.0
 40
0.0
 40
0.0
 40
0.1034237509
 40
0.2080427626
 40
0.4325093907
 40
0.6939513795
 40
1.0
 40
1.0
 40
1.0
 40
1.0
 10
48.1236200278
 20
66.3435675222
 30
0.0
 10
48.1236114595
 20
66.3587320199
 30
0.0
 10
48.1203022438
 20
66.389339111
 30
0.0
 10
48.0999940014
 20
66.4498876332
 30
0.0
 10
48.0468931568
 20
66.5210438142
 30
0.0
 10
47.9508830075
 20
66.5885099676
 30
0.0
 10
47.8734176214
 20
66.6204630973
 30
0.0
 10
47.8307312487
 20
66.6343043946
 30
0.0
  0
SPLINE
  5
2F8
100
AcDbEntity
  8
0
100
AcDbSpline
 62
7
  6
BYLAYER
 70
0
 71
3
 72
9
 73
5
 74
0
 42
0.0000001
 43
0.0000001
 44
0.0000000001
 40
0.0
 40
0.0
 40
0.0
 40
0.0
 40
0.5110632289
 40
1.0
 40
1.0
 40
1.0
 40
1.0
 10
49.9687527752
 20
55.2817137061
 30
0.0
 10
50.1478175081
 20
54.8202024387
 30
0.0
 10
50.4560822452
 20
53.9001363901
 30
0.0
 10
50.6690313333
 20
52.9529802881
 30
0.0
 10
50.7458095505
 20
52.4856454677
 30
0.0
  0
SPLINE
  5
2F9
100
AcDbEntity
  8
0
100
AcDbSpline
 62
7
  6
BYLAYER
 70
0
 71
3
 72
9
 73
5
 74
0
 42
0.0000001
 43
0.0000001
 44
0.0000000001
 40
0.0
 40
0.0
 40
0.0
 40
0.0
 40
0.5013154646
 40
1.0
 40
1.0
 40
1.0
 40
1.0
 10
47.8518446712
 20
59.124491444
 30
0.0
 10
48.2879732884
 20
58.5332091481
 30
0.0
 10
49.0794333461
 20
57.2941141699
 30
0.0
 10
49.7043797655
 20
55.9630936789
 30
0.0
 10
49.9687527752
 20
55.2817137061
 30
0.0
  0
SPLINE
  5
2FA
100
AcDbEntity
  8
0
100
AcDbSpline
 62
7
  6
BYLAYER
 70
0
 71
3
 72
12
 73
8
 74
0
 42
0.0000001
 43
0.0000001
 44
0.0000000001
 40
0.0
 40
0.0
 40
0.0
 40
0.0
 40
0.1169104031
 40
0.2377111118
 40
0.4877968666
 40
0.7441474041
 40
1.0
 40
1.0
 40
1.0
 40
1.0
 10
50.9984829481
 20
52.3397677138
 30
0.0
 10
50.9504005365
 20
52.6423561927
 30
0.0
 10
50.8298550903
 20
53.254184263
 30
0.0
 10
50.4986846747
 20
54.4896632678
 30
0.0
 10
49.9208967993
 20
56.0334605127
 30
0.0
 10
49.0054903575
 20
57.8135843441
 30
0.0
 10
48.2572409924
 20
58.9323920361
 30
0.0
 10
47.8518446712
 20
59.4664659328
 30
0.0
  0
SPLINE
  5
2FB
100
AcDbEntity
  8
0
100
AcDbSpline
 62
7
  6
BYLAYER
 70
0
 71
3
 72
20
 73
16
 74
0
 42
0.0000001
 43
0.0000001
 44
0.0000000001
 40
0.0
 40
0.0
 40
0.0
 40
0.0
 40
0.0449726367
 40
0.0923044566
 40
0.1423646003
 40
0.1953698706
 40
0.2513938492
 40
0.3103905817
 40
0.3722130263
 40
0.4366269926
 40
0.5033321213
 40
0.5719693971
 40
0.7133448154
 40
0.8572667197
 40
1.0
 40
1.0
 40
1.0
 40
1.0
 10
33.6914843887
 20
36.3608136582
 30
0.0
 10
33.8282555813
 20
36.5445840452
 30
0.0
 10
34.0795616291
 20
36.9443735732
 30
0.0
 10
34.376485977
 20
37.6081576665
 30
0.0
 10
34.5999105778
 20
38.342853057
 30
0.0
 10
34.7478284797
 20
39.1411257005
 30
0.0
 10
34.8192412798
 20
39.9953052173
 30
0.0
 10
34.8136437014
 20
40.8971757947
 30
0.0
 10
34.7311239201
 20
41.8380485222
 30
0.0
 10
34.5726531838
 20
42.8088300821
 30
0.0
 10
34.339708592
 20
43.8001236643
 30
0.0
 10
33.9289256328
 20
45.1493109104
 30
0.0
 10
33.2444444122
 20
46.8222978889
 30
0.0
 10
32.1913298578
 20
48.7362464095
 30
0.0
 10
31.3444844736
 20
49.9305992683
 30
0.0
 10
30.8889683325
 20
50.497264019
 30
0.0
  0
SPLINE
  5
2FC
100
AcDbEntity
  8
0
100
AcDbSpline
 62
7
  6
BYLAYER
 70
0
 71
3
 72
12
 73
8
 74
0
 42
0.0000001
 43
0.0000001
 44
0.0000000001
 40
0.0
 40
0.0
 40
0.0
 40
0.0
 40
0.2721137157
 40
0.5263612646
 40
0.7669711888
 40
0.8840595916
 40
1.0
 40
1.0
 40
1.0
 40
1.0
 10
50.6436396306
 20
48.7924693046
 30
0.0
 10
50.5702441731
 20
48.52800545
 30
0.0
 10
50.3922993469
 20
48.0251550663
 30
0.0
 10
50.0149139656
 20
47.3454844714
 30
0.0
 10
49.6157128883
 20
46.8687418182
 30
0.0
 10
49.2548240033
 20
46.554612236
 30
0.0
 10
49.0616759205
 20
46.4197195688
 30
0.0
 10
48.962326461
 20
46.3580379453
 30
0.0
  0
SPLINE
  5
2FD
100
AcDbEntity
  8
0
100
AcDbSpline
 62
7
  6
BYLAYER
 70
0
 71
3
 72
9
 73
5
 74
0
 42
0.0000001
 43
0.0000001
 44
0.0000000001
 40
0.0
 40
0.0
 40
0.0
 40
0.0
 40
0.5110632289
 40
1.0
 40
1.0
 40
1.0
 40
1.0
 10
52.054709095
 20
56.48603396
 30
0.0
 10
52.2337738278
 20
56.0245226926
 30
0.0
 10
52.542038565
 20
55.1044566441
 30
0.0
 10
52.754987653
 20
54.157300542
 30
0.0
 10
52.8317658703
 20
53.6899657216
 30
0.0
  0
SPLINE
  5
2FE
100
AcDbEntity
  8
0
100
AcDbSpline
 62
7
  6
BYLAYER
 70
0
 71
3
 72
9
 73
5
 74
0
 42
0.0000001
 43
0.0000001
 44
0.0000000001
 40
0.0
 40
0.0
 40
0.0
 40
0.0
 40
0.5013154646
 40
1.0
 40
1.0
 40
1.0
 40
1.0
 10
49.937800991
 20
60.3288116979
 30
0.0
 10
50.3739296082
 20
59.737529402
 30
0.0
 10
51.1653896659
 20
58.4984344238
 30
0.0
 10
51.7903360853
 20
57.1674139328
 30
0.0
 10
52.054709095
 20
56.48603396
 30
0.0
  0
SPLINE
  5
2FF
100
AcDbEntity
  8
0
100
AcDbSpline
 62
7
  6
BYLAYER
 70
0
 71
3
 72
12
 73
8
 74
0
 42
0.0000001
 43
0.0000001
 44
0.0000000001
 40
0.0
 40
0.0
 40
0.0
 40
0.0
 40
0.1169104031
 40
0.2377111118
 40
0.4877968666
 40
0.7441474041
 40
1.0
 40
1.0
 40
1.0
 40
1.0
 10
53.0844392679
 20
53.5440879677
 30
0.0
 10
53.0363568563
 20
53.8466764466
 30
0.0
 10
52.9158114101
 20
54.458504517
 30
0.0
 10
52.5846409945
 20
55.6939835217
 30
0.0
 10
52.0068531191
 20
57.2377807667
 30
0.0
 10
51.0914466772
 20
59.017904598
 30
0.0
 10
50.3431973122
 20
60.13671229
 30
0.0
 10
49.937800991
 20
60.6707861868
 30
0.0
  0
SPLINE
  5
300
100
AcDbEntity
  8
0
100
AcDbSpline
 62
7
  6
BYLAYER
 70
0
 71
3
 72
12
 73
8
 74
0
 42
0.0000001
 43
0.0000001
 44
0.0000000001
 40
0.0
 40
0.0
 40
0.0
 40
0.0
 40
0.2721137157
 40
0.5263612646
 40
0.7669711888
 40
0.8840595916
 40
1.0
 40
1.0
 40
1.0
 40
1.0
 10
52.7295959504
 20
49.9967895585
 30
0.0
 10
52.6562004929
 20
49.7323257039
 30
0.0
 10
52.4782556667
 20
49.2294753202
 30
0.0
 10
52.1008702854
 20
48.5498047253
 30
0.0
 10
51.7016692081
 20
48.0730620722
 30
0.0
 10
51.3407803231
 20
47.7589324899
 30
0.0
 10
51.1476322403
 20
47.6240398227
 30
0.0
 10
51.0482827808
 20
47.5623581992
 30
0.0
  0
LINE
  5
301
100
AcDbEntity
  8
0
100
AcDbLine
 62
7
  6
BYLAYER
 10
45.092652073
 20
65.9555235838
 11
46.1547427649
 21
66.5001427733
  0
SPLINE
  5
302
100
AcDbEntity
  8
0
100
AcDbSpline
 62
7
  6
BYLAYER
 70
0
 71
3
 72
11
 73
7
 74
0
 42
0.0000001
 43
0.0000001
 44
0.0000000001
 40
0.0
 40
0.0
 40
0.0
 40
0.0
 40
0.2676367491
 40
0.522367231
 40
0.7658158628
 40
1.0
 40
1.0
 40
1.0
 40
1.0
 10
43.1662235489
 20
44.5309700502
 30
0.0
 10
43.1160522486
 20
44.3417728364
 30
0.0
 10
43.0000052123
 20
43.9769292267
 30
0.0
 10
42.7716398889
 20
43.4641541134
 30
0.0
 10
42.4949816912
 20
43.0039105119
 30
0.0
 10
42.2760295745
 20
42.7300370328
 30
0.0
 10
42.1596737958
 20
42.6043587743
 30
0.0
  0
SPLINE
  5
303
100
AcDbEntity
  8
0
100
AcDbSpline
 62
7
  6
BYLAYER
 70
0
 71
3
 72
11
 73
7
 74
0
 42
0.0000001
 43
0.0000001
 44
0.0000000001
 40
0.0
 40
0.0
 40
0.0
 40
0.0
 40
0.2298285095
 40
0.4708911317
 40
0.726844898
 40
1.0
 40
1.0
 40
1.0
 40
1.0
 10
42.1596737958
 20
42.1211111211
 30
0.0
 10
42.328501954
 20
42.2766031084
 30
0.0
 10
42.6437289261
 20
42.6299007497
 30
0.0
 10
43.0249894728
 20
43.2514249548
 30
0.0
 10
43.3191947291
 20
43.9651254088
 30
0.0
 10
43.4510715557
 20
44.4786018254
 30
0.0
 10
43.5031822736
 20
44.7463700142
 30
0.0
  0
SPLINE
  5
304
100
AcDbEntity
  8
0
100
AcDbSpline
 62
7
  6
BYLAYER
 70
0
 71
3
 72
9
 73
5
 74
0
 42
0.0000001
 43
0.0000001
 44
0.0000000001
 40
0.0
 40
0.0
 40
0.0
 40
0.0
 40
0.5110632289
 40
1.0
 40
1.0
 40
1.0
 40
1.0
 10
41.6249274961
 20
50.4644326904
 30
0.0
 10
41.8039922289
 20
50.002921423
 30
0.0
 10
42.1122569661
 20
49.0828553745
 30
0.0
 10
42.3252060541
 20
48.1356992724
 30
0.0
 10
42.4019842714
 20
47.668364452
 30
0.0
  0
SPLINE
  5
305
100
AcDbEntity
  8
0
100
AcDbSpline
 62
7
  6
BYLAYER
 70
0
 71
3
 72
9
 73
5
 74
0
 42
0.0000001
 43
0.0000001
 44
0.0000000001
 40
0.0
 40
0.0
 40
0.0
 40
0.0
 40
0.5013154646
 40
1.0
 40
1.0
 40
1.0
 40
1.0
 10
39.508019392
 20
54.3072104283
 30
0.0
 10
39.9441480093
 20
53.7159281324
 30
0.0
 10
40.735608067
 20
52.4768331542
 30
0.0
 10
41.3605544864
 20
51.1458126632
 30
0.0
 10
41.6249274961
 20
50.4644326904
 30
0.0
  0
SPLINE
  5
306
100
AcDbEntity
  8
0
100
AcDbSpline
 62
7
  6
BYLAYER
 70
0
 71
3
 72
12
 73
8
 74
0
 42
0.0000001
 43
0.0000001
 44
0.0000000001
 40
0.0
 40
0.0
 40
0.0
 40
0.0
 40
0.1169104031
 40
0.2377111118
 40
0.4877968666
 40
0.7441474041
 40
1.0
 40
1.0
 40
1.0
 40
1.0
 10
42.654657669
 20
47.5224866981
 30
0.0
 10
42.6065752574
 20
47.825075177
 30
0.0
 10
42.4860298112
 20
48.4369032473
 30
0.0
 10
42.1548593956
 20
49.6723822521
 30
0.0
 10
41.5770715202
 20
51.2161794971
 30
0.0
 10
40.6616650783
 20
52.9963033284
 30
0.0
 10
39.9134157133
 20
54.1151110204
 30
0.0
 10
39.508019392
 20
54.6491849172
 30
0.0
  0
SPLINE
  5
307
100
AcDbEntity
  8
0
100
AcDbSpline
 62
7
  6
BYLAYER
 70
0
 71
3
 72
9
 73
5
 74
0
 42
0.0000001
 43
0.0000001
 44
0.0000000001
 40
0.0
 40
0.0
 40
0.0
 40
0.0
 40
0.5033165192
 40
1.0
 40
1.0
 40
1.0
 40
1.0
 10
37.7530001403
 20
62.6491829871
 30
0.0
 10
37.596331631
 20
62.6100283313
 30
0.0
 10
37.2898379046
 20
62.511359777
 30
0.0
 10
37.0001755767
 20
62.3705688379
 30
0.0
 10
36.862166371
 20
62.2908898066
 30
0.0
  0
SPLINE
  5
308
100
AcDbEntity
  8
0
100
AcDbSpline
 62
7
  6
BYLAYER
 70
0
 71
3
 72
9
 73
5
 74
0
 42
0.0000001
 43
0.0000001
 44
0.0000000001
 40
0.0
 40
0.0
 40
0.0
 40
0.0
 40
0.5033165192
 40
1.0
 40
1.0
 40
1.0
 40
1.0
 10
39.8389564601
 20
63.853503241
 30
0.0
 10
39.6822879508
 20
63.8143485852
 30
0.0
 10
39.3757942244
 20
63.7156800309
 30
0.0
 10
39.0861318965
 20
63.5748890918
 30
0.0
 10
38.9481226908
 20
63.4952100606
 30
0.0
  0
ENDSEC
  0
SECTION
  2
OBJECTS
  0
DICTIONARY
  5
C
100
AcDbDictionary
280
0
281
1
  3
ACAD_GROUP
350
D
  3
ACAD_MLINESTYLE
350
17
  3
ACAD_LAYOUT
350
1A
  3
ACAD_PLOTSETTINGS
350
19
  3
ACAD_PLOTSTYLENAME
350
E
  0
DICTIONARY
  5
D
102
{ACAD_REACTORS
330
C
102
}
100
AcDbDictionary
280
0
281
1
  0
ACDBDICTIONARYWDFLT
  5
E
102
{ACAD_REACTORS
330
C
102
}
100
AcDbDictionary
281
1
  3
Normal
350
F
100
AcDbDictionaryWithDefault
340
F
  0
DICTIONARY
  5
17
102
{ACAD_REACTORS
330
C
102
}
100
AcDbDictionary
280
0
281
1
  3
Standard
350
18
  0
DICTIONARY
  5
19
102
{ACAD_REACTORS
330
C
102
}
100
AcDbDictionary
281
1
  0
DICTIONARY
  5
1A
102
{ACAD_REACTORS
330
C
102
}
100
AcDbDictionary
281
1
  3
Model
350
309
  3
Layout1
350
30A
  0
ACDBPLACEHOLDER
  5
F
102
{ACAD_REACTORS
330
E
102
}
  0
MLINESTYLE
  5
18
102
{ACAD_REACTORS
330
17
102
}
100
AcDbMlineStyle
  2
STANDARD
 70
0
  3

 62
256
 51
90.0
 52
90.0
 71
2
 49
0.5
 62
256
  6
BYLAYER
 49
-0.5
 62
256
  6
BYLAYER
  0
LAYOUT
  5
309
102
{ACAD_REACTORS
330
1A
102
}
100
AcDbPlotSettings
  1

  2
none_device
  4

  6

 40
0.0
 41
0.0
 42
0.0
 43
0.0
 44
210.0
 45
297.0
 46
0.0
 47
0.0
 48
0.0
 49
0.0
140
0.0
141
0.0
142
1.0
143
1.0
 70
1024
 72
1
 73
0
 74
0
  7

 75
0
147
1.0
148
0.0
149
0.0
100
AcDbLayout
  1
Model
 70
0
 71
0
 10
0.0
 20
0.0
 11
210.0
 21
297.0
 12
0.0
 22
0.0
 32
0.0
 14
0.0
 24
0.0
 34
0.0
 15
0.0
 25
0.0
 35
0.0
146
0.0
 13
0.0
 23
0.0
 33
0.0
 16
1.0
 26
0.0
 36
0.0
 17
0.0
 27
1.0
 37
0.0
 76
0
330
210
345
0
346
0
  0
LAYOUT
  5
30A
102
{ACAD_REACTORS
330
1A
102
}
100
AcDbPlotSettings
  1

  2
none_device
  4

  6

 40
0.0
 41
0.0
 42
0.0
 43
0.0
 44
210.0
 45
297.0
 46
0.0
 47
0.0
 48
0.0
 49
0.0
140
0.0
141
0.0
142
1.0
143
1.0
 70
0
 72
1
 73
0
 74
0
  7

 75
0
147
1.0
148
0.0
149
0.0
100
AcDbLayout
  1
Layout1
 70
0
 71
1
 10
0.0
 20
0.0
 11
210.0
 21
297.0
 12
0.0
 22
0.0
 32
0.0
 14
0.0
 24
0.0
 34
0.0
 15
0.0
 25
0.0
 35
0.0
146
0.0
 13
0.0
 23
0.0
 33
0.0
 16
1.0
 26
0.0
 36
0.0
 17
0.0
 27
1.0
 37
0.0
 76
0
330
211
345
0
346
0
  0
ENDSEC
  0
EOF
