  0
SECTION
  2
HEADER
  9
$ACADVER
  1
AC1009
  9
$DWGCODEPAGE
  3
ansi_1250
  9
$INSBASE
 10
0.0
 20
0.0
 30
0.0
  9
$EXTMIN
 10
-2.273704
 20
-1.337639
 30
0.0
  9
$EXTMAX
 10
0.401575
 20
1.337639
 30
0.0
  9
$LIMMIN
 10
0.0
 20
0.0
  9
$LIMMAX
 10
0.0
 20
0.0
  9
$ORTHOMODE
 70
     0
  9
$REGENMODE
 70
     1
  9
$FILLMODE
 70
     1
  9
$QTEXTMODE
 70
     0
  9
$MIRRTEXT
 70
     1
  9
$DRAGMODE
 70
     2
  9
$LTSCALE
 40
1.0
  9
$OSMODE
 70
     0
  9
$ATTMODE
 70
     1
  9
$TEXTSIZE
 40
0.2
  9
$TRACEWID
 40
0.05
  9
$TEXTSTYLE
  7
STANDARD
  9
$CLAYER
  8
0
  9
$CELTYPE
  6
CONTINUOUS
  9
$CECOLOR
 62
   256
  9
$DIMSCALE
 40
1.0
  9
$DIMASZ
 40
0.18
  9
$DIMEXO
 40
0.0625
  9
$DIMDLI
 40
0.38
  9
$DIMRND
 40
0.0
  9
$DIMDLE
 40
0.0
  9
$DIMEXE
 40
0.18
  9
$DIMTP
 40
0.0
  9
$DIMTM
 40
0.0
  9
$DIMTXT
 40
0.18
  9
$DIMCEN
 40
0.09
  9
$DIMTSZ
 40
0.0
  9
$DIMTOL
 70
     0
  9
$DIMLIM
 70
     0
  9
$DIMTIH
 70
     1
  9
$DIMTOH
 70
     1
  9
$DIMSE1
 70
     0
  9
$DIMSE2
 70
     0
  9
$DIMTAD
 70
     0
  9
$DIMZIN
 70
     0
  9
$DIMBLK
  1

  9
$DIMASO
 70
     1
  9
$DIMSHO
 70
     1
  9
$DIMPOST
  1

  9
$DIMAPOST
  1

  9
$DIMALT
 70
     0
  9
$DIMALTD
 70
     2
  9
$DIMALTF
 40
25.4
  9
$DIMLFAC
 40
1.0
  9
$DIMTOFL
 70
     0
  9
$DIMTVP
 40
0.0
  9
$DIMTIX
 70
     0
  9
$DIMSOXD
 70
     0
  9
$DIMSAH
 70
     0
  9
$DIMBLK1
  1

  9
$DIMBLK2
  1

  9
$DIMSTYLE
  2
STANDARD
  9
$DIMCLRD
 70
     0
  9
$DIMCLRE
 70
     0
  9
$DIMCLRT
 70
     0
  9
$DIMTFAC
 40
1.0
  9
$DIMGAP
 40
0.09
  9
$LUNITS
 70
     2
  9
$LUPREC
 70
     4
  9
$AXISMODE
 70
     0
  9
$AXISUNIT
 10
0.0
 20
0.0
  9
$SKETCHINC
 40
0.1
  9
$FILLETRAD
 40
0.0
  9
$AUNITS
 70
     0
  9
$AUPREC
 70
     0
  9
$MENU
  1
acad
  9
$ELEVATION
 40
0.0
  9
$PELEVATION
 40
0.0
  9
$THICKNESS
 40
0.0
  9
$LIMCHECK
 70
     0
  9
$BLIPMODE
 70
     1
  9
$CHAMFERA
 40
0.0
  9
$CHAMFERB
 40
0.0
  9
$SKPOLY
 70
     0
  9
$TDCREATE
 40
0.000000000
  9
$TDUPDATE
 40
0.000000000
  9
$TDINDWG
 40
0.0000000000
  9
$TDUSRTIMER
 40
0.0000000000
  9
$USRTIMER
 70
     1
  9
$ANGBASE
 50
0.0
  9
$ANGDIR
 70
     0
  9
$PDMODE
 70
     0
  9
$PDSIZE
 40
0.0
  9
$PLINEWID
 40
0.0
  9
$COORDS
 70
     0
  9
$SPLFRAME
 70
     0
  9
$SPLINETYPE
 70
     6
  9
$SPLINESEGS
 70
     8
  9
$ATTDIA
 70
     0
  9
$ATTREQ
 70
     1
  9
$HANDLING
 70
     1
  9
$HANDSEED
  5
A2E
  9
$SURFTAB1
 70
     6
  9
$SURFTAB2
 70
     6
  9
$SURFTYPE
 70
     6
  9
$SURFU
 70
     6
  9
$SURFV
 70
     6
  9
$UCSNAME
  2

  9
$UCSORG
 10
0.0
 20
0.0
 30
0.0
  9
$UCSXDIR
 10
1.0
 20
0.0
 30
0.0
  9
$UCSYDIR
 10
0.0
 20
1.0
 30
0.0
  9
$PUCSNAME
  2

  9
$PUCSORG
 10
0.0
 20
0.0
 30
0.0
  9
$PUCSXDIR
 10
1.0
 20
0.0
 30
0.0
  9
$PUCSYDIR
 10
0.0
 20
1.0
 30
0.0
  9
$USERI1
 70
     0
  9
$USERI2
 70
     0
  9
$USERI3
 70
     0
  9
$USERI4
 70
     0
  9
$USERI5
 70
     0
  9
$USERR1
 40
0.0
  9
$USERR2
 40
0.0
  9
$USERR3
 40
0.0
  9
$USERR4
 40
0.0
  9
$USERR5
 40
0.0
  9
$WORLDVIEW
 70
     1
  9
$SHADEDGE
 70
     3
  9
$SHADEDIF
 70
    70
  9
$TILEMODE
 70
     1
  9
$MAXACTVP
 70
    16
  9
$PINSBASE
 10
0.0
 20
0.0
 30
0.0
  9
$PLIMCHECK
 70
     0
  9
$PEXTMIN
 10
1.000000E+20
 20
1.000000E+20
 30
1.000000E+20
  9
$PEXTMAX
 10
-1.000000E+20
 20
-1.000000E+20
 30
-1.000000E+20
  9
$PLIMMIN
 10
0.0
 20
0.0
  9
$PLIMMAX
 10
12.0
 20
9.0
  9
$UNITMODE
 70
     0
  9
$VISRETAIN
 70
     0
  9
$PLINEGEN
 70
     1
  9
$PSLTSCALE
 70
     0
  9
$TREEDEPTH
 70
  3020
  0
ENDSEC
  0
SECTION
  2
TABLES
  0
TABLE
  2
VPORT
 70
     1
  0
VPORT
  2
*ACTIVE
 70
     0
 10
0.0
 20
0.0
 11
1.0
 21
1.0
 12
6.591288
 22
4.579184
 13
0.0
 23
0.0
 14
1.0
 24
1.0
 15
0.0
 25
0.0
 16
0.0
 26
0.0
 36
1.0
 17
0.0
 27
0.0
 37
0.0
 40
9.158369
 41
0.688564
 42
50.0
 43
0.0
 44
0.0
 50
0.0
 51
0.0
 71
     0
 72
   100
 73
     1
 74
     1
 75
     0
 76
     0
 77
     0
 78
     0
  0
ENDTAB
  0
TABLE
  2
LTYPE
 70
     5
  0
LTYPE
  2
CONTINUOUS
 70
    64
  3
Solid line
 72
    65
 73
     0
 40
0.0
  0
LTYPE
  2
CENTER
 70
    64
  3
Center ____ _ ____ _ ____ _ ____ _ ____ _ ____
 72
    65
 73
     4
 40
50.8
 49
31.75
 49
-6.35
 49
6.35
 49
-6.35
  0
LTYPE
  2
HIDDEN
 70
    64
  3
Hidden __ __ __ __ __ __ __ __ __ __ __ __ __ __
 72
    65
 73
     2
 40
9.525
 49
6.35
 49
-3.175
  0
LTYPE
  2
CENTER2
 70
    64
  3
Center (.5x) ___ _ ___ _ ___ _ ___ _ ___ _ ___
 72
    65
 73
     4
 40
28.575
 49
19.05
 49
-3.175
 49
3.175
 49
-3.175
  0
LTYPE
  2
HIDDEN2
 70
    64
  3
Hidden (.5x) _ _ _ _ _ _ _ _ _ _ _ _ _ _ _ _ _
 72
    65
 73
     2
 40
4.7625
 49
3.175
 49
-1.5875
  0
ENDTAB
  0
TABLE
  2
LAYER
 70
     1
  0
LAYER
  2
0
 70
     0
 62
     7
  6
CONTINUOUS
  0
ENDTAB
  0
TABLE
  2
STYLE
 70
     1
  0
STYLE
  2
STANDARD
 70
     0
 40
0.0
 41
1.0
 50
0.0
 71
     0
 42
0.0
  3
txt
  4

  0
ENDTAB
  0
TABLE
  2
VIEW
 70
     0
  0
ENDTAB
  0
TABLE
  2
UCS
 70
     0
  0
ENDTAB
  0
TABLE
  2
APPID
 70
     1
  0
APPID
  2
ACAD
 70
     0
  0
ENDTAB
  0
TABLE
  2
DIMSTYLE
 70
     1
  0
DIMSTYLE
  2
STANDARD
 70
     0
  3

  4

  5

  6

  7

 40
1.0
 41
0.18
 42
0.0625
 43
0.38
 44
0.18
 45
0.0
 46
0.0
 47
0.0
 48
0.0
 71
     0
 72
     0
 73
     1
 74
     1
 75
     0
 76
     0
 77
     0
 78
     0
140
0.18
141
0.09
142
0.0
143
25.4
144
1.0
145
0.0
146
1.0
147
0.09
170
     0
171
     2
172
     0
173
     0
174
     0
175
     0
176
     0
177
     0
178
     0
  0
ENDTAB
  0
ENDSEC
  0
SECTION
  2
BLOCKS
  0
ENDSEC
  0
SECTION
  2
ENTITIES
  0
LINE
  8
0
  6
CONTINUOUS
 62
     7
  5
55D
 10
0.0
 20
-0.34252
 30
0.0
 11
0.0
 21
0.34252
 31
0.0
  0
LINE
  8
0
  6
CONTINUOUS
 62
     7
  5
55E
 10
0.393257
 20
-0.148942
 30
0.0
 11
0.393263
 21
-0.148884
 31
0.0
  0
LINE
  8
0
  6
CONTINUOUS
 62
     7
  5
55F
 10
0.393263
 20
-0.148884
 30
0.0
 11
0.393283
 21
-0.148709
 31
0.0
  0
LINE
  8
0
  6
CONTINUOUS
 62
     7
  5
560
 10
0.393283
 20
-0.148709
 30
0.0
 11
0.393316
 21
-0.148414
 31
0.0
  0
LINE
  8
0
  6
CONTINUOUS
 62
     7
  5
561
 10
0.393316
 20
-0.148414
 30
0.0
 11
0.393362
 21
-0.147997
 31
0.0
  0
LINE
  8
0
  6
CONTINUOUS
 62
     7
  5
562
 10
0.393362
 20
-0.147997
 30
0.0
 11
0.393423
 21
-0.147455
 31
0.0
  0
LINE
  8
0
  6
CONTINUOUS
 62
     7
  5
563
 10
0.393423
 20
-0.147455
 30
0.0
 11
0.393497
 21
-0.146787
 31
0.0
  0
LINE
  8
0
  6
CONTINUOUS
 62
     7
  5
564
 10
0.393497
 20
-0.146787
 30
0.0
 11
0.393584
 21
-0.145991
 31
0.0
  0
LINE
  8
0
  6
CONTINUOUS
 62
     7
  5
565
 10
0.393584
 20
-0.145991
 30
0.0
 11
0.393686
 21
-0.145065
 31
0.0
  0
LINE
  8
0
  6
CONTINUOUS
 62
     7
  5
566
 10
0.393686
 20
-0.145065
 30
0.0
 11
0.3938
 21
-0.144008
 31
0.0
  0
LINE
  8
0
  6
CONTINUOUS
 62
     7
  5
567
 10
0.3938
 20
-0.144008
 30
0.0
 11
0.393929
 21
-0.142818
 31
0.0
  0
LINE
  8
0
  6
CONTINUOUS
 62
     7
  5
568
 10
0.393929
 20
-0.142818
 30
0.0
 11
0.39407
 21
-0.141496
 31
0.0
  0
LINE
  8
0
  6
CONTINUOUS
 62
     7
  5
569
 10
0.39407
 20
-0.141496
 30
0.0
 11
0.394224
 21
-0.140039
 31
0.0
  0
LINE
  8
0
  6
CONTINUOUS
 62
     7
  5
56A
 10
0.394224
 20
-0.140039
 30
0.0
 11
0.394391
 21
-0.138447
 31
0.0
  0
LINE
  8
0
  6
CONTINUOUS
 62
     7
  5
56B
 10
0.394391
 20
-0.138447
 30
0.0
 11
0.394569
 21
-0.13672
 31
0.0
  0
LINE
  8
0
  6
CONTINUOUS
 62
     7
  5
56C
 10
0.394569
 20
-0.13672
 30
0.0
 11
0.39476
 21
-0.134856
 31
0.0
  0
LINE
  8
0
  6
CONTINUOUS
 62
     7
  5
56D
 10
0.39476
 20
-0.134856
 30
0.0
 11
0.394961
 21
-0.132856
 31
0.0
  0
LINE
  8
0
  6
CONTINUOUS
 62
     7
  5
56E
 10
0.394961
 20
-0.132856
 30
0.0
 11
0.395172
 21
-0.130718
 31
0.0
  0
LINE
  8
0
  6
CONTINUOUS
 62
     7
  5
56F
 10
0.395172
 20
-0.130718
 30
0.0
 11
0.395394
 21
-0.128444
 31
0.0
  0
LINE
  8
0
  6
CONTINUOUS
 62
     7
  5
570
 10
0.395394
 20
-0.128444
 30
0.0
 11
0.395624
 21
-0.126031
 31
0.0
  0
LINE
  8
0
  6
CONTINUOUS
 62
     7
  5
571
 10
0.395624
 20
-0.126031
 30
0.0
 11
0.395863
 21
-0.123481
 31
0.0
  0
LINE
  8
0
  6
CONTINUOUS
 62
     7
  5
572
 10
0.395863
 20
-0.123481
 30
0.0
 11
0.39611
 21
-0.120793
 31
0.0
  0
LINE
  8
0
  6
CONTINUOUS
 62
     7
  5
573
 10
0.39611
 20
-0.120793
 30
0.0
 11
0.396363
 21
-0.117967
 31
0.0
  0
LINE
  8
0
  6
CONTINUOUS
 62
     7
  5
574
 10
0.396363
 20
-0.117967
 30
0.0
 11
0.396622
 21
-0.115002
 31
0.0
  0
LINE
  8
0
  6
CONTINUOUS
 62
     7
  5
575
 10
0.396622
 20
-0.115002
 30
0.0
 11
0.396886
 21
-0.111897
 31
0.0
  0
LINE
  8
0
  6
CONTINUOUS
 62
     7
  5
576
 10
0.396886
 20
-0.111897
 30
0.0
 11
0.397155
 21
-0.108652
 31
0.0
  0
LINE
  8
0
  6
CONTINUOUS
 62
     7
  5
577
 10
0.397155
 20
-0.108652
 30
0.0
 11
0.397426
 21
-0.105267
 31
0.0
  0
LINE
  8
0
  6
CONTINUOUS
 62
     7
  5
578
 10
0.397426
 20
-0.105267
 30
0.0
 11
0.3977
 21
-0.10174
 31
0.0
  0
LINE
  8
0
  6
CONTINUOUS
 62
     7
  5
579
 10
0.3977
 20
-0.10174
 30
0.0
 11
0.397975
 21
-0.098071
 31
0.0
  0
LINE
  8
0
  6
CONTINUOUS
 62
     7
  5
57A
 10
0.397975
 20
-0.098071
 30
0.0
 11
0.39825
 21
-0.094258
 31
0.0
  0
LINE
  8
0
  6
CONTINUOUS
 62
     7
  5
57B
 10
0.39825
 20
-0.094258
 30
0.0
 11
0.398523
 21
-0.090299
 31
0.0
  0
LINE
  8
0
  6
CONTINUOUS
 62
     7
  5
57C
 10
0.398523
 20
-0.090299
 30
0.0
 11
0.398795
 21
-0.086193
 31
0.0
  0
LINE
  8
0
  6
CONTINUOUS
 62
     7
  5
57D
 10
0.398795
 20
-0.086193
 30
0.0
 11
0.399063
 21
-0.081936
 31
0.0
  0
LINE
  8
0
  6
CONTINUOUS
 62
     7
  5
57E
 10
0.399063
 20
-0.081936
 30
0.0
 11
0.399326
 21
-0.077526
 31
0.0
  0
LINE
  8
0
  6
CONTINUOUS
 62
     7
  5
57F
 10
0.399326
 20
-0.077526
 30
0.0
 11
0.399584
 21
-0.072958
 31
0.0
  0
LINE
  8
0
  6
CONTINUOUS
 62
     7
  5
580
 10
0.399584
 20
-0.072958
 30
0.0
 11
0.399834
 21
-0.068228
 31
0.0
  0
LINE
  8
0
  6
CONTINUOUS
 62
     7
  5
581
 10
0.399834
 20
0.068228
 30
0.0
 11
0.399584
 21
0.072958
 31
0.0
  0
LINE
  8
0
  6
CONTINUOUS
 62
     7
  5
582
 10
0.399584
 20
0.072958
 30
0.0
 11
0.399326
 21
0.077526
 31
0.0
  0
LINE
  8
0
  6
CONTINUOUS
 62
     7
  5
583
 10
0.399326
 20
0.077526
 30
0.0
 11
0.399063
 21
0.081936
 31
0.0
  0
LINE
  8
0
  6
CONTINUOUS
 62
     7
  5
584
 10
0.399063
 20
0.081936
 30
0.0
 11
0.398795
 21
0.086193
 31
0.0
  0
LINE
  8
0
  6
CONTINUOUS
 62
     7
  5
585
 10
0.398795
 20
0.086193
 30
0.0
 11
0.398523
 21
0.090299
 31
0.0
  0
LINE
  8
0
  6
CONTINUOUS
 62
     7
  5
586
 10
0.398523
 20
0.090299
 30
0.0
 11
0.39825
 21
0.094258
 31
0.0
  0
LINE
  8
0
  6
CONTINUOUS
 62
     7
  5
587
 10
0.39825
 20
0.094258
 30
0.0
 11
0.397975
 21
0.098071
 31
0.0
  0
LINE
  8
0
  6
CONTINUOUS
 62
     7
  5
588
 10
0.397975
 20
0.098071
 30
0.0
 11
0.3977
 21
0.10174
 31
0.0
  0
LINE
  8
0
  6
CONTINUOUS
 62
     7
  5
589
 10
0.3977
 20
0.10174
 30
0.0
 11
0.397426
 21
0.105267
 31
0.0
  0
LINE
  8
0
  6
CONTINUOUS
 62
     7
  5
58A
 10
0.397426
 20
0.105267
 30
0.0
 11
0.397155
 21
0.108652
 31
0.0
  0
LINE
  8
0
  6
CONTINUOUS
 62
     7
  5
58B
 10
0.397155
 20
0.108652
 30
0.0
 11
0.396886
 21
0.111897
 31
0.0
  0
LINE
  8
0
  6
CONTINUOUS
 62
     7
  5
58C
 10
0.396886
 20
0.111897
 30
0.0
 11
0.396622
 21
0.115002
 31
0.0
  0
LINE
  8
0
  6
CONTINUOUS
 62
     7
  5
58D
 10
0.396622
 20
0.115002
 30
0.0
 11
0.396363
 21
0.117967
 31
0.0
  0
LINE
  8
0
  6
CONTINUOUS
 62
     7
  5
58E
 10
0.396363
 20
0.117967
 30
0.0
 11
0.39611
 21
0.120793
 31
0.0
  0
LINE
  8
0
  6
CONTINUOUS
 62
     7
  5
58F
 10
0.39611
 20
0.120793
 30
0.0
 11
0.395863
 21
0.123481
 31
0.0
  0
LINE
  8
0
  6
CONTINUOUS
 62
     7
  5
590
 10
0.395863
 20
0.123481
 30
0.0
 11
0.395624
 21
0.126031
 31
0.0
  0
LINE
  8
0
  6
CONTINUOUS
 62
     7
  5
591
 10
0.395624
 20
0.126031
 30
0.0
 11
0.395394
 21
0.128444
 31
0.0
  0
LINE
  8
0
  6
CONTINUOUS
 62
     7
  5
592
 10
0.395394
 20
0.128444
 30
0.0
 11
0.395172
 21
0.130718
 31
0.0
  0
LINE
  8
0
  6
CONTINUOUS
 62
     7
  5
593
 10
0.395172
 20
0.130718
 30
0.0
 11
0.394961
 21
0.132856
 31
0.0
  0
LINE
  8
0
  6
CONTINUOUS
 62
     7
  5
594
 10
0.394961
 20
0.132856
 30
0.0
 11
0.39476
 21
0.134856
 31
0.0
  0
LINE
  8
0
  6
CONTINUOUS
 62
     7
  5
595
 10
0.39476
 20
0.134856
 30
0.0
 11
0.394569
 21
0.13672
 31
0.0
  0
LINE
  8
0
  6
CONTINUOUS
 62
     7
  5
596
 10
0.394569
 20
0.13672
 30
0.0
 11
0.394391
 21
0.138447
 31
0.0
  0
LINE
  8
0
  6
CONTINUOUS
 62
     7
  5
597
 10
0.394391
 20
0.138447
 30
0.0
 11
0.394224
 21
0.140039
 31
0.0
  0
LINE
  8
0
  6
CONTINUOUS
 62
     7
  5
598
 10
0.394224
 20
0.140039
 30
0.0
 11
0.39407
 21
0.141496
 31
0.0
  0
LINE
  8
0
  6
CONTINUOUS
 62
     7
  5
599
 10
0.39407
 20
0.141496
 30
0.0
 11
0.393929
 21
0.142818
 31
0.0
  0
LINE
  8
0
  6
CONTINUOUS
 62
     7
  5
59A
 10
0.393929
 20
0.142818
 30
0.0
 11
0.3938
 21
0.144008
 31
0.0
  0
LINE
  8
0
  6
CONTINUOUS
 62
     7
  5
59B
 10
0.3938
 20
0.144008
 30
0.0
 11
0.393686
 21
0.145065
 31
0.0
  0
LINE
  8
0
  6
CONTINUOUS
 62
     7
  5
59C
 10
0.393686
 20
0.145065
 30
0.0
 11
0.393584
 21
0.145991
 31
0.0
  0
LINE
  8
0
  6
CONTINUOUS
 62
     7
  5
59D
 10
0.393584
 20
0.145991
 30
0.0
 11
0.393497
 21
0.146787
 31
0.0
  0
LINE
  8
0
  6
CONTINUOUS
 62
     7
  5
59E
 10
0.393497
 20
0.146787
 30
0.0
 11
0.393423
 21
0.147455
 31
0.0
  0
LINE
  8
0
  6
CONTINUOUS
 62
     7
  5
59F
 10
0.393423
 20
0.147455
 30
0.0
 11
0.393362
 21
0.147997
 31
0.0
  0
LINE
  8
0
  6
CONTINUOUS
 62
     7
  5
5A0
 10
0.393362
 20
0.147997
 30
0.0
 11
0.393316
 21
0.148414
 31
0.0
  0
LINE
  8
0
  6
CONTINUOUS
 62
     7
  5
5A1
 10
0.393316
 20
0.148414
 30
0.0
 11
0.393283
 21
0.148709
 31
0.0
  0
LINE
  8
0
  6
CONTINUOUS
 62
     7
  5
5A2
 10
0.393283
 20
0.148709
 30
0.0
 11
0.393263
 21
0.148884
 31
0.0
  0
LINE
  8
0
  6
CONTINUOUS
 62
     7
  5
5A3
 10
0.393263
 20
0.148884
 30
0.0
 11
0.393257
 21
0.148942
 31
0.0
  0
LINE
  8
0
  6
CONTINUOUS
 62
     7
  5
5A4
 10
0.354331
 20
-0.352362
 30
0.0
 11
0.023622
 21
-0.352362
 31
0.0
  0
ARC
  8
0
  6
CONTINUOUS
 62
     7
  5
5A5
 10
-0.936065
 20
0.0
 30
0.0
 40
1.337639
 50
344.726856
 51
15.273144
  0
LINE
  8
0
  6
CONTINUOUS
 62
     7
  5
5A6
 10
0.023622
 20
0.352362
 30
0.0
 11
0.354331
 21
0.352362
 31
0.0
  0
LINE
  8
0
  6
CONTINUOUS
 62
     7
  5
5A7
 10
0.023622
 20
-0.352362
 30
0.0
 11
0.023622
 21
0.352362
 31
0.0
  0
LINE
  8
0
  6
CONTINUOUS
 62
     7
  5
5A8
 10
0.0
 20
0.31249
 30
0.0
 11
-0.109331
 21
0.31249
 31
0.0
  0
LINE
  8
0
  6
CONTINUOUS
 62
     7
  5
5A9
 10
-0.437008
 20
0.31249
 30
0.0
 11
-0.437297
 21
0.311985
 31
0.0
  0
LINE
  8
0
  6
CONTINUOUS
 62
     7
  5
5AA
 10
-0.437297
 20
0.311985
 30
0.0
 11
-0.437586
 21
0.31148
 31
0.0
  0
LINE
  8
0
  6
CONTINUOUS
 62
     7
  5
5AB
 10
-0.437586
 20
0.31148
 30
0.0
 11
-0.437875
 21
0.310977
 31
0.0
  0
LINE
  8
0
  6
CONTINUOUS
 62
     7
  5
5AC
 10
-0.437875
 20
0.310977
 30
0.0
 11
-0.438163
 21
0.310474
 31
0.0
  0
LINE
  8
0
  6
CONTINUOUS
 62
     7
  5
5AD
 10
-0.438163
 20
0.310474
 30
0.0
 11
-0.438451
 21
0.309972
 31
0.0
  0
LINE
  8
0
  6
CONTINUOUS
 62
     7
  5
5AE
 10
-0.438451
 20
0.309972
 30
0.0
 11
-0.438738
 21
0.30947
 31
0.0
  0
LINE
  8
0
  6
CONTINUOUS
 62
     7
  5
5AF
 10
-0.438738
 20
0.30947
 30
0.0
 11
-0.439024
 21
0.30897
 31
0.0
  0
LINE
  8
0
  6
CONTINUOUS
 62
     7
  5
5B0
 10
-0.439024
 20
0.30897
 30
0.0
 11
-0.439311
 21
0.30847
 31
0.0
  0
LINE
  8
0
  6
CONTINUOUS
 62
     7
  5
5B1
 10
-0.439311
 20
0.30847
 30
0.0
 11
-0.439596
 21
0.307971
 31
0.0
  0
LINE
  8
0
  6
CONTINUOUS
 62
     7
  5
5B2
 10
-0.439596
 20
0.307971
 30
0.0
 11
-0.439882
 21
0.307473
 31
0.0
  0
LINE
  8
0
  6
CONTINUOUS
 62
     7
  5
5B3
 10
-0.439882
 20
0.307473
 30
0.0
 11
-0.440166
 21
0.306976
 31
0.0
  0
LINE
  8
0
  6
CONTINUOUS
 62
     7
  5
5B4
 10
-0.440166
 20
0.306976
 30
0.0
 11
-0.440451
 21
0.306479
 31
0.0
  0
LINE
  8
0
  6
CONTINUOUS
 62
     7
  5
5B5
 10
-0.440451
 20
0.306479
 30
0.0
 11
-0.440734
 21
0.305984
 31
0.0
  0
LINE
  8
0
  6
CONTINUOUS
 62
     7
  5
5B6
 10
-0.440734
 20
0.305984
 30
0.0
 11
-0.441018
 21
0.305489
 31
0.0
  0
LINE
  8
0
  6
CONTINUOUS
 62
     7
  5
5B7
 10
-0.441018
 20
0.305489
 30
0.0
 11
-0.441301
 21
0.304995
 31
0.0
  0
LINE
  8
0
  6
CONTINUOUS
 62
     7
  5
5B8
 10
-0.441301
 20
0.304995
 30
0.0
 11
-0.441583
 21
0.304501
 31
0.0
  0
LINE
  8
0
  6
CONTINUOUS
 62
     7
  5
5B9
 10
-0.441583
 20
0.304501
 30
0.0
 11
-0.441865
 21
0.304009
 31
0.0
  0
LINE
  8
0
  6
CONTINUOUS
 62
     7
  5
5BA
 10
-0.441865
 20
0.304009
 30
0.0
 11
-0.442147
 21
0.303517
 31
0.0
  0
LINE
  8
0
  6
CONTINUOUS
 62
     7
  5
5BB
 10
-0.442147
 20
0.303517
 30
0.0
 11
-0.442428
 21
0.303026
 31
0.0
  0
LINE
  8
0
  6
CONTINUOUS
 62
     7
  5
5BC
 10
-0.442428
 20
0.303026
 30
0.0
 11
-0.442709
 21
0.302536
 31
0.0
  0
LINE
  8
0
  6
CONTINUOUS
 62
     7
  5
5BD
 10
-0.442709
 20
0.302536
 30
0.0
 11
-0.442989
 21
0.302046
 31
0.0
  0
LINE
  8
0
  6
CONTINUOUS
 62
     7
  5
5BE
 10
-0.442989
 20
0.302046
 30
0.0
 11
-0.443269
 21
0.301558
 31
0.0
  0
LINE
  8
0
  6
CONTINUOUS
 62
     7
  5
5BF
 10
-0.443269
 20
0.301558
 30
0.0
 11
-0.443548
 21
0.30107
 31
0.0
  0
LINE
  8
0
  6
CONTINUOUS
 62
     7
  5
5C0
 10
-0.443548
 20
0.30107
 30
0.0
 11
-0.443827
 21
0.300583
 31
0.0
  0
LINE
  8
0
  6
CONTINUOUS
 62
     7
  5
5C1
 10
-0.443827
 20
0.300583
 30
0.0
 11
-0.444105
 21
0.300097
 31
0.0
  0
LINE
  8
0
  6
CONTINUOUS
 62
     7
  5
5C2
 10
-0.444105
 20
0.300097
 30
0.0
 11
-0.444383
 21
0.299611
 31
0.0
  0
LINE
  8
0
  6
CONTINUOUS
 62
     7
  5
5C3
 10
-0.444383
 20
0.299611
 30
0.0
 11
-0.44466
 21
0.299126
 31
0.0
  0
LINE
  8
0
  6
CONTINUOUS
 62
     7
  5
5C4
 10
-0.44466
 20
0.299126
 30
0.0
 11
-0.444937
 21
0.298642
 31
0.0
  0
LINE
  8
0
  6
CONTINUOUS
 62
     7
  5
5C5
 10
-0.444937
 20
0.298642
 30
0.0
 11
-0.445214
 21
0.298159
 31
0.0
  0
LINE
  8
0
  6
CONTINUOUS
 62
     7
  5
5C6
 10
-0.445214
 20
0.298159
 30
0.0
 11
-0.44549
 21
0.297677
 31
0.0
  0
LINE
  8
0
  6
CONTINUOUS
 62
     7
  5
5C7
 10
-0.44549
 20
0.297677
 30
0.0
 11
-0.445766
 21
0.297195
 31
0.0
  0
LINE
  8
0
  6
CONTINUOUS
 62
     7
  5
5C8
 10
-0.445766
 20
0.297195
 30
0.0
 11
-0.446041
 21
0.296714
 31
0.0
  0
LINE
  8
0
  6
CONTINUOUS
 62
     7
  5
5C9
 10
-0.446041
 20
0.296714
 30
0.0
 11
-0.446316
 21
0.296234
 31
0.0
  0
LINE
  8
0
  6
CONTINUOUS
 62
     7
  5
5CA
 10
-0.446316
 20
0.296234
 30
0.0
 11
-0.44659
 21
0.295754
 31
0.0
  0
LINE
  8
0
  6
CONTINUOUS
 62
     7
  5
5CB
 10
-0.44659
 20
0.295754
 30
0.0
 11
-0.446864
 21
0.295276
 31
0.0
  0
LINE
  8
0
  6
CONTINUOUS
 62
     7
  5
5CC
 10
-0.322835
 20
0.31249
 30
0.0
 11
-0.437008
 21
0.31249
 31
0.0
  0
LINE
  8
0
  6
CONTINUOUS
 62
     7
  5
5CD
 10
-0.125984
 20
0.119675
 30
0.0
 11
0.0
 21
0.119675
 31
0.0
  0
LINE
  8
0
  6
CONTINUOUS
 62
     7
  5
5CE
 10
-0.437008
 20
-0.31249
 30
0.0
 11
-0.322835
 21
-0.31249
 31
0.0
  0
LINE
  8
0
  6
CONTINUOUS
 62
     7
  5
5CF
 10
-0.446864
 20
-0.295276
 30
0.0
 11
-0.44659
 21
-0.295754
 31
0.0
  0
LINE
  8
0
  6
CONTINUOUS
 62
     7
  5
5D0
 10
-0.44659
 20
-0.295754
 30
0.0
 11
-0.446316
 21
-0.296234
 31
0.0
  0
LINE
  8
0
  6
CONTINUOUS
 62
     7
  5
5D1
 10
-0.446316
 20
-0.296234
 30
0.0
 11
-0.446041
 21
-0.296714
 31
0.0
  0
LINE
  8
0
  6
CONTINUOUS
 62
     7
  5
5D2
 10
-0.446041
 20
-0.296714
 30
0.0
 11
-0.445766
 21
-0.297195
 31
0.0
  0
LINE
  8
0
  6
CONTINUOUS
 62
     7
  5
5D3
 10
-0.445766
 20
-0.297195
 30
0.0
 11
-0.44549
 21
-0.297677
 31
0.0
  0
LINE
  8
0
  6
CONTINUOUS
 62
     7
  5
5D4
 10
-0.44549
 20
-0.297677
 30
0.0
 11
-0.445214
 21
-0.298159
 31
0.0
  0
LINE
  8
0
  6
CONTINUOUS
 62
     7
  5
5D5
 10
-0.445214
 20
-0.298159
 30
0.0
 11
-0.444937
 21
-0.298642
 31
0.0
  0
LINE
  8
0
  6
CONTINUOUS
 62
     7
  5
5D6
 10
-0.444937
 20
-0.298642
 30
0.0
 11
-0.44466
 21
-0.299126
 31
0.0
  0
LINE
  8
0
  6
CONTINUOUS
 62
     7
  5
5D7
 10
-0.44466
 20
-0.299126
 30
0.0
 11
-0.444383
 21
-0.299611
 31
0.0
  0
LINE
  8
0
  6
CONTINUOUS
 62
     7
  5
5D8
 10
-0.444383
 20
-0.299611
 30
0.0
 11
-0.444105
 21
-0.300097
 31
0.0
  0
LINE
  8
0
  6
CONTINUOUS
 62
     7
  5
5D9
 10
-0.444105
 20
-0.300097
 30
0.0
 11
-0.443827
 21
-0.300583
 31
0.0
  0
LINE
  8
0
  6
CONTINUOUS
 62
     7
  5
5DA
 10
-0.443827
 20
-0.300583
 30
0.0
 11
-0.443548
 21
-0.30107
 31
0.0
  0
LINE
  8
0
  6
CONTINUOUS
 62
     7
  5
5DB
 10
-0.443548
 20
-0.30107
 30
0.0
 11
-0.443269
 21
-0.301558
 31
0.0
  0
LINE
  8
0
  6
CONTINUOUS
 62
     7
  5
5DC
 10
-0.443269
 20
-0.301558
 30
0.0
 11
-0.442989
 21
-0.302046
 31
0.0
  0
LINE
  8
0
  6
CONTINUOUS
 62
     7
  5
5DD
 10
-0.442989
 20
-0.302046
 30
0.0
 11
-0.442709
 21
-0.302536
 31
0.0
  0
LINE
  8
0
  6
CONTINUOUS
 62
     7
  5
5DE
 10
-0.442709
 20
-0.302536
 30
0.0
 11
-0.442428
 21
-0.303026
 31
0.0
  0
LINE
  8
0
  6
CONTINUOUS
 62
     7
  5
5DF
 10
-0.442428
 20
-0.303026
 30
0.0
 11
-0.442147
 21
-0.303517
 31
0.0
  0
LINE
  8
0
  6
CONTINUOUS
 62
     7
  5
5E0
 10
-0.442147
 20
-0.303517
 30
0.0
 11
-0.441865
 21
-0.304009
 31
0.0
  0
LINE
  8
0
  6
CONTINUOUS
 62
     7
  5
5E1
 10
-0.441865
 20
-0.304009
 30
0.0
 11
-0.441583
 21
-0.304501
 31
0.0
  0
LINE
  8
0
  6
CONTINUOUS
 62
     7
  5
5E2
 10
-0.441583
 20
-0.304501
 30
0.0
 11
-0.441301
 21
-0.304995
 31
0.0
  0
LINE
  8
0
  6
CONTINUOUS
 62
     7
  5
5E3
 10
-0.441301
 20
-0.304995
 30
0.0
 11
-0.441018
 21
-0.305489
 31
0.0
  0
LINE
  8
0
  6
CONTINUOUS
 62
     7
  5
5E4
 10
-0.441018
 20
-0.305489
 30
0.0
 11
-0.440734
 21
-0.305984
 31
0.0
  0
LINE
  8
0
  6
CONTINUOUS
 62
     7
  5
5E5
 10
-0.440734
 20
-0.305984
 30
0.0
 11
-0.440451
 21
-0.306479
 31
0.0
  0
LINE
  8
0
  6
CONTINUOUS
 62
     7
  5
5E6
 10
-0.440451
 20
-0.306479
 30
0.0
 11
-0.440166
 21
-0.306976
 31
0.0
  0
LINE
  8
0
  6
CONTINUOUS
 62
     7
  5
5E7
 10
-0.440166
 20
-0.306976
 30
0.0
 11
-0.439882
 21
-0.307473
 31
0.0
  0
LINE
  8
0
  6
CONTINUOUS
 62
     7
  5
5E8
 10
-0.439882
 20
-0.307473
 30
0.0
 11
-0.439596
 21
-0.307971
 31
0.0
  0
LINE
  8
0
  6
CONTINUOUS
 62
     7
  5
5E9
 10
-0.439596
 20
-0.307971
 30
0.0
 11
-0.439311
 21
-0.30847
 31
0.0
  0
LINE
  8
0
  6
CONTINUOUS
 62
     7
  5
5EA
 10
-0.439311
 20
-0.30847
 30
0.0
 11
-0.439024
 21
-0.30897
 31
0.0
  0
LINE
  8
0
  6
CONTINUOUS
 62
     7
  5
5EB
 10
-0.439024
 20
-0.30897
 30
0.0
 11
-0.438738
 21
-0.30947
 31
0.0
  0
LINE
  8
0
  6
CONTINUOUS
 62
     7
  5
5EC
 10
-0.438738
 20
-0.30947
 30
0.0
 11
-0.438451
 21
-0.309972
 31
0.0
  0
LINE
  8
0
  6
CONTINUOUS
 62
     7
  5
5ED
 10
-0.438451
 20
-0.309972
 30
0.0
 11
-0.438163
 21
-0.310474
 31
0.0
  0
LINE
  8
0
  6
CONTINUOUS
 62
     7
  5
5EE
 10
-0.438163
 20
-0.310474
 30
0.0
 11
-0.437875
 21
-0.310977
 31
0.0
  0
LINE
  8
0
  6
CONTINUOUS
 62
     7
  5
5EF
 10
-0.437875
 20
-0.310977
 30
0.0
 11
-0.437586
 21
-0.31148
 31
0.0
  0
LINE
  8
0
  6
CONTINUOUS
 62
     7
  5
5F0
 10
-0.437586
 20
-0.31148
 30
0.0
 11
-0.437297
 21
-0.311985
 31
0.0
  0
LINE
  8
0
  6
CONTINUOUS
 62
     7
  5
5F1
 10
-0.437297
 20
-0.311985
 30
0.0
 11
-0.437008
 21
-0.31249
 31
0.0
  0
LINE
  8
0
  6
CONTINUOUS
 62
     7
  5
5F2
 10
-0.109331
 20
-0.31249
 30
0.0
 11
0.0
 21
-0.31249
 31
0.0
  0
LINE
  8
0
  6
CONTINUOUS
 62
     7
  5
5F3
 10
0.0
 20
-0.119675
 30
0.0
 11
-0.125984
 21
-0.119675
 31
0.0
  0
LINE
  8
0
  6
CONTINUOUS
 62
     7
  5
5F4
 10
-0.322835
 20
-0.119675
 30
0.0
 11
-0.437008
 21
-0.119675
 31
0.0
  0
LINE
  8
0
  6
CONTINUOUS
 62
     7
  5
5F5
 10
-0.437008
 20
-0.119675
 30
0.0
 11
-0.437008
 21
-0.31249
 31
0.0
  0
LINE
  8
0
  6
CONTINUOUS
 62
     7
  5
5F6
 10
-0.446864
 20
0.295276
 30
0.0
 11
-0.44659
 21
0.295754
 31
0.0
  0
LINE
  8
0
  6
CONTINUOUS
 62
     7
  5
5F7
 10
-0.44659
 20
0.295754
 30
0.0
 11
-0.446316
 21
0.296234
 31
0.0
  0
LINE
  8
0
  6
CONTINUOUS
 62
     7
  5
5F8
 10
-0.446316
 20
0.296234
 30
0.0
 11
-0.446041
 21
0.296714
 31
0.0
  0
LINE
  8
0
  6
CONTINUOUS
 62
     7
  5
5F9
 10
-0.446041
 20
0.296714
 30
0.0
 11
-0.445766
 21
0.297195
 31
0.0
  0
LINE
  8
0
  6
CONTINUOUS
 62
     7
  5
5FA
 10
-0.445766
 20
0.297195
 30
0.0
 11
-0.44549
 21
0.297677
 31
0.0
  0
LINE
  8
0
  6
CONTINUOUS
 62
     7
  5
5FB
 10
-0.44549
 20
0.297677
 30
0.0
 11
-0.445214
 21
0.298159
 31
0.0
  0
LINE
  8
0
  6
CONTINUOUS
 62
     7
  5
5FC
 10
-0.445214
 20
0.298159
 30
0.0
 11
-0.444937
 21
0.298642
 31
0.0
  0
LINE
  8
0
  6
CONTINUOUS
 62
     7
  5
5FD
 10
-0.444937
 20
0.298642
 30
0.0
 11
-0.44466
 21
0.299126
 31
0.0
  0
LINE
  8
0
  6
CONTINUOUS
 62
     7
  5
5FE
 10
-0.44466
 20
0.299126
 30
0.0
 11
-0.444383
 21
0.299611
 31
0.0
  0
LINE
  8
0
  6
CONTINUOUS
 62
     7
  5
5FF
 10
-0.444383
 20
0.299611
 30
0.0
 11
-0.444105
 21
0.300097
 31
0.0
  0
LINE
  8
0
  6
CONTINUOUS
 62
     7
  5
600
 10
-0.444105
 20
0.300097
 30
0.0
 11
-0.443827
 21
0.300583
 31
0.0
  0
LINE
  8
0
  6
CONTINUOUS
 62
     7
  5
601
 10
-0.443827
 20
0.300583
 30
0.0
 11
-0.443548
 21
0.30107
 31
0.0
  0
LINE
  8
0
  6
CONTINUOUS
 62
     7
  5
602
 10
-0.443548
 20
0.30107
 30
0.0
 11
-0.443269
 21
0.301558
 31
0.0
  0
LINE
  8
0
  6
CONTINUOUS
 62
     7
  5
603
 10
-0.443269
 20
0.301558
 30
0.0
 11
-0.442989
 21
0.302046
 31
0.0
  0
LINE
  8
0
  6
CONTINUOUS
 62
     7
  5
604
 10
-0.442989
 20
0.302046
 30
0.0
 11
-0.442709
 21
0.302536
 31
0.0
  0
LINE
  8
0
  6
CONTINUOUS
 62
     7
  5
605
 10
-0.442709
 20
0.302536
 30
0.0
 11
-0.442428
 21
0.303026
 31
0.0
  0
LINE
  8
0
  6
CONTINUOUS
 62
     7
  5
606
 10
-0.442428
 20
0.303026
 30
0.0
 11
-0.442147
 21
0.303517
 31
0.0
  0
LINE
  8
0
  6
CONTINUOUS
 62
     7
  5
607
 10
-0.442147
 20
0.303517
 30
0.0
 11
-0.441865
 21
0.304009
 31
0.0
  0
LINE
  8
0
  6
CONTINUOUS
 62
     7
  5
608
 10
-0.441865
 20
0.304009
 30
0.0
 11
-0.441583
 21
0.304501
 31
0.0
  0
LINE
  8
0
  6
CONTINUOUS
 62
     7
  5
609
 10
-0.441583
 20
0.304501
 30
0.0
 11
-0.441301
 21
0.304995
 31
0.0
  0
LINE
  8
0
  6
CONTINUOUS
 62
     7
  5
60A
 10
-0.441301
 20
0.304995
 30
0.0
 11
-0.441018
 21
0.305489
 31
0.0
  0
LINE
  8
0
  6
CONTINUOUS
 62
     7
  5
60B
 10
-0.441018
 20
0.305489
 30
0.0
 11
-0.440734
 21
0.305984
 31
0.0
  0
LINE
  8
0
  6
CONTINUOUS
 62
     7
  5
60C
 10
-0.440734
 20
0.305984
 30
0.0
 11
-0.440451
 21
0.306479
 31
0.0
  0
LINE
  8
0
  6
CONTINUOUS
 62
     7
  5
60D
 10
-0.440451
 20
0.306479
 30
0.0
 11
-0.440166
 21
0.306976
 31
0.0
  0
LINE
  8
0
  6
CONTINUOUS
 62
     7
  5
60E
 10
-0.440166
 20
0.306976
 30
0.0
 11
-0.439882
 21
0.307473
 31
0.0
  0
LINE
  8
0
  6
CONTINUOUS
 62
     7
  5
60F
 10
-0.439882
 20
0.307473
 30
0.0
 11
-0.439596
 21
0.307971
 31
0.0
  0
LINE
  8
0
  6
CONTINUOUS
 62
     7
  5
610
 10
-0.439596
 20
0.307971
 30
0.0
 11
-0.439311
 21
0.30847
 31
0.0
  0
LINE
  8
0
  6
CONTINUOUS
 62
     7
  5
611
 10
-0.439311
 20
0.30847
 30
0.0
 11
-0.439024
 21
0.30897
 31
0.0
  0
LINE
  8
0
  6
CONTINUOUS
 62
     7
  5
612
 10
-0.439024
 20
0.30897
 30
0.0
 11
-0.438738
 21
0.30947
 31
0.0
  0
LINE
  8
0
  6
CONTINUOUS
 62
     7
  5
613
 10
-0.438738
 20
0.30947
 30
0.0
 11
-0.438451
 21
0.309972
 31
0.0
  0
LINE
  8
0
  6
CONTINUOUS
 62
     7
  5
614
 10
-0.438451
 20
0.309972
 30
0.0
 11
-0.438163
 21
0.310474
 31
0.0
  0
LINE
  8
0
  6
CONTINUOUS
 62
     7
  5
615
 10
-0.438163
 20
0.310474
 30
0.0
 11
-0.437875
 21
0.310977
 31
0.0
  0
LINE
  8
0
  6
CONTINUOUS
 62
     7
  5
616
 10
-0.437875
 20
0.310977
 30
0.0
 11
-0.437586
 21
0.31148
 31
0.0
  0
LINE
  8
0
  6
CONTINUOUS
 62
     7
  5
617
 10
-0.437586
 20
0.31148
 30
0.0
 11
-0.437297
 21
0.311985
 31
0.0
  0
LINE
  8
0
  6
CONTINUOUS
 62
     7
  5
618
 10
-0.437297
 20
0.311985
 30
0.0
 11
-0.437008
 21
0.31249
 31
0.0
  0
LINE
  8
0
  6
CONTINUOUS
 62
     7
  5
619
 10
-0.448819
 20
0.0
 30
0.0
 11
-0.448819
 21
0.043059
 31
0.0
  0
LINE
  8
0
  6
CONTINUOUS
 62
     7
  5
61A
 10
-0.448819
 20
0.294503
 30
0.0
 11
-0.448819
 21
0.043059
 31
0.0
  0
LINE
  8
0
  6
CONTINUOUS
 62
     7
  5
61B
 10
-0.448819
 20
-0.043059
 30
0.0
 11
-0.448819
 21
-0.294503
 31
0.0
  0
LINE
  8
0
  6
CONTINUOUS
 62
     7
  5
61C
 10
-0.448819
 20
-0.043059
 30
0.0
 11
-0.448819
 21
0.0
 31
0.0
  0
LINE
  8
0
  6
CONTINUOUS
 62
     7
  5
61D
 10
-0.448373
 20
-0.295276
 30
0.0
 11
-0.446864
 21
-0.295276
 31
0.0
  0
LINE
  8
0
  6
CONTINUOUS
 62
     7
  5
61E
 10
-0.446864
 20
0.295276
 30
0.0
 11
-0.448373
 21
0.295276
 31
0.0
  0
LINE
  8
0
  6
CONTINUOUS
 62
     7
  5
61F
 10
-0.437008
 20
0.31249
 30
0.0
 11
-0.437008
 21
0.119675
 31
0.0
  0
LINE
  8
0
  6
CONTINUOUS
 62
     7
  5
620
 10
-0.437008
 20
0.119675
 30
0.0
 11
-0.322835
 21
0.119675
 31
0.0
  0
LINE
  8
0
  6
CONTINUOUS
 62
     7
  5
621
 10
-0.448819
 20
0.043059
 30
0.0
 11
-0.448634
 21
0.045192
 31
0.0
  0
LINE
  8
0
  6
CONTINUOUS
 62
     7
  5
622
 10
-0.448634
 20
0.045192
 30
0.0
 11
-0.448441
 21
0.047326
 31
0.0
  0
LINE
  8
0
  6
CONTINUOUS
 62
     7
  5
623
 10
-0.448441
 20
0.047326
 30
0.0
 11
-0.448239
 21
0.049463
 31
0.0
  0
LINE
  8
0
  6
CONTINUOUS
 62
     7
  5
624
 10
-0.448239
 20
0.049463
 30
0.0
 11
-0.448028
 21
0.051601
 31
0.0
  0
LINE
  8
0
  6
CONTINUOUS
 62
     7
  5
625
 10
-0.448028
 20
0.051601
 30
0.0
 11
-0.447808
 21
0.05374
 31
0.0
  0
LINE
  8
0
  6
CONTINUOUS
 62
     7
  5
626
 10
-0.447808
 20
0.05374
 30
0.0
 11
-0.44758
 21
0.055882
 31
0.0
  0
LINE
  8
0
  6
CONTINUOUS
 62
     7
  5
627
 10
-0.44758
 20
0.055882
 30
0.0
 11
-0.447342
 21
0.058027
 31
0.0
  0
LINE
  8
0
  6
CONTINUOUS
 62
     7
  5
628
 10
-0.447342
 20
0.058027
 30
0.0
 11
-0.447096
 21
0.060174
 31
0.0
  0
LINE
  8
0
  6
CONTINUOUS
 62
     7
  5
629
 10
-0.447096
 20
0.060174
 30
0.0
 11
-0.44684
 21
0.062323
 31
0.0
  0
LINE
  8
0
  6
CONTINUOUS
 62
     7
  5
62A
 10
-0.44684
 20
0.062323
 30
0.0
 11
-0.446576
 21
0.064475
 31
0.0
  0
LINE
  8
0
  6
CONTINUOUS
 62
     7
  5
62B
 10
-0.446576
 20
0.064475
 30
0.0
 11
-0.446303
 21
0.06663
 31
0.0
  0
LINE
  8
0
  6
CONTINUOUS
 62
     7
  5
62C
 10
-0.446303
 20
0.06663
 30
0.0
 11
-0.446021
 21
0.068788
 31
0.0
  0
LINE
  8
0
  6
CONTINUOUS
 62
     7
  5
62D
 10
-0.446021
 20
0.068788
 30
0.0
 11
-0.44573
 21
0.07095
 31
0.0
  0
LINE
  8
0
  6
CONTINUOUS
 62
     7
  5
62E
 10
-0.44573
 20
0.07095
 30
0.0
 11
-0.44543
 21
0.073115
 31
0.0
  0
LINE
  8
0
  6
CONTINUOUS
 62
     7
  5
62F
 10
-0.44543
 20
0.073115
 30
0.0
 11
-0.445121
 21
0.075283
 31
0.0
  0
LINE
  8
0
  6
CONTINUOUS
 62
     7
  5
630
 10
-0.445121
 20
0.075283
 30
0.0
 11
-0.444803
 21
0.077455
 31
0.0
  0
LINE
  8
0
  6
CONTINUOUS
 62
     7
  5
631
 10
-0.444803
 20
0.077455
 30
0.0
 11
-0.444476
 21
0.079632
 31
0.0
  0
LINE
  8
0
  6
CONTINUOUS
 62
     7
  5
632
 10
-0.444476
 20
0.079632
 30
0.0
 11
-0.44414
 21
0.081812
 31
0.0
  0
LINE
  8
0
  6
CONTINUOUS
 62
     7
  5
633
 10
-0.44414
 20
0.081812
 30
0.0
 11
-0.443795
 21
0.083996
 31
0.0
  0
LINE
  8
0
  6
CONTINUOUS
 62
     7
  5
634
 10
-0.443795
 20
0.083996
 30
0.0
 11
-0.44344
 21
0.086186
 31
0.0
  0
LINE
  8
0
  6
CONTINUOUS
 62
     7
  5
635
 10
-0.44344
 20
0.086186
 30
0.0
 11
-0.443077
 21
0.088379
 31
0.0
  0
LINE
  8
0
  6
CONTINUOUS
 62
     7
  5
636
 10
-0.443077
 20
0.088379
 30
0.0
 11
-0.442704
 21
0.090578
 31
0.0
  0
LINE
  8
0
  6
CONTINUOUS
 62
     7
  5
637
 10
-0.442704
 20
0.090578
 30
0.0
 11
-0.442322
 21
0.092781
 31
0.0
  0
LINE
  8
0
  6
CONTINUOUS
 62
     7
  5
638
 10
-0.442322
 20
0.092781
 30
0.0
 11
-0.441931
 21
0.09499
 31
0.0
  0
LINE
  8
0
  6
CONTINUOUS
 62
     7
  5
639
 10
-0.441931
 20
0.09499
 30
0.0
 11
-0.441531
 21
0.097204
 31
0.0
  0
LINE
  8
0
  6
CONTINUOUS
 62
     7
  5
63A
 10
-0.441531
 20
0.097204
 30
0.0
 11
-0.441121
 21
0.099423
 31
0.0
  0
LINE
  8
0
  6
CONTINUOUS
 62
     7
  5
63B
 10
-0.441121
 20
0.099423
 30
0.0
 11
-0.440702
 21
0.101648
 31
0.0
  0
LINE
  8
0
  6
CONTINUOUS
 62
     7
  5
63C
 10
-0.440702
 20
0.101648
 30
0.0
 11
-0.440274
 21
0.103879
 31
0.0
  0
LINE
  8
0
  6
CONTINUOUS
 62
     7
  5
63D
 10
-0.440274
 20
0.103879
 30
0.0
 11
-0.439836
 21
0.106116
 31
0.0
  0
LINE
  8
0
  6
CONTINUOUS
 62
     7
  5
63E
 10
-0.439836
 20
0.106116
 30
0.0
 11
-0.439388
 21
0.108359
 31
0.0
  0
LINE
  8
0
  6
CONTINUOUS
 62
     7
  5
63F
 10
-0.439388
 20
0.108359
 30
0.0
 11
-0.438932
 21
0.110609
 31
0.0
  0
LINE
  8
0
  6
CONTINUOUS
 62
     7
  5
640
 10
-0.438932
 20
0.110609
 30
0.0
 11
-0.438465
 21
0.112865
 31
0.0
  0
LINE
  8
0
  6
CONTINUOUS
 62
     7
  5
641
 10
-0.438465
 20
0.112865
 30
0.0
 11
-0.437989
 21
0.115128
 31
0.0
  0
LINE
  8
0
  6
CONTINUOUS
 62
     7
  5
642
 10
-0.437989
 20
0.115128
 30
0.0
 11
-0.437503
 21
0.117398
 31
0.0
  0
LINE
  8
0
  6
CONTINUOUS
 62
     7
  5
643
 10
-0.437503
 20
0.117398
 30
0.0
 11
-0.437008
 21
0.119675
 31
0.0
  0
LINE
  8
0
  6
CONTINUOUS
 62
     7
  5
644
 10
-0.437008
 20
-0.119675
 30
0.0
 11
-0.437503
 21
-0.117398
 31
0.0
  0
LINE
  8
0
  6
CONTINUOUS
 62
     7
  5
645
 10
-0.437503
 20
-0.117398
 30
0.0
 11
-0.437989
 21
-0.115128
 31
0.0
  0
LINE
  8
0
  6
CONTINUOUS
 62
     7
  5
646
 10
-0.437989
 20
-0.115128
 30
0.0
 11
-0.438465
 21
-0.112865
 31
0.0
  0
LINE
  8
0
  6
CONTINUOUS
 62
     7
  5
647
 10
-0.438465
 20
-0.112865
 30
0.0
 11
-0.438932
 21
-0.110609
 31
0.0
  0
LINE
  8
0
  6
CONTINUOUS
 62
     7
  5
648
 10
-0.438932
 20
-0.110609
 30
0.0
 11
-0.439388
 21
-0.108359
 31
0.0
  0
LINE
  8
0
  6
CONTINUOUS
 62
     7
  5
649
 10
-0.439388
 20
-0.108359
 30
0.0
 11
-0.439836
 21
-0.106116
 31
0.0
  0
LINE
  8
0
  6
CONTINUOUS
 62
     7
  5
64A
 10
-0.439836
 20
-0.106116
 30
0.0
 11
-0.440274
 21
-0.103879
 31
0.0
  0
LINE
  8
0
  6
CONTINUOUS
 62
     7
  5
64B
 10
-0.440274
 20
-0.103879
 30
0.0
 11
-0.440702
 21
-0.101648
 31
0.0
  0
LINE
  8
0
  6
CONTINUOUS
 62
     7
  5
64C
 10
-0.440702
 20
-0.101648
 30
0.0
 11
-0.441121
 21
-0.099423
 31
0.0
  0
LINE
  8
0
  6
CONTINUOUS
 62
     7
  5
64D
 10
-0.441121
 20
-0.099423
 30
0.0
 11
-0.441531
 21
-0.097204
 31
0.0
  0
LINE
  8
0
  6
CONTINUOUS
 62
     7
  5
64E
 10
-0.441531
 20
-0.097204
 30
0.0
 11
-0.441931
 21
-0.09499
 31
0.0
  0
LINE
  8
0
  6
CONTINUOUS
 62
     7
  5
64F
 10
-0.441931
 20
-0.09499
 30
0.0
 11
-0.442322
 21
-0.092781
 31
0.0
  0
LINE
  8
0
  6
CONTINUOUS
 62
     7
  5
650
 10
-0.442322
 20
-0.092781
 30
0.0
 11
-0.442704
 21
-0.090578
 31
0.0
  0
LINE
  8
0
  6
CONTINUOUS
 62
     7
  5
651
 10
-0.442704
 20
-0.090578
 30
0.0
 11
-0.443077
 21
-0.088379
 31
0.0
  0
LINE
  8
0
  6
CONTINUOUS
 62
     7
  5
652
 10
-0.443077
 20
-0.088379
 30
0.0
 11
-0.44344
 21
-0.086186
 31
0.0
  0
LINE
  8
0
  6
CONTINUOUS
 62
     7
  5
653
 10
-0.44344
 20
-0.086186
 30
0.0
 11
-0.443795
 21
-0.083996
 31
0.0
  0
LINE
  8
0
  6
CONTINUOUS
 62
     7
  5
654
 10
-0.443795
 20
-0.083996
 30
0.0
 11
-0.44414
 21
-0.081812
 31
0.0
  0
LINE
  8
0
  6
CONTINUOUS
 62
     7
  5
655
 10
-0.44414
 20
-0.081812
 30
0.0
 11
-0.444476
 21
-0.079632
 31
0.0
  0
LINE
  8
0
  6
CONTINUOUS
 62
     7
  5
656
 10
-0.444476
 20
-0.079632
 30
0.0
 11
-0.444803
 21
-0.077455
 31
0.0
  0
LINE
  8
0
  6
CONTINUOUS
 62
     7
  5
657
 10
-0.444803
 20
-0.077455
 30
0.0
 11
-0.445121
 21
-0.075283
 31
0.0
  0
LINE
  8
0
  6
CONTINUOUS
 62
     7
  5
658
 10
-0.445121
 20
-0.075283
 30
0.0
 11
-0.44543
 21
-0.073115
 31
0.0
  0
LINE
  8
0
  6
CONTINUOUS
 62
     7
  5
659
 10
-0.44543
 20
-0.073115
 30
0.0
 11
-0.44573
 21
-0.07095
 31
0.0
  0
LINE
  8
0
  6
CONTINUOUS
 62
     7
  5
65A
 10
-0.44573
 20
-0.07095
 30
0.0
 11
-0.446021
 21
-0.068788
 31
0.0
  0
LINE
  8
0
  6
CONTINUOUS
 62
     7
  5
65B
 10
-0.446021
 20
-0.068788
 30
0.0
 11
-0.446303
 21
-0.06663
 31
0.0
  0
LINE
  8
0
  6
CONTINUOUS
 62
     7
  5
65C
 10
-0.446303
 20
-0.06663
 30
0.0
 11
-0.446576
 21
-0.064475
 31
0.0
  0
LINE
  8
0
  6
CONTINUOUS
 62
     7
  5
65D
 10
-0.446576
 20
-0.064475
 30
0.0
 11
-0.44684
 21
-0.062323
 31
0.0
  0
LINE
  8
0
  6
CONTINUOUS
 62
     7
  5
65E
 10
-0.44684
 20
-0.062323
 30
0.0
 11
-0.447096
 21
-0.060174
 31
0.0
  0
LINE
  8
0
  6
CONTINUOUS
 62
     7
  5
65F
 10
-0.447096
 20
-0.060174
 30
0.0
 11
-0.447342
 21
-0.058027
 31
0.0
  0
LINE
  8
0
  6
CONTINUOUS
 62
     7
  5
660
 10
-0.447342
 20
-0.058027
 30
0.0
 11
-0.44758
 21
-0.055882
 31
0.0
  0
LINE
  8
0
  6
CONTINUOUS
 62
     7
  5
661
 10
-0.44758
 20
-0.055882
 30
0.0
 11
-0.447808
 21
-0.05374
 31
0.0
  0
LINE
  8
0
  6
CONTINUOUS
 62
     7
  5
662
 10
-0.447808
 20
-0.05374
 30
0.0
 11
-0.448028
 21
-0.051601
 31
0.0
  0
LINE
  8
0
  6
CONTINUOUS
 62
     7
  5
663
 10
-0.448028
 20
-0.051601
 30
0.0
 11
-0.448239
 21
-0.049463
 31
0.0
  0
LINE
  8
0
  6
CONTINUOUS
 62
     7
  5
664
 10
-0.448239
 20
-0.049463
 30
0.0
 11
-0.448441
 21
-0.047326
 31
0.0
  0
LINE
  8
0
  6
CONTINUOUS
 62
     7
  5
665
 10
-0.448441
 20
-0.047326
 30
0.0
 11
-0.448634
 21
-0.045192
 31
0.0
  0
LINE
  8
0
  6
CONTINUOUS
 62
     7
  5
666
 10
-0.448634
 20
-0.045192
 30
0.0
 11
-0.448819
 21
-0.043059
 31
0.0
  0
LINE
  8
0
  6
CONTINUOUS
 62
     7
  5
667
 10
-0.275591
 20
0.331978
 30
0.0
 11
-0.322835
 21
0.331978
 31
0.0
  0
LINE
  8
0
  6
CONTINUOUS
 62
     7
  5
668
 10
-0.322835
 20
0.11811
 30
0.0
 11
-0.275591
 21
0.11811
 31
0.0
  0
LINE
  8
0
  6
CONTINUOUS
 62
     7
  5
669
 10
-0.275591
 20
0.11811
 30
0.0
 11
-0.275591
 21
-0.11811
 31
0.0
  0
LINE
  8
0
  6
CONTINUOUS
 62
     7
  5
66A
 10
-0.275591
 20
0.352362
 30
0.0
 11
-0.275591
 21
0.331978
 31
0.0
  0
LINE
  8
0
  6
CONTINUOUS
 62
     7
  5
66B
 10
-0.275591
 20
-0.331978
 30
0.0
 11
-0.275591
 21
-0.352362
 31
0.0
  0
LINE
  8
0
  6
CONTINUOUS
 62
     7
  5
66C
 10
-0.244094
 20
-0.343563
 30
0.0
 11
-0.165354
 21
-0.343563
 31
0.0
  0
LINE
  8
0
  6
CONTINUOUS
 62
     7
  5
66D
 10
-0.165354
 20
-0.350929
 30
0.0
 11
-0.244094
 21
-0.350929
 31
0.0
  0
LINE
  8
0
  6
CONTINUOUS
 62
     7
  5
66E
 10
-0.244094
 20
-0.302567
 30
0.0
 11
-0.165354
 21
-0.302567
 31
0.0
  0
LINE
  8
0
  6
CONTINUOUS
 62
     7
  5
66F
 10
-0.165354
 20
-0.323944
 30
0.0
 11
-0.244094
 21
-0.323944
 31
0.0
  0
LINE
  8
0
  6
CONTINUOUS
 62
     7
  5
670
 10
-0.244094
 20
-0.231953
 30
0.0
 11
-0.165354
 21
-0.231953
 31
0.0
  0
LINE
  8
0
  6
CONTINUOUS
 62
     7
  5
671
 10
-0.165354
 20
-0.265248
 30
0.0
 11
-0.244094
 21
-0.265248
 31
0.0
  0
LINE
  8
0
  6
CONTINUOUS
 62
     7
  5
672
 10
-0.244094
 20
-0.138634
 30
0.0
 11
-0.165354
 21
-0.138634
 31
0.0
  0
LINE
  8
0
  6
CONTINUOUS
 62
     7
  5
673
 10
-0.165354
 20
-0.180589
 30
0.0
 11
-0.244094
 21
-0.180589
 31
0.0
  0
LINE
  8
0
  6
CONTINUOUS
 62
     7
  5
674
 10
-0.244094
 20
-0.031745
 30
0.0
 11
-0.165354
 21
-0.031745
 31
0.0
  0
LINE
  8
0
  6
CONTINUOUS
 62
     7
  5
675
 10
-0.165354
 20
-0.078252
 30
0.0
 11
-0.244094
 21
-0.078252
 31
0.0
  0
LINE
  8
0
  6
CONTINUOUS
 62
     7
  5
676
 10
-0.322835
 20
-0.331978
 30
0.0
 11
-0.275591
 21
-0.331978
 31
0.0
  0
LINE
  8
0
  6
CONTINUOUS
 62
     7
  5
677
 10
-0.322835
 20
0.11811
 30
0.0
 11
-0.322835
 21
0.331978
 31
0.0
  0
LINE
  8
0
  6
CONTINUOUS
 62
     7
  5
678
 10
-0.322835
 20
-0.331978
 30
0.0
 11
-0.322835
 21
-0.11811
 31
0.0
  0
LINE
  8
0
  6
CONTINUOUS
 62
     7
  5
679
 10
-0.275591
 20
-0.11811
 30
0.0
 11
-0.322835
 21
-0.11811
 31
0.0
  0
LINE
  8
0
  6
CONTINUOUS
 62
     7
  5
67A
 10
-0.244094
 20
-0.350929
 30
0.0
 11
-0.244094
 21
-0.343563
 31
0.0
  0
LINE
  8
0
  6
CONTINUOUS
 62
     7
  5
67B
 10
-0.244094
 20
-0.323944
 30
0.0
 11
-0.244094
 21
-0.302567
 31
0.0
  0
LINE
  8
0
  6
CONTINUOUS
 62
     7
  5
67C
 10
-0.244094
 20
-0.265248
 30
0.0
 11
-0.244094
 21
-0.231953
 31
0.0
  0
LINE
  8
0
  6
CONTINUOUS
 62
     7
  5
67D
 10
-0.244094
 20
-0.180589
 30
0.0
 11
-0.244094
 21
-0.138634
 31
0.0
  0
LINE
  8
0
  6
CONTINUOUS
 62
     7
  5
67E
 10
-0.244094
 20
-0.078252
 30
0.0
 11
-0.244094
 21
-0.031745
 31
0.0
  0
LINE
  8
0
  6
CONTINUOUS
 62
     7
  5
67F
 10
-0.165354
 20
0.031745
 30
0.0
 11
-0.244094
 21
0.031745
 31
0.0
  0
LINE
  8
0
  6
CONTINUOUS
 62
     7
  5
680
 10
-0.244094
 20
0.031745
 30
0.0
 11
-0.244094
 21
0.078252
 31
0.0
  0
LINE
  8
0
  6
CONTINUOUS
 62
     7
  5
681
 10
-0.244094
 20
0.078252
 30
0.0
 11
-0.165354
 21
0.078252
 31
0.0
  0
LINE
  8
0
  6
CONTINUOUS
 62
     7
  5
682
 10
-0.165354
 20
0.138634
 30
0.0
 11
-0.244094
 21
0.138634
 31
0.0
  0
LINE
  8
0
  6
CONTINUOUS
 62
     7
  5
683
 10
-0.244094
 20
0.138634
 30
0.0
 11
-0.244094
 21
0.180589
 31
0.0
  0
LINE
  8
0
  6
CONTINUOUS
 62
     7
  5
684
 10
-0.244094
 20
0.180589
 30
0.0
 11
-0.165354
 21
0.180589
 31
0.0
  0
LINE
  8
0
  6
CONTINUOUS
 62
     7
  5
685
 10
-0.165354
 20
0.231953
 30
0.0
 11
-0.244094
 21
0.231953
 31
0.0
  0
LINE
  8
0
  6
CONTINUOUS
 62
     7
  5
686
 10
-0.244094
 20
0.231953
 30
0.0
 11
-0.244094
 21
0.265248
 31
0.0
  0
LINE
  8
0
  6
CONTINUOUS
 62
     7
  5
687
 10
-0.244094
 20
0.265248
 30
0.0
 11
-0.165354
 21
0.265248
 31
0.0
  0
LINE
  8
0
  6
CONTINUOUS
 62
     7
  5
688
 10
-0.165354
 20
0.302567
 30
0.0
 11
-0.244094
 21
0.302567
 31
0.0
  0
LINE
  8
0
  6
CONTINUOUS
 62
     7
  5
689
 10
-0.244094
 20
0.302567
 30
0.0
 11
-0.244094
 21
0.323944
 31
0.0
  0
LINE
  8
0
  6
CONTINUOUS
 62
     7
  5
68A
 10
-0.244094
 20
0.323944
 30
0.0
 11
-0.165354
 21
0.323944
 31
0.0
  0
LINE
  8
0
  6
CONTINUOUS
 62
     7
  5
68B
 10
-0.165354
 20
0.343563
 30
0.0
 11
-0.244094
 21
0.343563
 31
0.0
  0
LINE
  8
0
  6
CONTINUOUS
 62
     7
  5
68C
 10
-0.244094
 20
0.343563
 30
0.0
 11
-0.244094
 21
0.350929
 31
0.0
  0
LINE
  8
0
  6
CONTINUOUS
 62
     7
  5
68D
 10
-0.244094
 20
0.350929
 30
0.0
 11
-0.165354
 21
0.350929
 31
0.0
  0
LINE
  8
0
  6
CONTINUOUS
 62
     7
  5
68E
 10
-0.125984
 20
-0.244094
 30
0.0
 11
-0.125984
 21
0.244094
 31
0.0
  0
LINE
  8
0
  6
CONTINUOUS
 62
     7
  5
68F
 10
-0.099144
 20
-0.354331
 30
0.0
 11
-0.125984
 21
-0.244094
 31
0.0
  0
LINE
  8
0
  6
CONTINUOUS
 62
     7
  5
690
 10
-0.099144
 20
-0.354331
 30
0.0
 11
-0.138514
 21
-0.354331
 31
0.0
  0
LINE
  8
0
  6
CONTINUOUS
 62
     7
  5
691
 10
-0.138514
 20
-0.354331
 30
0.0
 11
-0.165354
 21
-0.354331
 31
0.0
  0
LINE
  8
0
  6
CONTINUOUS
 62
     7
  5
692
 10
-0.125984
 20
0.244094
 30
0.0
 11
-0.099144
 21
0.354331
 31
0.0
  0
LINE
  8
0
  6
CONTINUOUS
 62
     7
  5
693
 10
-0.099144
 20
0.354331
 30
0.0
 11
-0.138514
 21
0.354331
 31
0.0
  0
LINE
  8
0
  6
CONTINUOUS
 62
     7
  5
694
 10
-0.138514
 20
0.354331
 30
0.0
 11
-0.165354
 21
0.244094
 31
0.0
  0
LINE
  8
0
  6
CONTINUOUS
 62
     7
  5
695
 10
-0.165354
 20
-0.244094
 30
0.0
 11
-0.165354
 21
0.244094
 31
0.0
  0
LINE
  8
0
  6
CONTINUOUS
 62
     7
  5
696
 10
-0.165354
 20
-0.244094
 30
0.0
 11
-0.138514
 21
-0.354331
 31
0.0
  0
LINE
  8
0
  6
CONTINUOUS
 62
     7
  5
697
 10
-0.165354
 20
0.354331
 30
0.0
 11
-0.138514
 21
0.354331
 31
0.0
  0
LINE
  8
0
  6
CONTINUOUS
 62
     7
  5
698
 10
-0.165354
 20
-0.354331
 30
0.0
 11
-0.165354
 21
-0.244094
 31
0.0
  0
LINE
  8
0
  6
CONTINUOUS
 62
     7
  5
699
 10
-0.165354
 20
0.244094
 30
0.0
 11
-0.165354
 21
0.354331
 31
0.0
  0
LINE
  8
0
  6
CONTINUOUS
 62
     7
  5
69A
 10
-0.854331
 20
-0.216535
 30
0.0
 11
-0.854331
 21
-0.251969
 31
0.0
  0
LINE
  8
0
  6
CONTINUOUS
 62
     7
  5
69B
 10
-1.137795
 20
-0.251969
 30
0.0
 11
-1.139904
 21
-0.249288
 31
0.0
  0
LINE
  8
0
  6
CONTINUOUS
 62
     7
  5
69C
 10
-1.139904
 20
-0.249288
 30
0.0
 11
-1.141906
 21
-0.246526
 31
0.0
  0
LINE
  8
0
  6
CONTINUOUS
 62
     7
  5
69D
 10
-1.141906
 20
-0.246526
 30
0.0
 11
-1.143798
 21
-0.243688
 31
0.0
  0
LINE
  8
0
  6
CONTINUOUS
 62
     7
  5
69E
 10
-1.143798
 20
-0.243688
 30
0.0
 11
-1.145577
 21
-0.240778
 31
0.0
  0
LINE
  8
0
  6
CONTINUOUS
 62
     7
  5
69F
 10
-1.145577
 20
-0.240778
 30
0.0
 11
-1.147241
 21
-0.237801
 31
0.0
  0
LINE
  8
0
  6
CONTINUOUS
 62
     7
  5
6A0
 10
-1.147241
 20
-0.237801
 30
0.0
 11
-1.148787
 21
-0.234761
 31
0.0
  0
LINE
  8
0
  6
CONTINUOUS
 62
     7
  5
6A1
 10
-1.148787
 20
-0.234761
 30
0.0
 11
-1.150213
 21
-0.231662
 31
0.0
  0
LINE
  8
0
  6
CONTINUOUS
 62
     7
  5
6A2
 10
-1.150213
 20
-0.231662
 30
0.0
 11
-1.151516
 21
-0.22851
 31
0.0
  0
LINE
  8
0
  6
CONTINUOUS
 62
     7
  5
6A3
 10
-1.151516
 20
-0.22851
 30
0.0
 11
-1.152694
 21
-0.22531
 31
0.0
  0
LINE
  8
0
  6
CONTINUOUS
 62
     7
  5
6A4
 10
-1.152694
 20
-0.22531
 30
0.0
 11
-1.153746
 21
-0.222065
 31
0.0
  0
LINE
  8
0
  6
CONTINUOUS
 62
     7
  5
6A5
 10
-1.153746
 20
-0.222065
 30
0.0
 11
-1.154671
 21
-0.218782
 31
0.0
  0
LINE
  8
0
  6
CONTINUOUS
 62
     7
  5
6A6
 10
-1.154671
 20
-0.218782
 30
0.0
 11
-1.155466
 21
-0.215466
 31
0.0
  0
LINE
  8
0
  6
CONTINUOUS
 62
     7
  5
6A7
 10
-1.155466
 20
-0.215466
 30
0.0
 11
-1.15613
 21
-0.21212
 31
0.0
  0
LINE
  8
0
  6
CONTINUOUS
 62
     7
  5
6A8
 10
-1.15613
 20
-0.21212
 30
0.0
 11
-1.156663
 21
-0.208751
 31
0.0
  0
LINE
  8
0
  6
CONTINUOUS
 62
     7
  5
6A9
 10
-1.156663
 20
-0.208751
 30
0.0
 11
-1.157063
 21
-0.205364
 31
0.0
  0
LINE
  8
0
  6
CONTINUOUS
 62
     7
  5
6AA
 10
-1.157063
 20
-0.205364
 30
0.0
 11
-1.15733
 21
-0.201964
 31
0.0
  0
LINE
  8
0
  6
CONTINUOUS
 62
     7
  5
6AB
 10
-1.15733
 20
-0.201964
 30
0.0
 11
-1.157464
 21
-0.198556
 31
0.0
  0
LINE
  8
0
  6
CONTINUOUS
 62
     7
  5
6AC
 10
-1.157464
 20
-0.198556
 30
0.0
 11
-1.157464
 21
-0.195145
 31
0.0
  0
LINE
  8
0
  6
CONTINUOUS
 62
     7
  5
6AD
 10
-1.157464
 20
-0.195145
 30
0.0
 11
-1.15733
 21
-0.191737
 31
0.0
  0
LINE
  8
0
  6
CONTINUOUS
 62
     7
  5
6AE
 10
-1.15733
 20
-0.191737
 30
0.0
 11
-1.157063
 21
-0.188337
 31
0.0
  0
LINE
  8
0
  6
CONTINUOUS
 62
     7
  5
6AF
 10
-1.157063
 20
-0.188337
 30
0.0
 11
-1.156663
 21
-0.18495
 31
0.0
  0
LINE
  8
0
  6
CONTINUOUS
 62
     7
  5
6B0
 10
-1.156663
 20
-0.18495
 30
0.0
 11
-1.15613
 21
-0.181581
 31
0.0
  0
LINE
  8
0
  6
CONTINUOUS
 62
     7
  5
6B1
 10
-1.15613
 20
-0.181581
 30
0.0
 11
-1.155466
 21
-0.178235
 31
0.0
  0
LINE
  8
0
  6
CONTINUOUS
 62
     7
  5
6B2
 10
-1.155466
 20
-0.178235
 30
0.0
 11
-1.154671
 21
-0.174918
 31
0.0
  0
LINE
  8
0
  6
CONTINUOUS
 62
     7
  5
6B3
 10
-1.154671
 20
-0.174918
 30
0.0
 11
-1.153746
 21
-0.171635
 31
0.0
  0
LINE
  8
0
  6
CONTINUOUS
 62
     7
  5
6B4
 10
-1.153746
 20
-0.171635
 30
0.0
 11
-1.152694
 21
-0.168391
 31
0.0
  0
LINE
  8
0
  6
CONTINUOUS
 62
     7
  5
6B5
 10
-1.152694
 20
-0.168391
 30
0.0
 11
-1.151516
 21
-0.16519
 31
0.0
  0
LINE
  8
0
  6
CONTINUOUS
 62
     7
  5
6B6
 10
-1.151516
 20
-0.16519
 30
0.0
 11
-1.150213
 21
-0.162038
 31
0.0
  0
LINE
  8
0
  6
CONTINUOUS
 62
     7
  5
6B7
 10
-1.150213
 20
-0.162038
 30
0.0
 11
-1.148787
 21
-0.15894
 31
0.0
  0
LINE
  8
0
  6
CONTINUOUS
 62
     7
  5
6B8
 10
-1.148787
 20
-0.15894
 30
0.0
 11
-1.147241
 21
-0.1559
 31
0.0
  0
LINE
  8
0
  6
CONTINUOUS
 62
     7
  5
6B9
 10
-1.147241
 20
-0.1559
 30
0.0
 11
-1.145577
 21
-0.152922
 31
0.0
  0
LINE
  8
0
  6
CONTINUOUS
 62
     7
  5
6BA
 10
-1.145577
 20
-0.152922
 30
0.0
 11
-1.143798
 21
-0.150013
 31
0.0
  0
LINE
  8
0
  6
CONTINUOUS
 62
     7
  5
6BB
 10
-1.143798
 20
-0.150013
 30
0.0
 11
-1.141906
 21
-0.147175
 31
0.0
  0
LINE
  8
0
  6
CONTINUOUS
 62
     7
  5
6BC
 10
-1.141906
 20
-0.147175
 30
0.0
 11
-1.139904
 21
-0.144413
 31
0.0
  0
LINE
  8
0
  6
CONTINUOUS
 62
     7
  5
6BD
 10
-1.139904
 20
-0.144413
 30
0.0
 11
-1.137795
 21
-0.141732
 31
0.0
  0
LINE
  8
0
  6
CONTINUOUS
 62
     7
  5
6BE
 10
-1.137795
 20
-0.141732
 30
0.0
 11
-1.137795
 21
-0.251969
 31
0.0
  0
LINE
  8
0
  6
CONTINUOUS
 62
     7
  5
6BF
 10
-1.137795
 20
-0.141732
 30
0.0
 11
-0.88189
 21
-0.141732
 31
0.0
  0
LINE
  8
0
  6
CONTINUOUS
 62
     7
  5
6C0
 10
-0.854331
 20
-0.251969
 30
0.0
 11
-1.137795
 21
-0.251969
 31
0.0
  0
LINE
  8
0
  6
CONTINUOUS
 62
     7
  5
6C1
 10
-1.03937
 20
-0.220472
 30
0.0
 11
-1.094488
 21
-0.220472
 31
0.0
  0
ARC
  8
0
  6
CONTINUOUS
 62
     7
  5
6C2
 10
-1.094488
 20
-0.19685
 30
0.0
 40
0.023622
 50
90.0
 51
270.0
  0
LINE
  8
0
  6
CONTINUOUS
 62
     7
  5
6C3
 10
-1.094488
 20
-0.173228
 30
0.0
 11
-1.03937
 21
-0.173228
 31
0.0
  0
ARC
  8
0
  6
CONTINUOUS
 62
     7
  5
6C4
 10
-1.03937
 20
-0.19685
 30
0.0
 40
0.023622
 50
270.0
 51
90.0
  0
LINE
  8
0
  6
CONTINUOUS
 62
     7
  5
6C5
 10
-0.88189
 20
-0.19685
 30
0.0
 11
-0.88189
 21
-0.216535
 31
0.0
  0
LINE
  8
0
  6
CONTINUOUS
 62
     7
  5
6C6
 10
-0.88189
 20
-0.055117
 30
0.0
 11
-0.88189
 21
-0.19685
 31
0.0
  0
LINE
  8
0
  6
CONTINUOUS
 62
     7
  5
6C7
 10
-0.88189
 20
0.188976
 30
0.0
 11
-0.88189
 21
0.055117
 31
0.0
  0
LINE
  8
0
  6
CONTINUOUS
 62
     7
  5
6C8
 10
-0.88189
 20
0.224409
 30
0.0
 11
-0.88189
 21
0.188976
 31
0.0
  0
LINE
  8
0
  6
CONTINUOUS
 62
     7
  5
6C9
 10
-0.88189
 20
-0.055118
 30
0.0
 11
-1.137795
 21
-0.055118
 31
0.0
  0
ARC
  8
0
  6
CONTINUOUS
 62
     7
  5
6CA
 10
-1.094488
 20
0.0
 30
0.0
 40
0.023622
 50
160.528779
 51
199.471221
  0
LINE
  8
0
  6
CONTINUOUS
 62
     7
  5
6CB
 10
-1.137795
 20
0.055118
 30
0.0
 11
-0.88189
 21
0.055118
 31
0.0
  0
LINE
  8
0
  6
CONTINUOUS
 62
     7
  5
6CC
 10
-1.140834
 20
0.051182
 30
0.0
 11
-1.14075
 21
0.051297
 31
0.0
  0
LINE
  8
0
  6
CONTINUOUS
 62
     7
  5
6CD
 10
-1.14075
 20
0.051297
 30
0.0
 11
-1.140667
 21
0.051412
 31
0.0
  0
LINE
  8
0
  6
CONTINUOUS
 62
     7
  5
6CE
 10
-1.140667
 20
0.051412
 30
0.0
 11
-1.140583
 21
0.051526
 31
0.0
  0
LINE
  8
0
  6
CONTINUOUS
 62
     7
  5
6CF
 10
-1.140583
 20
0.051526
 30
0.0
 11
-1.140498
 21
0.051641
 31
0.0
  0
LINE
  8
0
  6
CONTINUOUS
 62
     7
  5
6D0
 10
-1.140498
 20
0.051641
 30
0.0
 11
-1.140414
 21
0.051755
 31
0.0
  0
LINE
  8
0
  6
CONTINUOUS
 62
     7
  5
6D1
 10
-1.140414
 20
0.051755
 30
0.0
 11
-1.140329
 21
0.051869
 31
0.0
  0
LINE
  8
0
  6
CONTINUOUS
 62
     7
  5
6D2
 10
-1.140329
 20
0.051869
 30
0.0
 11
-1.140245
 21
0.051983
 31
0.0
  0
LINE
  8
0
  6
CONTINUOUS
 62
     7
  5
6D3
 10
-1.140245
 20
0.051983
 30
0.0
 11
-1.14016
 21
0.052097
 31
0.0
  0
LINE
  8
0
  6
CONTINUOUS
 62
     7
  5
6D4
 10
-1.14016
 20
0.052097
 30
0.0
 11
-1.140074
 21
0.05221
 31
0.0
  0
LINE
  8
0
  6
CONTINUOUS
 62
     7
  5
6D5
 10
-1.140074
 20
0.05221
 30
0.0
 11
-1.139989
 21
0.052324
 31
0.0
  0
LINE
  8
0
  6
CONTINUOUS
 62
     7
  5
6D6
 10
-1.139989
 20
0.052324
 30
0.0
 11
-1.139904
 21
0.052437
 31
0.0
  0
LINE
  8
0
  6
CONTINUOUS
 62
     7
  5
6D7
 10
-1.139904
 20
0.052437
 30
0.0
 11
-1.139818
 21
0.052551
 31
0.0
  0
LINE
  8
0
  6
CONTINUOUS
 62
     7
  5
6D8
 10
-1.139818
 20
0.052551
 30
0.0
 11
-1.139732
 21
0.052664
 31
0.0
  0
LINE
  8
0
  6
CONTINUOUS
 62
     7
  5
6D9
 10
-1.139732
 20
0.052664
 30
0.0
 11
-1.139646
 21
0.052777
 31
0.0
  0
LINE
  8
0
  6
CONTINUOUS
 62
     7
  5
6DA
 10
-1.139646
 20
0.052777
 30
0.0
 11
-1.13956
 21
0.05289
 31
0.0
  0
LINE
  8
0
  6
CONTINUOUS
 62
     7
  5
6DB
 10
-1.13956
 20
0.05289
 30
0.0
 11
-1.139473
 21
0.053002
 31
0.0
  0
LINE
  8
0
  6
CONTINUOUS
 62
     7
  5
6DC
 10
-1.139473
 20
0.053002
 30
0.0
 11
-1.139387
 21
0.053115
 31
0.0
  0
LINE
  8
0
  6
CONTINUOUS
 62
     7
  5
6DD
 10
-1.139387
 20
0.053115
 30
0.0
 11
-1.1393
 21
0.053227
 31
0.0
  0
LINE
  8
0
  6
CONTINUOUS
 62
     7
  5
6DE
 10
-1.1393
 20
0.053227
 30
0.0
 11
-1.139213
 21
0.05334
 31
0.0
  0
LINE
  8
0
  6
CONTINUOUS
 62
     7
  5
6DF
 10
-1.139213
 20
0.05334
 30
0.0
 11
-1.139126
 21
0.053452
 31
0.0
  0
LINE
  8
0
  6
CONTINUOUS
 62
     7
  5
6E0
 10
-1.139126
 20
0.053452
 30
0.0
 11
-1.139038
 21
0.053564
 31
0.0
  0
LINE
  8
0
  6
CONTINUOUS
 62
     7
  5
6E1
 10
-1.139038
 20
0.053564
 30
0.0
 11
-1.138951
 21
0.053676
 31
0.0
  0
LINE
  8
0
  6
CONTINUOUS
 62
     7
  5
6E2
 10
-1.138951
 20
0.053676
 30
0.0
 11
-1.138863
 21
0.053787
 31
0.0
  0
LINE
  8
0
  6
CONTINUOUS
 62
     7
  5
6E3
 10
-1.138863
 20
0.053787
 30
0.0
 11
-1.138775
 21
0.053899
 31
0.0
  0
LINE
  8
0
  6
CONTINUOUS
 62
     7
  5
6E4
 10
-1.138775
 20
0.053899
 30
0.0
 11
-1.138687
 21
0.05401
 31
0.0
  0
LINE
  8
0
  6
CONTINUOUS
 62
     7
  5
6E5
 10
-1.138687
 20
0.05401
 30
0.0
 11
-1.138599
 21
0.054122
 31
0.0
  0
LINE
  8
0
  6
CONTINUOUS
 62
     7
  5
6E6
 10
-1.138599
 20
0.054122
 30
0.0
 11
-1.13851
 21
0.054233
 31
0.0
  0
LINE
  8
0
  6
CONTINUOUS
 62
     7
  5
6E7
 10
-1.13851
 20
0.054233
 30
0.0
 11
-1.138422
 21
0.054344
 31
0.0
  0
LINE
  8
0
  6
CONTINUOUS
 62
     7
  5
6E8
 10
-1.138422
 20
0.054344
 30
0.0
 11
-1.138333
 21
0.054455
 31
0.0
  0
LINE
  8
0
  6
CONTINUOUS
 62
     7
  5
6E9
 10
-1.138333
 20
0.054455
 30
0.0
 11
-1.138244
 21
0.054565
 31
0.0
  0
LINE
  8
0
  6
CONTINUOUS
 62
     7
  5
6EA
 10
-1.138244
 20
0.054565
 30
0.0
 11
-1.138155
 21
0.054676
 31
0.0
  0
LINE
  8
0
  6
CONTINUOUS
 62
     7
  5
6EB
 10
-1.138155
 20
0.054676
 30
0.0
 11
-1.138066
 21
0.054786
 31
0.0
  0
LINE
  8
0
  6
CONTINUOUS
 62
     7
  5
6EC
 10
-1.138066
 20
0.054786
 30
0.0
 11
-1.137976
 21
0.054897
 31
0.0
  0
LINE
  8
0
  6
CONTINUOUS
 62
     7
  5
6ED
 10
-1.137976
 20
0.054897
 30
0.0
 11
-1.137886
 21
0.055007
 31
0.0
  0
LINE
  8
0
  6
CONTINUOUS
 62
     7
  5
6EE
 10
-1.137886
 20
0.055007
 30
0.0
 11
-1.137796
 21
0.055117
 31
0.0
  0
LINE
  8
0
  6
CONTINUOUS
 62
     7
  5
6EF
 10
-1.141149
 20
-0.050747
 30
0.0
 11
-1.142909
 21
-0.0482
 31
0.0
  0
LINE
  8
0
  6
CONTINUOUS
 62
     7
  5
6F0
 10
-1.142909
 20
-0.0482
 30
0.0
 11
-1.144578
 21
-0.045593
 31
0.0
  0
LINE
  8
0
  6
CONTINUOUS
 62
     7
  5
6F1
 10
-1.144578
 20
-0.045593
 30
0.0
 11
-1.146153
 21
-0.042927
 31
0.0
  0
LINE
  8
0
  6
CONTINUOUS
 62
     7
  5
6F2
 10
-1.146153
 20
-0.042927
 30
0.0
 11
-1.147633
 21
-0.040208
 31
0.0
  0
LINE
  8
0
  6
CONTINUOUS
 62
     7
  5
6F3
 10
-1.147633
 20
-0.040208
 30
0.0
 11
-1.149014
 21
-0.037437
 31
0.0
  0
LINE
  8
0
  6
CONTINUOUS
 62
     7
  5
6F4
 10
-1.149014
 20
-0.037437
 30
0.0
 11
-1.150296
 21
-0.034619
 31
0.0
  0
LINE
  8
0
  6
CONTINUOUS
 62
     7
  5
6F5
 10
-1.150296
 20
-0.034619
 30
0.0
 11
-1.151478
 21
-0.031758
 31
0.0
  0
LINE
  8
0
  6
CONTINUOUS
 62
     7
  5
6F6
 10
-1.151478
 20
-0.031758
 30
0.0
 11
-1.152556
 21
-0.028856
 31
0.0
  0
LINE
  8
0
  6
CONTINUOUS
 62
     7
  5
6F7
 10
-1.152556
 20
-0.028856
 30
0.0
 11
-1.153531
 21
-0.025917
 31
0.0
  0
LINE
  8
0
  6
CONTINUOUS
 62
     7
  5
6F8
 10
-1.153531
 20
-0.025917
 30
0.0
 11
-1.1544
 21
-0.022946
 31
0.0
  0
LINE
  8
0
  6
CONTINUOUS
 62
     7
  5
6F9
 10
-1.1544
 20
-0.022946
 30
0.0
 11
-1.155163
 21
-0.019946
 31
0.0
  0
LINE
  8
0
  6
CONTINUOUS
 62
     7
  5
6FA
 10
-1.155163
 20
-0.019946
 30
0.0
 11
-1.155819
 21
-0.01692
 31
0.0
  0
LINE
  8
0
  6
CONTINUOUS
 62
     7
  5
6FB
 10
-1.155819
 20
-0.01692
 30
0.0
 11
-1.156367
 21
-0.013873
 31
0.0
  0
LINE
  8
0
  6
CONTINUOUS
 62
     7
  5
6FC
 10
-1.156367
 20
-0.013873
 30
0.0
 11
-1.156806
 21
-0.010808
 31
0.0
  0
LINE
  8
0
  6
CONTINUOUS
 62
     7
  5
6FD
 10
-1.156806
 20
-0.010808
 30
0.0
 11
-1.157136
 21
-0.00773
 31
0.0
  0
LINE
  8
0
  6
CONTINUOUS
 62
     7
  5
6FE
 10
-1.157136
 20
-0.00773
 30
0.0
 11
-1.157356
 21
-0.004642
 31
0.0
  0
LINE
  8
0
  6
CONTINUOUS
 62
     7
  5
6FF
 10
-1.157356
 20
-0.004642
 30
0.0
 11
-1.157467
 21
-0.001548
 31
0.0
  0
LINE
  8
0
  6
CONTINUOUS
 62
     7
  5
700
 10
-1.157467
 20
-0.001548
 30
0.0
 11
-1.157467
 21
0.001548
 31
0.0
  0
LINE
  8
0
  6
CONTINUOUS
 62
     7
  5
701
 10
-1.157467
 20
0.001548
 30
0.0
 11
-1.157356
 21
0.004642
 31
0.0
  0
LINE
  8
0
  6
CONTINUOUS
 62
     7
  5
702
 10
-1.157356
 20
0.004642
 30
0.0
 11
-1.157136
 21
0.00773
 31
0.0
  0
LINE
  8
0
  6
CONTINUOUS
 62
     7
  5
703
 10
-1.157136
 20
0.00773
 30
0.0
 11
-1.156806
 21
0.010808
 31
0.0
  0
LINE
  8
0
  6
CONTINUOUS
 62
     7
  5
704
 10
-1.156806
 20
0.010808
 30
0.0
 11
-1.156367
 21
0.013873
 31
0.0
  0
LINE
  8
0
  6
CONTINUOUS
 62
     7
  5
705
 10
-1.156367
 20
0.013873
 30
0.0
 11
-1.155819
 21
0.01692
 31
0.0
  0
LINE
  8
0
  6
CONTINUOUS
 62
     7
  5
706
 10
-1.155819
 20
0.01692
 30
0.0
 11
-1.155163
 21
0.019946
 31
0.0
  0
LINE
  8
0
  6
CONTINUOUS
 62
     7
  5
707
 10
-1.155163
 20
0.019946
 30
0.0
 11
-1.1544
 21
0.022946
 31
0.0
  0
LINE
  8
0
  6
CONTINUOUS
 62
     7
  5
708
 10
-1.1544
 20
0.022946
 30
0.0
 11
-1.153531
 21
0.025917
 31
0.0
  0
LINE
  8
0
  6
CONTINUOUS
 62
     7
  5
709
 10
-1.153531
 20
0.025917
 30
0.0
 11
-1.152556
 21
0.028856
 31
0.0
  0
LINE
  8
0
  6
CONTINUOUS
 62
     7
  5
70A
 10
-1.152556
 20
0.028856
 30
0.0
 11
-1.151478
 21
0.031758
 31
0.0
  0
LINE
  8
0
  6
CONTINUOUS
 62
     7
  5
70B
 10
-1.151478
 20
0.031758
 30
0.0
 11
-1.150296
 21
0.034619
 31
0.0
  0
LINE
  8
0
  6
CONTINUOUS
 62
     7
  5
70C
 10
-1.150296
 20
0.034619
 30
0.0
 11
-1.149014
 21
0.037437
 31
0.0
  0
LINE
  8
0
  6
CONTINUOUS
 62
     7
  5
70D
 10
-1.149014
 20
0.037437
 30
0.0
 11
-1.147633
 21
0.040208
 31
0.0
  0
LINE
  8
0
  6
CONTINUOUS
 62
     7
  5
70E
 10
-1.147633
 20
0.040208
 30
0.0
 11
-1.146153
 21
0.042927
 31
0.0
  0
LINE
  8
0
  6
CONTINUOUS
 62
     7
  5
70F
 10
-1.146153
 20
0.042927
 30
0.0
 11
-1.144578
 21
0.045593
 31
0.0
  0
LINE
  8
0
  6
CONTINUOUS
 62
     7
  5
710
 10
-1.144578
 20
0.045593
 30
0.0
 11
-1.142909
 21
0.0482
 31
0.0
  0
LINE
  8
0
  6
CONTINUOUS
 62
     7
  5
711
 10
-1.142909
 20
0.0482
 30
0.0
 11
-1.141149
 21
0.050747
 31
0.0
  0
LINE
  8
0
  6
CONTINUOUS
 62
     7
  5
712
 10
-1.137795
 20
-0.055118
 30
0.0
 11
-1.137885
 21
-0.055008
 31
0.0
  0
LINE
  8
0
  6
CONTINUOUS
 62
     7
  5
713
 10
-1.137885
 20
-0.055008
 30
0.0
 11
-1.137975
 21
-0.054898
 31
0.0
  0
LINE
  8
0
  6
CONTINUOUS
 62
     7
  5
714
 10
-1.137975
 20
-0.054898
 30
0.0
 11
-1.138065
 21
-0.054788
 31
0.0
  0
LINE
  8
0
  6
CONTINUOUS
 62
     7
  5
715
 10
-1.138065
 20
-0.054788
 30
0.0
 11
-1.138154
 21
-0.054677
 31
0.0
  0
LINE
  8
0
  6
CONTINUOUS
 62
     7
  5
716
 10
-1.138154
 20
-0.054677
 30
0.0
 11
-1.138243
 21
-0.054567
 31
0.0
  0
LINE
  8
0
  6
CONTINUOUS
 62
     7
  5
717
 10
-1.138243
 20
-0.054567
 30
0.0
 11
-1.138332
 21
-0.054456
 31
0.0
  0
LINE
  8
0
  6
CONTINUOUS
 62
     7
  5
718
 10
-1.138332
 20
-0.054456
 30
0.0
 11
-1.138421
 21
-0.054345
 31
0.0
  0
LINE
  8
0
  6
CONTINUOUS
 62
     7
  5
719
 10
-1.138421
 20
-0.054345
 30
0.0
 11
-1.13851
 21
-0.054234
 31
0.0
  0
LINE
  8
0
  6
CONTINUOUS
 62
     7
  5
71A
 10
-1.13851
 20
-0.054234
 30
0.0
 11
-1.138598
 21
-0.054123
 31
0.0
  0
LINE
  8
0
  6
CONTINUOUS
 62
     7
  5
71B
 10
-1.138598
 20
-0.054123
 30
0.0
 11
-1.138686
 21
-0.054011
 31
0.0
  0
LINE
  8
0
  6
CONTINUOUS
 62
     7
  5
71C
 10
-1.138686
 20
-0.054011
 30
0.0
 11
-1.138774
 21
-0.0539
 31
0.0
  0
LINE
  8
0
  6
CONTINUOUS
 62
     7
  5
71D
 10
-1.138774
 20
-0.0539
 30
0.0
 11
-1.138862
 21
-0.053788
 31
0.0
  0
LINE
  8
0
  6
CONTINUOUS
 62
     7
  5
71E
 10
-1.138862
 20
-0.053788
 30
0.0
 11
-1.13895
 21
-0.053677
 31
0.0
  0
LINE
  8
0
  6
CONTINUOUS
 62
     7
  5
71F
 10
-1.13895
 20
-0.053677
 30
0.0
 11
-1.139038
 21
-0.053565
 31
0.0
  0
LINE
  8
0
  6
CONTINUOUS
 62
     7
  5
720
 10
-1.139038
 20
-0.053565
 30
0.0
 11
-1.139125
 21
-0.053453
 31
0.0
  0
LINE
  8
0
  6
CONTINUOUS
 62
     7
  5
721
 10
-1.139125
 20
-0.053453
 30
0.0
 11
-1.139212
 21
-0.05334
 31
0.0
  0
LINE
  8
0
  6
CONTINUOUS
 62
     7
  5
722
 10
-1.139212
 20
-0.05334
 30
0.0
 11
-1.139299
 21
-0.053228
 31
0.0
  0
LINE
  8
0
  6
CONTINUOUS
 62
     7
  5
723
 10
-1.139299
 20
-0.053228
 30
0.0
 11
-1.139386
 21
-0.053116
 31
0.0
  0
LINE
  8
0
  6
CONTINUOUS
 62
     7
  5
724
 10
-1.139386
 20
-0.053116
 30
0.0
 11
-1.139473
 21
-0.053003
 31
0.0
  0
LINE
  8
0
  6
CONTINUOUS
 62
     7
  5
725
 10
-1.139473
 20
-0.053003
 30
0.0
 11
-1.139559
 21
-0.05289
 31
0.0
  0
LINE
  8
0
  6
CONTINUOUS
 62
     7
  5
726
 10
-1.139559
 20
-0.05289
 30
0.0
 11
-1.139646
 21
-0.052777
 31
0.0
  0
LINE
  8
0
  6
CONTINUOUS
 62
     7
  5
727
 10
-1.139646
 20
-0.052777
 30
0.0
 11
-1.139732
 21
-0.052664
 31
0.0
  0
LINE
  8
0
  6
CONTINUOUS
 62
     7
  5
728
 10
-1.139732
 20
-0.052664
 30
0.0
 11
-1.139818
 21
-0.052551
 31
0.0
  0
LINE
  8
0
  6
CONTINUOUS
 62
     7
  5
729
 10
-1.139818
 20
-0.052551
 30
0.0
 11
-1.139903
 21
-0.052438
 31
0.0
  0
LINE
  8
0
  6
CONTINUOUS
 62
     7
  5
72A
 10
-1.139903
 20
-0.052438
 30
0.0
 11
-1.139989
 21
-0.052324
 31
0.0
  0
LINE
  8
0
  6
CONTINUOUS
 62
     7
  5
72B
 10
-1.139989
 20
-0.052324
 30
0.0
 11
-1.140074
 21
-0.052211
 31
0.0
  0
LINE
  8
0
  6
CONTINUOUS
 62
     7
  5
72C
 10
-1.140074
 20
-0.052211
 30
0.0
 11
-1.140159
 21
-0.052097
 31
0.0
  0
LINE
  8
0
  6
CONTINUOUS
 62
     7
  5
72D
 10
-1.140159
 20
-0.052097
 30
0.0
 11
-1.140244
 21
-0.051983
 31
0.0
  0
LINE
  8
0
  6
CONTINUOUS
 62
     7
  5
72E
 10
-1.140244
 20
-0.051983
 30
0.0
 11
-1.140329
 21
-0.051869
 31
0.0
  0
LINE
  8
0
  6
CONTINUOUS
 62
     7
  5
72F
 10
-1.140329
 20
-0.051869
 30
0.0
 11
-1.140414
 21
-0.051755
 31
0.0
  0
LINE
  8
0
  6
CONTINUOUS
 62
     7
  5
730
 10
-1.140414
 20
-0.051755
 30
0.0
 11
-1.140498
 21
-0.051641
 31
0.0
  0
LINE
  8
0
  6
CONTINUOUS
 62
     7
  5
731
 10
-1.140498
 20
-0.051641
 30
0.0
 11
-1.140582
 21
-0.051526
 31
0.0
  0
LINE
  8
0
  6
CONTINUOUS
 62
     7
  5
732
 10
-1.140582
 20
-0.051526
 30
0.0
 11
-1.140666
 21
-0.051412
 31
0.0
  0
LINE
  8
0
  6
CONTINUOUS
 62
     7
  5
733
 10
-1.140666
 20
-0.051412
 30
0.0
 11
-1.14075
 21
-0.051297
 31
0.0
  0
LINE
  8
0
  6
CONTINUOUS
 62
     7
  5
734
 10
-1.14075
 20
-0.051297
 30
0.0
 11
-1.140834
 21
-0.051182
 31
0.0
  0
LINE
  8
0
  6
CONTINUOUS
 62
     7
  5
735
 10
-0.88189
 20
0.141732
 30
0.0
 11
-1.137795
 21
0.141732
 31
0.0
  0
LINE
  8
0
  6
CONTINUOUS
 62
     7
  5
736
 10
-1.03937
 20
0.173228
 30
0.0
 11
-1.094488
 21
0.173228
 31
0.0
  0
ARC
  8
0
  6
CONTINUOUS
 62
     7
  5
737
 10
-1.094488
 20
0.19685
 30
0.0
 40
0.023622
 50
90.0
 51
270.0
  0
LINE
  8
0
  6
CONTINUOUS
 62
     7
  5
738
 10
-1.094488
 20
0.220472
 30
0.0
 11
-1.03937
 21
0.220472
 31
0.0
  0
ARC
  8
0
  6
CONTINUOUS
 62
     7
  5
739
 10
-1.03937
 20
0.19685
 30
0.0
 40
0.023622
 50
270.0
 51
90.0
  0
LINE
  8
0
  6
CONTINUOUS
 62
     7
  5
73A
 10
-0.854331
 20
0.251969
 30
0.0
 11
-0.854331
 21
0.224409
 31
0.0
  0
LINE
  8
0
  6
CONTINUOUS
 62
     7
  5
73B
 10
-1.137795
 20
0.251969
 30
0.0
 11
-0.854331
 21
0.251969
 31
0.0
  0
LINE
  8
0
  6
CONTINUOUS
 62
     7
  5
73C
 10
-1.137795
 20
0.251969
 30
0.0
 11
-1.137795
 21
0.141732
 31
0.0
  0
LINE
  8
0
  6
CONTINUOUS
 62
     7
  5
73D
 10
-1.137795
 20
0.141732
 30
0.0
 11
-1.139904
 21
0.144413
 31
0.0
  0
LINE
  8
0
  6
CONTINUOUS
 62
     7
  5
73E
 10
-1.139904
 20
0.144413
 30
0.0
 11
-1.141906
 21
0.147175
 31
0.0
  0
LINE
  8
0
  6
CONTINUOUS
 62
     7
  5
73F
 10
-1.141906
 20
0.147175
 30
0.0
 11
-1.143798
 21
0.150013
 31
0.0
  0
LINE
  8
0
  6
CONTINUOUS
 62
     7
  5
740
 10
-1.143798
 20
0.150013
 30
0.0
 11
-1.145577
 21
0.152922
 31
0.0
  0
LINE
  8
0
  6
CONTINUOUS
 62
     7
  5
741
 10
-1.145577
 20
0.152922
 30
0.0
 11
-1.147241
 21
0.1559
 31
0.0
  0
LINE
  8
0
  6
CONTINUOUS
 62
     7
  5
742
 10
-1.147241
 20
0.1559
 30
0.0
 11
-1.148787
 21
0.15894
 31
0.0
  0
LINE
  8
0
  6
CONTINUOUS
 62
     7
  5
743
 10
-1.148787
 20
0.15894
 30
0.0
 11
-1.150213
 21
0.162038
 31
0.0
  0
LINE
  8
0
  6
CONTINUOUS
 62
     7
  5
744
 10
-1.150213
 20
0.162038
 30
0.0
 11
-1.151516
 21
0.16519
 31
0.0
  0
LINE
  8
0
  6
CONTINUOUS
 62
     7
  5
745
 10
-1.151516
 20
0.16519
 30
0.0
 11
-1.152694
 21
0.168391
 31
0.0
  0
LINE
  8
0
  6
CONTINUOUS
 62
     7
  5
746
 10
-1.152694
 20
0.168391
 30
0.0
 11
-1.153746
 21
0.171635
 31
0.0
  0
LINE
  8
0
  6
CONTINUOUS
 62
     7
  5
747
 10
-1.153746
 20
0.171635
 30
0.0
 11
-1.154671
 21
0.174918
 31
0.0
  0
LINE
  8
0
  6
CONTINUOUS
 62
     7
  5
748
 10
-1.154671
 20
0.174918
 30
0.0
 11
-1.155466
 21
0.178235
 31
0.0
  0
LINE
  8
0
  6
CONTINUOUS
 62
     7
  5
749
 10
-1.155466
 20
0.178235
 30
0.0
 11
-1.15613
 21
0.181581
 31
0.0
  0
LINE
  8
0
  6
CONTINUOUS
 62
     7
  5
74A
 10
-1.15613
 20
0.181581
 30
0.0
 11
-1.156663
 21
0.18495
 31
0.0
  0
LINE
  8
0
  6
CONTINUOUS
 62
     7
  5
74B
 10
-1.156663
 20
0.18495
 30
0.0
 11
-1.157063
 21
0.188337
 31
0.0
  0
LINE
  8
0
  6
CONTINUOUS
 62
     7
  5
74C
 10
-1.157063
 20
0.188337
 30
0.0
 11
-1.15733
 21
0.191737
 31
0.0
  0
LINE
  8
0
  6
CONTINUOUS
 62
     7
  5
74D
 10
-1.15733
 20
0.191737
 30
0.0
 11
-1.157464
 21
0.195145
 31
0.0
  0
LINE
  8
0
  6
CONTINUOUS
 62
     7
  5
74E
 10
-1.157464
 20
0.195145
 30
0.0
 11
-1.157464
 21
0.198556
 31
0.0
  0
LINE
  8
0
  6
CONTINUOUS
 62
     7
  5
74F
 10
-1.157464
 20
0.198556
 30
0.0
 11
-1.15733
 21
0.201964
 31
0.0
  0
LINE
  8
0
  6
CONTINUOUS
 62
     7
  5
750
 10
-1.15733
 20
0.201964
 30
0.0
 11
-1.157063
 21
0.205364
 31
0.0
  0
LINE
  8
0
  6
CONTINUOUS
 62
     7
  5
751
 10
-1.157063
 20
0.205364
 30
0.0
 11
-1.156663
 21
0.208751
 31
0.0
  0
LINE
  8
0
  6
CONTINUOUS
 62
     7
  5
752
 10
-1.156663
 20
0.208751
 30
0.0
 11
-1.15613
 21
0.21212
 31
0.0
  0
LINE
  8
0
  6
CONTINUOUS
 62
     7
  5
753
 10
-1.15613
 20
0.21212
 30
0.0
 11
-1.155466
 21
0.215466
 31
0.0
  0
LINE
  8
0
  6
CONTINUOUS
 62
     7
  5
754
 10
-1.155466
 20
0.215466
 30
0.0
 11
-1.154671
 21
0.218782
 31
0.0
  0
LINE
  8
0
  6
CONTINUOUS
 62
     7
  5
755
 10
-1.154671
 20
0.218782
 30
0.0
 11
-1.153746
 21
0.222065
 31
0.0
  0
LINE
  8
0
  6
CONTINUOUS
 62
     7
  5
756
 10
-1.153746
 20
0.222065
 30
0.0
 11
-1.152694
 21
0.22531
 31
0.0
  0
LINE
  8
0
  6
CONTINUOUS
 62
     7
  5
757
 10
-1.152694
 20
0.22531
 30
0.0
 11
-1.151516
 21
0.22851
 31
0.0
  0
LINE
  8
0
  6
CONTINUOUS
 62
     7
  5
758
 10
-1.151516
 20
0.22851
 30
0.0
 11
-1.150213
 21
0.231662
 31
0.0
  0
LINE
  8
0
  6
CONTINUOUS
 62
     7
  5
759
 10
-1.150213
 20
0.231662
 30
0.0
 11
-1.148787
 21
0.234761
 31
0.0
  0
LINE
  8
0
  6
CONTINUOUS
 62
     7
  5
75A
 10
-1.148787
 20
0.234761
 30
0.0
 11
-1.147241
 21
0.237801
 31
0.0
  0
LINE
  8
0
  6
CONTINUOUS
 62
     7
  5
75B
 10
-1.147241
 20
0.237801
 30
0.0
 11
-1.145577
 21
0.240778
 31
0.0
  0
LINE
  8
0
  6
CONTINUOUS
 62
     7
  5
75C
 10
-1.145577
 20
0.240778
 30
0.0
 11
-1.143798
 21
0.243688
 31
0.0
  0
LINE
  8
0
  6
CONTINUOUS
 62
     7
  5
75D
 10
-1.143798
 20
0.243688
 30
0.0
 11
-1.141906
 21
0.246526
 31
0.0
  0
LINE
  8
0
  6
CONTINUOUS
 62
     7
  5
75E
 10
-1.141906
 20
0.246526
 30
0.0
 11
-1.139904
 21
0.249288
 31
0.0
  0
LINE
  8
0
  6
CONTINUOUS
 62
     7
  5
75F
 10
-1.139904
 20
0.249288
 30
0.0
 11
-1.137795
 21
0.251969
 31
0.0
  0
LINE
  8
0
  6
CONTINUOUS
 62
     7
  5
760
 10
-0.84252
 20
0.224409
 30
0.0
 11
-0.88189
 21
0.224409
 31
0.0
  0
LINE
  8
0
  6
CONTINUOUS
 62
     7
  5
761
 10
-0.84252
 20
-0.19685
 30
0.0
 11
-0.88189
 21
-0.19685
 31
0.0
  0
LINE
  8
0
  6
CONTINUOUS
 62
     7
  5
762
 10
-0.84252
 20
0.188976
 30
0.0
 11
-0.88189
 21
0.188976
 31
0.0
  0
LINE
  8
0
  6
CONTINUOUS
 62
     7
  5
763
 10
-0.84252
 20
-0.216535
 30
0.0
 11
-0.88189
 21
-0.216535
 31
0.0
  0
ARC
  8
0
  6
CONTINUOUS
 62
     7
  5
764
 10
-1.070472
 20
0.0
 30
0.0
 40
0.087008
 50
183.112614
 51
185.192242
  0
LINE
  8
0
  6
CONTINUOUS
 62
     7
  5
765
 10
-1.140815
 20
-0.051208
 30
0.0
 11
-1.140675
 21
-0.051399
 31
0.0
  0
LINE
  8
0
  6
CONTINUOUS
 62
     7
  5
766
 10
-1.140675
 20
-0.051399
 30
0.0
 11
-1.140538
 21
-0.051587
 31
0.0
  0
LINE
  8
0
  6
CONTINUOUS
 62
     7
  5
767
 10
-1.140538
 20
-0.051587
 30
0.0
 11
-1.140403
 21
-0.05177
 31
0.0
  0
LINE
  8
0
  6
CONTINUOUS
 62
     7
  5
768
 10
-1.140403
 20
-0.05177
 30
0.0
 11
-1.14027
 21
-0.051948
 31
0.0
  0
LINE
  8
0
  6
CONTINUOUS
 62
     7
  5
769
 10
-1.14027
 20
-0.051948
 30
0.0
 11
-1.14014
 21
-0.052123
 31
0.0
  0
LINE
  8
0
  6
CONTINUOUS
 62
     7
  5
76A
 10
-1.14014
 20
-0.052123
 30
0.0
 11
-1.140013
 21
-0.052293
 31
0.0
  0
LINE
  8
0
  6
CONTINUOUS
 62
     7
  5
76B
 10
-1.140013
 20
-0.052293
 30
0.0
 11
-1.139888
 21
-0.052458
 31
0.0
  0
LINE
  8
0
  6
CONTINUOUS
 62
     7
  5
76C
 10
-1.139888
 20
-0.052458
 30
0.0
 11
-1.139766
 21
-0.052619
 31
0.0
  0
LINE
  8
0
  6
CONTINUOUS
 62
     7
  5
76D
 10
-1.139766
 20
-0.052619
 30
0.0
 11
-1.139645
 21
-0.052779
 31
0.0
  0
LINE
  8
0
  6
CONTINUOUS
 62
     7
  5
76E
 10
-1.139645
 20
-0.052779
 30
0.0
 11
-1.139525
 21
-0.052935
 31
0.0
  0
LINE
  8
0
  6
CONTINUOUS
 62
     7
  5
76F
 10
-1.139525
 20
-0.052935
 30
0.0
 11
-1.139406
 21
-0.053089
 31
0.0
  0
LINE
  8
0
  6
CONTINUOUS
 62
     7
  5
770
 10
-1.139406
 20
-0.053089
 30
0.0
 11
-1.13929
 21
-0.05324
 31
0.0
  0
LINE
  8
0
  6
CONTINUOUS
 62
     7
  5
771
 10
-1.13929
 20
-0.05324
 30
0.0
 11
-1.139176
 21
-0.053387
 31
0.0
  0
LINE
  8
0
  6
CONTINUOUS
 62
     7
  5
772
 10
-1.139176
 20
-0.053387
 30
0.0
 11
-1.139065
 21
-0.05353
 31
0.0
  0
LINE
  8
0
  6
CONTINUOUS
 62
     7
  5
773
 10
-1.139065
 20
-0.05353
 30
0.0
 11
-1.138957
 21
-0.053668
 31
0.0
  0
LINE
  8
0
  6
CONTINUOUS
 62
     7
  5
774
 10
-1.138957
 20
-0.053668
 30
0.0
 11
-1.138852
 21
-0.053802
 31
0.0
  0
LINE
  8
0
  6
CONTINUOUS
 62
     7
  5
775
 10
-1.138852
 20
-0.053802
 30
0.0
 11
-1.13875
 21
-0.053931
 31
0.0
  0
LINE
  8
0
  6
CONTINUOUS
 62
     7
  5
776
 10
-1.13875
 20
-0.053931
 30
0.0
 11
-1.138653
 21
-0.054054
 31
0.0
  0
LINE
  8
0
  6
CONTINUOUS
 62
     7
  5
777
 10
-1.138653
 20
-0.054054
 30
0.0
 11
-1.13856
 21
-0.054171
 31
0.0
  0
LINE
  8
0
  6
CONTINUOUS
 62
     7
  5
778
 10
-1.13856
 20
-0.054171
 30
0.0
 11
-1.138471
 21
-0.054283
 31
0.0
  0
LINE
  8
0
  6
CONTINUOUS
 62
     7
  5
779
 10
-1.138471
 20
-0.054283
 30
0.0
 11
-1.138387
 21
-0.054388
 31
0.0
  0
LINE
  8
0
  6
CONTINUOUS
 62
     7
  5
77A
 10
-1.138387
 20
-0.054388
 30
0.0
 11
-1.138307
 21
-0.054486
 31
0.0
  0
LINE
  8
0
  6
CONTINUOUS
 62
     7
  5
77B
 10
-1.138307
 20
-0.054486
 30
0.0
 11
-1.138233
 21
-0.054579
 31
0.0
  0
LINE
  8
0
  6
CONTINUOUS
 62
     7
  5
77C
 10
-1.138233
 20
-0.054579
 30
0.0
 11
-1.138165
 21
-0.054664
 31
0.0
  0
LINE
  8
0
  6
CONTINUOUS
 62
     7
  5
77D
 10
-1.138165
 20
-0.054664
 30
0.0
 11
-1.138101
 21
-0.054742
 31
0.0
  0
LINE
  8
0
  6
CONTINUOUS
 62
     7
  5
77E
 10
-1.138101
 20
-0.054742
 30
0.0
 11
-1.138044
 21
-0.054813
 31
0.0
  0
LINE
  8
0
  6
CONTINUOUS
 62
     7
  5
77F
 10
-1.138044
 20
-0.054813
 30
0.0
 11
-1.137992
 21
-0.054877
 31
0.0
  0
LINE
  8
0
  6
CONTINUOUS
 62
     7
  5
780
 10
-1.137992
 20
-0.054877
 30
0.0
 11
-1.137946
 21
-0.054933
 31
0.0
  0
LINE
  8
0
  6
CONTINUOUS
 62
     7
  5
781
 10
-1.137946
 20
-0.054933
 30
0.0
 11
-1.137906
 21
-0.054982
 31
0.0
  0
LINE
  8
0
  6
CONTINUOUS
 62
     7
  5
782
 10
-1.137906
 20
-0.054982
 30
0.0
 11
-1.137873
 21
-0.055024
 31
0.0
  0
LINE
  8
0
  6
CONTINUOUS
 62
     7
  5
783
 10
-1.137873
 20
-0.055024
 30
0.0
 11
-1.137845
 21
-0.055057
 31
0.0
  0
LINE
  8
0
  6
CONTINUOUS
 62
     7
  5
784
 10
-1.137845
 20
-0.055057
 30
0.0
 11
-1.137824
 21
-0.055083
 31
0.0
  0
LINE
  8
0
  6
CONTINUOUS
 62
     7
  5
785
 10
-1.137824
 20
-0.055083
 30
0.0
 11
-1.137808
 21
-0.055102
 31
0.0
  0
LINE
  8
0
  6
CONTINUOUS
 62
     7
  5
786
 10
-1.137808
 20
-0.055102
 30
0.0
 11
-1.137799
 21
-0.055113
 31
0.0
  0
LINE
  8
0
  6
CONTINUOUS
 62
     7
  5
787
 10
-1.137799
 20
-0.055113
 30
0.0
 11
-1.137796
 21
-0.055117
 31
0.0
  0
LINE
  8
0
  6
CONTINUOUS
 62
     7
  5
788
 10
-1.157371
 20
-0.004357
 30
0.0
 11
-1.15737
 21
-0.004378
 31
0.0
  0
LINE
  8
0
  6
CONTINUOUS
 62
     7
  5
789
 10
-1.15737
 20
-0.004378
 30
0.0
 11
-1.157369
 21
-0.004398
 31
0.0
  0
LINE
  8
0
  6
CONTINUOUS
 62
     7
  5
78A
 10
-1.157369
 20
-0.004398
 30
0.0
 11
-1.157368
 21
-0.004418
 31
0.0
  0
LINE
  8
0
  6
CONTINUOUS
 62
     7
  5
78B
 10
-1.157368
 20
-0.004418
 30
0.0
 11
-1.157367
 21
-0.004437
 31
0.0
  0
LINE
  8
0
  6
CONTINUOUS
 62
     7
  5
78C
 10
-1.157367
 20
-0.004437
 30
0.0
 11
-1.157366
 21
-0.004455
 31
0.0
  0
LINE
  8
0
  6
CONTINUOUS
 62
     7
  5
78D
 10
-1.157366
 20
-0.004455
 30
0.0
 11
-1.157365
 21
-0.004473
 31
0.0
  0
LINE
  8
0
  6
CONTINUOUS
 62
     7
  5
78E
 10
-1.157365
 20
-0.004473
 30
0.0
 11
-1.157364
 21
-0.00449
 31
0.0
  0
LINE
  8
0
  6
CONTINUOUS
 62
     7
  5
78F
 10
-1.157364
 20
-0.00449
 30
0.0
 11
-1.157364
 21
-0.004507
 31
0.0
  0
LINE
  8
0
  6
CONTINUOUS
 62
     7
  5
790
 10
-1.157364
 20
-0.004507
 30
0.0
 11
-1.157363
 21
-0.004523
 31
0.0
  0
LINE
  8
0
  6
CONTINUOUS
 62
     7
  5
791
 10
-1.157363
 20
-0.004523
 30
0.0
 11
-1.157362
 21
-0.004538
 31
0.0
  0
LINE
  8
0
  6
CONTINUOUS
 62
     7
  5
792
 10
-1.157362
 20
-0.004538
 30
0.0
 11
-1.157361
 21
-0.004553
 31
0.0
  0
LINE
  8
0
  6
CONTINUOUS
 62
     7
  5
793
 10
-1.157361
 20
-0.004553
 30
0.0
 11
-1.15736
 21
-0.004567
 31
0.0
  0
LINE
  8
0
  6
CONTINUOUS
 62
     7
  5
794
 10
-1.15736
 20
-0.004567
 30
0.0
 11
-1.15736
 21
-0.004581
 31
0.0
  0
LINE
  8
0
  6
CONTINUOUS
 62
     7
  5
795
 10
-1.15736
 20
-0.004581
 30
0.0
 11
-1.157359
 21
-0.004594
 31
0.0
  0
LINE
  8
0
  6
CONTINUOUS
 62
     7
  5
796
 10
-1.157359
 20
-0.004594
 30
0.0
 11
-1.157358
 21
-0.004606
 31
0.0
  0
LINE
  8
0
  6
CONTINUOUS
 62
     7
  5
797
 10
-1.157358
 20
-0.004606
 30
0.0
 11
-1.157358
 21
-0.004618
 31
0.0
  0
LINE
  8
0
  6
CONTINUOUS
 62
     7
  5
798
 10
-1.157358
 20
-0.004618
 30
0.0
 11
-1.157357
 21
-0.004629
 31
0.0
  0
LINE
  8
0
  6
CONTINUOUS
 62
     7
  5
799
 10
-1.157357
 20
-0.004629
 30
0.0
 11
-1.157357
 21
-0.00464
 31
0.0
  0
LINE
  8
0
  6
CONTINUOUS
 62
     7
  5
79A
 10
-1.157357
 20
-0.00464
 30
0.0
 11
-1.157356
 21
-0.004649
 31
0.0
  0
LINE
  8
0
  6
CONTINUOUS
 62
     7
  5
79B
 10
-1.157356
 20
-0.004649
 30
0.0
 11
-1.157356
 21
-0.004659
 31
0.0
  0
LINE
  8
0
  6
CONTINUOUS
 62
     7
  5
79C
 10
-1.157356
 20
-0.004659
 30
0.0
 11
-1.157355
 21
-0.004667
 31
0.0
  0
LINE
  8
0
  6
CONTINUOUS
 62
     7
  5
79D
 10
-1.157355
 20
-0.004667
 30
0.0
 11
-1.157355
 21
-0.004675
 31
0.0
  0
LINE
  8
0
  6
CONTINUOUS
 62
     7
  5
79E
 10
-1.157355
 20
-0.004675
 30
0.0
 11
-1.157354
 21
-0.004683
 31
0.0
  0
LINE
  8
0
  6
CONTINUOUS
 62
     7
  5
79F
 10
-1.157354
 20
-0.004683
 30
0.0
 11
-1.157354
 21
-0.004689
 31
0.0
  0
LINE
  8
0
  6
CONTINUOUS
 62
     7
  5
7A0
 10
-1.157354
 20
-0.004689
 30
0.0
 11
-1.157354
 21
-0.004696
 31
0.0
  0
LINE
  8
0
  6
CONTINUOUS
 62
     7
  5
7A1
 10
-1.157354
 20
-0.004696
 30
0.0
 11
-1.157353
 21
-0.004701
 31
0.0
  0
LINE
  8
0
  6
CONTINUOUS
 62
     7
  5
7A2
 10
-1.157353
 20
-0.004701
 30
0.0
 11
-1.157353
 21
-0.004706
 31
0.0
  0
LINE
  8
0
  6
CONTINUOUS
 62
     7
  5
7A3
 10
-1.157353
 20
-0.004706
 30
0.0
 11
-1.157353
 21
-0.00471
 31
0.0
  0
LINE
  8
0
  6
CONTINUOUS
 62
     7
  5
7A4
 10
-1.157353
 20
-0.00471
 30
0.0
 11
-1.157353
 21
-0.004714
 31
0.0
  0
LINE
  8
0
  6
CONTINUOUS
 62
     7
  5
7A5
 10
-1.157353
 20
-0.004714
 30
0.0
 11
-1.157352
 21
-0.004717
 31
0.0
  0
LINE
  8
0
  6
CONTINUOUS
 62
     7
  5
7A6
 10
-1.157352
 20
-0.004717
 30
0.0
 11
-1.157352
 21
-0.00472
 31
0.0
  0
LINE
  8
0
  6
CONTINUOUS
 62
     7
  5
7A7
 10
-1.157352
 20
-0.00472
 30
0.0
 11
-1.157352
 21
-0.004722
 31
0.0
  0
LINE
  8
0
  6
CONTINUOUS
 62
     7
  5
7A8
 10
-1.157352
 20
-0.004722
 30
0.0
 11
-1.157352
 21
-0.004723
 31
0.0
  0
LINE
  8
0
  6
CONTINUOUS
 62
     7
  5
7A9
 10
-1.157352
 20
-0.004723
 30
0.0
 11
-1.157352
 21
-0.004724
 31
0.0
  0
LINE
  8
0
  6
CONTINUOUS
 62
     7
  5
7AA
 10
-1.157352
 20
-0.004724
 30
0.0
 11
-1.157352
 21
-0.004724
 31
0.0
  0
LINE
  8
0
  6
CONTINUOUS
 62
     7
  5
7AB
 10
-1.157352
 20
0.004724
 30
0.0
 11
-1.157352
 21
0.004724
 31
0.0
  0
LINE
  8
0
  6
CONTINUOUS
 62
     7
  5
7AC
 10
-1.157352
 20
0.004724
 30
0.0
 11
-1.157352
 21
0.004723
 31
0.0
  0
LINE
  8
0
  6
CONTINUOUS
 62
     7
  5
7AD
 10
-1.157352
 20
0.004723
 30
0.0
 11
-1.157352
 21
0.004722
 31
0.0
  0
LINE
  8
0
  6
CONTINUOUS
 62
     7
  5
7AE
 10
-1.157352
 20
0.004722
 30
0.0
 11
-1.157352
 21
0.00472
 31
0.0
  0
LINE
  8
0
  6
CONTINUOUS
 62
     7
  5
7AF
 10
-1.157352
 20
0.00472
 30
0.0
 11
-1.157352
 21
0.004717
 31
0.0
  0
LINE
  8
0
  6
CONTINUOUS
 62
     7
  5
7B0
 10
-1.157352
 20
0.004717
 30
0.0
 11
-1.157353
 21
0.004714
 31
0.0
  0
LINE
  8
0
  6
CONTINUOUS
 62
     7
  5
7B1
 10
-1.157353
 20
0.004714
 30
0.0
 11
-1.157353
 21
0.00471
 31
0.0
  0
LINE
  8
0
  6
CONTINUOUS
 62
     7
  5
7B2
 10
-1.157353
 20
0.00471
 30
0.0
 11
-1.157353
 21
0.004706
 31
0.0
  0
LINE
  8
0
  6
CONTINUOUS
 62
     7
  5
7B3
 10
-1.157353
 20
0.004706
 30
0.0
 11
-1.157353
 21
0.004701
 31
0.0
  0
LINE
  8
0
  6
CONTINUOUS
 62
     7
  5
7B4
 10
-1.157353
 20
0.004701
 30
0.0
 11
-1.157354
 21
0.004696
 31
0.0
  0
LINE
  8
0
  6
CONTINUOUS
 62
     7
  5
7B5
 10
-1.157354
 20
0.004696
 30
0.0
 11
-1.157354
 21
0.004689
 31
0.0
  0
LINE
  8
0
  6
CONTINUOUS
 62
     7
  5
7B6
 10
-1.157354
 20
0.004689
 30
0.0
 11
-1.157354
 21
0.004683
 31
0.0
  0
LINE
  8
0
  6
CONTINUOUS
 62
     7
  5
7B7
 10
-1.157354
 20
0.004683
 30
0.0
 11
-1.157355
 21
0.004675
 31
0.0
  0
LINE
  8
0
  6
CONTINUOUS
 62
     7
  5
7B8
 10
-1.157355
 20
0.004675
 30
0.0
 11
-1.157355
 21
0.004667
 31
0.0
  0
LINE
  8
0
  6
CONTINUOUS
 62
     7
  5
7B9
 10
-1.157355
 20
0.004667
 30
0.0
 11
-1.157356
 21
0.004659
 31
0.0
  0
LINE
  8
0
  6
CONTINUOUS
 62
     7
  5
7BA
 10
-1.157356
 20
0.004659
 30
0.0
 11
-1.157356
 21
0.004649
 31
0.0
  0
LINE
  8
0
  6
CONTINUOUS
 62
     7
  5
7BB
 10
-1.157356
 20
0.004649
 30
0.0
 11
-1.157357
 21
0.00464
 31
0.0
  0
LINE
  8
0
  6
CONTINUOUS
 62
     7
  5
7BC
 10
-1.157357
 20
0.00464
 30
0.0
 11
-1.157357
 21
0.004629
 31
0.0
  0
LINE
  8
0
  6
CONTINUOUS
 62
     7
  5
7BD
 10
-1.157357
 20
0.004629
 30
0.0
 11
-1.157358
 21
0.004618
 31
0.0
  0
LINE
  8
0
  6
CONTINUOUS
 62
     7
  5
7BE
 10
-1.157358
 20
0.004618
 30
0.0
 11
-1.157358
 21
0.004606
 31
0.0
  0
LINE
  8
0
  6
CONTINUOUS
 62
     7
  5
7BF
 10
-1.157358
 20
0.004606
 30
0.0
 11
-1.157359
 21
0.004594
 31
0.0
  0
LINE
  8
0
  6
CONTINUOUS
 62
     7
  5
7C0
 10
-1.157359
 20
0.004594
 30
0.0
 11
-1.15736
 21
0.004581
 31
0.0
  0
LINE
  8
0
  6
CONTINUOUS
 62
     7
  5
7C1
 10
-1.15736
 20
0.004581
 30
0.0
 11
-1.15736
 21
0.004567
 31
0.0
  0
LINE
  8
0
  6
CONTINUOUS
 62
     7
  5
7C2
 10
-1.15736
 20
0.004567
 30
0.0
 11
-1.157361
 21
0.004553
 31
0.0
  0
LINE
  8
0
  6
CONTINUOUS
 62
     7
  5
7C3
 10
-1.157361
 20
0.004553
 30
0.0
 11
-1.157362
 21
0.004538
 31
0.0
  0
LINE
  8
0
  6
CONTINUOUS
 62
     7
  5
7C4
 10
-1.157362
 20
0.004538
 30
0.0
 11
-1.157363
 21
0.004523
 31
0.0
  0
LINE
  8
0
  6
CONTINUOUS
 62
     7
  5
7C5
 10
-1.157363
 20
0.004523
 30
0.0
 11
-1.157364
 21
0.004507
 31
0.0
  0
LINE
  8
0
  6
CONTINUOUS
 62
     7
  5
7C6
 10
-1.157364
 20
0.004507
 30
0.0
 11
-1.157364
 21
0.00449
 31
0.0
  0
LINE
  8
0
  6
CONTINUOUS
 62
     7
  5
7C7
 10
-1.157364
 20
0.00449
 30
0.0
 11
-1.157365
 21
0.004473
 31
0.0
  0
LINE
  8
0
  6
CONTINUOUS
 62
     7
  5
7C8
 10
-1.157365
 20
0.004473
 30
0.0
 11
-1.157366
 21
0.004455
 31
0.0
  0
LINE
  8
0
  6
CONTINUOUS
 62
     7
  5
7C9
 10
-1.157366
 20
0.004455
 30
0.0
 11
-1.157367
 21
0.004437
 31
0.0
  0
LINE
  8
0
  6
CONTINUOUS
 62
     7
  5
7CA
 10
-1.157367
 20
0.004437
 30
0.0
 11
-1.157368
 21
0.004418
 31
0.0
  0
LINE
  8
0
  6
CONTINUOUS
 62
     7
  5
7CB
 10
-1.157368
 20
0.004418
 30
0.0
 11
-1.157369
 21
0.004398
 31
0.0
  0
LINE
  8
0
  6
CONTINUOUS
 62
     7
  5
7CC
 10
-1.157369
 20
0.004398
 30
0.0
 11
-1.15737
 21
0.004378
 31
0.0
  0
LINE
  8
0
  6
CONTINUOUS
 62
     7
  5
7CD
 10
-1.15737
 20
0.004378
 30
0.0
 11
-1.157371
 21
0.004357
 31
0.0
  0
LINE
  8
0
  6
CONTINUOUS
 62
     7
  5
7CE
 10
-1.137796
 20
0.055117
 30
0.0
 11
-1.137799
 21
0.055113
 31
0.0
  0
LINE
  8
0
  6
CONTINUOUS
 62
     7
  5
7CF
 10
-1.137799
 20
0.055113
 30
0.0
 11
-1.137808
 21
0.055102
 31
0.0
  0
LINE
  8
0
  6
CONTINUOUS
 62
     7
  5
7D0
 10
-1.137808
 20
0.055102
 30
0.0
 11
-1.137824
 21
0.055083
 31
0.0
  0
LINE
  8
0
  6
CONTINUOUS
 62
     7
  5
7D1
 10
-1.137824
 20
0.055083
 30
0.0
 11
-1.137845
 21
0.055057
 31
0.0
  0
LINE
  8
0
  6
CONTINUOUS
 62
     7
  5
7D2
 10
-1.137845
 20
0.055057
 30
0.0
 11
-1.137873
 21
0.055024
 31
0.0
  0
LINE
  8
0
  6
CONTINUOUS
 62
     7
  5
7D3
 10
-1.137873
 20
0.055024
 30
0.0
 11
-1.137906
 21
0.054982
 31
0.0
  0
LINE
  8
0
  6
CONTINUOUS
 62
     7
  5
7D4
 10
-1.137906
 20
0.054982
 30
0.0
 11
-1.137946
 21
0.054933
 31
0.0
  0
LINE
  8
0
  6
CONTINUOUS
 62
     7
  5
7D5
 10
-1.137946
 20
0.054933
 30
0.0
 11
-1.137992
 21
0.054877
 31
0.0
  0
LINE
  8
0
  6
CONTINUOUS
 62
     7
  5
7D6
 10
-1.137992
 20
0.054877
 30
0.0
 11
-1.138044
 21
0.054813
 31
0.0
  0
LINE
  8
0
  6
CONTINUOUS
 62
     7
  5
7D7
 10
-1.138044
 20
0.054813
 30
0.0
 11
-1.138101
 21
0.054742
 31
0.0
  0
LINE
  8
0
  6
CONTINUOUS
 62
     7
  5
7D8
 10
-1.138101
 20
0.054742
 30
0.0
 11
-1.138165
 21
0.054664
 31
0.0
  0
LINE
  8
0
  6
CONTINUOUS
 62
     7
  5
7D9
 10
-1.138165
 20
0.054664
 30
0.0
 11
-1.138233
 21
0.054579
 31
0.0
  0
LINE
  8
0
  6
CONTINUOUS
 62
     7
  5
7DA
 10
-1.138233
 20
0.054579
 30
0.0
 11
-1.138307
 21
0.054486
 31
0.0
  0
LINE
  8
0
  6
CONTINUOUS
 62
     7
  5
7DB
 10
-1.138307
 20
0.054486
 30
0.0
 11
-1.138387
 21
0.054388
 31
0.0
  0
LINE
  8
0
  6
CONTINUOUS
 62
     7
  5
7DC
 10
-1.138387
 20
0.054388
 30
0.0
 11
-1.138471
 21
0.054283
 31
0.0
  0
LINE
  8
0
  6
CONTINUOUS
 62
     7
  5
7DD
 10
-1.138471
 20
0.054283
 30
0.0
 11
-1.13856
 21
0.054171
 31
0.0
  0
LINE
  8
0
  6
CONTINUOUS
 62
     7
  5
7DE
 10
-1.13856
 20
0.054171
 30
0.0
 11
-1.138653
 21
0.054054
 31
0.0
  0
LINE
  8
0
  6
CONTINUOUS
 62
     7
  5
7DF
 10
-1.138653
 20
0.054054
 30
0.0
 11
-1.13875
 21
0.053931
 31
0.0
  0
LINE
  8
0
  6
CONTINUOUS
 62
     7
  5
7E0
 10
-1.13875
 20
0.053931
 30
0.0
 11
-1.138852
 21
0.053802
 31
0.0
  0
LINE
  8
0
  6
CONTINUOUS
 62
     7
  5
7E1
 10
-1.138852
 20
0.053802
 30
0.0
 11
-1.138957
 21
0.053668
 31
0.0
  0
LINE
  8
0
  6
CONTINUOUS
 62
     7
  5
7E2
 10
-1.138957
 20
0.053668
 30
0.0
 11
-1.139065
 21
0.05353
 31
0.0
  0
LINE
  8
0
  6
CONTINUOUS
 62
     7
  5
7E3
 10
-1.139065
 20
0.05353
 30
0.0
 11
-1.139176
 21
0.053387
 31
0.0
  0
LINE
  8
0
  6
CONTINUOUS
 62
     7
  5
7E4
 10
-1.139176
 20
0.053387
 30
0.0
 11
-1.13929
 21
0.05324
 31
0.0
  0
LINE
  8
0
  6
CONTINUOUS
 62
     7
  5
7E5
 10
-1.13929
 20
0.05324
 30
0.0
 11
-1.139406
 21
0.053089
 31
0.0
  0
LINE
  8
0
  6
CONTINUOUS
 62
     7
  5
7E6
 10
-1.139406
 20
0.053089
 30
0.0
 11
-1.139525
 21
0.052935
 31
0.0
  0
LINE
  8
0
  6
CONTINUOUS
 62
     7
  5
7E7
 10
-1.139525
 20
0.052935
 30
0.0
 11
-1.139645
 21
0.052779
 31
0.0
  0
LINE
  8
0
  6
CONTINUOUS
 62
     7
  5
7E8
 10
-1.139645
 20
0.052779
 30
0.0
 11
-1.139766
 21
0.052619
 31
0.0
  0
LINE
  8
0
  6
CONTINUOUS
 62
     7
  5
7E9
 10
-1.139766
 20
0.052619
 30
0.0
 11
-1.139888
 21
0.052458
 31
0.0
  0
LINE
  8
0
  6
CONTINUOUS
 62
     7
  5
7EA
 10
-1.139888
 20
0.052458
 30
0.0
 11
-1.140013
 21
0.052293
 31
0.0
  0
LINE
  8
0
  6
CONTINUOUS
 62
     7
  5
7EB
 10
-1.140013
 20
0.052293
 30
0.0
 11
-1.14014
 21
0.052123
 31
0.0
  0
LINE
  8
0
  6
CONTINUOUS
 62
     7
  5
7EC
 10
-1.14014
 20
0.052123
 30
0.0
 11
-1.14027
 21
0.051948
 31
0.0
  0
LINE
  8
0
  6
CONTINUOUS
 62
     7
  5
7ED
 10
-1.14027
 20
0.051948
 30
0.0
 11
-1.140403
 21
0.05177
 31
0.0
  0
LINE
  8
0
  6
CONTINUOUS
 62
     7
  5
7EE
 10
-1.140403
 20
0.05177
 30
0.0
 11
-1.140538
 21
0.051587
 31
0.0
  0
LINE
  8
0
  6
CONTINUOUS
 62
     7
  5
7EF
 10
-1.140538
 20
0.051587
 30
0.0
 11
-1.140675
 21
0.051399
 31
0.0
  0
LINE
  8
0
  6
CONTINUOUS
 62
     7
  5
7F0
 10
-1.140675
 20
0.051399
 30
0.0
 11
-1.140815
 21
0.051208
 31
0.0
  0
LINE
  8
0
  6
CONTINUOUS
 62
     7
  5
7F1
 10
-1.062451
 20
-0.023622
 30
0.0
 11
-1.107451
 21
-0.023622
 31
0.0
  0
LINE
  8
0
  6
CONTINUOUS
 62
     7
  5
7F2
 10
-1.09448
 20
-0.045276
 30
0.0
 11
-1.107451
 21
-0.023622
 31
0.0
  0
LINE
  8
0
  6
CONTINUOUS
 62
     7
  5
7F3
 10
-1.141045
 20
-0.050891
 30
0.0
 11
-1.138757
 21
-0.050822
 31
0.0
  0
LINE
  8
0
  6
CONTINUOUS
 62
     7
  5
7F4
 10
-1.138757
 20
-0.050822
 30
0.0
 11
-1.136498
 21
-0.050745
 31
0.0
  0
LINE
  8
0
  6
CONTINUOUS
 62
     7
  5
7F5
 10
-1.136498
 20
-0.050745
 30
0.0
 11
-1.134273
 21
-0.050662
 31
0.0
  0
LINE
  8
0
  6
CONTINUOUS
 62
     7
  5
7F6
 10
-1.134273
 20
-0.050662
 30
0.0
 11
-1.132083
 21
-0.050571
 31
0.0
  0
LINE
  8
0
  6
CONTINUOUS
 62
     7
  5
7F7
 10
-1.132083
 20
-0.050571
 30
0.0
 11
-1.129932
 21
-0.050474
 31
0.0
  0
LINE
  8
0
  6
CONTINUOUS
 62
     7
  5
7F8
 10
-1.129932
 20
-0.050474
 30
0.0
 11
-1.127822
 21
-0.05037
 31
0.0
  0
LINE
  8
0
  6
CONTINUOUS
 62
     7
  5
7F9
 10
-1.127822
 20
-0.05037
 30
0.0
 11
-1.125755
 21
-0.05026
 31
0.0
  0
LINE
  8
0
  6
CONTINUOUS
 62
     7
  5
7FA
 10
-1.125755
 20
-0.05026
 30
0.0
 11
-1.123736
 21
-0.050143
 31
0.0
  0
LINE
  8
0
  6
CONTINUOUS
 62
     7
  5
7FB
 10
-1.123736
 20
-0.050143
 30
0.0
 11
-1.121765
 21
-0.05002
 31
0.0
  0
LINE
  8
0
  6
CONTINUOUS
 62
     7
  5
7FC
 10
-1.121765
 20
-0.05002
 30
0.0
 11
-1.119847
 21
-0.04989
 31
0.0
  0
LINE
  8
0
  6
CONTINUOUS
 62
     7
  5
7FD
 10
-1.119847
 20
-0.04989
 30
0.0
 11
-1.117982
 21
-0.049755
 31
0.0
  0
LINE
  8
0
  6
CONTINUOUS
 62
     7
  5
7FE
 10
-1.117982
 20
-0.049755
 30
0.0
 11
-1.116175
 21
-0.049614
 31
0.0
  0
LINE
  8
0
  6
CONTINUOUS
 62
     7
  5
7FF
 10
-1.116175
 20
-0.049614
 30
0.0
 11
-1.114426
 21
-0.049468
 31
0.0
  0
LINE
  8
0
  6
CONTINUOUS
 62
     7
  5
800
 10
-1.114426
 20
-0.049468
 30
0.0
 11
-1.112738
 21
-0.049316
 31
0.0
  0
LINE
  8
0
  6
CONTINUOUS
 62
     7
  5
801
 10
-1.112738
 20
-0.049316
 30
0.0
 11
-1.111114
 21
-0.049159
 31
0.0
  0
LINE
  8
0
  6
CONTINUOUS
 62
     7
  5
802
 10
-1.111114
 20
-0.049159
 30
0.0
 11
-1.109555
 21
-0.048997
 31
0.0
  0
LINE
  8
0
  6
CONTINUOUS
 62
     7
  5
803
 10
-1.109555
 20
-0.048997
 30
0.0
 11
-1.108064
 21
-0.04883
 31
0.0
  0
LINE
  8
0
  6
CONTINUOUS
 62
     7
  5
804
 10
-1.108064
 20
-0.04883
 30
0.0
 11
-1.106642
 21
-0.048658
 31
0.0
  0
LINE
  8
0
  6
CONTINUOUS
 62
     7
  5
805
 10
-1.106642
 20
-0.048658
 30
0.0
 11
-1.105291
 21
-0.048482
 31
0.0
  0
LINE
  8
0
  6
CONTINUOUS
 62
     7
  5
806
 10
-1.105291
 20
-0.048482
 30
0.0
 11
-1.104013
 21
-0.048302
 31
0.0
  0
LINE
  8
0
  6
CONTINUOUS
 62
     7
  5
807
 10
-1.104013
 20
-0.048302
 30
0.0
 11
-1.10281
 21
-0.048119
 31
0.0
  0
LINE
  8
0
  6
CONTINUOUS
 62
     7
  5
808
 10
-1.10281
 20
-0.048119
 30
0.0
 11
-1.101683
 21
-0.047931
 31
0.0
  0
LINE
  8
0
  6
CONTINUOUS
 62
     7
  5
809
 10
-1.101683
 20
-0.047931
 30
0.0
 11
-1.100634
 21
-0.04774
 31
0.0
  0
LINE
  8
0
  6
CONTINUOUS
 62
     7
  5
80A
 10
-1.100634
 20
-0.04774
 30
0.0
 11
-1.099663
 21
-0.047546
 31
0.0
  0
LINE
  8
0
  6
CONTINUOUS
 62
     7
  5
80B
 10
-1.099663
 20
-0.047546
 30
0.0
 11
-1.098773
 21
-0.047349
 31
0.0
  0
LINE
  8
0
  6
CONTINUOUS
 62
     7
  5
80C
 10
-1.098773
 20
-0.047349
 30
0.0
 11
-1.097964
 21
-0.047149
 31
0.0
  0
LINE
  8
0
  6
CONTINUOUS
 62
     7
  5
80D
 10
-1.097964
 20
-0.047149
 30
0.0
 11
-1.097237
 21
-0.046947
 31
0.0
  0
LINE
  8
0
  6
CONTINUOUS
 62
     7
  5
80E
 10
-1.097237
 20
-0.046947
 30
0.0
 11
-1.096594
 21
-0.046743
 31
0.0
  0
LINE
  8
0
  6
CONTINUOUS
 62
     7
  5
80F
 10
-1.096594
 20
-0.046743
 30
0.0
 11
-1.096035
 21
-0.046537
 31
0.0
  0
LINE
  8
0
  6
CONTINUOUS
 62
     7
  5
810
 10
-1.096035
 20
-0.046537
 30
0.0
 11
-1.095561
 21
-0.046329
 31
0.0
  0
LINE
  8
0
  6
CONTINUOUS
 62
     7
  5
811
 10
-1.095561
 20
-0.046329
 30
0.0
 11
-1.095172
 21
-0.04612
 31
0.0
  0
LINE
  8
0
  6
CONTINUOUS
 62
     7
  5
812
 10
-1.095172
 20
-0.04612
 30
0.0
 11
-1.094869
 21
-0.04591
 31
0.0
  0
LINE
  8
0
  6
CONTINUOUS
 62
     7
  5
813
 10
-1.094869
 20
-0.04591
 30
0.0
 11
-1.094653
 21
-0.045699
 31
0.0
  0
LINE
  8
0
  6
CONTINUOUS
 62
     7
  5
814
 10
-1.094653
 20
-0.045699
 30
0.0
 11
-1.094523
 21
-0.045487
 31
0.0
  0
LINE
  8
0
  6
CONTINUOUS
 62
     7
  5
815
 10
-1.094523
 20
-0.045487
 30
0.0
 11
-1.09448
 21
-0.045276
 31
0.0
  0
LINE
  8
0
  6
CONTINUOUS
 62
     7
  5
816
 10
-1.137981
 20
-0.05489
 30
0.0
 11
-1.138072
 21
-0.054778
 31
0.0
  0
LINE
  8
0
  6
CONTINUOUS
 62
     7
  5
817
 10
-1.138072
 20
-0.054778
 30
0.0
 11
-1.138163
 21
-0.054666
 31
0.0
  0
LINE
  8
0
  6
CONTINUOUS
 62
     7
  5
818
 10
-1.138163
 20
-0.054666
 30
0.0
 11
-1.138253
 21
-0.054554
 31
0.0
  0
LINE
  8
0
  6
CONTINUOUS
 62
     7
  5
819
 10
-1.138253
 20
-0.054554
 30
0.0
 11
-1.138343
 21
-0.054442
 31
0.0
  0
LINE
  8
0
  6
CONTINUOUS
 62
     7
  5
81A
 10
-1.138343
 20
-0.054442
 30
0.0
 11
-1.138433
 21
-0.05433
 31
0.0
  0
LINE
  8
0
  6
CONTINUOUS
 62
     7
  5
81B
 10
-1.138433
 20
-0.05433
 30
0.0
 11
-1.138523
 21
-0.054217
 31
0.0
  0
LINE
  8
0
  6
CONTINUOUS
 62
     7
  5
81C
 10
-1.138523
 20
-0.054217
 30
0.0
 11
-1.138612
 21
-0.054105
 31
0.0
  0
LINE
  8
0
  6
CONTINUOUS
 62
     7
  5
81D
 10
-1.138612
 20
-0.054105
 30
0.0
 11
-1.138702
 21
-0.053992
 31
0.0
  0
LINE
  8
0
  6
CONTINUOUS
 62
     7
  5
81E
 10
-1.138702
 20
-0.053992
 30
0.0
 11
-1.138791
 21
-0.053879
 31
0.0
  0
LINE
  8
0
  6
CONTINUOUS
 62
     7
  5
81F
 10
-1.138791
 20
-0.053879
 30
0.0
 11
-1.13888
 21
-0.053766
 31
0.0
  0
LINE
  8
0
  6
CONTINUOUS
 62
     7
  5
820
 10
-1.13888
 20
-0.053766
 30
0.0
 11
-1.138969
 21
-0.053652
 31
0.0
  0
LINE
  8
0
  6
CONTINUOUS
 62
     7
  5
821
 10
-1.138969
 20
-0.053652
 30
0.0
 11
-1.139058
 21
-0.053539
 31
0.0
  0
LINE
  8
0
  6
CONTINUOUS
 62
     7
  5
822
 10
-1.139058
 20
-0.053539
 30
0.0
 11
-1.139146
 21
-0.053426
 31
0.0
  0
LINE
  8
0
  6
CONTINUOUS
 62
     7
  5
823
 10
-1.139146
 20
-0.053426
 30
0.0
 11
-1.139234
 21
-0.053312
 31
0.0
  0
LINE
  8
0
  6
CONTINUOUS
 62
     7
  5
824
 10
-1.139234
 20
-0.053312
 30
0.0
 11
-1.139323
 21
-0.053198
 31
0.0
  0
LINE
  8
0
  6
CONTINUOUS
 62
     7
  5
825
 10
-1.139323
 20
-0.053198
 30
0.0
 11
-1.139411
 21
-0.053084
 31
0.0
  0
LINE
  8
0
  6
CONTINUOUS
 62
     7
  5
826
 10
-1.139411
 20
-0.053084
 30
0.0
 11
-1.139498
 21
-0.05297
 31
0.0
  0
LINE
  8
0
  6
CONTINUOUS
 62
     7
  5
827
 10
-1.139498
 20
-0.05297
 30
0.0
 11
-1.139586
 21
-0.052856
 31
0.0
  0
LINE
  8
0
  6
CONTINUOUS
 62
     7
  5
828
 10
-1.139586
 20
-0.052856
 30
0.0
 11
-1.139673
 21
-0.052741
 31
0.0
  0
LINE
  8
0
  6
CONTINUOUS
 62
     7
  5
829
 10
-1.139673
 20
-0.052741
 30
0.0
 11
-1.13976
 21
-0.052627
 31
0.0
  0
LINE
  8
0
  6
CONTINUOUS
 62
     7
  5
82A
 10
-1.13976
 20
-0.052627
 30
0.0
 11
-1.139847
 21
-0.052512
 31
0.0
  0
LINE
  8
0
  6
CONTINUOUS
 62
     7
  5
82B
 10
-1.139847
 20
-0.052512
 30
0.0
 11
-1.139934
 21
-0.052397
 31
0.0
  0
LINE
  8
0
  6
CONTINUOUS
 62
     7
  5
82C
 10
-1.139934
 20
-0.052397
 30
0.0
 11
-1.140021
 21
-0.052282
 31
0.0
  0
LINE
  8
0
  6
CONTINUOUS
 62
     7
  5
82D
 10
-1.140021
 20
-0.052282
 30
0.0
 11
-1.140107
 21
-0.052167
 31
0.0
  0
LINE
  8
0
  6
CONTINUOUS
 62
     7
  5
82E
 10
-1.140107
 20
-0.052167
 30
0.0
 11
-1.140193
 21
-0.052052
 31
0.0
  0
LINE
  8
0
  6
CONTINUOUS
 62
     7
  5
82F
 10
-1.140193
 20
-0.052052
 30
0.0
 11
-1.140279
 21
-0.051936
 31
0.0
  0
LINE
  8
0
  6
CONTINUOUS
 62
     7
  5
830
 10
-1.140279
 20
-0.051936
 30
0.0
 11
-1.140365
 21
-0.051821
 31
0.0
  0
LINE
  8
0
  6
CONTINUOUS
 62
     7
  5
831
 10
-1.140365
 20
-0.051821
 30
0.0
 11
-1.140451
 21
-0.051705
 31
0.0
  0
LINE
  8
0
  6
CONTINUOUS
 62
     7
  5
832
 10
-1.140451
 20
-0.051705
 30
0.0
 11
-1.140536
 21
-0.051589
 31
0.0
  0
LINE
  8
0
  6
CONTINUOUS
 62
     7
  5
833
 10
-1.140536
 20
-0.051589
 30
0.0
 11
-1.140622
 21
-0.051473
 31
0.0
  0
LINE
  8
0
  6
CONTINUOUS
 62
     7
  5
834
 10
-1.140622
 20
-0.051473
 30
0.0
 11
-1.140707
 21
-0.051357
 31
0.0
  0
LINE
  8
0
  6
CONTINUOUS
 62
     7
  5
835
 10
-1.140707
 20
-0.051357
 30
0.0
 11
-1.140791
 21
-0.051241
 31
0.0
  0
LINE
  8
0
  6
CONTINUOUS
 62
     7
  5
836
 10
-1.140791
 20
-0.051241
 30
0.0
 11
-1.140876
 21
-0.051124
 31
0.0
  0
LINE
  8
0
  6
CONTINUOUS
 62
     7
  5
837
 10
-1.140876
 20
-0.051124
 30
0.0
 11
-1.140961
 21
-0.051008
 31
0.0
  0
LINE
  8
0
  6
CONTINUOUS
 62
     7
  5
838
 10
-1.140961
 20
-0.051008
 30
0.0
 11
-1.141045
 21
-0.050891
 31
0.0
  0
LINE
  8
0
  6
CONTINUOUS
 62
     7
  5
839
 10
-1.04948
 20
-0.045276
 30
0.0
 11
-1.049565
 21
-0.045657
 31
0.0
  0
LINE
  8
0
  6
CONTINUOUS
 62
     7
  5
83A
 10
-1.049565
 20
-0.045657
 30
0.0
 11
-1.049818
 21
-0.046037
 31
0.0
  0
LINE
  8
0
  6
CONTINUOUS
 62
     7
  5
83B
 10
-1.049818
 20
-0.046037
 30
0.0
 11
-1.05024
 21
-0.046417
 31
0.0
  0
LINE
  8
0
  6
CONTINUOUS
 62
     7
  5
83C
 10
-1.05024
 20
-0.046417
 30
0.0
 11
-1.05083
 21
-0.046794
 31
0.0
  0
LINE
  8
0
  6
CONTINUOUS
 62
     7
  5
83D
 10
-1.05083
 20
-0.046794
 30
0.0
 11
-1.051586
 21
-0.04717
 31
0.0
  0
LINE
  8
0
  6
CONTINUOUS
 62
     7
  5
83E
 10
-1.051586
 20
-0.04717
 30
0.0
 11
-1.052508
 21
-0.047542
 31
0.0
  0
LINE
  8
0
  6
CONTINUOUS
 62
     7
  5
83F
 10
-1.052508
 20
-0.047542
 30
0.0
 11
-1.053594
 21
-0.047912
 31
0.0
  0
LINE
  8
0
  6
CONTINUOUS
 62
     7
  5
840
 10
-1.053594
 20
-0.047912
 30
0.0
 11
-1.054843
 21
-0.048277
 31
0.0
  0
LINE
  8
0
  6
CONTINUOUS
 62
     7
  5
841
 10
-1.054843
 20
-0.048277
 30
0.0
 11
-1.056252
 21
-0.048638
 31
0.0
  0
LINE
  8
0
  6
CONTINUOUS
 62
     7
  5
842
 10
-1.056252
 20
-0.048638
 30
0.0
 11
-1.05782
 21
-0.048993
 31
0.0
  0
LINE
  8
0
  6
CONTINUOUS
 62
     7
  5
843
 10
-1.05782
 20
-0.048993
 30
0.0
 11
-1.059544
 21
-0.049343
 31
0.0
  0
LINE
  8
0
  6
CONTINUOUS
 62
     7
  5
844
 10
-1.059544
 20
-0.049343
 30
0.0
 11
-1.061422
 21
-0.049687
 31
0.0
  0
LINE
  8
0
  6
CONTINUOUS
 62
     7
  5
845
 10
-1.061422
 20
-0.049687
 30
0.0
 11
-1.063451
 21
-0.050025
 31
0.0
  0
LINE
  8
0
  6
CONTINUOUS
 62
     7
  5
846
 10
-1.063451
 20
-0.050025
 30
0.0
 11
-1.065628
 21
-0.050355
 31
0.0
  0
LINE
  8
0
  6
CONTINUOUS
 62
     7
  5
847
 10
-1.065628
 20
-0.050355
 30
0.0
 11
-1.067949
 21
-0.050678
 31
0.0
  0
LINE
  8
0
  6
CONTINUOUS
 62
     7
  5
848
 10
-1.067949
 20
-0.050678
 30
0.0
 11
-1.070411
 21
-0.050992
 31
0.0
  0
LINE
  8
0
  6
CONTINUOUS
 62
     7
  5
849
 10
-1.070411
 20
-0.050992
 30
0.0
 11
-1.07301
 21
-0.051298
 31
0.0
  0
LINE
  8
0
  6
CONTINUOUS
 62
     7
  5
84A
 10
-1.07301
 20
-0.051298
 30
0.0
 11
-1.075743
 21
-0.051595
 31
0.0
  0
LINE
  8
0
  6
CONTINUOUS
 62
     7
  5
84B
 10
-1.075743
 20
-0.051595
 30
0.0
 11
-1.078606
 21
-0.051882
 31
0.0
  0
LINE
  8
0
  6
CONTINUOUS
 62
     7
  5
84C
 10
-1.078606
 20
-0.051882
 30
0.0
 11
-1.081593
 21
-0.05216
 31
0.0
  0
LINE
  8
0
  6
CONTINUOUS
 62
     7
  5
84D
 10
-1.081593
 20
-0.05216
 30
0.0
 11
-1.084701
 21
-0.052427
 31
0.0
  0
LINE
  8
0
  6
CONTINUOUS
 62
     7
  5
84E
 10
-1.084701
 20
-0.052427
 30
0.0
 11
-1.087925
 21
-0.052683
 31
0.0
  0
LINE
  8
0
  6
CONTINUOUS
 62
     7
  5
84F
 10
-1.087925
 20
-0.052683
 30
0.0
 11
-1.09126
 21
-0.052929
 31
0.0
  0
LINE
  8
0
  6
CONTINUOUS
 62
     7
  5
850
 10
-1.09126
 20
-0.052929
 30
0.0
 11
-1.094701
 21
-0.053163
 31
0.0
  0
LINE
  8
0
  6
CONTINUOUS
 62
     7
  5
851
 10
-1.094701
 20
-0.053163
 30
0.0
 11
-1.098243
 21
-0.053385
 31
0.0
  0
LINE
  8
0
  6
CONTINUOUS
 62
     7
  5
852
 10
-1.098243
 20
-0.053385
 30
0.0
 11
-1.101881
 21
-0.053595
 31
0.0
  0
LINE
  8
0
  6
CONTINUOUS
 62
     7
  5
853
 10
-1.101881
 20
-0.053595
 30
0.0
 11
-1.105609
 21
-0.053792
 31
0.0
  0
LINE
  8
0
  6
CONTINUOUS
 62
     7
  5
854
 10
-1.105609
 20
-0.053792
 30
0.0
 11
-1.109421
 21
-0.053977
 31
0.0
  0
LINE
  8
0
  6
CONTINUOUS
 62
     7
  5
855
 10
-1.109421
 20
-0.053977
 30
0.0
 11
-1.113312
 21
-0.054148
 31
0.0
  0
LINE
  8
0
  6
CONTINUOUS
 62
     7
  5
856
 10
-1.113312
 20
-0.054148
 30
0.0
 11
-1.117276
 21
-0.054306
 31
0.0
  0
LINE
  8
0
  6
CONTINUOUS
 62
     7
  5
857
 10
-1.117276
 20
-0.054306
 30
0.0
 11
-1.121308
 21
-0.054451
 31
0.0
  0
LINE
  8
0
  6
CONTINUOUS
 62
     7
  5
858
 10
-1.121308
 20
-0.054451
 30
0.0
 11
-1.1254
 21
-0.054582
 31
0.0
  0
LINE
  8
0
  6
CONTINUOUS
 62
     7
  5
859
 10
-1.1254
 20
-0.054582
 30
0.0
 11
-1.129547
 21
-0.054699
 31
0.0
  0
LINE
  8
0
  6
CONTINUOUS
 62
     7
  5
85A
 10
-1.129547
 20
-0.054699
 30
0.0
 11
-1.133743
 21
-0.054802
 31
0.0
  0
LINE
  8
0
  6
CONTINUOUS
 62
     7
  5
85B
 10
-1.133743
 20
-0.054802
 30
0.0
 11
-1.137981
 21
-0.05489
 31
0.0
  0
LINE
  8
0
  6
CONTINUOUS
 62
     7
  5
85C
 10
-1.062451
 20
-0.023622
 30
0.0
 11
-1.04948
 21
-0.045276
 31
0.0
  0
LINE
  8
0
  6
CONTINUOUS
 62
     7
  5
85D
 10
-1.107451
 20
0.023622
 30
0.0
 11
-1.062451
 21
0.023622
 31
0.0
  0
LINE
  8
0
  6
CONTINUOUS
 62
     7
  5
85E
 10
-1.04948
 20
0.045276
 30
0.0
 11
-1.062451
 21
0.023622
 31
0.0
  0
LINE
  8
0
  6
CONTINUOUS
 62
     7
  5
85F
 10
-1.137981
 20
0.05489
 30
0.0
 11
-1.133743
 21
0.054802
 31
0.0
  0
LINE
  8
0
  6
CONTINUOUS
 62
     7
  5
860
 10
-1.133743
 20
0.054802
 30
0.0
 11
-1.129547
 21
0.054699
 31
0.0
  0
LINE
  8
0
  6
CONTINUOUS
 62
     7
  5
861
 10
-1.129547
 20
0.054699
 30
0.0
 11
-1.1254
 21
0.054582
 31
0.0
  0
LINE
  8
0
  6
CONTINUOUS
 62
     7
  5
862
 10
-1.1254
 20
0.054582
 30
0.0
 11
-1.121308
 21
0.054451
 31
0.0
  0
LINE
  8
0
  6
CONTINUOUS
 62
     7
  5
863
 10
-1.121308
 20
0.054451
 30
0.0
 11
-1.117276
 21
0.054306
 31
0.0
  0
LINE
  8
0
  6
CONTINUOUS
 62
     7
  5
864
 10
-1.117276
 20
0.054306
 30
0.0
 11
-1.113312
 21
0.054148
 31
0.0
  0
LINE
  8
0
  6
CONTINUOUS
 62
     7
  5
865
 10
-1.113312
 20
0.054148
 30
0.0
 11
-1.109421
 21
0.053977
 31
0.0
  0
LINE
  8
0
  6
CONTINUOUS
 62
     7
  5
866
 10
-1.109421
 20
0.053977
 30
0.0
 11
-1.105609
 21
0.053792
 31
0.0
  0
LINE
  8
0
  6
CONTINUOUS
 62
     7
  5
867
 10
-1.105609
 20
0.053792
 30
0.0
 11
-1.101881
 21
0.053595
 31
0.0
  0
LINE
  8
0
  6
CONTINUOUS
 62
     7
  5
868
 10
-1.101881
 20
0.053595
 30
0.0
 11
-1.098243
 21
0.053385
 31
0.0
  0
LINE
  8
0
  6
CONTINUOUS
 62
     7
  5
869
 10
-1.098243
 20
0.053385
 30
0.0
 11
-1.094701
 21
0.053163
 31
0.0
  0
LINE
  8
0
  6
CONTINUOUS
 62
     7
  5
86A
 10
-1.094701
 20
0.053163
 30
0.0
 11
-1.09126
 21
0.052929
 31
0.0
  0
LINE
  8
0
  6
CONTINUOUS
 62
     7
  5
86B
 10
-1.09126
 20
0.052929
 30
0.0
 11
-1.087925
 21
0.052683
 31
0.0
  0
LINE
  8
0
  6
CONTINUOUS
 62
     7
  5
86C
 10
-1.087925
 20
0.052683
 30
0.0
 11
-1.084701
 21
0.052427
 31
0.0
  0
LINE
  8
0
  6
CONTINUOUS
 62
     7
  5
86D
 10
-1.084701
 20
0.052427
 30
0.0
 11
-1.081593
 21
0.05216
 31
0.0
  0
LINE
  8
0
  6
CONTINUOUS
 62
     7
  5
86E
 10
-1.081593
 20
0.05216
 30
0.0
 11
-1.078606
 21
0.051882
 31
0.0
  0
LINE
  8
0
  6
CONTINUOUS
 62
     7
  5
86F
 10
-1.078606
 20
0.051882
 30
0.0
 11
-1.075743
 21
0.051595
 31
0.0
  0
LINE
  8
0
  6
CONTINUOUS
 62
     7
  5
870
 10
-1.075743
 20
0.051595
 30
0.0
 11
-1.07301
 21
0.051298
 31
0.0
  0
LINE
  8
0
  6
CONTINUOUS
 62
     7
  5
871
 10
-1.07301
 20
0.051298
 30
0.0
 11
-1.070411
 21
0.050992
 31
0.0
  0
LINE
  8
0
  6
CONTINUOUS
 62
     7
  5
872
 10
-1.070411
 20
0.050992
 30
0.0
 11
-1.067949
 21
0.050678
 31
0.0
  0
LINE
  8
0
  6
CONTINUOUS
 62
     7
  5
873
 10
-1.067949
 20
0.050678
 30
0.0
 11
-1.065628
 21
0.050355
 31
0.0
  0
LINE
  8
0
  6
CONTINUOUS
 62
     7
  5
874
 10
-1.065628
 20
0.050355
 30
0.0
 11
-1.063451
 21
0.050025
 31
0.0
  0
LINE
  8
0
  6
CONTINUOUS
 62
     7
  5
875
 10
-1.063451
 20
0.050025
 30
0.0
 11
-1.061422
 21
0.049687
 31
0.0
  0
LINE
  8
0
  6
CONTINUOUS
 62
     7
  5
876
 10
-1.061422
 20
0.049687
 30
0.0
 11
-1.059544
 21
0.049343
 31
0.0
  0
LINE
  8
0
  6
CONTINUOUS
 62
     7
  5
877
 10
-1.059544
 20
0.049343
 30
0.0
 11
-1.05782
 21
0.048993
 31
0.0
  0
LINE
  8
0
  6
CONTINUOUS
 62
     7
  5
878
 10
-1.05782
 20
0.048993
 30
0.0
 11
-1.056252
 21
0.048638
 31
0.0
  0
LINE
  8
0
  6
CONTINUOUS
 62
     7
  5
879
 10
-1.056252
 20
0.048638
 30
0.0
 11
-1.054843
 21
0.048277
 31
0.0
  0
LINE
  8
0
  6
CONTINUOUS
 62
     7
  5
87A
 10
-1.054843
 20
0.048277
 30
0.0
 11
-1.053594
 21
0.047912
 31
0.0
  0
LINE
  8
0
  6
CONTINUOUS
 62
     7
  5
87B
 10
-1.053594
 20
0.047912
 30
0.0
 11
-1.052508
 21
0.047542
 31
0.0
  0
LINE
  8
0
  6
CONTINUOUS
 62
     7
  5
87C
 10
-1.052508
 20
0.047542
 30
0.0
 11
-1.051586
 21
0.04717
 31
0.0
  0
LINE
  8
0
  6
CONTINUOUS
 62
     7
  5
87D
 10
-1.051586
 20
0.04717
 30
0.0
 11
-1.05083
 21
0.046794
 31
0.0
  0
LINE
  8
0
  6
CONTINUOUS
 62
     7
  5
87E
 10
-1.05083
 20
0.046794
 30
0.0
 11
-1.05024
 21
0.046417
 31
0.0
  0
LINE
  8
0
  6
CONTINUOUS
 62
     7
  5
87F
 10
-1.05024
 20
0.046417
 30
0.0
 11
-1.049818
 21
0.046037
 31
0.0
  0
LINE
  8
0
  6
CONTINUOUS
 62
     7
  5
880
 10
-1.049818
 20
0.046037
 30
0.0
 11
-1.049565
 21
0.045657
 31
0.0
  0
LINE
  8
0
  6
CONTINUOUS
 62
     7
  5
881
 10
-1.049565
 20
0.045657
 30
0.0
 11
-1.04948
 21
0.045276
 31
0.0
  0
LINE
  8
0
  6
CONTINUOUS
 62
     7
  5
882
 10
-1.141045
 20
0.050891
 30
0.0
 11
-1.140961
 21
0.051008
 31
0.0
  0
LINE
  8
0
  6
CONTINUOUS
 62
     7
  5
883
 10
-1.140961
 20
0.051008
 30
0.0
 11
-1.140876
 21
0.051124
 31
0.0
  0
LINE
  8
0
  6
CONTINUOUS
 62
     7
  5
884
 10
-1.140876
 20
0.051124
 30
0.0
 11
-1.140791
 21
0.051241
 31
0.0
  0
LINE
  8
0
  6
CONTINUOUS
 62
     7
  5
885
 10
-1.140791
 20
0.051241
 30
0.0
 11
-1.140707
 21
0.051357
 31
0.0
  0
LINE
  8
0
  6
CONTINUOUS
 62
     7
  5
886
 10
-1.140707
 20
0.051357
 30
0.0
 11
-1.140622
 21
0.051473
 31
0.0
  0
LINE
  8
0
  6
CONTINUOUS
 62
     7
  5
887
 10
-1.140622
 20
0.051473
 30
0.0
 11
-1.140536
 21
0.051589
 31
0.0
  0
LINE
  8
0
  6
CONTINUOUS
 62
     7
  5
888
 10
-1.140536
 20
0.051589
 30
0.0
 11
-1.140451
 21
0.051705
 31
0.0
  0
LINE
  8
0
  6
CONTINUOUS
 62
     7
  5
889
 10
-1.140451
 20
0.051705
 30
0.0
 11
-1.140365
 21
0.051821
 31
0.0
  0
LINE
  8
0
  6
CONTINUOUS
 62
     7
  5
88A
 10
-1.140365
 20
0.051821
 30
0.0
 11
-1.140279
 21
0.051936
 31
0.0
  0
LINE
  8
0
  6
CONTINUOUS
 62
     7
  5
88B
 10
-1.140279
 20
0.051936
 30
0.0
 11
-1.140193
 21
0.052052
 31
0.0
  0
LINE
  8
0
  6
CONTINUOUS
 62
     7
  5
88C
 10
-1.140193
 20
0.052052
 30
0.0
 11
-1.140107
 21
0.052167
 31
0.0
  0
LINE
  8
0
  6
CONTINUOUS
 62
     7
  5
88D
 10
-1.140107
 20
0.052167
 30
0.0
 11
-1.140021
 21
0.052282
 31
0.0
  0
LINE
  8
0
  6
CONTINUOUS
 62
     7
  5
88E
 10
-1.140021
 20
0.052282
 30
0.0
 11
-1.139934
 21
0.052397
 31
0.0
  0
LINE
  8
0
  6
CONTINUOUS
 62
     7
  5
88F
 10
-1.139934
 20
0.052397
 30
0.0
 11
-1.139847
 21
0.052512
 31
0.0
  0
LINE
  8
0
  6
CONTINUOUS
 62
     7
  5
890
 10
-1.139847
 20
0.052512
 30
0.0
 11
-1.13976
 21
0.052627
 31
0.0
  0
LINE
  8
0
  6
CONTINUOUS
 62
     7
  5
891
 10
-1.13976
 20
0.052627
 30
0.0
 11
-1.139673
 21
0.052741
 31
0.0
  0
LINE
  8
0
  6
CONTINUOUS
 62
     7
  5
892
 10
-1.139673
 20
0.052741
 30
0.0
 11
-1.139586
 21
0.052856
 31
0.0
  0
LINE
  8
0
  6
CONTINUOUS
 62
     7
  5
893
 10
-1.139586
 20
0.052856
 30
0.0
 11
-1.139498
 21
0.05297
 31
0.0
  0
LINE
  8
0
  6
CONTINUOUS
 62
     7
  5
894
 10
-1.139498
 20
0.05297
 30
0.0
 11
-1.139411
 21
0.053084
 31
0.0
  0
LINE
  8
0
  6
CONTINUOUS
 62
     7
  5
895
 10
-1.139411
 20
0.053084
 30
0.0
 11
-1.139323
 21
0.053198
 31
0.0
  0
LINE
  8
0
  6
CONTINUOUS
 62
     7
  5
896
 10
-1.139323
 20
0.053198
 30
0.0
 11
-1.139234
 21
0.053312
 31
0.0
  0
LINE
  8
0
  6
CONTINUOUS
 62
     7
  5
897
 10
-1.139234
 20
0.053312
 30
0.0
 11
-1.139146
 21
0.053426
 31
0.0
  0
LINE
  8
0
  6
CONTINUOUS
 62
     7
  5
898
 10
-1.139146
 20
0.053426
 30
0.0
 11
-1.139058
 21
0.053539
 31
0.0
  0
LINE
  8
0
  6
CONTINUOUS
 62
     7
  5
899
 10
-1.139058
 20
0.053539
 30
0.0
 11
-1.138969
 21
0.053652
 31
0.0
  0
LINE
  8
0
  6
CONTINUOUS
 62
     7
  5
89A
 10
-1.138969
 20
0.053652
 30
0.0
 11
-1.13888
 21
0.053766
 31
0.0
  0
LINE
  8
0
  6
CONTINUOUS
 62
     7
  5
89B
 10
-1.13888
 20
0.053766
 30
0.0
 11
-1.138791
 21
0.053879
 31
0.0
  0
LINE
  8
0
  6
CONTINUOUS
 62
     7
  5
89C
 10
-1.138791
 20
0.053879
 30
0.0
 11
-1.138702
 21
0.053992
 31
0.0
  0
LINE
  8
0
  6
CONTINUOUS
 62
     7
  5
89D
 10
-1.138702
 20
0.053992
 30
0.0
 11
-1.138612
 21
0.054105
 31
0.0
  0
LINE
  8
0
  6
CONTINUOUS
 62
     7
  5
89E
 10
-1.138612
 20
0.054105
 30
0.0
 11
-1.138523
 21
0.054217
 31
0.0
  0
LINE
  8
0
  6
CONTINUOUS
 62
     7
  5
89F
 10
-1.138523
 20
0.054217
 30
0.0
 11
-1.138433
 21
0.05433
 31
0.0
  0
LINE
  8
0
  6
CONTINUOUS
 62
     7
  5
8A0
 10
-1.138433
 20
0.05433
 30
0.0
 11
-1.138343
 21
0.054442
 31
0.0
  0
LINE
  8
0
  6
CONTINUOUS
 62
     7
  5
8A1
 10
-1.138343
 20
0.054442
 30
0.0
 11
-1.138253
 21
0.054554
 31
0.0
  0
LINE
  8
0
  6
CONTINUOUS
 62
     7
  5
8A2
 10
-1.138253
 20
0.054554
 30
0.0
 11
-1.138163
 21
0.054666
 31
0.0
  0
LINE
  8
0
  6
CONTINUOUS
 62
     7
  5
8A3
 10
-1.138163
 20
0.054666
 30
0.0
 11
-1.138072
 21
0.054778
 31
0.0
  0
LINE
  8
0
  6
CONTINUOUS
 62
     7
  5
8A4
 10
-1.138072
 20
0.054778
 30
0.0
 11
-1.137981
 21
0.05489
 31
0.0
  0
LINE
  8
0
  6
CONTINUOUS
 62
     7
  5
8A5
 10
-1.09448
 20
0.045276
 30
0.0
 11
-1.094523
 21
0.045487
 31
0.0
  0
LINE
  8
0
  6
CONTINUOUS
 62
     7
  5
8A6
 10
-1.094523
 20
0.045487
 30
0.0
 11
-1.094653
 21
0.045699
 31
0.0
  0
LINE
  8
0
  6
CONTINUOUS
 62
     7
  5
8A7
 10
-1.094653
 20
0.045699
 30
0.0
 11
-1.094869
 21
0.04591
 31
0.0
  0
LINE
  8
0
  6
CONTINUOUS
 62
     7
  5
8A8
 10
-1.094869
 20
0.04591
 30
0.0
 11
-1.095172
 21
0.04612
 31
0.0
  0
LINE
  8
0
  6
CONTINUOUS
 62
     7
  5
8A9
 10
-1.095172
 20
0.04612
 30
0.0
 11
-1.095561
 21
0.046329
 31
0.0
  0
LINE
  8
0
  6
CONTINUOUS
 62
     7
  5
8AA
 10
-1.095561
 20
0.046329
 30
0.0
 11
-1.096035
 21
0.046537
 31
0.0
  0
LINE
  8
0
  6
CONTINUOUS
 62
     7
  5
8AB
 10
-1.096035
 20
0.046537
 30
0.0
 11
-1.096594
 21
0.046743
 31
0.0
  0
LINE
  8
0
  6
CONTINUOUS
 62
     7
  5
8AC
 10
-1.096594
 20
0.046743
 30
0.0
 11
-1.097237
 21
0.046947
 31
0.0
  0
LINE
  8
0
  6
CONTINUOUS
 62
     7
  5
8AD
 10
-1.097237
 20
0.046947
 30
0.0
 11
-1.097964
 21
0.047149
 31
0.0
  0
LINE
  8
0
  6
CONTINUOUS
 62
     7
  5
8AE
 10
-1.097964
 20
0.047149
 30
0.0
 11
-1.098773
 21
0.047349
 31
0.0
  0
LINE
  8
0
  6
CONTINUOUS
 62
     7
  5
8AF
 10
-1.098773
 20
0.047349
 30
0.0
 11
-1.099663
 21
0.047546
 31
0.0
  0
LINE
  8
0
  6
CONTINUOUS
 62
     7
  5
8B0
 10
-1.099663
 20
0.047546
 30
0.0
 11
-1.100634
 21
0.04774
 31
0.0
  0
LINE
  8
0
  6
CONTINUOUS
 62
     7
  5
8B1
 10
-1.100634
 20
0.04774
 30
0.0
 11
-1.101683
 21
0.047931
 31
0.0
  0
LINE
  8
0
  6
CONTINUOUS
 62
     7
  5
8B2
 10
-1.101683
 20
0.047931
 30
0.0
 11
-1.10281
 21
0.048119
 31
0.0
  0
LINE
  8
0
  6
CONTINUOUS
 62
     7
  5
8B3
 10
-1.10281
 20
0.048119
 30
0.0
 11
-1.104013
 21
0.048302
 31
0.0
  0
LINE
  8
0
  6
CONTINUOUS
 62
     7
  5
8B4
 10
-1.104013
 20
0.048302
 30
0.0
 11
-1.105291
 21
0.048482
 31
0.0
  0
LINE
  8
0
  6
CONTINUOUS
 62
     7
  5
8B5
 10
-1.105291
 20
0.048482
 30
0.0
 11
-1.106642
 21
0.048658
 31
0.0
  0
LINE
  8
0
  6
CONTINUOUS
 62
     7
  5
8B6
 10
-1.106642
 20
0.048658
 30
0.0
 11
-1.108064
 21
0.04883
 31
0.0
  0
LINE
  8
0
  6
CONTINUOUS
 62
     7
  5
8B7
 10
-1.108064
 20
0.04883
 30
0.0
 11
-1.109555
 21
0.048997
 31
0.0
  0
LINE
  8
0
  6
CONTINUOUS
 62
     7
  5
8B8
 10
-1.109555
 20
0.048997
 30
0.0
 11
-1.111114
 21
0.049159
 31
0.0
  0
LINE
  8
0
  6
CONTINUOUS
 62
     7
  5
8B9
 10
-1.111114
 20
0.049159
 30
0.0
 11
-1.112738
 21
0.049316
 31
0.0
  0
LINE
  8
0
  6
CONTINUOUS
 62
     7
  5
8BA
 10
-1.112738
 20
0.049316
 30
0.0
 11
-1.114426
 21
0.049468
 31
0.0
  0
LINE
  8
0
  6
CONTINUOUS
 62
     7
  5
8BB
 10
-1.114426
 20
0.049468
 30
0.0
 11
-1.116175
 21
0.049614
 31
0.0
  0
LINE
  8
0
  6
CONTINUOUS
 62
     7
  5
8BC
 10
-1.116175
 20
0.049614
 30
0.0
 11
-1.117982
 21
0.049755
 31
0.0
  0
LINE
  8
0
  6
CONTINUOUS
 62
     7
  5
8BD
 10
-1.117982
 20
0.049755
 30
0.0
 11
-1.119847
 21
0.04989
 31
0.0
  0
LINE
  8
0
  6
CONTINUOUS
 62
     7
  5
8BE
 10
-1.119847
 20
0.04989
 30
0.0
 11
-1.121765
 21
0.05002
 31
0.0
  0
LINE
  8
0
  6
CONTINUOUS
 62
     7
  5
8BF
 10
-1.121765
 20
0.05002
 30
0.0
 11
-1.123736
 21
0.050143
 31
0.0
  0
LINE
  8
0
  6
CONTINUOUS
 62
     7
  5
8C0
 10
-1.123736
 20
0.050143
 30
0.0
 11
-1.125755
 21
0.05026
 31
0.0
  0
LINE
  8
0
  6
CONTINUOUS
 62
     7
  5
8C1
 10
-1.125755
 20
0.05026
 30
0.0
 11
-1.127822
 21
0.05037
 31
0.0
  0
LINE
  8
0
  6
CONTINUOUS
 62
     7
  5
8C2
 10
-1.127822
 20
0.05037
 30
0.0
 11
-1.129932
 21
0.050474
 31
0.0
  0
LINE
  8
0
  6
CONTINUOUS
 62
     7
  5
8C3
 10
-1.129932
 20
0.050474
 30
0.0
 11
-1.132083
 21
0.050571
 31
0.0
  0
LINE
  8
0
  6
CONTINUOUS
 62
     7
  5
8C4
 10
-1.132083
 20
0.050571
 30
0.0
 11
-1.134273
 21
0.050662
 31
0.0
  0
LINE
  8
0
  6
CONTINUOUS
 62
     7
  5
8C5
 10
-1.134273
 20
0.050662
 30
0.0
 11
-1.136498
 21
0.050745
 31
0.0
  0
LINE
  8
0
  6
CONTINUOUS
 62
     7
  5
8C6
 10
-1.136498
 20
0.050745
 30
0.0
 11
-1.138757
 21
0.050822
 31
0.0
  0
LINE
  8
0
  6
CONTINUOUS
 62
     7
  5
8C7
 10
-1.138757
 20
0.050822
 30
0.0
 11
-1.141045
 21
0.050891
 31
0.0
  0
LINE
  8
0
  6
CONTINUOUS
 62
     7
  5
8C8
 10
-1.107451
 20
0.023622
 30
0.0
 11
-1.09448
 21
0.045276
 31
0.0
  0
LINE
  8
0
  6
CONTINUOUS
 62
     7
  5
8C9
 10
-1.03937
 20
-0.023622
 30
0.0
 11
-1.062451
 21
-0.023622
 31
0.0
  0
LINE
  8
0
  6
CONTINUOUS
 62
     7
  5
8CA
 10
-1.062451
 20
0.023622
 30
0.0
 11
-1.03937
 21
0.023622
 31
0.0
  0
ARC
  8
0
  6
CONTINUOUS
 62
     7
  5
8CB
 10
-1.088583
 20
0.0
 30
0.0
 40
0.023622
 50
199.471221
 51
270.0
  0
LINE
  8
0
  6
CONTINUOUS
 62
     7
  5
8CC
 10
-1.110854
 20
-0.007874
 30
0.0
 11
-1.157123
 21
-0.007874
 31
0.0
  0
ARC
  8
0
  6
CONTINUOUS
 62
     7
  5
8CD
 10
-1.070472
 20
0.0
 30
0.0
 40
0.087008
 50
185.192242
 51
211.356536
  0
ARC
  8
0
  6
CONTINUOUS
 62
     7
  5
8CE
 10
-1.088583
 20
0.0
 30
0.0
 40
0.023622
 50
90.0
 51
160.528779
  0
LINE
  8
0
  6
CONTINUOUS
 62
     7
  5
8CF
 10
-1.110854
 20
-0.007874
 30
0.0
 11
-1.110947
 21
-0.007605
 31
0.0
  0
LINE
  8
0
  6
CONTINUOUS
 62
     7
  5
8D0
 10
-1.110947
 20
-0.007605
 30
0.0
 11
-1.111046
 21
-0.007308
 31
0.0
  0
LINE
  8
0
  6
CONTINUOUS
 62
     7
  5
8D1
 10
-1.111046
 20
-0.007308
 30
0.0
 11
-1.111149
 21
-0.006983
 31
0.0
  0
LINE
  8
0
  6
CONTINUOUS
 62
     7
  5
8D2
 10
-1.111149
 20
-0.006983
 30
0.0
 11
-1.111253
 21
-0.006636
 31
0.0
  0
LINE
  8
0
  6
CONTINUOUS
 62
     7
  5
8D3
 10
-1.111253
 20
-0.006636
 30
0.0
 11
-1.111357
 21
-0.00627
 31
0.0
  0
LINE
  8
0
  6
CONTINUOUS
 62
     7
  5
8D4
 10
-1.111357
 20
-0.00627
 30
0.0
 11
-1.11146
 21
-0.005883
 31
0.0
  0
LINE
  8
0
  6
CONTINUOUS
 62
     7
  5
8D5
 10
-1.11146
 20
-0.005883
 30
0.0
 11
-1.111564
 21
-0.005466
 31
0.0
  0
LINE
  8
0
  6
CONTINUOUS
 62
     7
  5
8D6
 10
-1.111564
 20
-0.005466
 30
0.0
 11
-1.111665
 21
-0.005021
 31
0.0
  0
LINE
  8
0
  6
CONTINUOUS
 62
     7
  5
8D7
 10
-1.111665
 20
-0.005021
 30
0.0
 11
-1.111762
 21
-0.00455
 31
0.0
  0
LINE
  8
0
  6
CONTINUOUS
 62
     7
  5
8D8
 10
-1.111762
 20
-0.00455
 30
0.0
 11
-1.111854
 21
-0.004058
 31
0.0
  0
LINE
  8
0
  6
CONTINUOUS
 62
     7
  5
8D9
 10
-1.111854
 20
-0.004058
 30
0.0
 11
-1.111937
 21
-0.003546
 31
0.0
  0
LINE
  8
0
  6
CONTINUOUS
 62
     7
  5
8DA
 10
-1.111937
 20
-0.003546
 30
0.0
 11
-1.112011
 21
-0.003019
 31
0.0
  0
LINE
  8
0
  6
CONTINUOUS
 62
     7
  5
8DB
 10
-1.112011
 20
-0.003019
 30
0.0
 11
-1.112074
 21
-0.002478
 31
0.0
  0
LINE
  8
0
  6
CONTINUOUS
 62
     7
  5
8DC
 10
-1.112074
 20
-0.002478
 30
0.0
 11
-1.112126
 21
-0.001929
 31
0.0
  0
LINE
  8
0
  6
CONTINUOUS
 62
     7
  5
8DD
 10
-1.112126
 20
-0.001929
 30
0.0
 11
-1.112165
 21
-0.001375
 31
0.0
  0
LINE
  8
0
  6
CONTINUOUS
 62
     7
  5
8DE
 10
-1.112165
 20
-0.001375
 30
0.0
 11
-1.11219
 21
-0.000822
 31
0.0
  0
LINE
  8
0
  6
CONTINUOUS
 62
     7
  5
8DF
 10
-1.11219
 20
-0.000822
 30
0.0
 11
-1.112203
 21
-0.000272
 31
0.0
  0
LINE
  8
0
  6
CONTINUOUS
 62
     7
  5
8E0
 10
-1.112203
 20
-0.000272
 30
0.0
 11
-1.112203
 21
0.000272
 31
0.0
  0
LINE
  8
0
  6
CONTINUOUS
 62
     7
  5
8E1
 10
-1.112203
 20
0.000272
 30
0.0
 11
-1.11219
 21
0.000822
 31
0.0
  0
LINE
  8
0
  6
CONTINUOUS
 62
     7
  5
8E2
 10
-1.11219
 20
0.000822
 30
0.0
 11
-1.112165
 21
0.001375
 31
0.0
  0
LINE
  8
0
  6
CONTINUOUS
 62
     7
  5
8E3
 10
-1.112165
 20
0.001375
 30
0.0
 11
-1.112126
 21
0.001929
 31
0.0
  0
LINE
  8
0
  6
CONTINUOUS
 62
     7
  5
8E4
 10
-1.112126
 20
0.001929
 30
0.0
 11
-1.112074
 21
0.002478
 31
0.0
  0
LINE
  8
0
  6
CONTINUOUS
 62
     7
  5
8E5
 10
-1.112074
 20
0.002478
 30
0.0
 11
-1.112011
 21
0.003019
 31
0.0
  0
LINE
  8
0
  6
CONTINUOUS
 62
     7
  5
8E6
 10
-1.112011
 20
0.003019
 30
0.0
 11
-1.111937
 21
0.003546
 31
0.0
  0
LINE
  8
0
  6
CONTINUOUS
 62
     7
  5
8E7
 10
-1.111937
 20
0.003546
 30
0.0
 11
-1.111854
 21
0.004058
 31
0.0
  0
LINE
  8
0
  6
CONTINUOUS
 62
     7
  5
8E8
 10
-1.111854
 20
0.004058
 30
0.0
 11
-1.111762
 21
0.00455
 31
0.0
  0
LINE
  8
0
  6
CONTINUOUS
 62
     7
  5
8E9
 10
-1.111762
 20
0.00455
 30
0.0
 11
-1.111665
 21
0.005021
 31
0.0
  0
LINE
  8
0
  6
CONTINUOUS
 62
     7
  5
8EA
 10
-1.111665
 20
0.005021
 30
0.0
 11
-1.111564
 21
0.005466
 31
0.0
  0
LINE
  8
0
  6
CONTINUOUS
 62
     7
  5
8EB
 10
-1.111564
 20
0.005466
 30
0.0
 11
-1.11146
 21
0.005883
 31
0.0
  0
LINE
  8
0
  6
CONTINUOUS
 62
     7
  5
8EC
 10
-1.11146
 20
0.005883
 30
0.0
 11
-1.111357
 21
0.00627
 31
0.0
  0
LINE
  8
0
  6
CONTINUOUS
 62
     7
  5
8ED
 10
-1.111357
 20
0.00627
 30
0.0
 11
-1.111253
 21
0.006636
 31
0.0
  0
LINE
  8
0
  6
CONTINUOUS
 62
     7
  5
8EE
 10
-1.111253
 20
0.006636
 30
0.0
 11
-1.111149
 21
0.006983
 31
0.0
  0
LINE
  8
0
  6
CONTINUOUS
 62
     7
  5
8EF
 10
-1.111149
 20
0.006983
 30
0.0
 11
-1.111046
 21
0.007308
 31
0.0
  0
LINE
  8
0
  6
CONTINUOUS
 62
     7
  5
8F0
 10
-1.111046
 20
0.007308
 30
0.0
 11
-1.110947
 21
0.007605
 31
0.0
  0
LINE
  8
0
  6
CONTINUOUS
 62
     7
  5
8F1
 10
-1.110947
 20
0.007605
 30
0.0
 11
-1.110854
 21
0.007874
 31
0.0
  0
LINE
  8
0
  6
CONTINUOUS
 62
     7
  5
8F2
 10
-1.016498
 20
-0.005906
 30
0.0
 11
-1.016737
 21
-0.006762
 31
0.0
  0
LINE
  8
0
  6
CONTINUOUS
 62
     7
  5
8F3
 10
-1.016737
 20
-0.006762
 30
0.0
 11
-1.017007
 21
-0.00761
 31
0.0
  0
LINE
  8
0
  6
CONTINUOUS
 62
     7
  5
8F4
 10
-1.017007
 20
-0.00761
 30
0.0
 11
-1.01731
 21
-0.008446
 31
0.0
  0
LINE
  8
0
  6
CONTINUOUS
 62
     7
  5
8F5
 10
-1.01731
 20
-0.008446
 30
0.0
 11
-1.017643
 21
-0.009271
 31
0.0
  0
LINE
  8
0
  6
CONTINUOUS
 62
     7
  5
8F6
 10
-1.017643
 20
-0.009271
 30
0.0
 11
-1.018008
 21
-0.010083
 31
0.0
  0
LINE
  8
0
  6
CONTINUOUS
 62
     7
  5
8F7
 10
-1.018008
 20
-0.010083
 30
0.0
 11
-1.018403
 21
-0.01088
 31
0.0
  0
LINE
  8
0
  6
CONTINUOUS
 62
     7
  5
8F8
 10
-1.018403
 20
-0.01088
 30
0.0
 11
-1.018827
 21
-0.011661
 31
0.0
  0
LINE
  8
0
  6
CONTINUOUS
 62
     7
  5
8F9
 10
-1.018827
 20
-0.011661
 30
0.0
 11
-1.019281
 21
-0.012427
 31
0.0
  0
LINE
  8
0
  6
CONTINUOUS
 62
     7
  5
8FA
 10
-1.019281
 20
-0.012427
 30
0.0
 11
-1.019763
 21
-0.013174
 31
0.0
  0
LINE
  8
0
  6
CONTINUOUS
 62
     7
  5
8FB
 10
-1.019763
 20
-0.013174
 30
0.0
 11
-1.020273
 21
-0.013903
 31
0.0
  0
LINE
  8
0
  6
CONTINUOUS
 62
     7
  5
8FC
 10
-1.020273
 20
-0.013903
 30
0.0
 11
-1.02081
 21
-0.014612
 31
0.0
  0
LINE
  8
0
  6
CONTINUOUS
 62
     7
  5
8FD
 10
-1.02081
 20
-0.014612
 30
0.0
 11
-1.021373
 21
-0.015301
 31
0.0
  0
LINE
  8
0
  6
CONTINUOUS
 62
     7
  5
8FE
 10
-1.021373
 20
-0.015301
 30
0.0
 11
-1.021962
 21
-0.015968
 31
0.0
  0
LINE
  8
0
  6
CONTINUOUS
 62
     7
  5
8FF
 10
-1.021962
 20
-0.015968
 30
0.0
 11
-1.022576
 21
-0.016612
 31
0.0
  0
LINE
  8
0
  6
CONTINUOUS
 62
     7
  5
900
 10
-1.022576
 20
-0.016612
 30
0.0
 11
-1.023213
 21
-0.017232
 31
0.0
  0
LINE
  8
0
  6
CONTINUOUS
 62
     7
  5
901
 10
-1.023213
 20
-0.017232
 30
0.0
 11
-1.023873
 21
-0.017828
 31
0.0
  0
LINE
  8
0
  6
CONTINUOUS
 62
     7
  5
902
 10
-1.023873
 20
-0.017828
 30
0.0
 11
-1.024556
 21
-0.018399
 31
0.0
  0
LINE
  8
0
  6
CONTINUOUS
 62
     7
  5
903
 10
-1.024556
 20
-0.018399
 30
0.0
 11
-1.025259
 21
-0.018944
 31
0.0
  0
LINE
  8
0
  6
CONTINUOUS
 62
     7
  5
904
 10
-1.025259
 20
-0.018944
 30
0.0
 11
-1.025982
 21
-0.019462
 31
0.0
  0
LINE
  8
0
  6
CONTINUOUS
 62
     7
  5
905
 10
-1.025982
 20
-0.019462
 30
0.0
 11
-1.026724
 21
-0.019952
 31
0.0
  0
LINE
  8
0
  6
CONTINUOUS
 62
     7
  5
906
 10
-1.026724
 20
-0.019952
 30
0.0
 11
-1.027485
 21
-0.020414
 31
0.0
  0
LINE
  8
0
  6
CONTINUOUS
 62
     7
  5
907
 10
-1.027485
 20
-0.020414
 30
0.0
 11
-1.028262
 21
-0.020847
 31
0.0
  0
LINE
  8
0
  6
CONTINUOUS
 62
     7
  5
908
 10
-1.028262
 20
-0.020847
 30
0.0
 11
-1.029054
 21
-0.021251
 31
0.0
  0
LINE
  8
0
  6
CONTINUOUS
 62
     7
  5
909
 10
-1.029054
 20
-0.021251
 30
0.0
 11
-1.029862
 21
-0.021624
 31
0.0
  0
LINE
  8
0
  6
CONTINUOUS
 62
     7
  5
90A
 10
-1.029862
 20
-0.021624
 30
0.0
 11
-1.030683
 21
-0.021967
 31
0.0
  0
LINE
  8
0
  6
CONTINUOUS
 62
     7
  5
90B
 10
-1.030683
 20
-0.021967
 30
0.0
 11
-1.031516
 21
-0.022278
 31
0.0
  0
LINE
  8
0
  6
CONTINUOUS
 62
     7
  5
90C
 10
-1.031516
 20
-0.022278
 30
0.0
 11
-1.03236
 21
-0.022558
 31
0.0
  0
LINE
  8
0
  6
CONTINUOUS
 62
     7
  5
90D
 10
-1.03236
 20
-0.022558
 30
0.0
 11
-1.033215
 21
-0.022806
 31
0.0
  0
LINE
  8
0
  6
CONTINUOUS
 62
     7
  5
90E
 10
-1.033215
 20
-0.022806
 30
0.0
 11
-1.034078
 21
-0.023022
 31
0.0
  0
LINE
  8
0
  6
CONTINUOUS
 62
     7
  5
90F
 10
-1.034078
 20
-0.023022
 30
0.0
 11
-1.034948
 21
-0.023204
 31
0.0
  0
LINE
  8
0
  6
CONTINUOUS
 62
     7
  5
910
 10
-1.034948
 20
-0.023204
 30
0.0
 11
-1.035825
 21
-0.023355
 31
0.0
  0
LINE
  8
0
  6
CONTINUOUS
 62
     7
  5
911
 10
-1.035825
 20
-0.023355
 30
0.0
 11
-1.036707
 21
-0.023471
 31
0.0
  0
LINE
  8
0
  6
CONTINUOUS
 62
     7
  5
912
 10
-1.036707
 20
-0.023471
 30
0.0
 11
-1.037593
 21
-0.023555
 31
0.0
  0
LINE
  8
0
  6
CONTINUOUS
 62
     7
  5
913
 10
-1.037593
 20
-0.023555
 30
0.0
 11
-1.038481
 21
-0.023605
 31
0.0
  0
LINE
  8
0
  6
CONTINUOUS
 62
     7
  5
914
 10
-1.038481
 20
-0.023605
 30
0.0
 11
-1.03937
 21
-0.023622
 31
0.0
  0
LINE
  8
0
  6
CONTINUOUS
 62
     7
  5
915
 10
-1.03937
 20
0.023622
 30
0.0
 11
-1.038481
 21
0.023605
 31
0.0
  0
LINE
  8
0
  6
CONTINUOUS
 62
     7
  5
916
 10
-1.038481
 20
0.023605
 30
0.0
 11
-1.037593
 21
0.023555
 31
0.0
  0
LINE
  8
0
  6
CONTINUOUS
 62
     7
  5
917
 10
-1.037593
 20
0.023555
 30
0.0
 11
-1.036707
 21
0.023471
 31
0.0
  0
LINE
  8
0
  6
CONTINUOUS
 62
     7
  5
918
 10
-1.036707
 20
0.023471
 30
0.0
 11
-1.035825
 21
0.023355
 31
0.0
  0
LINE
  8
0
  6
CONTINUOUS
 62
     7
  5
919
 10
-1.035825
 20
0.023355
 30
0.0
 11
-1.034948
 21
0.023204
 31
0.0
  0
LINE
  8
0
  6
CONTINUOUS
 62
     7
  5
91A
 10
-1.034948
 20
0.023204
 30
0.0
 11
-1.034078
 21
0.023022
 31
0.0
  0
LINE
  8
0
  6
CONTINUOUS
 62
     7
  5
91B
 10
-1.034078
 20
0.023022
 30
0.0
 11
-1.033215
 21
0.022806
 31
0.0
  0
LINE
  8
0
  6
CONTINUOUS
 62
     7
  5
91C
 10
-1.033215
 20
0.022806
 30
0.0
 11
-1.03236
 21
0.022558
 31
0.0
  0
LINE
  8
0
  6
CONTINUOUS
 62
     7
  5
91D
 10
-1.03236
 20
0.022558
 30
0.0
 11
-1.031516
 21
0.022278
 31
0.0
  0
LINE
  8
0
  6
CONTINUOUS
 62
     7
  5
91E
 10
-1.031516
 20
0.022278
 30
0.0
 11
-1.030683
 21
0.021967
 31
0.0
  0
LINE
  8
0
  6
CONTINUOUS
 62
     7
  5
91F
 10
-1.030683
 20
0.021967
 30
0.0
 11
-1.029862
 21
0.021624
 31
0.0
  0
LINE
  8
0
  6
CONTINUOUS
 62
     7
  5
920
 10
-1.029862
 20
0.021624
 30
0.0
 11
-1.029054
 21
0.021251
 31
0.0
  0
LINE
  8
0
  6
CONTINUOUS
 62
     7
  5
921
 10
-1.029054
 20
0.021251
 30
0.0
 11
-1.028262
 21
0.020847
 31
0.0
  0
LINE
  8
0
  6
CONTINUOUS
 62
     7
  5
922
 10
-1.028262
 20
0.020847
 30
0.0
 11
-1.027485
 21
0.020414
 31
0.0
  0
LINE
  8
0
  6
CONTINUOUS
 62
     7
  5
923
 10
-1.027485
 20
0.020414
 30
0.0
 11
-1.026724
 21
0.019952
 31
0.0
  0
LINE
  8
0
  6
CONTINUOUS
 62
     7
  5
924
 10
-1.026724
 20
0.019952
 30
0.0
 11
-1.025982
 21
0.019462
 31
0.0
  0
LINE
  8
0
  6
CONTINUOUS
 62
     7
  5
925
 10
-1.025982
 20
0.019462
 30
0.0
 11
-1.025259
 21
0.018944
 31
0.0
  0
LINE
  8
0
  6
CONTINUOUS
 62
     7
  5
926
 10
-1.025259
 20
0.018944
 30
0.0
 11
-1.024556
 21
0.018399
 31
0.0
  0
LINE
  8
0
  6
CONTINUOUS
 62
     7
  5
927
 10
-1.024556
 20
0.018399
 30
0.0
 11
-1.023873
 21
0.017828
 31
0.0
  0
LINE
  8
0
  6
CONTINUOUS
 62
     7
  5
928
 10
-1.023873
 20
0.017828
 30
0.0
 11
-1.023213
 21
0.017232
 31
0.0
  0
LINE
  8
0
  6
CONTINUOUS
 62
     7
  5
929
 10
-1.023213
 20
0.017232
 30
0.0
 11
-1.022576
 21
0.016612
 31
0.0
  0
LINE
  8
0
  6
CONTINUOUS
 62
     7
  5
92A
 10
-1.022576
 20
0.016612
 30
0.0
 11
-1.021962
 21
0.015968
 31
0.0
  0
LINE
  8
0
  6
CONTINUOUS
 62
     7
  5
92B
 10
-1.021962
 20
0.015968
 30
0.0
 11
-1.021373
 21
0.015301
 31
0.0
  0
LINE
  8
0
  6
CONTINUOUS
 62
     7
  5
92C
 10
-1.021373
 20
0.015301
 30
0.0
 11
-1.02081
 21
0.014612
 31
0.0
  0
LINE
  8
0
  6
CONTINUOUS
 62
     7
  5
92D
 10
-1.02081
 20
0.014612
 30
0.0
 11
-1.020273
 21
0.013903
 31
0.0
  0
LINE
  8
0
  6
CONTINUOUS
 62
     7
  5
92E
 10
-1.020273
 20
0.013903
 30
0.0
 11
-1.019763
 21
0.013174
 31
0.0
  0
LINE
  8
0
  6
CONTINUOUS
 62
     7
  5
92F
 10
-1.019763
 20
0.013174
 30
0.0
 11
-1.019281
 21
0.012427
 31
0.0
  0
LINE
  8
0
  6
CONTINUOUS
 62
     7
  5
930
 10
-1.019281
 20
0.012427
 30
0.0
 11
-1.018827
 21
0.011661
 31
0.0
  0
LINE
  8
0
  6
CONTINUOUS
 62
     7
  5
931
 10
-1.018827
 20
0.011661
 30
0.0
 11
-1.018403
 21
0.01088
 31
0.0
  0
LINE
  8
0
  6
CONTINUOUS
 62
     7
  5
932
 10
-1.018403
 20
0.01088
 30
0.0
 11
-1.018008
 21
0.010083
 31
0.0
  0
LINE
  8
0
  6
CONTINUOUS
 62
     7
  5
933
 10
-1.018008
 20
0.010083
 30
0.0
 11
-1.017643
 21
0.009271
 31
0.0
  0
LINE
  8
0
  6
CONTINUOUS
 62
     7
  5
934
 10
-1.017643
 20
0.009271
 30
0.0
 11
-1.01731
 21
0.008446
 31
0.0
  0
LINE
  8
0
  6
CONTINUOUS
 62
     7
  5
935
 10
-1.01731
 20
0.008446
 30
0.0
 11
-1.017007
 21
0.00761
 31
0.0
  0
LINE
  8
0
  6
CONTINUOUS
 62
     7
  5
936
 10
-1.017007
 20
0.00761
 30
0.0
 11
-1.016737
 21
0.006762
 31
0.0
  0
LINE
  8
0
  6
CONTINUOUS
 62
     7
  5
937
 10
-1.016737
 20
0.006762
 30
0.0
 11
-1.016498
 21
0.005906
 31
0.0
  0
LINE
  8
0
  6
CONTINUOUS
 62
     7
  5
938
 10
-0.84252
 20
-0.045276
 30
0.0
 11
-1.04948
 21
-0.045276
 31
0.0
  0
LINE
  8
0
  6
CONTINUOUS
 62
     7
  5
939
 10
-0.84252
 20
-0.005906
 30
0.0
 11
-1.016498
 21
-0.005906
 31
0.0
  0
ARC
  8
0
  6
CONTINUOUS
 62
     7
  5
93A
 10
-1.070472
 20
0.0
 30
0.0
 40
0.087008
 50
148.643464
 51
174.807758
  0
LINE
  8
0
  6
CONTINUOUS
 62
     7
  5
93B
 10
-1.110854
 20
0.007874
 30
0.0
 11
-1.157123
 21
0.007874
 31
0.0
  0
LINE
  8
0
  6
CONTINUOUS
 62
     7
  5
93C
 10
-0.84252
 20
0.005906
 30
0.0
 11
-1.016498
 21
0.005906
 31
0.0
  0
LINE
  8
0
  6
CONTINUOUS
 62
     7
  5
93D
 10
-0.84252
 20
0.045276
 30
0.0
 11
-1.04948
 21
0.045276
 31
0.0
  0
LINE
  8
0
  6
CONTINUOUS
 62
     7
  5
93E
 10
-1.157123
 20
0.007874
 30
0.0
 11
-1.157135
 21
0.007743
 31
0.0
  0
LINE
  8
0
  6
CONTINUOUS
 62
     7
  5
93F
 10
-1.157135
 20
0.007743
 30
0.0
 11
-1.157147
 21
0.007605
 31
0.0
  0
LINE
  8
0
  6
CONTINUOUS
 62
     7
  5
940
 10
-1.157147
 20
0.007605
 30
0.0
 11
-1.15716
 21
0.007459
 31
0.0
  0
LINE
  8
0
  6
CONTINUOUS
 62
     7
  5
941
 10
-1.15716
 20
0.007459
 30
0.0
 11
-1.157173
 21
0.007306
 31
0.0
  0
LINE
  8
0
  6
CONTINUOUS
 62
     7
  5
942
 10
-1.157173
 20
0.007306
 30
0.0
 11
-1.157186
 21
0.007146
 31
0.0
  0
LINE
  8
0
  6
CONTINUOUS
 62
     7
  5
943
 10
-1.157186
 20
0.007146
 30
0.0
 11
-1.1572
 21
0.00698
 31
0.0
  0
LINE
  8
0
  6
CONTINUOUS
 62
     7
  5
944
 10
-1.1572
 20
0.00698
 30
0.0
 11
-1.157214
 21
0.006809
 31
0.0
  0
LINE
  8
0
  6
CONTINUOUS
 62
     7
  5
945
 10
-1.157214
 20
0.006809
 30
0.0
 11
-1.157227
 21
0.006631
 31
0.0
  0
LINE
  8
0
  6
CONTINUOUS
 62
     7
  5
946
 10
-1.157227
 20
0.006631
 30
0.0
 11
-1.157241
 21
0.006449
 31
0.0
  0
LINE
  8
0
  6
CONTINUOUS
 62
     7
  5
947
 10
-1.157241
 20
0.006449
 30
0.0
 11
-1.157255
 21
0.006263
 31
0.0
  0
LINE
  8
0
  6
CONTINUOUS
 62
     7
  5
948
 10
-1.157255
 20
0.006263
 30
0.0
 11
-1.157268
 21
0.006072
 31
0.0
  0
LINE
  8
0
  6
CONTINUOUS
 62
     7
  5
949
 10
-1.157268
 20
0.006072
 30
0.0
 11
-1.157282
 21
0.005873
 31
0.0
  0
LINE
  8
0
  6
CONTINUOUS
 62
     7
  5
94A
 10
-1.157282
 20
0.005873
 30
0.0
 11
-1.157296
 21
0.005666
 31
0.0
  0
LINE
  8
0
  6
CONTINUOUS
 62
     7
  5
94B
 10
-1.157296
 20
0.005666
 30
0.0
 11
-1.157309
 21
0.005453
 31
0.0
  0
LINE
  8
0
  6
CONTINUOUS
 62
     7
  5
94C
 10
-1.157309
 20
0.005453
 30
0.0
 11
-1.157323
 21
0.005232
 31
0.0
  0
LINE
  8
0
  6
CONTINUOUS
 62
     7
  5
94D
 10
-1.157323
 20
0.005232
 30
0.0
 11
-1.157336
 21
0.005005
 31
0.0
  0
LINE
  8
0
  6
CONTINUOUS
 62
     7
  5
94E
 10
-1.157336
 20
0.005005
 30
0.0
 11
-1.157349
 21
0.004772
 31
0.0
  0
LINE
  8
0
  6
CONTINUOUS
 62
     7
  5
94F
 10
-1.157349
 20
0.004772
 30
0.0
 11
-1.157362
 21
0.004533
 31
0.0
  0
LINE
  8
0
  6
CONTINUOUS
 62
     7
  5
950
 10
-1.157362
 20
0.004533
 30
0.0
 11
-1.157375
 21
0.004289
 31
0.0
  0
LINE
  8
0
  6
CONTINUOUS
 62
     7
  5
951
 10
-1.157375
 20
0.004289
 30
0.0
 11
-1.157386
 21
0.004039
 31
0.0
  0
LINE
  8
0
  6
CONTINUOUS
 62
     7
  5
952
 10
-1.157386
 20
0.004039
 30
0.0
 11
-1.157398
 21
0.003785
 31
0.0
  0
LINE
  8
0
  6
CONTINUOUS
 62
     7
  5
953
 10
-1.157398
 20
0.003785
 30
0.0
 11
-1.157409
 21
0.003527
 31
0.0
  0
LINE
  8
0
  6
CONTINUOUS
 62
     7
  5
954
 10
-1.157409
 20
0.003527
 30
0.0
 11
-1.157419
 21
0.003265
 31
0.0
  0
LINE
  8
0
  6
CONTINUOUS
 62
     7
  5
955
 10
-1.157419
 20
0.003265
 30
0.0
 11
-1.157429
 21
0.003
 31
0.0
  0
LINE
  8
0
  6
CONTINUOUS
 62
     7
  5
956
 10
-1.157429
 20
0.003
 30
0.0
 11
-1.157437
 21
0.002731
 31
0.0
  0
LINE
  8
0
  6
CONTINUOUS
 62
     7
  5
957
 10
-1.157437
 20
0.002731
 30
0.0
 11
-1.157446
 21
0.002461
 31
0.0
  0
LINE
  8
0
  6
CONTINUOUS
 62
     7
  5
958
 10
-1.157446
 20
0.002461
 30
0.0
 11
-1.157453
 21
0.002188
 31
0.0
  0
LINE
  8
0
  6
CONTINUOUS
 62
     7
  5
959
 10
-1.157453
 20
0.002188
 30
0.0
 11
-1.157459
 21
0.001914
 31
0.0
  0
LINE
  8
0
  6
CONTINUOUS
 62
     7
  5
95A
 10
-1.157459
 20
0.001914
 30
0.0
 11
-1.157465
 21
0.001639
 31
0.0
  0
LINE
  8
0
  6
CONTINUOUS
 62
     7
  5
95B
 10
-1.157465
 20
0.001639
 30
0.0
 11
-1.15747
 21
0.001363
 31
0.0
  0
LINE
  8
0
  6
CONTINUOUS
 62
     7
  5
95C
 10
-1.15747
 20
0.001363
 30
0.0
 11
-1.157474
 21
0.001088
 31
0.0
  0
LINE
  8
0
  6
CONTINUOUS
 62
     7
  5
95D
 10
-1.157474
 20
0.001088
 30
0.0
 11
-1.157477
 21
0.000814
 31
0.0
  0
LINE
  8
0
  6
CONTINUOUS
 62
     7
  5
95E
 10
-1.157477
 20
0.000814
 30
0.0
 11
-1.157479
 21
0.00054
 31
0.0
  0
LINE
  8
0
  6
CONTINUOUS
 62
     7
  5
95F
 10
-1.157479
 20
0.00054
 30
0.0
 11
-1.15748
 21
0.000269
 31
0.0
  0
LINE
  8
0
  6
CONTINUOUS
 62
     7
  5
960
 10
-1.15748
 20
0.000269
 30
0.0
 11
-1.15748
 21
0.0
 31
0.0
  0
LINE
  8
0
  6
CONTINUOUS
 62
     7
  5
961
 10
-1.15748
 20
0.0
 30
0.0
 11
-1.15748
 21
-0.000269
 31
0.0
  0
LINE
  8
0
  6
CONTINUOUS
 62
     7
  5
962
 10
-1.15748
 20
-0.000269
 30
0.0
 11
-1.157479
 21
-0.00054
 31
0.0
  0
LINE
  8
0
  6
CONTINUOUS
 62
     7
  5
963
 10
-1.157479
 20
-0.00054
 30
0.0
 11
-1.157477
 21
-0.000814
 31
0.0
  0
LINE
  8
0
  6
CONTINUOUS
 62
     7
  5
964
 10
-1.157477
 20
-0.000814
 30
0.0
 11
-1.157474
 21
-0.001088
 31
0.0
  0
LINE
  8
0
  6
CONTINUOUS
 62
     7
  5
965
 10
-1.157474
 20
-0.001088
 30
0.0
 11
-1.15747
 21
-0.001363
 31
0.0
  0
LINE
  8
0
  6
CONTINUOUS
 62
     7
  5
966
 10
-1.15747
 20
-0.001363
 30
0.0
 11
-1.157465
 21
-0.001639
 31
0.0
  0
LINE
  8
0
  6
CONTINUOUS
 62
     7
  5
967
 10
-1.157465
 20
-0.001639
 30
0.0
 11
-1.157459
 21
-0.001914
 31
0.0
  0
LINE
  8
0
  6
CONTINUOUS
 62
     7
  5
968
 10
-1.157459
 20
-0.001914
 30
0.0
 11
-1.157453
 21
-0.002188
 31
0.0
  0
LINE
  8
0
  6
CONTINUOUS
 62
     7
  5
969
 10
-1.157453
 20
-0.002188
 30
0.0
 11
-1.157446
 21
-0.002461
 31
0.0
  0
LINE
  8
0
  6
CONTINUOUS
 62
     7
  5
96A
 10
-1.157446
 20
-0.002461
 30
0.0
 11
-1.157437
 21
-0.002731
 31
0.0
  0
LINE
  8
0
  6
CONTINUOUS
 62
     7
  5
96B
 10
-1.157437
 20
-0.002731
 30
0.0
 11
-1.157429
 21
-0.003
 31
0.0
  0
LINE
  8
0
  6
CONTINUOUS
 62
     7
  5
96C
 10
-1.157429
 20
-0.003
 30
0.0
 11
-1.157419
 21
-0.003265
 31
0.0
  0
LINE
  8
0
  6
CONTINUOUS
 62
     7
  5
96D
 10
-1.157419
 20
-0.003265
 30
0.0
 11
-1.157409
 21
-0.003527
 31
0.0
  0
LINE
  8
0
  6
CONTINUOUS
 62
     7
  5
96E
 10
-1.157409
 20
-0.003527
 30
0.0
 11
-1.157398
 21
-0.003785
 31
0.0
  0
LINE
  8
0
  6
CONTINUOUS
 62
     7
  5
96F
 10
-1.157398
 20
-0.003785
 30
0.0
 11
-1.157386
 21
-0.004039
 31
0.0
  0
LINE
  8
0
  6
CONTINUOUS
 62
     7
  5
970
 10
-1.157386
 20
-0.004039
 30
0.0
 11
-1.157375
 21
-0.004289
 31
0.0
  0
LINE
  8
0
  6
CONTINUOUS
 62
     7
  5
971
 10
-1.157375
 20
-0.004289
 30
0.0
 11
-1.157362
 21
-0.004533
 31
0.0
  0
LINE
  8
0
  6
CONTINUOUS
 62
     7
  5
972
 10
-1.157362
 20
-0.004533
 30
0.0
 11
-1.157349
 21
-0.004772
 31
0.0
  0
LINE
  8
0
  6
CONTINUOUS
 62
     7
  5
973
 10
-1.157349
 20
-0.004772
 30
0.0
 11
-1.157336
 21
-0.005005
 31
0.0
  0
LINE
  8
0
  6
CONTINUOUS
 62
     7
  5
974
 10
-1.157336
 20
-0.005005
 30
0.0
 11
-1.157323
 21
-0.005232
 31
0.0
  0
LINE
  8
0
  6
CONTINUOUS
 62
     7
  5
975
 10
-1.157323
 20
-0.005232
 30
0.0
 11
-1.157309
 21
-0.005453
 31
0.0
  0
LINE
  8
0
  6
CONTINUOUS
 62
     7
  5
976
 10
-1.157309
 20
-0.005453
 30
0.0
 11
-1.157296
 21
-0.005666
 31
0.0
  0
LINE
  8
0
  6
CONTINUOUS
 62
     7
  5
977
 10
-1.157296
 20
-0.005666
 30
0.0
 11
-1.157282
 21
-0.005873
 31
0.0
  0
LINE
  8
0
  6
CONTINUOUS
 62
     7
  5
978
 10
-1.157282
 20
-0.005873
 30
0.0
 11
-1.157268
 21
-0.006072
 31
0.0
  0
LINE
  8
0
  6
CONTINUOUS
 62
     7
  5
979
 10
-1.157268
 20
-0.006072
 30
0.0
 11
-1.157255
 21
-0.006263
 31
0.0
  0
LINE
  8
0
  6
CONTINUOUS
 62
     7
  5
97A
 10
-1.157255
 20
-0.006263
 30
0.0
 11
-1.157241
 21
-0.006449
 31
0.0
  0
LINE
  8
0
  6
CONTINUOUS
 62
     7
  5
97B
 10
-1.157241
 20
-0.006449
 30
0.0
 11
-1.157227
 21
-0.006631
 31
0.0
  0
LINE
  8
0
  6
CONTINUOUS
 62
     7
  5
97C
 10
-1.157227
 20
-0.006631
 30
0.0
 11
-1.157214
 21
-0.006809
 31
0.0
  0
LINE
  8
0
  6
CONTINUOUS
 62
     7
  5
97D
 10
-1.157214
 20
-0.006809
 30
0.0
 11
-1.1572
 21
-0.00698
 31
0.0
  0
LINE
  8
0
  6
CONTINUOUS
 62
     7
  5
97E
 10
-1.1572
 20
-0.00698
 30
0.0
 11
-1.157186
 21
-0.007146
 31
0.0
  0
LINE
  8
0
  6
CONTINUOUS
 62
     7
  5
97F
 10
-1.157186
 20
-0.007146
 30
0.0
 11
-1.157173
 21
-0.007306
 31
0.0
  0
LINE
  8
0
  6
CONTINUOUS
 62
     7
  5
980
 10
-1.157173
 20
-0.007306
 30
0.0
 11
-1.15716
 21
-0.007459
 31
0.0
  0
LINE
  8
0
  6
CONTINUOUS
 62
     7
  5
981
 10
-1.15716
 20
-0.007459
 30
0.0
 11
-1.157147
 21
-0.007605
 31
0.0
  0
LINE
  8
0
  6
CONTINUOUS
 62
     7
  5
982
 10
-1.157147
 20
-0.007605
 30
0.0
 11
-1.157135
 21
-0.007743
 31
0.0
  0
LINE
  8
0
  6
CONTINUOUS
 62
     7
  5
983
 10
-1.157135
 20
-0.007743
 30
0.0
 11
-1.157123
 21
-0.007874
 31
0.0
  0
LINE
  8
0
  6
CONTINUOUS
 62
     7
  5
984
 10
-1.140834
 20
0.051182
 30
0.0
 11
-1.140839
 21
0.051175
 31
0.0
  0
LINE
  8
0
  6
CONTINUOUS
 62
     7
  5
985
 10
-1.140839
 20
0.051175
 30
0.0
 11
-1.140854
 21
0.051155
 31
0.0
  0
LINE
  8
0
  6
CONTINUOUS
 62
     7
  5
986
 10
-1.140854
 20
0.051155
 30
0.0
 11
-1.140879
 21
0.051121
 31
0.0
  0
LINE
  8
0
  6
CONTINUOUS
 62
     7
  5
987
 10
-1.140879
 20
0.051121
 30
0.0
 11
-1.140914
 21
0.051072
 31
0.0
  0
LINE
  8
0
  6
CONTINUOUS
 62
     7
  5
988
 10
-1.140914
 20
0.051072
 30
0.0
 11
-1.140959
 21
0.05101
 31
0.0
  0
LINE
  8
0
  6
CONTINUOUS
 62
     7
  5
989
 10
-1.140959
 20
0.05101
 30
0.0
 11
-1.141014
 21
0.050934
 31
0.0
  0
LINE
  8
0
  6
CONTINUOUS
 62
     7
  5
98A
 10
-1.141014
 20
0.050934
 30
0.0
 11
-1.141078
 21
0.050845
 31
0.0
  0
LINE
  8
0
  6
CONTINUOUS
 62
     7
  5
98B
 10
-1.141078
 20
0.050845
 30
0.0
 11
-1.141151
 21
0.050744
 31
0.0
  0
LINE
  8
0
  6
CONTINUOUS
 62
     7
  5
98C
 10
-1.141151
 20
0.050744
 30
0.0
 11
-1.141232
 21
0.05063
 31
0.0
  0
LINE
  8
0
  6
CONTINUOUS
 62
     7
  5
98D
 10
-1.141232
 20
0.05063
 30
0.0
 11
-1.141322
 21
0.050505
 31
0.0
  0
LINE
  8
0
  6
CONTINUOUS
 62
     7
  5
98E
 10
-1.141322
 20
0.050505
 30
0.0
 11
-1.141418
 21
0.050369
 31
0.0
  0
LINE
  8
0
  6
CONTINUOUS
 62
     7
  5
98F
 10
-1.141418
 20
0.050369
 30
0.0
 11
-1.141521
 21
0.050224
 31
0.0
  0
LINE
  8
0
  6
CONTINUOUS
 62
     7
  5
990
 10
-1.141521
 20
0.050224
 30
0.0
 11
-1.14163
 21
0.05007
 31
0.0
  0
LINE
  8
0
  6
CONTINUOUS
 62
     7
  5
991
 10
-1.14163
 20
0.05007
 30
0.0
 11
-1.141743
 21
0.049909
 31
0.0
  0
LINE
  8
0
  6
CONTINUOUS
 62
     7
  5
992
 10
-1.141743
 20
0.049909
 30
0.0
 11
-1.141859
 21
0.049743
 31
0.0
  0
LINE
  8
0
  6
CONTINUOUS
 62
     7
  5
993
 10
-1.141859
 20
0.049743
 30
0.0
 11
-1.141978
 21
0.049571
 31
0.0
  0
LINE
  8
0
  6
CONTINUOUS
 62
     7
  5
994
 10
-1.141978
 20
0.049571
 30
0.0
 11
-1.142101
 21
0.049393
 31
0.0
  0
LINE
  8
0
  6
CONTINUOUS
 62
     7
  5
995
 10
-1.142101
 20
0.049393
 30
0.0
 11
-1.14223
 21
0.049206
 31
0.0
  0
LINE
  8
0
  6
CONTINUOUS
 62
     7
  5
996
 10
-1.14223
 20
0.049206
 30
0.0
 11
-1.142363
 21
0.049011
 31
0.0
  0
LINE
  8
0
  6
CONTINUOUS
 62
     7
  5
997
 10
-1.142363
 20
0.049011
 30
0.0
 11
-1.142501
 21
0.048809
 31
0.0
  0
LINE
  8
0
  6
CONTINUOUS
 62
     7
  5
998
 10
-1.142501
 20
0.048809
 30
0.0
 11
-1.142642
 21
0.048599
 31
0.0
  0
LINE
  8
0
  6
CONTINUOUS
 62
     7
  5
999
 10
-1.142642
 20
0.048599
 30
0.0
 11
-1.142787
 21
0.048383
 31
0.0
  0
LINE
  8
0
  6
CONTINUOUS
 62
     7
  5
99A
 10
-1.142787
 20
0.048383
 30
0.0
 11
-1.142935
 21
0.048162
 31
0.0
  0
LINE
  8
0
  6
CONTINUOUS
 62
     7
  5
99B
 10
-1.142935
 20
0.048162
 30
0.0
 11
-1.143085
 21
0.047935
 31
0.0
  0
LINE
  8
0
  6
CONTINUOUS
 62
     7
  5
99C
 10
-1.143085
 20
0.047935
 30
0.0
 11
-1.143238
 21
0.047703
 31
0.0
  0
LINE
  8
0
  6
CONTINUOUS
 62
     7
  5
99D
 10
-1.143238
 20
0.047703
 30
0.0
 11
-1.143392
 21
0.047467
 31
0.0
  0
LINE
  8
0
  6
CONTINUOUS
 62
     7
  5
99E
 10
-1.143392
 20
0.047467
 30
0.0
 11
-1.143547
 21
0.047228
 31
0.0
  0
LINE
  8
0
  6
CONTINUOUS
 62
     7
  5
99F
 10
-1.143547
 20
0.047228
 30
0.0
 11
-1.143703
 21
0.046986
 31
0.0
  0
LINE
  8
0
  6
CONTINUOUS
 62
     7
  5
9A0
 10
-1.143703
 20
0.046986
 30
0.0
 11
-1.143859
 21
0.046742
 31
0.0
  0
LINE
  8
0
  6
CONTINUOUS
 62
     7
  5
9A1
 10
-1.143859
 20
0.046742
 30
0.0
 11
-1.144015
 21
0.046496
 31
0.0
  0
LINE
  8
0
  6
CONTINUOUS
 62
     7
  5
9A2
 10
-1.144015
 20
0.046496
 30
0.0
 11
-1.14417
 21
0.04625
 31
0.0
  0
LINE
  8
0
  6
CONTINUOUS
 62
     7
  5
9A3
 10
-1.14417
 20
0.04625
 30
0.0
 11
-1.144323
 21
0.046004
 31
0.0
  0
LINE
  8
0
  6
CONTINUOUS
 62
     7
  5
9A4
 10
-1.144323
 20
0.046004
 30
0.0
 11
-1.144475
 21
0.045759
 31
0.0
  0
LINE
  8
0
  6
CONTINUOUS
 62
     7
  5
9A5
 10
-1.144475
 20
0.045759
 30
0.0
 11
-1.144625
 21
0.045516
 31
0.0
  0
LINE
  8
0
  6
CONTINUOUS
 62
     7
  5
9A6
 10
-1.144625
 20
0.045516
 30
0.0
 11
-1.144772
 21
0.045276
 31
0.0
  0
LINE
  8
0
  6
CONTINUOUS
 62
     7
  5
9A7
 10
-1.144772
 20
-0.045276
 30
0.0
 11
-1.144625
 21
-0.045516
 31
0.0
  0
LINE
  8
0
  6
CONTINUOUS
 62
     7
  5
9A8
 10
-1.144625
 20
-0.045516
 30
0.0
 11
-1.144475
 21
-0.045759
 31
0.0
  0
LINE
  8
0
  6
CONTINUOUS
 62
     7
  5
9A9
 10
-1.144475
 20
-0.045759
 30
0.0
 11
-1.144323
 21
-0.046004
 31
0.0
  0
LINE
  8
0
  6
CONTINUOUS
 62
     7
  5
9AA
 10
-1.144323
 20
-0.046004
 30
0.0
 11
-1.14417
 21
-0.04625
 31
0.0
  0
LINE
  8
0
  6
CONTINUOUS
 62
     7
  5
9AB
 10
-1.14417
 20
-0.04625
 30
0.0
 11
-1.144015
 21
-0.046496
 31
0.0
  0
LINE
  8
0
  6
CONTINUOUS
 62
     7
  5
9AC
 10
-1.144015
 20
-0.046496
 30
0.0
 11
-1.143859
 21
-0.046742
 31
0.0
  0
LINE
  8
0
  6
CONTINUOUS
 62
     7
  5
9AD
 10
-1.143859
 20
-0.046742
 30
0.0
 11
-1.143703
 21
-0.046986
 31
0.0
  0
LINE
  8
0
  6
CONTINUOUS
 62
     7
  5
9AE
 10
-1.143703
 20
-0.046986
 30
0.0
 11
-1.143547
 21
-0.047228
 31
0.0
  0
LINE
  8
0
  6
CONTINUOUS
 62
     7
  5
9AF
 10
-1.143547
 20
-0.047228
 30
0.0
 11
-1.143392
 21
-0.047467
 31
0.0
  0
LINE
  8
0
  6
CONTINUOUS
 62
     7
  5
9B0
 10
-1.143392
 20
-0.047467
 30
0.0
 11
-1.143238
 21
-0.047703
 31
0.0
  0
LINE
  8
0
  6
CONTINUOUS
 62
     7
  5
9B1
 10
-1.143238
 20
-0.047703
 30
0.0
 11
-1.143085
 21
-0.047935
 31
0.0
  0
LINE
  8
0
  6
CONTINUOUS
 62
     7
  5
9B2
 10
-1.143085
 20
-0.047935
 30
0.0
 11
-1.142935
 21
-0.048162
 31
0.0
  0
LINE
  8
0
  6
CONTINUOUS
 62
     7
  5
9B3
 10
-1.142935
 20
-0.048162
 30
0.0
 11
-1.142787
 21
-0.048383
 31
0.0
  0
LINE
  8
0
  6
CONTINUOUS
 62
     7
  5
9B4
 10
-1.142787
 20
-0.048383
 30
0.0
 11
-1.142642
 21
-0.048599
 31
0.0
  0
LINE
  8
0
  6
CONTINUOUS
 62
     7
  5
9B5
 10
-1.142642
 20
-0.048599
 30
0.0
 11
-1.142501
 21
-0.048809
 31
0.0
  0
LINE
  8
0
  6
CONTINUOUS
 62
     7
  5
9B6
 10
-1.142501
 20
-0.048809
 30
0.0
 11
-1.142363
 21
-0.049011
 31
0.0
  0
LINE
  8
0
  6
CONTINUOUS
 62
     7
  5
9B7
 10
-1.142363
 20
-0.049011
 30
0.0
 11
-1.14223
 21
-0.049206
 31
0.0
  0
LINE
  8
0
  6
CONTINUOUS
 62
     7
  5
9B8
 10
-1.14223
 20
-0.049206
 30
0.0
 11
-1.142101
 21
-0.049393
 31
0.0
  0
LINE
  8
0
  6
CONTINUOUS
 62
     7
  5
9B9
 10
-1.142101
 20
-0.049393
 30
0.0
 11
-1.141978
 21
-0.049571
 31
0.0
  0
LINE
  8
0
  6
CONTINUOUS
 62
     7
  5
9BA
 10
-1.141978
 20
-0.049571
 30
0.0
 11
-1.141859
 21
-0.049743
 31
0.0
  0
LINE
  8
0
  6
CONTINUOUS
 62
     7
  5
9BB
 10
-1.141859
 20
-0.049743
 30
0.0
 11
-1.141743
 21
-0.049909
 31
0.0
  0
LINE
  8
0
  6
CONTINUOUS
 62
     7
  5
9BC
 10
-1.141743
 20
-0.049909
 30
0.0
 11
-1.14163
 21
-0.05007
 31
0.0
  0
LINE
  8
0
  6
CONTINUOUS
 62
     7
  5
9BD
 10
-1.14163
 20
-0.05007
 30
0.0
 11
-1.141521
 21
-0.050224
 31
0.0
  0
LINE
  8
0
  6
CONTINUOUS
 62
     7
  5
9BE
 10
-1.141521
 20
-0.050224
 30
0.0
 11
-1.141418
 21
-0.050369
 31
0.0
  0
LINE
  8
0
  6
CONTINUOUS
 62
     7
  5
9BF
 10
-1.141418
 20
-0.050369
 30
0.0
 11
-1.141322
 21
-0.050505
 31
0.0
  0
LINE
  8
0
  6
CONTINUOUS
 62
     7
  5
9C0
 10
-1.141322
 20
-0.050505
 30
0.0
 11
-1.141232
 21
-0.05063
 31
0.0
  0
LINE
  8
0
  6
CONTINUOUS
 62
     7
  5
9C1
 10
-1.141232
 20
-0.05063
 30
0.0
 11
-1.141151
 21
-0.050744
 31
0.0
  0
LINE
  8
0
  6
CONTINUOUS
 62
     7
  5
9C2
 10
-1.141151
 20
-0.050744
 30
0.0
 11
-1.141078
 21
-0.050845
 31
0.0
  0
LINE
  8
0
  6
CONTINUOUS
 62
     7
  5
9C3
 10
-1.141078
 20
-0.050845
 30
0.0
 11
-1.141014
 21
-0.050934
 31
0.0
  0
LINE
  8
0
  6
CONTINUOUS
 62
     7
  5
9C4
 10
-1.141014
 20
-0.050934
 30
0.0
 11
-1.140959
 21
-0.05101
 31
0.0
  0
LINE
  8
0
  6
CONTINUOUS
 62
     7
  5
9C5
 10
-1.140959
 20
-0.05101
 30
0.0
 11
-1.140914
 21
-0.051072
 31
0.0
  0
LINE
  8
0
  6
CONTINUOUS
 62
     7
  5
9C6
 10
-1.140914
 20
-0.051072
 30
0.0
 11
-1.140879
 21
-0.051121
 31
0.0
  0
LINE
  8
0
  6
CONTINUOUS
 62
     7
  5
9C7
 10
-1.140879
 20
-0.051121
 30
0.0
 11
-1.140854
 21
-0.051155
 31
0.0
  0
LINE
  8
0
  6
CONTINUOUS
 62
     7
  5
9C8
 10
-1.140854
 20
-0.051155
 30
0.0
 11
-1.140839
 21
-0.051175
 31
0.0
  0
LINE
  8
0
  6
CONTINUOUS
 62
     7
  5
9C9
 10
-1.140839
 20
-0.051175
 30
0.0
 11
-1.140834
 21
-0.051182
 31
0.0
  0
LINE
  8
0
  6
CONTINUOUS
 62
     7
  5
9CA
 10
-1.137796
 20
0.055117
 30
0.0
 11
-1.137797
 21
0.055117
 31
0.0
  0
LINE
  8
0
  6
CONTINUOUS
 62
     7
  5
9CB
 10
-1.137797
 20
0.055117
 30
0.0
 11
-1.137797
 21
0.055116
 31
0.0
  0
LINE
  8
0
  6
CONTINUOUS
 62
     7
  5
9CC
 10
-1.137797
 20
0.055116
 30
0.0
 11
-1.137798
 21
0.055115
 31
0.0
  0
LINE
  8
0
  6
CONTINUOUS
 62
     7
  5
9CD
 10
-1.137798
 20
0.055115
 30
0.0
 11
-1.137799
 21
0.055114
 31
0.0
  0
LINE
  8
0
  6
CONTINUOUS
 62
     7
  5
9CE
 10
-1.137799
 20
0.055114
 30
0.0
 11
-1.1378
 21
0.055112
 31
0.0
  0
LINE
  8
0
  6
CONTINUOUS
 62
     7
  5
9CF
 10
-1.1378
 20
0.055112
 30
0.0
 11
-1.137802
 21
0.05511
 31
0.0
  0
LINE
  8
0
  6
CONTINUOUS
 62
     7
  5
9D0
 10
-1.137802
 20
0.05511
 30
0.0
 11
-1.137804
 21
0.055108
 31
0.0
  0
LINE
  8
0
  6
CONTINUOUS
 62
     7
  5
9D1
 10
-1.137804
 20
0.055108
 30
0.0
 11
-1.137806
 21
0.055105
 31
0.0
  0
LINE
  8
0
  6
CONTINUOUS
 62
     7
  5
9D2
 10
-1.137806
 20
0.055105
 30
0.0
 11
-1.137809
 21
0.055102
 31
0.0
  0
LINE
  8
0
  6
CONTINUOUS
 62
     7
  5
9D3
 10
-1.137809
 20
0.055102
 30
0.0
 11
-1.137811
 21
0.055098
 31
0.0
  0
LINE
  8
0
  6
CONTINUOUS
 62
     7
  5
9D4
 10
-1.137811
 20
0.055098
 30
0.0
 11
-1.137815
 21
0.055095
 31
0.0
  0
LINE
  8
0
  6
CONTINUOUS
 62
     7
  5
9D5
 10
-1.137815
 20
0.055095
 30
0.0
 11
-1.137818
 21
0.05509
 31
0.0
  0
LINE
  8
0
  6
CONTINUOUS
 62
     7
  5
9D6
 10
-1.137818
 20
0.05509
 30
0.0
 11
-1.137822
 21
0.055086
 31
0.0
  0
LINE
  8
0
  6
CONTINUOUS
 62
     7
  5
9D7
 10
-1.137822
 20
0.055086
 30
0.0
 11
-1.137826
 21
0.055081
 31
0.0
  0
LINE
  8
0
  6
CONTINUOUS
 62
     7
  5
9D8
 10
-1.137826
 20
0.055081
 30
0.0
 11
-1.13783
 21
0.055075
 31
0.0
  0
LINE
  8
0
  6
CONTINUOUS
 62
     7
  5
9D9
 10
-1.13783
 20
0.055075
 30
0.0
 11
-1.137835
 21
0.05507
 31
0.0
  0
LINE
  8
0
  6
CONTINUOUS
 62
     7
  5
9DA
 10
-1.137835
 20
0.05507
 30
0.0
 11
-1.13784
 21
0.055064
 31
0.0
  0
LINE
  8
0
  6
CONTINUOUS
 62
     7
  5
9DB
 10
-1.13784
 20
0.055064
 30
0.0
 11
-1.137845
 21
0.055057
 31
0.0
  0
LINE
  8
0
  6
CONTINUOUS
 62
     7
  5
9DC
 10
-1.137845
 20
0.055057
 30
0.0
 11
-1.137851
 21
0.05505
 31
0.0
  0
LINE
  8
0
  6
CONTINUOUS
 62
     7
  5
9DD
 10
-1.137851
 20
0.05505
 30
0.0
 11
-1.137857
 21
0.055043
 31
0.0
  0
LINE
  8
0
  6
CONTINUOUS
 62
     7
  5
9DE
 10
-1.137857
 20
0.055043
 30
0.0
 11
-1.137863
 21
0.055035
 31
0.0
  0
LINE
  8
0
  6
CONTINUOUS
 62
     7
  5
9DF
 10
-1.137863
 20
0.055035
 30
0.0
 11
-1.137869
 21
0.055027
 31
0.0
  0
LINE
  8
0
  6
CONTINUOUS
 62
     7
  5
9E0
 10
-1.137869
 20
0.055027
 30
0.0
 11
-1.137876
 21
0.055019
 31
0.0
  0
LINE
  8
0
  6
CONTINUOUS
 62
     7
  5
9E1
 10
-1.137876
 20
0.055019
 30
0.0
 11
-1.137883
 21
0.05501
 31
0.0
  0
LINE
  8
0
  6
CONTINUOUS
 62
     7
  5
9E2
 10
-1.137883
 20
0.05501
 30
0.0
 11
-1.137891
 21
0.055001
 31
0.0
  0
LINE
  8
0
  6
CONTINUOUS
 62
     7
  5
9E3
 10
-1.137891
 20
0.055001
 30
0.0
 11
-1.137898
 21
0.054992
 31
0.0
  0
LINE
  8
0
  6
CONTINUOUS
 62
     7
  5
9E4
 10
-1.137898
 20
0.054992
 30
0.0
 11
-1.137906
 21
0.054982
 31
0.0
  0
LINE
  8
0
  6
CONTINUOUS
 62
     7
  5
9E5
 10
-1.137906
 20
0.054982
 30
0.0
 11
-1.137915
 21
0.054972
 31
0.0
  0
LINE
  8
0
  6
CONTINUOUS
 62
     7
  5
9E6
 10
-1.137915
 20
0.054972
 30
0.0
 11
-1.137923
 21
0.054961
 31
0.0
  0
LINE
  8
0
  6
CONTINUOUS
 62
     7
  5
9E7
 10
-1.137923
 20
0.054961
 30
0.0
 11
-1.137932
 21
0.05495
 31
0.0
  0
LINE
  8
0
  6
CONTINUOUS
 62
     7
  5
9E8
 10
-1.137932
 20
0.05495
 30
0.0
 11
-1.137941
 21
0.054939
 31
0.0
  0
LINE
  8
0
  6
CONTINUOUS
 62
     7
  5
9E9
 10
-1.137941
 20
0.054939
 30
0.0
 11
-1.137951
 21
0.054927
 31
0.0
  0
LINE
  8
0
  6
CONTINUOUS
 62
     7
  5
9EA
 10
-1.137951
 20
0.054927
 30
0.0
 11
-1.137961
 21
0.054915
 31
0.0
  0
LINE
  8
0
  6
CONTINUOUS
 62
     7
  5
9EB
 10
-1.137961
 20
0.054915
 30
0.0
 11
-1.137971
 21
0.054903
 31
0.0
  0
LINE
  8
0
  6
CONTINUOUS
 62
     7
  5
9EC
 10
-1.137971
 20
0.054903
 30
0.0
 11
-1.137981
 21
0.05489
 31
0.0
  0
LINE
  8
0
  6
CONTINUOUS
 62
     7
  5
9ED
 10
-1.137981
 20
-0.05489
 30
0.0
 11
-1.137971
 21
-0.054903
 31
0.0
  0
LINE
  8
0
  6
CONTINUOUS
 62
     7
  5
9EE
 10
-1.137971
 20
-0.054903
 30
0.0
 11
-1.137961
 21
-0.054915
 31
0.0
  0
LINE
  8
0
  6
CONTINUOUS
 62
     7
  5
9EF
 10
-1.137961
 20
-0.054915
 30
0.0
 11
-1.137951
 21
-0.054927
 31
0.0
  0
LINE
  8
0
  6
CONTINUOUS
 62
     7
  5
9F0
 10
-1.137951
 20
-0.054927
 30
0.0
 11
-1.137941
 21
-0.054939
 31
0.0
  0
LINE
  8
0
  6
CONTINUOUS
 62
     7
  5
9F1
 10
-1.137941
 20
-0.054939
 30
0.0
 11
-1.137932
 21
-0.05495
 31
0.0
  0
LINE
  8
0
  6
CONTINUOUS
 62
     7
  5
9F2
 10
-1.137932
 20
-0.05495
 30
0.0
 11
-1.137923
 21
-0.054961
 31
0.0
  0
LINE
  8
0
  6
CONTINUOUS
 62
     7
  5
9F3
 10
-1.137923
 20
-0.054961
 30
0.0
 11
-1.137915
 21
-0.054972
 31
0.0
  0
LINE
  8
0
  6
CONTINUOUS
 62
     7
  5
9F4
 10
-1.137915
 20
-0.054972
 30
0.0
 11
-1.137906
 21
-0.054982
 31
0.0
  0
LINE
  8
0
  6
CONTINUOUS
 62
     7
  5
9F5
 10
-1.137906
 20
-0.054982
 30
0.0
 11
-1.137898
 21
-0.054992
 31
0.0
  0
LINE
  8
0
  6
CONTINUOUS
 62
     7
  5
9F6
 10
-1.137898
 20
-0.054992
 30
0.0
 11
-1.137891
 21
-0.055001
 31
0.0
  0
LINE
  8
0
  6
CONTINUOUS
 62
     7
  5
9F7
 10
-1.137891
 20
-0.055001
 30
0.0
 11
-1.137883
 21
-0.05501
 31
0.0
  0
LINE
  8
0
  6
CONTINUOUS
 62
     7
  5
9F8
 10
-1.137883
 20
-0.05501
 30
0.0
 11
-1.137876
 21
-0.055019
 31
0.0
  0
LINE
  8
0
  6
CONTINUOUS
 62
     7
  5
9F9
 10
-1.137876
 20
-0.055019
 30
0.0
 11
-1.137869
 21
-0.055027
 31
0.0
  0
LINE
  8
0
  6
CONTINUOUS
 62
     7
  5
9FA
 10
-1.137869
 20
-0.055027
 30
0.0
 11
-1.137863
 21
-0.055035
 31
0.0
  0
LINE
  8
0
  6
CONTINUOUS
 62
     7
  5
9FB
 10
-1.137863
 20
-0.055035
 30
0.0
 11
-1.137857
 21
-0.055043
 31
0.0
  0
LINE
  8
0
  6
CONTINUOUS
 62
     7
  5
9FC
 10
-1.137857
 20
-0.055043
 30
0.0
 11
-1.137851
 21
-0.05505
 31
0.0
  0
LINE
  8
0
  6
CONTINUOUS
 62
     7
  5
9FD
 10
-1.137851
 20
-0.05505
 30
0.0
 11
-1.137845
 21
-0.055057
 31
0.0
  0
LINE
  8
0
  6
CONTINUOUS
 62
     7
  5
9FE
 10
-1.137845
 20
-0.055057
 30
0.0
 11
-1.13784
 21
-0.055064
 31
0.0
  0
LINE
  8
0
  6
CONTINUOUS
 62
     7
  5
9FF
 10
-1.13784
 20
-0.055064
 30
0.0
 11
-1.137835
 21
-0.05507
 31
0.0
  0
LINE
  8
0
  6
CONTINUOUS
 62
     7
  5
A00
 10
-1.137835
 20
-0.05507
 30
0.0
 11
-1.13783
 21
-0.055075
 31
0.0
  0
LINE
  8
0
  6
CONTINUOUS
 62
     7
  5
A01
 10
-1.13783
 20
-0.055075
 30
0.0
 11
-1.137826
 21
-0.055081
 31
0.0
  0
LINE
  8
0
  6
CONTINUOUS
 62
     7
  5
A02
 10
-1.137826
 20
-0.055081
 30
0.0
 11
-1.137822
 21
-0.055086
 31
0.0
  0
LINE
  8
0
  6
CONTINUOUS
 62
     7
  5
A03
 10
-1.137822
 20
-0.055086
 30
0.0
 11
-1.137818
 21
-0.05509
 31
0.0
  0
LINE
  8
0
  6
CONTINUOUS
 62
     7
  5
A04
 10
-1.137818
 20
-0.05509
 30
0.0
 11
-1.137815
 21
-0.055095
 31
0.0
  0
LINE
  8
0
  6
CONTINUOUS
 62
     7
  5
A05
 10
-1.137815
 20
-0.055095
 30
0.0
 11
-1.137811
 21
-0.055098
 31
0.0
  0
LINE
  8
0
  6
CONTINUOUS
 62
     7
  5
A06
 10
-1.137811
 20
-0.055098
 30
0.0
 11
-1.137809
 21
-0.055102
 31
0.0
  0
LINE
  8
0
  6
CONTINUOUS
 62
     7
  5
A07
 10
-1.137809
 20
-0.055102
 30
0.0
 11
-1.137806
 21
-0.055105
 31
0.0
  0
LINE
  8
0
  6
CONTINUOUS
 62
     7
  5
A08
 10
-1.137806
 20
-0.055105
 30
0.0
 11
-1.137804
 21
-0.055108
 31
0.0
  0
LINE
  8
0
  6
CONTINUOUS
 62
     7
  5
A09
 10
-1.137804
 20
-0.055108
 30
0.0
 11
-1.137802
 21
-0.05511
 31
0.0
  0
LINE
  8
0
  6
CONTINUOUS
 62
     7
  5
A0A
 10
-1.137802
 20
-0.05511
 30
0.0
 11
-1.1378
 21
-0.055112
 31
0.0
  0
LINE
  8
0
  6
CONTINUOUS
 62
     7
  5
A0B
 10
-1.1378
 20
-0.055112
 30
0.0
 11
-1.137799
 21
-0.055114
 31
0.0
  0
LINE
  8
0
  6
CONTINUOUS
 62
     7
  5
A0C
 10
-1.137799
 20
-0.055114
 30
0.0
 11
-1.137798
 21
-0.055115
 31
0.0
  0
LINE
  8
0
  6
CONTINUOUS
 62
     7
  5
A0D
 10
-1.137798
 20
-0.055115
 30
0.0
 11
-1.137797
 21
-0.055116
 31
0.0
  0
LINE
  8
0
  6
CONTINUOUS
 62
     7
  5
A0E
 10
-1.137797
 20
-0.055116
 30
0.0
 11
-1.137797
 21
-0.055117
 31
0.0
  0
LINE
  8
0
  6
CONTINUOUS
 62
     7
  5
A0F
 10
-1.137797
 20
-0.055117
 30
0.0
 11
-1.137796
 21
-0.055117
 31
0.0
  0
LINE
  8
0
  6
CONTINUOUS
 62
     7
  5
A10
 10
-0.84252
 20
-0.098425
 30
0.0
 11
-0.84252
 21
0.098425
 31
0.0
  0
LINE
  8
0
  6
CONTINUOUS
 62
     7
  5
A11
 10
-0.645669
 20
-0.098425
 30
0.0
 11
-0.84252
 21
-0.098425
 31
0.0
  0
LINE
  8
0
  6
CONTINUOUS
 62
     7
  5
A12
 10
-0.645669
 20
0.098425
 30
0.0
 11
-0.645669
 21
-0.098425
 31
0.0
  0
LINE
  8
0
  6
CONTINUOUS
 62
     7
  5
A13
 10
-0.84252
 20
0.098425
 30
0.0
 11
-0.645669
 21
0.098425
 31
0.0
  0
LINE
  8
0
  6
CONTINUOUS
 62
     7
  5
A14
 10
-0.84252
 20
-0.291339
 30
0.0
 11
-0.84252
 21
-0.098425
 31
0.0
  0
LINE
  8
0
  6
CONTINUOUS
 62
     7
  5
A15
 10
-0.84252
 20
0.098425
 30
0.0
 11
-0.84252
 21
0.291339
 31
0.0
  0
LINE
  8
0
  6
CONTINUOUS
 62
     7
  5
A16
 10
0.023622
 20
0.34252
 30
0.0
 11
0.0
 21
0.34252
 31
0.0
  0
LINE
  8
0
  6
CONTINUOUS
 62
     7
  5
A17
 10
0.0
 20
-0.34252
 30
0.0
 11
0.023622
 21
-0.34252
 31
0.0
  0
LINE
  8
0
  6
CONTINUOUS
 62
     7
  5
A18
 10
-0.275591
 20
-0.352362
 30
0.0
 11
-0.165354
 21
-0.352362
 31
0.0
  0
LINE
  8
0
  6
CONTINUOUS
 62
     7
  5
A19
 10
-0.165354
 20
0.352362
 30
0.0
 11
-0.275591
 21
0.352362
 31
0.0
  0
LINE
  8
0
  6
CONTINUOUS
 62
     7
  5
A1A
 10
-1.137796
 20
-0.055117
 30
0.0
 11
-0.84252
 21
-0.055117
 31
0.0
  0
LINE
  8
0
  6
CONTINUOUS
 62
     7
  5
A1B
 10
-0.84252
 20
0.055117
 30
0.0
 11
-1.137796
 21
0.055117
 31
0.0
  0
LINE
  8
0
  6
CONTINUOUS
 62
     7
  5
A1C
 10
-0.84252
 20
-0.291339
 30
0.0
 11
-0.448819
 21
-0.291339
 31
0.0
  0
LINE
  8
0
  6
CONTINUOUS
 62
     7
  5
A1D
 10
-0.448819
 20
0.291339
 30
0.0
 11
-0.84252
 21
0.291339
 31
0.0
  0
LINE
  8
0
  6
CONTINUOUS
 62
     3
  5
A1E
 10
-0.84252
 20
0.0
 30
0.0
 11
0.401575
 21
0.0
 31
0.0
  0
LINE
  8
0
  6
CONTINUOUS
 62
     3
  5
A1F
 10
-1.094488
 20
-0.220472
 30
0.0
 11
-1.094488
 21
-0.173228
 31
0.0
  0
LINE
  8
0
  6
CONTINUOUS
 62
     3
  5
A20
 10
-1.11811
 20
-0.19685
 30
0.0
 11
-1.070866
 21
-0.19685
 31
0.0
  0
LINE
  8
0
  6
CONTINUOUS
 62
     3
  5
A21
 10
-1.03937
 20
-0.220472
 30
0.0
 11
-1.03937
 21
-0.173228
 31
0.0
  0
LINE
  8
0
  6
CONTINUOUS
 62
     3
  5
A22
 10
-1.062992
 20
-0.19685
 30
0.0
 11
-1.015748
 21
-0.19685
 31
0.0
  0
LINE
  8
0
  6
CONTINUOUS
 62
     3
  5
A23
 10
-1.094488
 20
-0.023622
 30
0.0
 11
-1.094488
 21
0.023622
 31
0.0
  0
LINE
  8
0
  6
CONTINUOUS
 62
     3
  5
A24
 10
-1.11811
 20
0.0
 30
0.0
 11
-1.064961
 21
0.0
 31
0.0
  0
LINE
  8
0
  6
CONTINUOUS
 62
     3
  5
A25
 10
-1.03937
 20
-0.023622
 30
0.0
 11
-1.03937
 21
0.023622
 31
0.0
  0
LINE
  8
0
  6
CONTINUOUS
 62
     3
  5
A26
 10
-1.062992
 20
0.0
 30
0.0
 11
-1.015748
 21
0.0
 31
0.0
  0
LINE
  8
0
  6
CONTINUOUS
 62
     3
  5
A27
 10
-1.094488
 20
0.173228
 30
0.0
 11
-1.094488
 21
0.220472
 31
0.0
  0
LINE
  8
0
  6
CONTINUOUS
 62
     3
  5
A28
 10
-1.11811
 20
0.19685
 30
0.0
 11
-1.070866
 21
0.19685
 31
0.0
  0
LINE
  8
0
  6
CONTINUOUS
 62
     3
  5
A29
 10
-1.03937
 20
0.173228
 30
0.0
 11
-1.03937
 21
0.220472
 31
0.0
  0
LINE
  8
0
  6
CONTINUOUS
 62
     3
  5
A2A
 10
-1.062992
 20
0.19685
 30
0.0
 11
-1.015748
 21
0.19685
 31
0.0
  0
LINE
  8
0
  6
CONTINUOUS
 62
     3
  5
A2B
 10
-1.088583
 20
-0.023622
 30
0.0
 11
-1.088583
 21
0.023622
 31
0.0
  0
ENDSEC
  0
EOF
