999
DXF file: C:\Users\sesa63760\Dev\_Creo\CAD\MCADID0005772_3D-CAD\mcadid0005772_3d-simplified_7.dxf
999
Pro/ENGINEER 2019471 by Parametric Technology Corporation
  0
SECTION
  2
HEADER
  9
$ACADVER
  1
AC1024
  9
$DWGCODEPAGE
  3
ANSI_1252
  9
$EXTMAX
 10
85.1769385944
 20
120.4645274407
 30
0.0
  9
$EXTMIN
 10
0.0
 20
0.0
 30
0.0
  9
$LIMMIN
 10
0.0
 20
0.0
  9
$LIMMAX
 10
85.1769385944
 20
120.4645274407
  9
$VIEWCTR
 10
42.5884692972
 20
60.2322637204
  9
$VIEWSIZE
 40
120.4645274407
  9
$CLAYER
  8
0
  9
$LTSCALE
 40
7.8525025295
  9
$CELTYPE
  6
BYLAYER
  9
$DIMSCALE
 40
1.0
  9
$DIMASZ
 40
1.0140111737
  9
$DIMEXO
 40
1.0
  9
$DIMDLI
 40
5.425365384
  9
$DIMEXE
 40
1.0
  9
$DIMCEN
 40
1.2849549594
  9
$DIMLFAC
 40
1.0
  9
$DIMBLK
  1
_FILLED
  9
$DIMALT
 70
0
  9
$DIMALTF
 40
0.0393700787
  9
$DIMTXT
 40
1.4196156432
  9
$DIMTOL
 70
1
  9
$DIMLIM
 70
0
  9
$DIMTFAC
 40
1.0
  9
$DIMTP
 40
0.01
  9
$DIMTM
 40
0.01
  9
$DIMGAP
 40
0.625
  9
$DIMDSEP
 70
46
  9
$AUNITS
 70
0
  9
$PDMODE
 70
3
  9
$PDSIZE
 40
0.3125
  9
$HANDSEED
  5
42C
  9
$TILEMODE
 70
1
  9
$MEASUREMENT
 70
1
  9
$INSUNITS
 70
4
  0
ENDSEC
  0
SECTION
  2
CLASSES
  0
CLASS
  1
ACDBDICTIONARYWDFLT
  2
AcDbDictionaryWithDefault
  3
AutoCAD 2000
 90
0
 91
1
280
0
281
0
  0
CLASS
  1
ACDBPLACEHOLDER
  2
AcDbPlaceHolder
  3
AutoCAD 2000
 90
0
 91
1
280
0
281
0
  0
CLASS
  1
LAYOUT
  2
AcDbLayout
  3
AutoCAD 2000
 90
0
 91
0
280
0
281
0
  0
ENDSEC
  0
SECTION
  2
TABLES
  0
TABLE
  2
VPORT
  5
8
100
AcDbSymbolTable
 70
2
  0
VPORT
  5
1F4
100
AcDbSymbolTableRecord
100
AcDbViewportTableRecord
  2
*ACTIVE
 70
0
 10
0.0
 20
0.0
 11
1.0
 21
1.0
 12
42.5884692972
 22
60.2322637204
 13
0.0
 23
0.0
 14
1.0
 24
1.0
 15
0.0
 25
0.0
 16
0.0
 26
0.0
 36
1.0
 17
0.0
 27
0.0
 37
0.0
 40
120.4645274407
 41
0.7070707071
 42
50.0
 43
0.0
 44
0.0
 50
0.0
 51
0.0
 71
0
 72
100
 73
1
 74
1
 75
0
 76
0
 77
0
 78
0
  0
ENDTAB
  0
TABLE
  2
LTYPE
  5
5
100
AcDbSymbolTable
 70
6
  0
LTYPE
  5
14
100
AcDbSymbolTableRecord
100
AcDbLinetypeTableRecord
  2
BYBLOCK
 70
0
  3

 72
65
 73
0
 40
0.0
  0
LTYPE
  5
15
100
AcDbSymbolTableRecord
100
AcDbLinetypeTableRecord
  2
BYLAYER
 70
0
  3

 72
65
 73
0
 40
0.0
  0
LTYPE
  5
16
100
AcDbSymbolTableRecord
100
AcDbLinetypeTableRecord
  2
CONTINUOUS
 70
64
  3
Solid line
 72
65
 73
0
 40
0.0
  0
LTYPE
  5
1F5
100
AcDbSymbolTableRecord
100
AcDbLinetypeTableRecord
  2
CENTER
 70
64
  3
____ _ ____ _ ____ _ ____ _ ____ _ ____ _ ____
 72
65
 73
4
 40
0.6
 49
0.375
 74
0
 49
-0.075
 74
0
 49
0.075
 74
0
 49
-0.075
 74
0
  0
LTYPE
  5
1F6
100
AcDbSymbolTableRecord
100
AcDbLinetypeTableRecord
  2
HIDDEN
 70
64
  3
- - - - - - - - - - - - - - - - - - - -
 72
65
 73
2
 40
0.2
 49
0.1
 74
0
 49
-0.1
 74
0
  0
LTYPE
  5
1F7
100
AcDbSymbolTableRecord
100
AcDbLinetypeTableRecord
  2
PHANTOM
 70
64
  3
_____ _ _ _____ _ _ _____ _ _ _____
 72
65
 73
6
 40
0.8
 49
0.45
 74
0
 49
-0.05
 74
0
 49
0.1
 74
0
 49
-0.05
 74
0
 49
0.1
 74
0
 49
-0.05
 74
0
  0
LTYPE
  5
1F8
100
AcDbSymbolTableRecord
100
AcDbLinetypeTableRecord
  2
DOT
 70
64
  3
. . . . . . . . . . . . . . . . . . . .
 72
65
 73
2
 40
0.2
 49
0.1
 74
0
 49
-0.1
 74
0
  0
LTYPE
  5
1F9
100
AcDbSymbolTableRecord
100
AcDbLinetypeTableRecord
  2
DASHED
 70
64
  3
- - - - - - - - - - - - - - - - - - - -
 72
65
 73
2
 40
0.2
 49
0.1
 74
0
 49
-0.1
 74
0
  0
ENDTAB
  0
TABLE
  2
LAYER
  5
2
100
AcDbSymbolTable
 70
36
  0
LAYER
  5
10
100
AcDbSymbolTableRecord
100
AcDbLayerTableRecord
  2
0
 70
0
 62
7
  6
CONTINUOUS
370
-3
390
F
  0
LAYER
  5
1FA
100
AcDbSymbolTableRecord
100
AcDbLayerTableRecord
  2
DEFAULT_1
 70
0
 62
7
  6
CENTER
370
-3
390
F
  0
LAYER
  5
1FB
100
AcDbSymbolTableRecord
100
AcDbLayerTableRecord
  2
DEFAULT_2
 70
0
 62
7
  6
HIDDEN
370
-3
390
F
  0
LAYER
  5
1FC
100
AcDbSymbolTableRecord
100
AcDbLayerTableRecord
  2
DEFAULT_3
 70
0
 62
7
  6
PHANTOM
370
-3
390
F
  0
LAYER
  5
1FD
100
AcDbSymbolTableRecord
100
AcDbLayerTableRecord
  2
00_COMPONENTS
 70
0
 62
7
  6
CONTINUOUS
370
-3
390
F
  0
LAYER
  5
1FE
100
AcDbSymbolTableRecord
100
AcDbLayerTableRecord
  2
01_1_DEFAULT_DATUMS
 70
0
 62
7
  6
CONTINUOUS
370
-3
390
F
  0
LAYER
  5
1FF
100
AcDbSymbolTableRecord
100
AcDbLayerTableRecord
  2
01_PLANES
 70
0
 62
7
  6
CONTINUOUS
370
-3
390
F
  0
LAYER
  5
200
100
AcDbSymbolTableRecord
100
AcDbLayerTableRecord
  2
02_COORD_SYS
 70
0
 62
7
  6
CONTINUOUS
370
-3
390
F
  0
LAYER
  5
201
100
AcDbSymbolTableRecord
100
AcDbLayerTableRecord
  2
03_AXES
 70
0
 62
7
  6
CONTINUOUS
370
-3
390
F
  0
LAYER
  5
202
100
AcDbSymbolTableRecord
100
AcDbLayerTableRecord
  2
04_POINTS
 70
0
 62
7
  6
CONTINUOUS
370
-3
390
F
  0
LAYER
  5
203
100
AcDbSymbolTableRecord
100
AcDbLayerTableRecord
  2
05_CURVES
 70
0
 62
7
  6
CONTINUOUS
370
-3
390
F
  0
LAYER
  5
204
100
AcDbSymbolTableRecord
100
AcDbLayerTableRecord
  2
06_SURFS
 70
0
 62
7
  6
CONTINUOUS
370
-3
390
F
  0
LAYER
  5
205
100
AcDbSymbolTableRecord
100
AcDbLayerTableRecord
  2
07_COSMETICS
 70
0
 62
7
  6
CONTINUOUS
370
-3
390
F
  0
LAYER
  5
206
100
AcDbSymbolTableRecord
100
AcDbLayerTableRecord
  2
10_NOTES
 70
0
 62
7
  6
CONTINUOUS
370
-3
390
F
  0
LAYER
  5
207
100
AcDbSymbolTableRecord
100
AcDbLayerTableRecord
  2
11_NOTES_PUB
 70
0
 62
7
  6
CONTINUOUS
370
-3
390
F
  0
LAYER
  5
208
100
AcDbSymbolTableRecord
100
AcDbLayerTableRecord
  2
13_REF_GTOL
 70
0
 62
7
  6
CONTINUOUS
370
-3
390
F
  0
LAYER
  5
209
100
AcDbSymbolTableRecord
100
AcDbLayerTableRecord
  2
16_MISC
 70
0
 62
7
  6
CONTINUOUS
370
-3
390
F
  0
LAYER
  5
20A
100
AcDbSymbolTableRecord
100
AcDbLayerTableRecord
  2
17_NO_PRINT
 70
0
 62
7
  6
CONTINUOUS
370
-3
390
F
  0
LAYER
  5
20B
100
AcDbSymbolTableRecord
100
AcDbLayerTableRecord
  2
18_DATUM_CAMS_JOINTS
 70
0
 62
7
  6
CONTINUOUS
370
-3
390
F
  0
LAYER
  5
20C
100
AcDbSymbolTableRecord
100
AcDbLayerTableRecord
  2
19_DATUM_FUNCTIONAL
 70
0
 62
7
  6
CONTINUOUS
370
-3
390
F
  0
LAYER
  5
20D
100
AcDbSymbolTableRecord
100
AcDbLayerTableRecord
  2
20_DATUM_KINEMATIC_SCHEME
 70
0
 62
7
  6
CONTINUOUS
370
-3
390
F
  0
ENDTAB
  0
TABLE
  2
STYLE
  5
3
100
AcDbSymbolTable
 70
1
  0
STYLE
  5
11
100
AcDbSymbolTableRecord
100
AcDbTextStyleTableRecord
  2
STANDARD
 70
0
 40
0.0
 41
1.0
 50
0.0
 71
0
 42
0.2
  3
ARIAL.TTF
  4

  0
STYLE
  5
20E
100
AcDbSymbolTableRecord
100
AcDbTextStyleTableRecord
  2
TEXTSTYLE_1
 70
0
 40
0.0
 41
0.8
 50
0.0
 71
0
 42
0.2
  3
gdt
  4

  0
ENDTAB
  0
TABLE
  2
VIEW
  5
6
100
AcDbSymbolTable
 70
0
  0
ENDTAB
  0
TABLE
  2
UCS
  5
7
100
AcDbSymbolTable
 70
0
  0
ENDTAB
  0
TABLE
  2
APPID
  5
9
100
AcDbSymbolTable
 70
1
  0
APPID
  5
20F
100
AcDbSymbolTableRecord
100
AcDbRegAppTableRecord
  2
ACAD
 70
0
  0
ENDTAB
  0
TABLE
  2
BLOCK_RECORD
  5
1
100
AcDbSymbolTable
 70
0
  0
BLOCK_RECORD
  5
210
100
AcDbSymbolTableRecord
100
AcDbBlockTableRecord
  2
*Model_Space
  0
BLOCK_RECORD
  5
211
100
AcDbSymbolTableRecord
100
AcDbBlockTableRecord
  2
*Paper_Space
  0
BLOCK_RECORD
  5
212
100
AcDbSymbolTableRecord
100
AcDbBlockTableRecord
  2
_FILLED
  0
ENDTAB
  0
TABLE
  2
DIMSTYLE
  5
A
100
AcDbSymbolTable
 70
1
100
AcDbDimStyleTable
 71
0
  0
DIMSTYLE
105
213
100
AcDbSymbolTableRecord
100
AcDbDimStyleTableRecord
  2
STANDARD
 70
0
  3

  4

 40
1.0
 41
1.0140111737
 42
1.0
 43
0.38
 44
1.0
 45
0.0
 46
0.0
 47
0.01
 48
0.01
140
1.4196156432
141
0.09
142
0.0
143
25.4
144
1.0
145
0.0
146
1.0
147
0.625
 71
1
 72
0
 73
0
 74
0
 75
0
 76
0
 77
1
 78
8
 79
2
170
0
171
1
172
0
173
0
174
0
175
0
176
0
177
0
178
0
270
2
179
2
271
2
272
2
273
2
274
2
275
0
280
0
281
0
282
0
283
1
284
8
285
0
286
0
287
3
288
0
340
11
278
46
341
212
342
212
343
212
344
212
  0
ENDTAB
  0
ENDSEC
  0
SECTION
  2
BLOCKS
  0
BLOCK
  5
20
100
AcDbEntity
  8
0
100
AcDbBlockBegin
  2
*Model_Space
 70
0
 10
0.0
 20
0.0
 30
0.0
  3
*Model_Space
  1

  0
ENDBLK
  5
21
100
AcDbEntity
  8
0
100
AcDbBlockEnd
  0
BLOCK
  5
1C
100
AcDbEntity
  8
0
100
AcDbBlockBegin
  2
*Paper_Space
 70
0
 10
0.0
 20
0.0
 30
0.0
  3
*Paper_Space
  1

  0
ENDBLK
  5
1D
100
AcDbEntity
  8
0
100
AcDbBlockEnd
  0
BLOCK
  5
214
100
AcDbEntity
  8
0
100
AcDbBlockBegin
  2
_FILLED
 70
64
 10
0.0
 20
0.0
  3
_FILLED
  1

  0
SOLID
  5
215
100
AcDbEntity
  8
0
  6
BYBLOCK
 62
0
100
AcDbTrace
 10
0.0
 20
0.0
 11
-1.0
 21
0.25
 12
-1.0
 22
-0.25
 13
-1.0
 23
-0.25
  0
ENDBLK
  5
216
100
AcDbEntity
  8
0
  6
BYBLOCK
 62
0
100
AcDbBlockEnd
  0
ENDSEC
  0
SECTION
  2
ENTITIES
  0
LINE
  5
217
100
AcDbEntity
  8
0
100
AcDbLine
 62
7
  6
BYLAYER
 10
49.7757013265
 20
10.3478016946
 11
51.2361301987
 21
10.6536428117
  0
LINE
  5
218
100
AcDbEntity
  8
0
100
AcDbLine
 62
7
  6
BYLAYER
 10
48.1359146342
 20
10.1779430504
 11
49.775488085
 21
10.3477570407
  0
LINE
  5
219
100
AcDbEntity
  8
0
100
AcDbLine
 62
7
  6
BYLAYER
 10
41.926574475
 20
8.9205678215
 11
43.5452049208
 21
8.9205678215
  0
LINE
  5
21A
100
AcDbEntity
  8
0
100
AcDbLine
 62
7
  6
BYLAYER
 10
37.3361155984
 20
10.177943046
 11
48.1357178009
 21
10.177943046
  0
LINE
  5
21B
100
AcDbEntity
  8
0
100
AcDbLine
 62
7
  6
BYLAYER
 10
47.7359166992
 20
10.1936541834
 11
37.7359166992
 21
10.1936541834
  0
LINE
  5
21C
100
AcDbEntity
  8
0
100
AcDbLine
 62
7
  6
BYLAYER
 10
41.735918625
 20
10.2641484059
 11
38.1523884455
 21
10.2641484059
  0
LINE
  5
21D
100
AcDbEntity
  8
0
100
AcDbLine
 62
7
  6
BYLAYER
 10
43.7359147702
 20
10.264148406
 11
47.3194449523
 21
10.2641484061
  0
LINE
  5
21E
100
AcDbEntity
  8
0
100
AcDbLine
 62
7
  6
BYLAYER
 10
35.6963822166
 20
10.3477493096
 11
49.775451181
 21
10.3477493094
  0
LINE
  5
21F
100
AcDbEntity
  8
0
100
AcDbLine
 62
7
  6
BYLAYER
 10
39.2360510244
 20
10.3719313501
 11
46.2357823845
 21
10.3719313492
  0
LINE
  5
220
100
AcDbEntity
  8
0
100
AcDbLine
 62
7
  6
BYLAYER
 10
28.3512927118
 20
10.6536428889
 11
57.1205406868
 21
10.6536428889
  0
LINE
  5
221
100
AcDbEntity
  8
0
100
AcDbLine
 62
7
  6
BYLAYER
 10
47.7359166992
 20
10.7036428878
 11
37.7359166992
 21
10.7036428878
  0
LINE
  5
222
100
AcDbEntity
  8
0
100
AcDbLine
 62
7
  6
BYLAYER
 10
37.3359187638
 20
10.1779430505
 11
35.6963453152
 21
10.3477570404
  0
LINE
  5
223
100
AcDbEntity
  8
0
100
AcDbLine
 62
7
  6
BYLAYER
 10
35.6961320721
 20
10.3478016945
 11
34.2357031998
 21
10.6536428117
  0
LINE
  5
224
100
AcDbEntity
  8
0
100
AcDbLine
 62
7
  6
BYLAYER
 10
55.9405133469
 20
17.9536428878
 11
29.5326744364
 21
17.9536428878
  0
LINE
  5
225
100
AcDbEntity
  8
0
100
AcDbLine
 62
7
  6
BYLAYER
 10
27.9859166472
 20
18.4436428878
 11
57.4859167512
 21
18.4436428878
  0
LINE
  5
226
100
AcDbEntity
  8
0
100
AcDbLine
 62
7
  6
BYLAYER
 10
56.685916285
 20
21.8936429317
 11
28.127039787
 21
21.8936429317
  0
LINE
  5
227
100
AcDbEntity
  8
0
100
AcDbLine
 62
7
  6
BYLAYER
 10
56.3159166992
 20
23.1436428878
 11
29.1559166992
 21
23.1436428878
  0
LINE
  5
228
100
AcDbEntity
  8
0
100
AcDbLine
 62
7
  6
BYLAYER
 10
53.6109163863
 20
24.8536434499
 11
31.8609170121
 21
24.8536434499
  0
LINE
  5
229
100
AcDbEntity
  8
0
100
AcDbLine
 62
7
  6
BYLAYER
 10
53.3106387134
 20
25.1536429157
 11
32.1611946851
 21
25.1536429157
  0
LINE
  5
22A
100
AcDbEntity
  8
0
100
AcDbLine
 62
7
  6
BYLAYER
 10
30.6109166092
 20
28.3336428878
 11
54.8609168216
 21
28.3336428878
  0
LINE
  5
22B
100
AcDbEntity
  8
0
100
AcDbLine
 62
7
  6
BYLAYER
 10
28.0709165586
 20
28.5336428871
 11
30.6109166218
 21
28.5336428878
  0
LINE
  5
22C
100
AcDbEntity
  8
0
100
AcDbLine
 62
7
  6
BYLAYER
 10
54.8609167961
 20
28.5336428878
 11
57.4009168073
 21
28.5336428871
  0
LINE
  5
22D
100
AcDbEntity
  8
0
100
AcDbLine
 62
7
  6
BYLAYER
 10
30.6109166218
 20
28.5336428878
 11
54.8609167961
 21
28.5336428878
  0
LINE
  5
22E
100
AcDbEntity
  8
0
100
AcDbLine
 62
7
  6
BYLAYER
 10
42.7359166992
 20
22.9336428878
 11
41.2123618159
 21
23.7585158258
  0
LINE
  5
22F
100
AcDbEntity
  8
0
100
AcDbLine
 62
7
  6
BYLAYER
 10
57.400916829
 20
31.0336420839
 11
54.9009164301
 21
31.0336420839
  0
LINE
  5
230
100
AcDbEntity
  8
0
100
AcDbLine
 62
7
  6
BYLAYER
 10
30.5709169683
 20
31.0336420839
 11
28.0709165586
 21
31.0336420839
  0
LINE
  5
231
100
AcDbEntity
  8
0
100
AcDbLine
 62
7
  6
BYLAYER
 10
28.0709165586
 20
34.1136425358
 11
30.5709169683
 21
34.1136425358
  0
LINE
  5
232
100
AcDbEntity
  8
0
100
AcDbLine
 62
7
  6
BYLAYER
 10
54.9009164301
 20
34.11364253
 11
57.4009168204
 21
34.1136425346
  0
LINE
  5
233
100
AcDbEntity
  8
0
100
AcDbLine
 62
7
  6
BYLAYER
 10
28.0709165586
 20
34.1536428878
 11
30.5709169683
 21
34.1536428878
  0
LINE
  5
234
100
AcDbEntity
  8
0
100
AcDbLine
 62
7
  6
BYLAYER
 10
57.4009167011
 20
34.5336424743
 11
28.0709165586
 21
34.5336424743
  0
LINE
  5
235
100
AcDbEntity
  8
0
100
AcDbLine
 62
7
  6
BYLAYER
 10
27.8359166992
 20
34.6336428878
 11
28.0709165586
 21
34.6336428878
  0
LINE
  5
236
100
AcDbEntity
  8
0
100
AcDbLine
 62
7
  6
BYLAYER
 10
30.5709169683
 20
34.6336428878
 11
35.2652068987
 21
34.6336428878
  0
LINE
  5
237
100
AcDbEntity
  8
0
100
AcDbLine
 62
7
  6
BYLAYER
 10
35.2652068987
 20
34.6336428878
 11
35.2728791693
 21
34.6336428878
  0
LINE
  5
238
100
AcDbEntity
  8
0
100
AcDbLine
 62
7
  6
BYLAYER
 10
35.2728791693
 20
34.6336428878
 11
37.1585752937
 21
34.6336428878
  0
LINE
  5
239
100
AcDbEntity
  8
0
100
AcDbLine
 62
7
  6
BYLAYER
 10
48.8859164966
 20
34.6336428878
 11
54.9009164301
 21
34.6336428878
  0
LINE
  5
23A
100
AcDbEntity
  8
0
100
AcDbLine
 62
7
  6
BYLAYER
 10
57.4009168044
 20
34.6336428878
 11
57.6359166992
 21
34.6336428878
  0
LINE
  5
23B
100
AcDbEntity
  8
0
100
AcDbLine
 62
7
  6
BYLAYER
 10
29.7359164888
 20
34.9336424933
 11
35.7359164832
 21
34.9336424933
  0
LINE
  5
23C
100
AcDbEntity
  8
0
100
AcDbLine
 62
7
  6
BYLAYER
 10
54.8609170622
 20
36.9393262371
 11
54.9009164974
 21
36.9393409506
  0
LINE
  5
23D
100
AcDbEntity
  8
0
100
AcDbLine
 62
7
  6
BYLAYER
 10
29.7359164888
 20
36.4336425063
 11
35.7359164832
 21
36.4336425063
  0
LINE
  5
23E
100
AcDbEntity
  8
0
100
AcDbLine
 62
7
  6
BYLAYER
 10
37.1585804443
 20
36.4536428878
 11
35.2728791693
 21
36.4536428878
  0
LINE
  5
23F
100
AcDbEntity
  8
0
100
AcDbLine
 62
7
  6
BYLAYER
 10
33.7958112288
 20
36.4536428878
 11
35.2652068987
 21
36.4536428878
  0
LINE
  5
240
100
AcDbEntity
  8
0
100
AcDbLine
 62
7
  6
BYLAYER
 10
35.2652068987
 20
36.4536428878
 11
35.2728791693
 21
36.4536428878
  0
LINE
  5
241
100
AcDbEntity
  8
0
100
AcDbLine
 62
7
  6
BYLAYER
 10
30.5709169011
 20
36.939382652
 11
30.6109165365
 21
36.9393826476
  0
LINE
  5
242
100
AcDbEntity
  8
0
100
AcDbLine
 62
7
  6
BYLAYER
 10
27.8359166992
 20
38.0336424659
 11
38.4859165606
 21
38.0336424659
  0
LINE
  5
243
100
AcDbEntity
  8
0
100
AcDbLine
 62
7
  6
BYLAYER
 10
46.9859169302
 20
38.0336424659
 11
57.6359166992
 21
38.0336424659
  0
LINE
  5
244
100
AcDbEntity
  8
0
100
AcDbLine
 62
7
  6
BYLAYER
 10
54.9009166992
 20
38.9136428878
 11
30.5709166992
 21
38.9136428878
  0
LINE
  5
245
100
AcDbEntity
  8
0
100
AcDbLine
 62
7
  6
BYLAYER
 10
44.9259494403
 20
41.6506532413
 11
49.3859165785
 21
42.8440788742
  0
LINE
  5
246
100
AcDbEntity
  8
0
100
AcDbLine
 62
7
  6
BYLAYER
 10
27.8359166992
 20
41.3336425644
 11
57.6359166992
 21
41.3336425644
  0
LINE
  5
247
100
AcDbEntity
  8
0
100
AcDbLine
 62
7
  6
BYLAYER
 10
27.8359166992
 20
42.5336423886
 11
57.6359166992
 21
42.5336423886
  0
LINE
  5
248
100
AcDbEntity
  8
0
100
AcDbLine
 62
7
  6
BYLAYER
 10
27.8359166992
 20
42.8336423446
 11
57.6359166992
 21
42.8336423446
  0
LINE
  5
249
100
AcDbEntity
  8
0
100
AcDbLine
 62
7
  6
BYLAYER
 10
49.3859165785
 20
42.8440788742
 11
51.3859169064
 21
42.8440788742
  0
LINE
  5
24A
100
AcDbEntity
  8
0
100
AcDbLine
 62
7
  6
BYLAYER
 10
36.0859168199
 20
42.8440788742
 11
40.5458839581
 21
41.6506532413
  0
LINE
  5
24B
100
AcDbEntity
  8
0
100
AcDbLine
 62
7
  6
BYLAYER
 10
30.0767418876
 20
10.2846026277
 11
30.0671003417
 21
10.652782136
  0
LINE
  5
24C
100
AcDbEntity
  8
0
100
AcDbLine
 62
7
  6
BYLAYER
 10
28.0513041985
 20
10.95102481
 11
27.9859166106
 21
18.4436428874
  0
LINE
  5
24D
100
AcDbEntity
  8
0
100
AcDbLine
 62
7
  6
BYLAYER
 10
27.8359166992
 20
34.6336428878
 11
27.8359166992
 21
64.9336425993
  0
LINE
  5
24E
100
AcDbEntity
  8
0
100
AcDbLine
 62
7
  6
BYLAYER
 10
28.0709165586
 20
28.5336428871
 11
28.0709165586
 21
34.6336428878
  0
LINE
  5
24F
100
AcDbEntity
  8
0
100
AcDbLine
 62
7
  6
BYLAYER
 10
28.127039787
 20
21.8936429317
 11
28.127039787
 21
18.4436428878
  0
LINE
  5
250
100
AcDbEntity
  8
0
100
AcDbLine
 62
7
  6
BYLAYER
 10
34.0859164921
 20
43.4214291408
 11
36.0859168199
 21
43.4214291408
  0
LINE
  5
251
100
AcDbEntity
  8
0
100
AcDbLine
 62
7
  6
BYLAYER
 10
27.8359166992
 20
43.6336423826
 11
57.6359166992
 21
43.6336423826
  0
LINE
  5
252
100
AcDbEntity
  8
0
100
AcDbLine
 62
7
  6
BYLAYER
 10
57.6359166992
 20
43.7101037363
 11
51.3859169064
 21
43.7101037363
  0
LINE
  5
253
100
AcDbEntity
  8
0
100
AcDbLine
 62
7
  6
BYLAYER
 10
27.8359166992
 20
43.7101037363
 11
34.0859164921
 21
43.7101037363
  0
LINE
  5
254
100
AcDbEntity
  8
0
100
AcDbLine
 62
7
  6
BYLAYER
 10
27.8359166992
 20
43.7336426424
 11
57.6359166992
 21
43.7336426424
  0
LINE
  5
255
100
AcDbEntity
  8
0
100
AcDbLine
 62
7
  6
BYLAYER
 10
43.0468100533
 20
44.050910575
 11
42.4250233459
 21
44.050910575
  0
LINE
  5
256
100
AcDbEntity
  8
0
100
AcDbLine
 62
7
  6
BYLAYER
 10
27.8359166992
 20
44.3336421249
 11
57.6359166992
 21
44.3336421249
  0
LINE
  5
257
100
AcDbEntity
  8
0
100
AcDbLine
 62
7
  6
BYLAYER
 10
41.1393562285
 20
23.8251613979
 11
40.7402162499
 21
24.8804985639
  0
LINE
  5
258
100
AcDbEntity
  8
0
100
AcDbLine
 62
7
  6
BYLAYER
 10
29.1559166992
 20
23.1436428878
 11
29.1559166992
 21
21.8936429317
  0
LINE
  5
259
100
AcDbEntity
  8
0
100
AcDbLine
 62
7
  6
BYLAYER
 10
29.2125760293
 20
18.4436428878
 11
29.2125760293
 21
21.8936429317
  0
LINE
  5
25A
100
AcDbEntity
  8
0
100
AcDbLine
 62
7
  6
BYLAYER
 10
29.2359166992
 20
54.9329039291
 11
29.2359166992
 21
63.157097373
  0
LINE
  5
25B
100
AcDbEntity
  8
0
100
AcDbLine
 62
7
  6
BYLAYER
 10
29.3359166992
 20
43.7336426726
 11
29.3359166992
 21
54.946621129
  0
LINE
  5
25C
100
AcDbEntity
  8
0
100
AcDbLine
 62
7
  6
BYLAYER
 10
29.5325418003
 20
17.9536428878
 11
29.5325418003
 21
10.6536428915
  0
LINE
  5
25D
100
AcDbEntity
  8
0
100
AcDbLine
 62
7
  6
BYLAYER
 10
29.7359164888
 20
34.9336424933
 11
29.7359164888
 21
36.4336425063
  0
LINE
  5
25E
100
AcDbEntity
  8
0
100
AcDbLine
 62
7
  6
BYLAYER
 10
30.0358394276
 20
17.9536428878
 11
30.0358394276
 21
10.6505975408
  0
LINE
  5
25F
100
AcDbEntity
  8
0
100
AcDbLine
 62
7
  6
BYLAYER
 10
30.0412142155
 20
17.9536428878
 11
30.0412142155
 21
10.6536428881
  0
LINE
  5
260
100
AcDbEntity
  8
0
100
AcDbLine
 62
7
  6
BYLAYER
 10
30.1398021605
 20
17.9536428878
 11
30.1398021605
 21
10.6536427178
  0
LINE
  5
261
100
AcDbEntity
  8
0
100
AcDbLine
 62
7
  6
BYLAYER
 10
30.3359166992
 20
54.608821376
 11
30.3359166992
 21
43.7336426742
  0
LINE
  5
262
100
AcDbEntity
  8
0
100
AcDbLine
 62
7
  6
BYLAYER
 10
30.4459166992
 20
59.8901428878
 11
30.4459166992
 21
64.9336425212
  0
LINE
  5
263
100
AcDbEntity
  8
0
100
AcDbLine
 62
7
  6
BYLAYER
 10
30.5709166992
 20
38.9136428878
 11
30.5709169683
 21
36.9393826521
  0
LINE
  5
264
100
AcDbEntity
  8
0
100
AcDbLine
 62
7
  6
BYLAYER
 10
30.5709169683
 20
28.5336428878
 11
30.5709169683
 21
34.6336428878
  0
LINE
  5
265
100
AcDbEntity
  8
0
100
AcDbLine
 62
7
  6
BYLAYER
 10
30.6109166834
 20
34.6336428878
 11
30.6109165584
 21
28.3336428878
  0
LINE
  5
266
100
AcDbEntity
  8
0
100
AcDbLine
 62
7
  6
BYLAYER
 10
30.6109166834
 20
34.6336428878
 11
30.6109166992
 21
38.9136428878
  0
LINE
  5
267
100
AcDbEntity
  8
0
100
AcDbLine
 62
7
  6
BYLAYER
 10
30.9038098748
 20
28.3336428878
 11
30.9038098617
 21
34.6336428878
  0
LINE
  5
268
100
AcDbEntity
  8
0
100
AcDbLine
 62
7
  6
BYLAYER
 10
31.4109171258
 20
38.9136428878
 11
31.4109171258
 21
28.3336428878
  0
LINE
  5
269
100
AcDbEntity
  8
0
100
AcDbLine
 62
7
  6
BYLAYER
 10
31.5709171441
 20
34.5336424743
 11
31.5709171441
 21
28.5336428878
  0
LINE
  5
26A
100
AcDbEntity
  8
0
100
AcDbLine
 62
7
  6
BYLAYER
 10
31.5709185238
 20
38.0336424659
 11
31.5709185238
 21
38.9136428878
  0
LINE
  5
26B
100
AcDbEntity
  8
0
100
AcDbLine
 62
7
  6
BYLAYER
 10
31.8609170121
 20
23.1436428878
 11
31.8609170121
 21
24.8536434499
  0
LINE
  5
26C
100
AcDbEntity
  8
0
100
AcDbLine
 62
7
  6
BYLAYER
 10
32.3359173618
 20
10.6536429255
 11
32.3359173618
 21
18.4436428878
  0
LINE
  5
26D
100
AcDbEntity
  8
0
100
AcDbLine
 62
7
  6
BYLAYER
 10
32.4913605675
 20
17.9536428878
 11
32.4913605675
 21
10.6536428913
  0
LINE
  5
26E
100
AcDbEntity
  8
0
100
AcDbLine
 62
7
  6
BYLAYER
 10
32.6077445847
 20
17.9536428878
 11
32.6077445847
 21
10.6536429042
  0
LINE
  5
26F
100
AcDbEntity
  8
0
100
AcDbLine
 62
7
  6
BYLAYER
 10
32.6359170926
 20
25.1536429157
 11
32.6359170926
 21
28.3336428878
  0
LINE
  5
270
100
AcDbEntity
  8
0
100
AcDbLine
 62
7
  6
BYLAYER
 10
33.3710838854
 20
36.4336425063
 11
33.3710838854
 21
34.9336424933
  0
LINE
  5
271
100
AcDbEntity
  8
0
100
AcDbLine
 62
7
  6
BYLAYER
 10
33.6687647443
 20
34.9336424933
 11
33.6687647443
 21
36.4336425063
  0
LINE
  5
272
100
AcDbEntity
  8
0
100
AcDbLine
 62
7
  6
BYLAYER
 10
33.7958112288
 20
34.6336428878
 11
33.7958112288
 21
34.9336424933
  0
LINE
  5
273
100
AcDbEntity
  8
0
100
AcDbLine
 62
7
  6
BYLAYER
 10
33.7958112288
 20
36.4336425063
 11
33.7958112288
 21
36.4536428878
  0
LINE
  5
274
100
AcDbEntity
  8
0
100
AcDbLine
 62
7
  6
BYLAYER
 10
34.0859164921
 20
38.0336424659
 11
34.0859164921
 21
43.7101037363
  0
LINE
  5
275
100
AcDbEntity
  8
0
100
AcDbLine
 62
7
  6
BYLAYER
 10
34.1983522726
 20
38.9136428878
 11
34.1983522726
 21
28.3336428878
  0
LINE
  5
276
100
AcDbEntity
  8
0
100
AcDbLine
 62
7
  6
BYLAYER
 10
34.2297232006
 20
34.6336428878
 11
34.2296961849
 21
36.4536428878
  0
LINE
  5
277
100
AcDbEntity
  8
0
100
AcDbLine
 62
7
  6
BYLAYER
 10
34.2359169563
 20
34.6336428878
 11
34.2359169563
 21
28.3336428878
  0
LINE
  5
278
100
AcDbEntity
  8
0
100
AcDbLine
 62
7
  6
BYLAYER
 10
34.6859157594
 20
38.9136428878
 11
34.6859157594
 21
38.0336424659
  0
LINE
  5
279
100
AcDbEntity
  8
0
100
AcDbLine
 62
7
  6
BYLAYER
 10
34.6859158151
 20
28.5336428878
 11
34.6859158151
 21
34.5336424743
  0
LINE
  5
27A
100
AcDbEntity
  8
0
100
AcDbLine
 62
7
  6
BYLAYER
 10
35.0259166992
 20
59.8901428878
 11
35.0259166992
 21
64.9336425212
  0
LINE
  5
27B
100
AcDbEntity
  8
0
100
AcDbLine
 62
7
  6
BYLAYER
 10
35.1560537084
 20
36.4536428878
 11
35.1560537084
 21
34.6336428878
  0
LINE
  5
27C
100
AcDbEntity
  8
0
100
AcDbLine
 62
7
  6
BYLAYER
 10
35.2652068987
 20
34.6336428878
 11
35.2652068987
 21
34.9336424933
  0
LINE
  5
27D
100
AcDbEntity
  8
0
100
AcDbLine
 62
7
  6
BYLAYER
 10
35.2652068987
 20
36.4336425063
 11
35.2652068987
 21
36.4536428878
  0
LINE
  5
27E
100
AcDbEntity
  8
0
100
AcDbLine
 62
7
  6
BYLAYER
 10
35.581347402
 20
36.4536428878
 11
35.581347402
 21
36.4336425063
  0
LINE
  5
27F
100
AcDbEntity
  8
0
100
AcDbLine
 62
7
  6
BYLAYER
 10
35.581347402
 20
36.4336425063
 11
35.581347402
 21
34.9336424933
  0
LINE
  5
280
100
AcDbEntity
  8
0
100
AcDbLine
 62
7
  6
BYLAYER
 10
35.581347402
 20
34.9336424933
 11
35.581347402
 21
34.6336428878
  0
LINE
  5
281
100
AcDbEntity
  8
0
100
AcDbLine
 62
7
  6
BYLAYER
 10
35.7359164832
 20
34.9336424933
 11
35.7359164832
 21
36.4336425063
  0
LINE
  5
282
100
AcDbEntity
  8
0
100
AcDbLine
 62
7
  6
BYLAYER
 10
35.8415083275
 20
36.4536428878
 11
35.8415083274
 21
34.6336428878
  0
LINE
  5
283
100
AcDbEntity
  8
0
100
AcDbLine
 62
7
  6
BYLAYER
 10
35.9859165241
 20
34.5336424743
 11
35.9859165241
 21
28.5336428739
  0
LINE
  5
284
100
AcDbEntity
  8
0
100
AcDbLine
 62
7
  6
BYLAYER
 10
36.0359166992
 20
43.7336426745
 11
36.0359166992
 21
54.608821376
  0
LINE
  5
285
100
AcDbEntity
  8
0
100
AcDbLine
 62
7
  6
BYLAYER
 10
36.0859168199
 20
38.0336424659
 11
36.0859168199
 21
43.4214291408
  0
LINE
  5
286
100
AcDbEntity
  8
0
100
AcDbLine
 62
7
  6
BYLAYER
 10
36.2359166992
 20
63.157097373
 11
36.2359166992
 21
54.9329039291
  0
LINE
  5
287
100
AcDbEntity
  8
0
100
AcDbLine
 62
7
  6
BYLAYER
 10
37.1359166992
 20
54.946621129
 11
37.1359166992
 21
43.7336426745
  0
LINE
  5
288
100
AcDbEntity
  8
0
100
AcDbLine
 62
7
  6
BYLAYER
 10
37.1585793246
 20
36.4536428878
 11
37.158574178
 21
34.6336428878
  0
LINE
  5
289
100
AcDbEntity
  8
0
100
AcDbLine
 62
7
  6
BYLAYER
 10
37.2712587169
 20
28.3336428878
 11
37.2712587169
 21
38.9136428878
  0
LINE
  5
28A
100
AcDbEntity
  8
0
100
AcDbLine
 62
7
  6
BYLAYER
 10
37.7359166992
 20
10.7036428878
 11
37.7359166992
 21
10.1936541834
  0
LINE
  5
28B
100
AcDbEntity
  8
0
100
AcDbLine
 62
7
  6
BYLAYER
 10
38.0359166992
 20
64.9336426934
 11
38.0359166992
 21
112.1336424348
  0
LINE
  5
28C
100
AcDbEntity
  8
0
100
AcDbLine
 62
7
  6
BYLAYER
 10
38.2359166992
 20
18.4436428878
 11
38.2359166993
 21
21.8936429317
  0
LINE
  5
28D
100
AcDbEntity
  8
0
100
AcDbLine
 62
7
  6
BYLAYER
 10
38.4859165136
 20
38.9136428878
 11
38.4859165136
 21
38.0336424659
  0
LINE
  5
28E
100
AcDbEntity
  8
0
100
AcDbLine
 62
7
  6
BYLAYER
 10
38.4859165116
 20
28.5336428878
 11
38.4859165116
 21
34.5336424743
  0
LINE
  5
28F
100
AcDbEntity
  8
0
100
AcDbLine
 62
7
  6
BYLAYER
 10
39.0359166992
 20
92.3336458323
 11
39.0359166992
 21
88.5336423288
  0
LINE
  5
290
100
AcDbEntity
  8
0
100
AcDbLine
 62
7
  6
BYLAYER
 10
39.0359166992
 20
68.7336458323
 11
39.0359166992
 21
64.9336429998
  0
LINE
  5
291
100
AcDbEntity
  8
0
100
AcDbLine
 62
7
  6
BYLAYER
 10
39.1359166992
 20
43.7336426745
 11
39.1359166992
 21
54.946621129
  0
LINE
  5
292
100
AcDbEntity
  8
0
100
AcDbLine
 62
7
  6
BYLAYER
 10
39.1359166992
 20
67.3336422117
 11
39.1359166992
 21
78.546621129
  0
LINE
  5
293
100
AcDbEntity
  8
0
100
AcDbLine
 62
7
  6
BYLAYER
 10
39.1359166992
 20
90.933641329
 11
39.1359166992
 21
102.146621129
  0
LINE
  5
294
100
AcDbEntity
  8
0
100
AcDbLine
 62
7
  6
BYLAYER
 10
39.2359166992
 20
10.7036428878
 11
39.2359166992
 21
10.3719308005
  0
LINE
  5
295
100
AcDbEntity
  8
0
100
AcDbLine
 62
7
  6
BYLAYER
 10
39.2359166992
 20
54.9329039291
 11
39.2359166992
 21
63.157097373
  0
LINE
  5
296
100
AcDbEntity
  8
0
100
AcDbLine
 62
7
  6
BYLAYER
 10
39.4359166992
 20
78.532903834
 11
39.4359166992
 21
86.7570973143
  0
LINE
  5
297
100
AcDbEntity
  8
0
100
AcDbLine
 62
7
  6
BYLAYER
 10
39.4359166992
 20
102.1329042842
 11
39.4359166992
 21
110.3570976181
  0
LINE
  5
298
100
AcDbEntity
  8
0
100
AcDbLine
 62
7
  6
BYLAYER
 10
55.6359166992
 20
54.608821376
 11
49.9359166992
 21
54.608821376
  0
LINE
  5
299
100
AcDbEntity
  8
0
100
AcDbLine
 62
7
  6
BYLAYER
 10
45.8359166992
 20
54.608821376
 11
40.1359166992
 21
54.608821376
  0
LINE
  5
29A
100
AcDbEntity
  8
0
100
AcDbLine
 62
7
  6
BYLAYER
 10
36.0359166992
 20
54.608821376
 11
30.3359166992
 21
54.608821376
  0
LINE
  5
29B
100
AcDbEntity
  8
0
100
AcDbLine
 62
7
  6
BYLAYER
 10
56.2359166992
 20
54.9329039291
 11
49.2359166992
 21
54.9329039291
  0
LINE
  5
29C
100
AcDbEntity
  8
0
100
AcDbLine
 62
7
  6
BYLAYER
 10
46.2359166992
 20
54.9329039291
 11
39.2359166992
 21
54.9329039291
  0
LINE
  5
29D
100
AcDbEntity
  8
0
100
AcDbLine
 62
7
  6
BYLAYER
 10
36.2359166992
 20
54.9329039291
 11
29.2359166992
 21
54.9329039291
  0
LINE
  5
29E
100
AcDbEntity
  8
0
100
AcDbLine
 62
7
  6
BYLAYER
 10
27.8359166992
 20
54.946621129
 11
29.3359166992
 21
54.946621129
  0
LINE
  5
29F
100
AcDbEntity
  8
0
100
AcDbLine
 62
7
  6
BYLAYER
 10
37.1359166992
 20
54.946621129
 11
39.1359166992
 21
54.946621129
  0
LINE
  5
2A0
100
AcDbEntity
  8
0
100
AcDbLine
 62
7
  6
BYLAYER
 10
36.2359166992
 20
54.9466197935
 11
37.1359166992
 21
54.946621129
  0
LINE
  5
2A1
100
AcDbEntity
  8
0
100
AcDbLine
 62
7
  6
BYLAYER
 10
39.1359166992
 20
54.946621129
 11
39.2359166992
 21
54.9466197935
  0
LINE
  5
2A2
100
AcDbEntity
  8
0
100
AcDbLine
 62
7
  6
BYLAYER
 10
46.9359166992
 20
54.946621129
 11
48.9359166992
 21
54.946621129
  0
LINE
  5
2A3
100
AcDbEntity
  8
0
100
AcDbLine
 62
7
  6
BYLAYER
 10
46.2359166992
 20
54.9466197935
 11
46.9359166992
 21
54.946621129
  0
LINE
  5
2A4
100
AcDbEntity
  8
0
100
AcDbLine
 62
7
  6
BYLAYER
 10
48.9359166992
 20
54.946621129
 11
49.2359166992
 21
54.9466197935
  0
LINE
  5
2A5
100
AcDbEntity
  8
0
100
AcDbLine
 62
7
  6
BYLAYER
 10
56.7359166992
 20
54.946621129
 11
57.6359166992
 21
54.946621129
  0
LINE
  5
2A6
100
AcDbEntity
  8
0
100
AcDbLine
 62
7
  6
BYLAYER
 10
56.2359166992
 20
54.9466197935
 11
56.7359166992
 21
54.946621129
  0
LINE
  5
2A7
100
AcDbEntity
  8
0
100
AcDbLine
 62
7
  6
BYLAYER
 10
29.2359166992
 20
55.0543667314
 11
36.2359166992
 21
55.0543667314
  0
LINE
  5
2A8
100
AcDbEntity
  8
0
100
AcDbLine
 62
7
  6
BYLAYER
 10
39.2359166992
 20
55.0543667314
 11
46.2359166992
 21
55.0543667314
  0
LINE
  5
2A9
100
AcDbEntity
  8
0
100
AcDbLine
 62
7
  6
BYLAYER
 10
49.2359166992
 20
55.0543667314
 11
56.2359166992
 21
55.0543667314
  0
LINE
  5
2AA
100
AcDbEntity
  8
0
100
AcDbLine
 62
7
  6
BYLAYER
 10
29.2359166992
 20
55.2020893929
 11
36.2359166992
 21
55.2020893929
  0
LINE
  5
2AB
100
AcDbEntity
  8
0
100
AcDbLine
 62
7
  6
BYLAYER
 10
39.2359166992
 20
55.2020893929
 11
46.2359166992
 21
55.2020893929
  0
LINE
  5
2AC
100
AcDbEntity
  8
0
100
AcDbLine
 62
7
  6
BYLAYER
 10
49.2359166992
 20
55.2020893929
 11
56.2359166992
 21
55.2020893929
  0
LINE
  5
2AD
100
AcDbEntity
  8
0
100
AcDbLine
 62
7
  6
BYLAYER
 10
29.2359166992
 20
55.2220643994
 11
36.2359166992
 21
55.2220643994
  0
LINE
  5
2AE
100
AcDbEntity
  8
0
100
AcDbLine
 62
7
  6
BYLAYER
 10
39.2359166992
 20
55.2220643994
 11
46.2359166992
 21
55.2220643994
  0
LINE
  5
2AF
100
AcDbEntity
  8
0
100
AcDbLine
 62
7
  6
BYLAYER
 10
49.2359166992
 20
55.2220643994
 11
56.2359166992
 21
55.2220643994
  0
LINE
  5
2B0
100
AcDbEntity
  8
0
100
AcDbLine
 62
7
  6
BYLAYER
 10
56.2359166992
 20
55.3455349012
 11
49.2359166992
 21
55.3455349012
  0
LINE
  5
2B1
100
AcDbEntity
  8
0
100
AcDbLine
 62
7
  6
BYLAYER
 10
46.2359166992
 20
55.3455349012
 11
39.2359166992
 21
55.3455349012
  0
LINE
  5
2B2
100
AcDbEntity
  8
0
100
AcDbLine
 62
7
  6
BYLAYER
 10
36.2359166992
 20
55.3455349012
 11
29.2359166992
 21
55.3455349012
  0
LINE
  5
2B3
100
AcDbEntity
  8
0
100
AcDbLine
 62
7
  6
BYLAYER
 10
29.2359166992
 20
55.4190279481
 11
36.2359166992
 21
55.4190279481
  0
LINE
  5
2B4
100
AcDbEntity
  8
0
100
AcDbLine
 62
7
  6
BYLAYER
 10
39.2359166992
 20
55.4190279481
 11
46.2359166992
 21
55.4190279481
  0
LINE
  5
2B5
100
AcDbEntity
  8
0
100
AcDbLine
 62
7
  6
BYLAYER
 10
49.2359166992
 20
55.4190279481
 11
56.2359166992
 21
55.4190279481
  0
LINE
  5
2B6
100
AcDbEntity
  8
0
100
AcDbLine
 62
7
  6
BYLAYER
 10
29.2359166992
 20
55.4454328057
 11
36.2359166992
 21
55.4454328057
  0
LINE
  5
2B7
100
AcDbEntity
  8
0
100
AcDbLine
 62
7
  6
BYLAYER
 10
39.2359166992
 20
55.4454328057
 11
46.2359166992
 21
55.4454328057
  0
LINE
  5
2B8
100
AcDbEntity
  8
0
100
AcDbLine
 62
7
  6
BYLAYER
 10
49.2359166992
 20
55.4454328057
 11
56.2359166992
 21
55.4454328057
  0
LINE
  5
2B9
100
AcDbEntity
  8
0
100
AcDbLine
 62
7
  6
BYLAYER
 10
29.2359166992
 20
55.9378416774
 11
36.2359166992
 21
55.9378416774
  0
LINE
  5
2BA
100
AcDbEntity
  8
0
100
AcDbLine
 62
7
  6
BYLAYER
 10
39.2359166992
 20
55.9378416774
 11
46.2359166992
 21
55.9378416774
  0
LINE
  5
2BB
100
AcDbEntity
  8
0
100
AcDbLine
 62
7
  6
BYLAYER
 10
49.2359166992
 20
55.9378416774
 11
56.2359166992
 21
55.9378416774
  0
LINE
  5
2BC
100
AcDbEntity
  8
0
100
AcDbLine
 62
7
  6
BYLAYER
 10
29.2359166992
 20
55.9484310543
 11
36.2359166992
 21
55.9484310543
  0
LINE
  5
2BD
100
AcDbEntity
  8
0
100
AcDbLine
 62
7
  6
BYLAYER
 10
39.2359166992
 20
55.9484310543
 11
46.2359166992
 21
55.9484310543
  0
LINE
  5
2BE
100
AcDbEntity
  8
0
100
AcDbLine
 62
7
  6
BYLAYER
 10
49.2359166992
 20
55.9484310543
 11
56.2359166992
 21
55.9484310543
  0
LINE
  5
2BF
100
AcDbEntity
  8
0
100
AcDbLine
 62
7
  6
BYLAYER
 10
29.2359166992
 20
55.9899361369
 11
36.2359166992
 21
55.9899361369
  0
LINE
  5
2C0
100
AcDbEntity
  8
0
100
AcDbLine
 62
7
  6
BYLAYER
 10
39.2359166992
 20
55.9899361369
 11
46.2359166992
 21
55.9899361369
  0
LINE
  5
2C1
100
AcDbEntity
  8
0
100
AcDbLine
 62
7
  6
BYLAYER
 10
49.2359166992
 20
55.9899361369
 11
56.2359166992
 21
55.9899361369
  0
LINE
  5
2C2
100
AcDbEntity
  8
0
100
AcDbLine
 62
7
  6
BYLAYER
 10
29.2359166992
 20
56.1116115687
 11
36.2359166992
 21
56.1116115687
  0
LINE
  5
2C3
100
AcDbEntity
  8
0
100
AcDbLine
 62
7
  6
BYLAYER
 10
39.2359166992
 20
56.1116115687
 11
46.2359166992
 21
56.1116115687
  0
LINE
  5
2C4
100
AcDbEntity
  8
0
100
AcDbLine
 62
7
  6
BYLAYER
 10
49.2359166992
 20
56.1116115687
 11
56.2359166992
 21
56.1116115687
  0
LINE
  5
2C5
100
AcDbEntity
  8
0
100
AcDbLine
 62
7
  6
BYLAYER
 10
29.2359166992
 20
56.1550200742
 11
36.2359166992
 21
56.1550200742
  0
LINE
  5
2C6
100
AcDbEntity
  8
0
100
AcDbLine
 62
7
  6
BYLAYER
 10
39.2359166992
 20
56.1550200742
 11
46.2359166992
 21
56.1550200742
  0
LINE
  5
2C7
100
AcDbEntity
  8
0
100
AcDbLine
 62
7
  6
BYLAYER
 10
49.2359166992
 20
56.1550200742
 11
56.2359166992
 21
56.1550200742
  0
LINE
  5
2C8
100
AcDbEntity
  8
0
100
AcDbLine
 62
7
  6
BYLAYER
 10
29.2359166992
 20
56.2040211198
 11
36.2359166992
 21
56.2040211198
  0
LINE
  5
2C9
100
AcDbEntity
  8
0
100
AcDbLine
 62
7
  6
BYLAYER
 10
39.2359166992
 20
56.2040211198
 11
46.2359166992
 21
56.2040211198
  0
LINE
  5
2CA
100
AcDbEntity
  8
0
100
AcDbLine
 62
7
  6
BYLAYER
 10
49.2359166992
 20
56.2040211198
 11
56.2359166992
 21
56.2040211198
  0
LINE
  5
2CB
100
AcDbEntity
  8
0
100
AcDbLine
 62
7
  6
BYLAYER
 10
29.2359166992
 20
56.997573083
 11
36.2359166992
 21
56.997573083
  0
LINE
  5
2CC
100
AcDbEntity
  8
0
100
AcDbLine
 62
7
  6
BYLAYER
 10
39.2359166992
 20
56.997573083
 11
46.2359166992
 21
56.997573083
  0
LINE
  5
2CD
100
AcDbEntity
  8
0
100
AcDbLine
 62
7
  6
BYLAYER
 10
49.2359166992
 20
56.997573083
 11
56.2359166992
 21
56.997573083
  0
LINE
  5
2CE
100
AcDbEntity
  8
0
100
AcDbLine
 62
7
  6
BYLAYER
 10
56.2359166992
 20
57.3356245647
 11
49.2359166992
 21
57.3356245647
  0
LINE
  5
2CF
100
AcDbEntity
  8
0
100
AcDbLine
 62
7
  6
BYLAYER
 10
46.2359166992
 20
57.3356245647
 11
39.2359166992
 21
57.3356245647
  0
LINE
  5
2D0
100
AcDbEntity
  8
0
100
AcDbLine
 62
7
  6
BYLAYER
 10
36.2359166992
 20
57.3356245647
 11
29.2359166992
 21
57.3356245647
  0
LINE
  5
2D1
100
AcDbEntity
  8
0
100
AcDbLine
 62
7
  6
BYLAYER
 10
40.7359176434
 20
24.9029521605
 11
40.7309162294
 21
25.8877593875
  0
LINE
  5
2D2
100
AcDbEntity
  8
0
100
AcDbLine
 62
7
  6
BYLAYER
 10
39.7533392687
 20
28.3336428878
 11
39.7533392687
 21
38.9136428878
  0
LINE
  5
2D3
100
AcDbEntity
  8
0
100
AcDbLine
 62
7
  6
BYLAYER
 10
40.1359166992
 20
101.808821376
 11
40.1359166992
 21
90.9336412927
  0
LINE
  5
2D4
100
AcDbEntity
  8
0
100
AcDbLine
 62
7
  6
BYLAYER
 10
40.1359166992
 20
78.208821376
 11
40.1359166992
 21
67.3336422003
  0
LINE
  5
2D5
100
AcDbEntity
  8
0
100
AcDbLine
 62
7
  6
BYLAYER
 10
40.1359166992
 20
54.608821376
 11
40.1359166992
 21
43.7336426745
  0
LINE
  5
2D6
100
AcDbEntity
  8
0
100
AcDbLine
 62
7
  6
BYLAYER
 10
40.5458839582
 20
41.6506532413
 11
40.5458839582
 21
38.9136428878
  0
LINE
  5
2D7
100
AcDbEntity
  8
0
100
AcDbLine
 62
7
  6
BYLAYER
 10
40.6459166992
 20
107.0901428878
 11
40.6459166992
 21
112.1336424348
  0
LINE
  5
2D8
100
AcDbEntity
  8
0
100
AcDbLine
 62
7
  6
BYLAYER
 10
41.7359166992
 20
10.7036428878
 11
41.7359166992
 21
10.1850944645
  0
LINE
  5
2D9
100
AcDbEntity
  8
0
100
AcDbLine
 62
7
  6
BYLAYER
 10
42.2314129295
 20
21.8936429317
 11
42.2314129295
 21
18.4436428878
  0
LINE
  5
2DA
100
AcDbEntity
  8
0
100
AcDbLine
 62
7
  6
BYLAYER
 10
40.9359196526
 20
43.6152337181
 11
40.9255195398
 21
42.7159306693
  0
LINE
  5
2DB
100
AcDbEntity
  8
0
100
AcDbLine
 62
7
  6
BYLAYER
 10
40.8815474637
 20
38.9136428878
 11
40.7309194926
 21
25.8887656041
  0
LINE
  5
2DC
100
AcDbEntity
  8
0
100
AcDbLine
 62
7
  6
BYLAYER
 10
40.1809831737
 20
45.8137772985
 11
40.0052641201
 21
43.8360497712
  0
LINE
  5
2DD
100
AcDbEntity
  8
0
100
AcDbLine
 62
7
  6
BYLAYER
 10
29.2359166992
 20
57.5801359055
 11
36.2359166992
 21
57.5801359055
  0
LINE
  5
2DE
100
AcDbEntity
  8
0
100
AcDbLine
 62
7
  6
BYLAYER
 10
39.2359166992
 20
57.5801359055
 11
46.2359166992
 21
57.5801359055
  0
LINE
  5
2DF
100
AcDbEntity
  8
0
100
AcDbLine
 62
7
  6
BYLAYER
 10
49.2359166992
 20
57.5801359055
 11
56.2359166992
 21
57.5801359055
  0
LINE
  5
2E0
100
AcDbEntity
  8
0
100
AcDbLine
 62
7
  6
BYLAYER
 10
29.2359166992
 20
57.730102808
 11
36.2359166992
 21
57.730102808
  0
LINE
  5
2E1
100
AcDbEntity
  8
0
100
AcDbLine
 62
7
  6
BYLAYER
 10
39.2359166992
 20
57.730102808
 11
46.2359166992
 21
57.730102808
  0
LINE
  5
2E2
100
AcDbEntity
  8
0
100
AcDbLine
 62
7
  6
BYLAYER
 10
49.2359166992
 20
57.730102808
 11
56.2359166992
 21
57.730102808
  0
LINE
  5
2E3
100
AcDbEntity
  8
0
100
AcDbLine
 62
7
  6
BYLAYER
 10
29.2359166992
 20
57.8406082031
 11
36.2359166992
 21
57.8406082031
  0
LINE
  5
2E4
100
AcDbEntity
  8
0
100
AcDbLine
 62
7
  6
BYLAYER
 10
39.2359166992
 20
57.8406082031
 11
46.2359166992
 21
57.8406082031
  0
LINE
  5
2E5
100
AcDbEntity
  8
0
100
AcDbLine
 62
7
  6
BYLAYER
 10
49.2359166992
 20
57.8406082031
 11
56.2359166992
 21
57.8406082031
  0
LINE
  5
2E6
100
AcDbEntity
  8
0
100
AcDbLine
 62
7
  6
BYLAYER
 10
29.2359166992
 20
57.8489651888
 11
36.2359166992
 21
57.8489651888
  0
LINE
  5
2E7
100
AcDbEntity
  8
0
100
AcDbLine
 62
7
  6
BYLAYER
 10
39.2359166992
 20
57.8489651888
 11
46.2359166992
 21
57.8489651888
  0
LINE
  5
2E8
100
AcDbEntity
  8
0
100
AcDbLine
 62
7
  6
BYLAYER
 10
49.2359166992
 20
57.8489651888
 11
56.2359166992
 21
57.8489651888
  0
LINE
  5
2E9
100
AcDbEntity
  8
0
100
AcDbLine
 62
7
  6
BYLAYER
 10
29.2359166992
 20
57.9795317289
 11
36.2359166992
 21
57.9795317289
  0
LINE
  5
2EA
100
AcDbEntity
  8
0
100
AcDbLine
 62
7
  6
BYLAYER
 10
39.2359166992
 20
57.9795317289
 11
46.2359166992
 21
57.9795317289
  0
LINE
  5
2EB
100
AcDbEntity
  8
0
100
AcDbLine
 62
7
  6
BYLAYER
 10
49.2359166992
 20
57.9795317289
 11
56.2359166992
 21
57.9795317289
  0
LINE
  5
2EC
100
AcDbEntity
  8
0
100
AcDbLine
 62
7
  6
BYLAYER
 10
29.2359166992
 20
58.0827498365
 11
36.2359166992
 21
58.0827498365
  0
LINE
  5
2ED
100
AcDbEntity
  8
0
100
AcDbLine
 62
7
  6
BYLAYER
 10
39.2359166992
 20
58.0827498365
 11
46.2359166992
 21
58.0827498365
  0
LINE
  5
2EE
100
AcDbEntity
  8
0
100
AcDbLine
 62
7
  6
BYLAYER
 10
49.2359166992
 20
58.0827498365
 11
56.2359166992
 21
58.0827498365
  0
LINE
  5
2EF
100
AcDbEntity
  8
0
100
AcDbLine
 62
7
  6
BYLAYER
 10
29.2359166992
 20
58.2216681478
 11
36.2359166992
 21
58.2216681478
  0
LINE
  5
2F0
100
AcDbEntity
  8
0
100
AcDbLine
 62
7
  6
BYLAYER
 10
39.2359166992
 20
58.2216681478
 11
46.2359166992
 21
58.2216681478
  0
LINE
  5
2F1
100
AcDbEntity
  8
0
100
AcDbLine
 62
7
  6
BYLAYER
 10
49.2359166992
 20
58.2216681478
 11
56.2359166992
 21
58.2216681478
  0
LINE
  5
2F2
100
AcDbEntity
  8
0
100
AcDbLine
 62
7
  6
BYLAYER
 10
29.2359166992
 20
58.7268473146
 11
36.2359166992
 21
58.7268473146
  0
LINE
  5
2F3
100
AcDbEntity
  8
0
100
AcDbLine
 62
7
  6
BYLAYER
 10
39.2359166992
 20
58.7268473146
 11
46.2359166992
 21
58.7268473146
  0
LINE
  5
2F4
100
AcDbEntity
  8
0
100
AcDbLine
 62
7
  6
BYLAYER
 10
49.2359166992
 20
58.7268473146
 11
56.2359166992
 21
58.7268473146
  0
LINE
  5
2F5
100
AcDbEntity
  8
0
100
AcDbLine
 62
7
  6
BYLAYER
 10
27.8359166992
 20
60.8124265072
 11
57.6359166992
 21
60.8124265072
  0
LINE
  5
2F6
100
AcDbEntity
  8
0
100
AcDbLine
 62
7
  6
BYLAYER
 10
45.2908502248
 20
45.8137772985
 11
45.4665692783
 21
43.8360497712
  0
LINE
  5
2F7
100
AcDbEntity
  8
0
100
AcDbLine
 62
7
  6
BYLAYER
 10
44.5359137458
 20
43.6152337181
 11
44.5463138587
 21
42.7159306693
  0
LINE
  5
2F8
100
AcDbEntity
  8
0
100
AcDbLine
 62
7
  6
BYLAYER
 10
44.5902859347
 20
38.9136428878
 11
44.7409139058
 21
25.8887656041
  0
LINE
  5
2F9
100
AcDbEntity
  8
0
100
AcDbLine
 62
7
  6
BYLAYER
 10
43.240420469
 20
18.4436428878
 11
43.240420469
 21
21.8936429317
  0
LINE
  5
2FA
100
AcDbEntity
  8
0
100
AcDbLine
 62
7
  6
BYLAYER
 10
43.7359167024
 20
10.7036428878
 11
43.7359167092
 21
10.185092984
  0
LINE
  5
2FB
100
AcDbEntity
  8
0
100
AcDbLine
 62
7
  6
BYLAYER
 10
44.9259494403
 20
38.9136428878
 11
44.9259494403
 21
41.6506532413
  0
LINE
  5
2FC
100
AcDbEntity
  8
0
100
AcDbLine
 62
7
  6
BYLAYER
 10
45.2259166992
 20
107.0901428878
 11
45.2259166992
 21
112.1336424348
  0
LINE
  5
2FD
100
AcDbEntity
  8
0
100
AcDbLine
 62
7
  6
BYLAYER
 10
45.7184924858
 20
38.9136428878
 11
45.7184924858
 21
28.3336428878
  0
LINE
  5
2FE
100
AcDbEntity
  8
0
100
AcDbLine
 62
7
  6
BYLAYER
 10
45.8359166992
 20
43.7336426745
 11
45.8359166992
 21
54.608821376
  0
LINE
  5
2FF
100
AcDbEntity
  8
0
100
AcDbLine
 62
7
  6
BYLAYER
 10
45.8359166992
 20
67.3336421984
 11
45.8359166992
 21
78.208821376
  0
LINE
  5
300
100
AcDbEntity
  8
0
100
AcDbLine
 62
7
  6
BYLAYER
 10
45.8359166992
 20
90.9336412866
 11
45.8359166992
 21
101.808821376
  0
LINE
  5
301
100
AcDbEntity
  8
0
100
AcDbLine
 62
7
  6
BYLAYER
 10
46.2359166992
 20
63.157097373
 11
46.2359166992
 21
54.9329039291
  0
LINE
  5
302
100
AcDbEntity
  8
0
100
AcDbLine
 62
7
  6
BYLAYER
 10
46.2359166992
 20
10.7036428878
 11
46.2359166992
 21
10.3719282577
  0
LINE
  5
303
100
AcDbEntity
  8
0
100
AcDbLine
 62
7
  6
BYLAYER
 10
46.4359166992
 20
110.3570976181
 11
46.4359166992
 21
102.1329042842
  0
LINE
  5
304
100
AcDbEntity
  8
0
100
AcDbLine
 62
7
  6
BYLAYER
 10
46.4359166992
 20
86.7570973143
 11
46.4359166992
 21
78.532903834
  0
LINE
  5
305
100
AcDbEntity
  8
0
100
AcDbLine
 62
7
  6
BYLAYER
 10
44.7359157551
 20
24.9029521605
 11
44.740917169
 21
25.8877593875
  0
LINE
  5
306
100
AcDbEntity
  8
0
100
AcDbLine
 62
7
  6
BYLAYER
 10
29.2359166992
 20
62.2336418864
 11
36.2359166992
 21
62.2336418864
  0
LINE
  5
307
100
AcDbEntity
  8
0
100
AcDbLine
 62
7
  6
BYLAYER
 10
39.2359166992
 20
62.2336418864
 11
46.2359166992
 21
62.2336418864
  0
LINE
  5
308
100
AcDbEntity
  8
0
100
AcDbLine
 62
7
  6
BYLAYER
 10
49.2359166992
 20
62.2336418864
 11
56.2359166992
 21
62.2336418864
  0
LINE
  5
309
100
AcDbEntity
  8
0
100
AcDbLine
 62
7
  6
BYLAYER
 10
27.8359166992
 20
62.6193822918
 11
57.6359166992
 21
62.6193822918
  0
LINE
  5
30A
100
AcDbEntity
  8
0
100
AcDbLine
 62
7
  6
BYLAYER
 10
57.6359166992
 20
63.0656925743
 11
27.8359166992
 21
63.0656925743
  0
LINE
  5
30B
100
AcDbEntity
  8
0
100
AcDbLine
 62
7
  6
BYLAYER
 10
29.2359166992
 20
63.157097373
 11
36.2359166992
 21
63.157097373
  0
LINE
  5
30C
100
AcDbEntity
  8
0
100
AcDbLine
 62
7
  6
BYLAYER
 10
39.2359166992
 20
63.157097373
 11
46.2359166992
 21
63.157097373
  0
LINE
  5
30D
100
AcDbEntity
  8
0
100
AcDbLine
 62
7
  6
BYLAYER
 10
49.2359166992
 20
63.157097373
 11
56.2359166992
 21
63.157097373
  0
LINE
  5
30E
100
AcDbEntity
  8
0
100
AcDbLine
 62
7
  6
BYLAYER
 10
46.8359166992
 20
92.3336458323
 11
46.8359166992
 21
88.5336420677
  0
LINE
  5
30F
100
AcDbEntity
  8
0
100
AcDbLine
 62
7
  6
BYLAYER
 10
46.8359166992
 20
68.7336458323
 11
46.8359166992
 21
64.9336428843
  0
LINE
  5
310
100
AcDbEntity
  8
0
100
AcDbLine
 62
7
  6
BYLAYER
 10
46.9359166992
 20
102.146621129
 11
46.9359166992
 21
90.9336412866
  0
LINE
  5
311
100
AcDbEntity
  8
0
100
AcDbLine
 62
7
  6
BYLAYER
 10
46.9359166992
 20
78.546621129
 11
46.9359166992
 21
67.3336421984
  0
LINE
  5
312
100
AcDbEntity
  8
0
100
AcDbLine
 62
7
  6
BYLAYER
 10
46.9359166992
 20
54.946621129
 11
46.9359166992
 21
43.7336426745
  0
LINE
  5
313
100
AcDbEntity
  8
0
100
AcDbLine
 62
7
  6
BYLAYER
 10
46.9859169302
 20
38.9136428878
 11
46.9859169302
 21
38.0336424659
  0
LINE
  5
314
100
AcDbEntity
  8
0
100
AcDbLine
 62
7
  6
BYLAYER
 10
46.9859169302
 20
28.5336428878
 11
46.9859169302
 21
34.5336424743
  0
LINE
  5
315
100
AcDbEntity
  8
0
100
AcDbLine
 62
7
  6
BYLAYER
 10
47.2359166992
 20
21.8936429317
 11
47.2359166992
 21
18.4436428878
  0
LINE
  5
316
100
AcDbEntity
  8
0
100
AcDbLine
 62
7
  6
BYLAYER
 10
47.7359166992
 20
10.7036428878
 11
47.7359166992
 21
10.1936541834
  0
LINE
  5
317
100
AcDbEntity
  8
0
100
AcDbLine
 62
7
  6
BYLAYER
 10
48.2005746815
 20
28.3336428878
 11
48.2005746815
 21
38.9136428878
  0
LINE
  5
318
100
AcDbEntity
  8
0
100
AcDbLine
 62
7
  6
BYLAYER
 10
48.8359166992
 20
92.3336458323
 11
48.8359166992
 21
88.5336423682
  0
LINE
  5
319
100
AcDbEntity
  8
0
100
AcDbLine
 62
7
  6
BYLAYER
 10
48.8359166992
 20
68.7336458323
 11
48.8359166992
 21
64.9336430994
  0
LINE
  5
31A
100
AcDbEntity
  8
0
100
AcDbLine
 62
7
  6
BYLAYER
 10
48.8859164966
 20
41.3336425644
 11
48.8859164966
 21
34.6336428878
  0
LINE
  5
31B
100
AcDbEntity
  8
0
100
AcDbLine
 62
7
  6
BYLAYER
 10
48.9359166992
 20
43.7336426745
 11
48.9359166992
 21
54.946621129
  0
LINE
  5
31C
100
AcDbEntity
  8
0
100
AcDbLine
 62
7
  6
BYLAYER
 10
48.9359166992
 20
67.3336421984
 11
48.9359166992
 21
78.546621129
  0
LINE
  5
31D
100
AcDbEntity
  8
0
100
AcDbLine
 62
7
  6
BYLAYER
 10
48.9359166992
 20
90.9336412866
 11
48.9359166992
 21
102.146621129
  0
LINE
  5
31E
100
AcDbEntity
  8
0
100
AcDbLine
 62
7
  6
BYLAYER
 10
49.2359166992
 20
54.9329039291
 11
49.2359166992
 21
63.157097373
  0
LINE
  5
31F
100
AcDbEntity
  8
0
100
AcDbLine
 62
7
  6
BYLAYER
 10
49.2359166992
 20
78.532903834
 11
49.2359166992
 21
86.7570973143
  0
LINE
  5
320
100
AcDbEntity
  8
0
100
AcDbLine
 62
7
  6
BYLAYER
 10
49.2359166992
 20
102.1329042842
 11
49.2359166992
 21
110.3570976181
  0
LINE
  5
321
100
AcDbEntity
  8
0
100
AcDbLine
 62
7
  6
BYLAYER
 10
49.3859165785
 20
38.0336424659
 11
49.3859165785
 21
42.8440788742
  0
LINE
  5
322
100
AcDbEntity
  8
0
100
AcDbLine
 62
7
  6
BYLAYER
 10
49.4674667561
 20
34.5336424743
 11
49.4674667561
 21
28.5336428647
  0
LINE
  5
323
100
AcDbEntity
  8
0
100
AcDbLine
 62
7
  6
BYLAYER
 10
49.4868582074
 20
34.5336424743
 11
49.4868582074
 21
28.5336428739
  0
LINE
  5
324
100
AcDbEntity
  8
0
100
AcDbLine
 62
7
  6
BYLAYER
 10
49.7359164824
 20
34.6336428878
 11
49.7359173863
 21
28.3336428878
  0
LINE
  5
325
100
AcDbEntity
  8
0
100
AcDbLine
 62
7
  6
BYLAYER
 10
49.8859164862
 20
34.6336428878
 11
49.8859164795
 21
41.3336425644
  0
LINE
  5
326
100
AcDbEntity
  8
0
100
AcDbLine
 62
7
  6
BYLAYER
 10
49.9359166992
 20
101.808821376
 11
49.9359166992
 21
90.9336412866
  0
LINE
  5
327
100
AcDbEntity
  8
0
100
AcDbLine
 62
7
  6
BYLAYER
 10
49.9359166992
 20
78.208821376
 11
49.9359166992
 21
67.3336421984
  0
LINE
  5
328
100
AcDbEntity
  8
0
100
AcDbLine
 62
7
  6
BYLAYER
 10
49.9359166992
 20
54.608821376
 11
49.9359166992
 21
43.7336426745
  0
LINE
  5
329
100
AcDbEntity
  8
0
100
AcDbLine
 62
7
  6
BYLAYER
 10
27.8359166992
 20
64.9336425993
 11
38.0359166992
 21
64.9336426934
  0
LINE
  5
32A
100
AcDbEntity
  8
0
100
AcDbLine
 62
7
  6
BYLAYER
 10
38.0359166992
 20
64.9336426934
 11
57.6359166992
 21
64.9336425212
  0
LINE
  5
32B
100
AcDbEntity
  8
0
100
AcDbLine
 62
7
  6
BYLAYER
 10
38.0359166992
 20
67.2336423394
 11
57.6359166992
 21
67.2336423394
  0
LINE
  5
32C
100
AcDbEntity
  8
0
100
AcDbLine
 62
7
  6
BYLAYER
 10
38.0359166992
 20
67.3336424318
 11
57.6359166992
 21
67.3336424318
  0
LINE
  5
32D
100
AcDbEntity
  8
0
100
AcDbLine
 62
7
  6
BYLAYER
 10
39.0359166992
 20
68.1512558457
 11
46.8359166992
 21
68.1512558457
  0
LINE
  5
32E
100
AcDbEntity
  8
0
100
AcDbLine
 62
7
  6
BYLAYER
 10
48.8359166992
 20
68.1512558457
 11
56.6359166992
 21
68.1512558457
  0
LINE
  5
32F
100
AcDbEntity
  8
0
100
AcDbLine
 62
7
  6
BYLAYER
 10
50.4459166992
 20
107.0901428878
 11
50.4459166992
 21
112.1336424348
  0
LINE
  5
330
100
AcDbEntity
  8
0
100
AcDbLine
 62
7
  6
BYLAYER
 10
50.7859158796
 20
34.5336424743
 11
50.7859158796
 21
28.5336428878
  0
LINE
  5
331
100
AcDbEntity
  8
0
100
AcDbLine
 62
7
  6
BYLAYER
 10
50.7859159392
 20
38.0336424659
 11
50.7859159392
 21
38.9136428878
  0
LINE
  5
332
100
AcDbEntity
  8
0
100
AcDbLine
 62
7
  6
BYLAYER
 10
51.2734811259
 20
28.3336428878
 11
51.2734811259
 21
38.9136428878
  0
LINE
  5
333
100
AcDbEntity
  8
0
100
AcDbLine
 62
7
  6
BYLAYER
 10
51.3859169064
 20
38.0336424659
 11
51.3859169064
 21
43.7101037363
  0
LINE
  5
334
100
AcDbEntity
  8
0
100
AcDbLine
 62
7
  6
BYLAYER
 10
52.8359163058
 20
25.1536429157
 11
52.8359163058
 21
28.3336428878
  0
LINE
  5
335
100
AcDbEntity
  8
0
100
AcDbLine
 62
7
  6
BYLAYER
 10
52.8635132564
 20
17.9536428878
 11
52.8635132564
 21
10.6536428881
  0
LINE
  5
336
100
AcDbEntity
  8
0
100
AcDbLine
 62
7
  6
BYLAYER
 10
52.9794061744
 20
17.9536428878
 11
52.9794061744
 21
10.6536429092
  0
LINE
  5
337
100
AcDbEntity
  8
0
100
AcDbLine
 62
7
  6
BYLAYER
 10
52.9861622829
 20
17.9536428878
 11
52.9861622829
 21
10.6536428915
  0
LINE
  5
338
100
AcDbEntity
  8
0
100
AcDbLine
 62
7
  6
BYLAYER
 10
53.1359160642
 20
18.4436428878
 11
53.1359160642
 21
10.6536429255
  0
LINE
  5
339
100
AcDbEntity
  8
0
100
AcDbLine
 62
7
  6
BYLAYER
 10
53.6109163863
 20
23.1436428878
 11
53.6109163863
 21
24.8536434499
  0
LINE
  5
33A
100
AcDbEntity
  8
0
100
AcDbLine
 62
7
  6
BYLAYER
 10
53.9009172806
 20
34.5336424743
 11
53.9009172806
 21
28.5336428878
  0
LINE
  5
33B
100
AcDbEntity
  8
0
100
AcDbLine
 62
7
  6
BYLAYER
 10
53.9009183037
 20
38.9136428878
 11
53.9009183037
 21
38.0336424659
  0
LINE
  5
33C
100
AcDbEntity
  8
0
100
AcDbLine
 62
7
  6
BYLAYER
 10
39.0359166992
 20
68.3493045564
 11
38.0359166992
 21
68.3493045564
  0
LINE
  5
33D
100
AcDbEntity
  8
0
100
AcDbLine
 62
7
  6
BYLAYER
 10
57.6359166992
 20
68.3493051157
 11
56.6359166992
 21
68.3493051157
  0
LINE
  5
33E
100
AcDbEntity
  8
0
100
AcDbLine
 62
7
  6
BYLAYER
 10
46.8359166992
 20
68.3493076322
 11
48.8359166992
 21
68.3493076322
  0
LINE
  5
33F
100
AcDbEntity
  8
0
100
AcDbLine
 62
7
  6
BYLAYER
 10
57.6359166992
 20
68.7336458323
 11
56.6359166992
 21
68.7336458323
  0
LINE
  5
340
100
AcDbEntity
  8
0
100
AcDbLine
 62
7
  6
BYLAYER
 10
48.8359166992
 20
68.7336458323
 11
46.8359166992
 21
68.7336458323
  0
LINE
  5
341
100
AcDbEntity
  8
0
100
AcDbLine
 62
7
  6
BYLAYER
 10
38.0359166992
 20
68.7336458323
 11
39.0359166992
 21
68.7336458323
  0
LINE
  5
342
100
AcDbEntity
  8
0
100
AcDbLine
 62
7
  6
BYLAYER
 10
54.060916193
 20
28.3336428878
 11
54.060916193
 21
38.9136428878
  0
LINE
  5
343
100
AcDbEntity
  8
0
100
AcDbLine
 62
7
  6
BYLAYER
 10
54.5715977076
 20
34.6336428878
 11
54.5715977035
 21
28.3336428878
  0
LINE
  5
344
100
AcDbEntity
  8
0
100
AcDbLine
 62
7
  6
BYLAYER
 10
54.8609169378
 20
28.3336428878
 11
54.8609167132
 21
34.6336428878
  0
LINE
  5
345
100
AcDbEntity
  8
0
100
AcDbLine
 62
7
  6
BYLAYER
 10
54.8609167132
 20
34.6336428878
 11
54.8609170569
 21
38.9136428878
  0
LINE
  5
346
100
AcDbEntity
  8
0
100
AcDbLine
 62
7
  6
BYLAYER
 10
54.9009164301
 20
28.5336428878
 11
54.9009164301
 21
34.6336428878
  0
LINE
  5
347
100
AcDbEntity
  8
0
100
AcDbLine
 62
7
  6
BYLAYER
 10
54.9009164974
 20
36.9393409506
 11
54.9009164974
 21
38.9136428878
  0
LINE
  5
348
100
AcDbEntity
  8
0
100
AcDbLine
 62
7
  6
BYLAYER
 10
55.0259166992
 20
107.0901428878
 11
55.0259166992
 21
112.1336424348
  0
LINE
  5
349
100
AcDbEntity
  8
0
100
AcDbLine
 62
7
  6
BYLAYER
 10
55.2395360851
 20
10.653642718
 11
55.2395360851
 21
17.9536428878
  0
LINE
  5
34A
100
AcDbEntity
  8
0
100
AcDbLine
 62
7
  6
BYLAYER
 10
55.4305894041
 20
17.9536428878
 11
55.4306191829
 21
10.6536427236
  0
LINE
  5
34B
100
AcDbEntity
  8
0
100
AcDbLine
 62
7
  6
BYLAYER
 10
55.4359165457
 20
17.9536428878
 11
55.4359165457
 21
10.6536427178
  0
LINE
  5
34C
100
AcDbEntity
  8
0
100
AcDbLine
 62
7
  6
BYLAYER
 10
55.6359166992
 20
43.7336426742
 11
55.6359166992
 21
54.608821376
  0
LINE
  5
34D
100
AcDbEntity
  8
0
100
AcDbLine
 62
7
  6
BYLAYER
 10
55.6359166992
 20
67.3336422003
 11
55.6359166992
 21
78.208821376
  0
LINE
  5
34E
100
AcDbEntity
  8
0
100
AcDbLine
 62
7
  6
BYLAYER
 10
55.6359166992
 20
90.9336412927
 11
55.6359166992
 21
101.808821376
  0
LINE
  5
34F
100
AcDbEntity
  8
0
100
AcDbLine
 62
7
  6
BYLAYER
 10
55.9391585616
 20
17.9536428878
 11
55.9391585616
 21
10.6536428914
  0
LINE
  5
350
100
AcDbEntity
  8
0
100
AcDbLine
 62
7
  6
BYLAYER
 10
56.2359166992
 20
110.3570976181
 11
56.2359166992
 21
102.1329042842
  0
LINE
  5
351
100
AcDbEntity
  8
0
100
AcDbLine
 62
7
  6
BYLAYER
 10
56.2359166992
 20
86.7570973143
 11
56.2359166992
 21
78.532903834
  0
LINE
  5
352
100
AcDbEntity
  8
0
100
AcDbLine
 62
7
  6
BYLAYER
 10
56.2359166992
 20
63.157097373
 11
56.2359166992
 21
54.9329039291
  0
LINE
  5
353
100
AcDbEntity
  8
0
100
AcDbLine
 62
7
  6
BYLAYER
 10
56.2592573692
 20
18.4436428878
 11
56.2592573692
 21
21.8936429317
  0
LINE
  5
354
100
AcDbEntity
  8
0
100
AcDbLine
 62
7
  6
BYLAYER
 10
56.3159166992
 20
23.1436428878
 11
56.3159166992
 21
21.8936429317
  0
LINE
  5
355
100
AcDbEntity
  8
0
100
AcDbLine
 62
7
  6
BYLAYER
 10
56.6359166992
 20
92.3336458323
 11
56.6359166992
 21
88.5336420626
  0
LINE
  5
356
100
AcDbEntity
  8
0
100
AcDbLine
 62
7
  6
BYLAYER
 10
56.6359166992
 20
68.7336458323
 11
56.6359166992
 21
64.9336428843
  0
LINE
  5
357
100
AcDbEntity
  8
0
100
AcDbLine
 62
7
  6
BYLAYER
 10
56.685916285
 20
21.8936429317
 11
56.685916285
 21
18.4436428878
  0
LINE
  5
358
100
AcDbEntity
  8
0
100
AcDbLine
 62
7
  6
BYLAYER
 10
56.7359166992
 20
102.146621129
 11
56.7359166992
 21
90.933641329
  0
LINE
  5
359
100
AcDbEntity
  8
0
100
AcDbLine
 62
7
  6
BYLAYER
 10
56.7359166992
 20
78.546621129
 11
56.7359166992
 21
67.3336422117
  0
LINE
  5
35A
100
AcDbEntity
  8
0
100
AcDbLine
 62
7
  6
BYLAYER
 10
56.7359166992
 20
54.946621129
 11
56.7359166992
 21
43.7336426726
  0
LINE
  5
35B
100
AcDbEntity
  8
0
100
AcDbLine
 62
7
  6
BYLAYER
 10
57.4009168206
 20
34.6336428878
 11
57.4009168073
 21
28.5336428871
  0
LINE
  5
35C
100
AcDbEntity
  8
0
100
AcDbLine
 62
7
  6
BYLAYER
 10
55.4046957048
 20
10.6526523069
 11
55.3950917381
 21
10.2846022949
  0
LINE
  5
35D
100
AcDbEntity
  8
0
100
AcDbLine
 62
7
  6
BYLAYER
 10
55.4047296444
 20
10.6526520619
 11
55.4047555454
 21
10.6536411656
  0
LINE
  5
35E
100
AcDbEntity
  8
0
100
AcDbLine
 62
7
  6
BYLAYER
 10
44.3324771699
 20
23.8251613979
 11
44.7316171486
 21
24.8804985639
  0
LINE
  5
35F
100
AcDbEntity
  8
0
100
AcDbLine
 62
7
  6
BYLAYER
 10
57.6359166992
 20
34.6336428878
 11
57.6359166992
 21
112.1336424348
  0
LINE
  5
360
100
AcDbEntity
  8
0
100
AcDbLine
 62
7
  6
BYLAYER
 10
57.4205292
 20
10.9510248099
 11
57.4859167879
 21
18.4436428874
  0
LINE
  5
361
100
AcDbEntity
  8
0
100
AcDbLine
 62
7
  6
BYLAYER
 10
55.6359166992
 20
78.208821376
 11
49.9359166992
 21
78.208821376
  0
LINE
  5
362
100
AcDbEntity
  8
0
100
AcDbLine
 62
7
  6
BYLAYER
 10
45.8359166992
 20
78.208821376
 11
40.1359166992
 21
78.208821376
  0
LINE
  5
363
100
AcDbEntity
  8
0
100
AcDbLine
 62
7
  6
BYLAYER
 10
56.2359166992
 20
78.532903834
 11
49.2359166992
 21
78.532903834
  0
LINE
  5
364
100
AcDbEntity
  8
0
100
AcDbLine
 62
7
  6
BYLAYER
 10
46.4359166992
 20
78.532903834
 11
39.4359166992
 21
78.532903834
  0
LINE
  5
365
100
AcDbEntity
  8
0
100
AcDbLine
 62
7
  6
BYLAYER
 10
38.0359166992
 20
78.546621129
 11
39.1359166992
 21
78.546621129
  0
LINE
  5
366
100
AcDbEntity
  8
0
100
AcDbLine
 62
7
  6
BYLAYER
 10
39.1359166992
 20
78.546621129
 11
39.4359166992
 21
78.546618819
  0
LINE
  5
367
100
AcDbEntity
  8
0
100
AcDbLine
 62
7
  6
BYLAYER
 10
46.9359166992
 20
78.546621129
 11
48.9359166992
 21
78.546621129
  0
LINE
  5
368
100
AcDbEntity
  8
0
100
AcDbLine
 62
7
  6
BYLAYER
 10
46.4359166992
 20
78.546618819
 11
46.9359166992
 21
78.546621129
  0
LINE
  5
369
100
AcDbEntity
  8
0
100
AcDbLine
 62
7
  6
BYLAYER
 10
48.9359166992
 20
78.546621129
 11
49.2359166992
 21
78.546618819
  0
LINE
  5
36A
100
AcDbEntity
  8
0
100
AcDbLine
 62
7
  6
BYLAYER
 10
56.7359166992
 20
78.546621129
 11
57.6359166992
 21
78.546621129
  0
LINE
  5
36B
100
AcDbEntity
  8
0
100
AcDbLine
 62
7
  6
BYLAYER
 10
56.2359166992
 20
78.546618819
 11
56.7359166992
 21
78.546621129
  0
LINE
  5
36C
100
AcDbEntity
  8
0
100
AcDbLine
 62
7
  6
BYLAYER
 10
39.4359166992
 20
78.6543667314
 11
46.4359166992
 21
78.6543667314
  0
LINE
  5
36D
100
AcDbEntity
  8
0
100
AcDbLine
 62
7
  6
BYLAYER
 10
49.2359166992
 20
78.6543667314
 11
56.2359166992
 21
78.6543667314
  0
LINE
  5
36E
100
AcDbEntity
  8
0
100
AcDbLine
 62
7
  6
BYLAYER
 10
39.4359166992
 20
78.8020893929
 11
46.4359166992
 21
78.8020893929
  0
LINE
  5
36F
100
AcDbEntity
  8
0
100
AcDbLine
 62
7
  6
BYLAYER
 10
49.2359166992
 20
78.8020893929
 11
56.2359166992
 21
78.8020893929
  0
LINE
  5
370
100
AcDbEntity
  8
0
100
AcDbLine
 62
7
  6
BYLAYER
 10
39.4359166992
 20
78.8220643994
 11
46.4359166992
 21
78.8220643994
  0
LINE
  5
371
100
AcDbEntity
  8
0
100
AcDbLine
 62
7
  6
BYLAYER
 10
49.2359166992
 20
78.8220643994
 11
56.2359166992
 21
78.8220643994
  0
LINE
  5
372
100
AcDbEntity
  8
0
100
AcDbLine
 62
7
  6
BYLAYER
 10
56.2359166992
 20
78.9455349012
 11
49.2359166992
 21
78.9455349012
  0
LINE
  5
373
100
AcDbEntity
  8
0
100
AcDbLine
 62
7
  6
BYLAYER
 10
46.4359166992
 20
78.9455349012
 11
39.4359166992
 21
78.9455349012
  0
LINE
  5
374
100
AcDbEntity
  8
0
100
AcDbLine
 62
7
  6
BYLAYER
 10
39.4359166992
 20
79.0190279481
 11
46.4359166992
 21
79.0190279481
  0
LINE
  5
375
100
AcDbEntity
  8
0
100
AcDbLine
 62
7
  6
BYLAYER
 10
49.2359166992
 20
79.0190279481
 11
56.2359166992
 21
79.0190279481
  0
LINE
  5
376
100
AcDbEntity
  8
0
100
AcDbLine
 62
7
  6
BYLAYER
 10
39.4359166992
 20
79.0454328057
 11
46.4359166992
 21
79.0454328057
  0
LINE
  5
377
100
AcDbEntity
  8
0
100
AcDbLine
 62
7
  6
BYLAYER
 10
49.2359166992
 20
79.0454328057
 11
56.2359166992
 21
79.0454328057
  0
LINE
  5
378
100
AcDbEntity
  8
0
100
AcDbLine
 62
7
  6
BYLAYER
 10
39.4359166992
 20
79.5378416774
 11
46.4359166992
 21
79.5378416774
  0
LINE
  5
379
100
AcDbEntity
  8
0
100
AcDbLine
 62
7
  6
BYLAYER
 10
49.2359166992
 20
79.5378416774
 11
56.2359166992
 21
79.5378416774
  0
LINE
  5
37A
100
AcDbEntity
  8
0
100
AcDbLine
 62
7
  6
BYLAYER
 10
39.4359166992
 20
79.5484310543
 11
46.4359166992
 21
79.5484310543
  0
LINE
  5
37B
100
AcDbEntity
  8
0
100
AcDbLine
 62
7
  6
BYLAYER
 10
49.2359166992
 20
79.5484310543
 11
56.2359166992
 21
79.5484310543
  0
LINE
  5
37C
100
AcDbEntity
  8
0
100
AcDbLine
 62
7
  6
BYLAYER
 10
39.4359166992
 20
79.5899361369
 11
46.4359166992
 21
79.5899361369
  0
LINE
  5
37D
100
AcDbEntity
  8
0
100
AcDbLine
 62
7
  6
BYLAYER
 10
49.2359166992
 20
79.5899361369
 11
56.2359166992
 21
79.5899361369
  0
LINE
  5
37E
100
AcDbEntity
  8
0
100
AcDbLine
 62
7
  6
BYLAYER
 10
39.4359166992
 20
79.7116115687
 11
46.4359166992
 21
79.7116115687
  0
LINE
  5
37F
100
AcDbEntity
  8
0
100
AcDbLine
 62
7
  6
BYLAYER
 10
49.2359166992
 20
79.7116115687
 11
56.2359166992
 21
79.7116115687
  0
LINE
  5
380
100
AcDbEntity
  8
0
100
AcDbLine
 62
7
  6
BYLAYER
 10
39.4359166992
 20
79.7550200742
 11
46.4359166992
 21
79.7550200742
  0
LINE
  5
381
100
AcDbEntity
  8
0
100
AcDbLine
 62
7
  6
BYLAYER
 10
49.2359166992
 20
79.7550200742
 11
56.2359166992
 21
79.7550200742
  0
LINE
  5
382
100
AcDbEntity
  8
0
100
AcDbLine
 62
7
  6
BYLAYER
 10
39.4359166992
 20
79.8040211198
 11
46.4359166992
 21
79.8040211198
  0
LINE
  5
383
100
AcDbEntity
  8
0
100
AcDbLine
 62
7
  6
BYLAYER
 10
49.2359166992
 20
79.8040211198
 11
56.2359166992
 21
79.8040211198
  0
LINE
  5
384
100
AcDbEntity
  8
0
100
AcDbLine
 62
7
  6
BYLAYER
 10
39.4359166992
 20
80.597573083
 11
46.4359166992
 21
80.597573083
  0
LINE
  5
385
100
AcDbEntity
  8
0
100
AcDbLine
 62
7
  6
BYLAYER
 10
49.2359166992
 20
80.597573083
 11
56.2359166992
 21
80.597573083
  0
LINE
  5
386
100
AcDbEntity
  8
0
100
AcDbLine
 62
7
  6
BYLAYER
 10
39.4359166992
 20
80.7395870633
 11
46.4359166992
 21
80.7395870633
  0
LINE
  5
387
100
AcDbEntity
  8
0
100
AcDbLine
 62
7
  6
BYLAYER
 10
46.4359166992
 20
80.9018194673
 11
39.4359166992
 21
80.9018194673
  0
LINE
  5
388
100
AcDbEntity
  8
0
100
AcDbLine
 62
7
  6
BYLAYER
 10
56.2359166992
 20
80.9356245647
 11
49.2359166992
 21
80.9356245647
  0
LINE
  5
389
100
AcDbEntity
  8
0
100
AcDbLine
 62
7
  6
BYLAYER
 10
39.4359166992
 20
81.1801359055
 11
46.4359166992
 21
81.1801359055
  0
LINE
  5
38A
100
AcDbEntity
  8
0
100
AcDbLine
 62
7
  6
BYLAYER
 10
49.2359166992
 20
81.1801359055
 11
56.2359166992
 21
81.1801359055
  0
LINE
  5
38B
100
AcDbEntity
  8
0
100
AcDbLine
 62
7
  6
BYLAYER
 10
39.4359166992
 20
81.330102808
 11
46.4359166992
 21
81.330102808
  0
LINE
  5
38C
100
AcDbEntity
  8
0
100
AcDbLine
 62
7
  6
BYLAYER
 10
49.2359166992
 20
81.330102808
 11
56.2359166992
 21
81.330102808
  0
LINE
  5
38D
100
AcDbEntity
  8
0
100
AcDbLine
 62
7
  6
BYLAYER
 10
39.4359166992
 20
81.4406082031
 11
46.4359166992
 21
81.4406082031
  0
LINE
  5
38E
100
AcDbEntity
  8
0
100
AcDbLine
 62
7
  6
BYLAYER
 10
49.2359166992
 20
81.4406082031
 11
56.2359166992
 21
81.4406082031
  0
LINE
  5
38F
100
AcDbEntity
  8
0
100
AcDbLine
 62
7
  6
BYLAYER
 10
39.4359166992
 20
81.4489651888
 11
46.4359166992
 21
81.4489651888
  0
LINE
  5
390
100
AcDbEntity
  8
0
100
AcDbLine
 62
7
  6
BYLAYER
 10
49.2359166992
 20
81.4489651888
 11
56.2359166992
 21
81.4489651888
  0
LINE
  5
391
100
AcDbEntity
  8
0
100
AcDbLine
 62
7
  6
BYLAYER
 10
39.4359166992
 20
81.5795317289
 11
46.4359166992
 21
81.5795317289
  0
LINE
  5
392
100
AcDbEntity
  8
0
100
AcDbLine
 62
7
  6
BYLAYER
 10
49.2359166992
 20
81.5795317289
 11
56.2359166992
 21
81.5795317289
  0
LINE
  5
393
100
AcDbEntity
  8
0
100
AcDbLine
 62
7
  6
BYLAYER
 10
39.4359166992
 20
81.6827498365
 11
46.4359166992
 21
81.6827498365
  0
LINE
  5
394
100
AcDbEntity
  8
0
100
AcDbLine
 62
7
  6
BYLAYER
 10
49.2359166992
 20
81.6827498365
 11
56.2359166992
 21
81.6827498365
  0
LINE
  5
395
100
AcDbEntity
  8
0
100
AcDbLine
 62
7
  6
BYLAYER
 10
39.4359166992
 20
81.8216681478
 11
46.4359166992
 21
81.8216681478
  0
LINE
  5
396
100
AcDbEntity
  8
0
100
AcDbLine
 62
7
  6
BYLAYER
 10
49.2359166992
 20
81.8216681478
 11
56.2359166992
 21
81.8216681478
  0
LINE
  5
397
100
AcDbEntity
  8
0
100
AcDbLine
 62
7
  6
BYLAYER
 10
39.4359166992
 20
82.3268473146
 11
46.4359166992
 21
82.3268473146
  0
LINE
  5
398
100
AcDbEntity
  8
0
100
AcDbLine
 62
7
  6
BYLAYER
 10
49.2359166992
 20
82.3268473146
 11
56.2359166992
 21
82.3268473146
  0
LINE
  5
399
100
AcDbEntity
  8
0
100
AcDbLine
 62
7
  6
BYLAYER
 10
38.0359166992
 20
84.4124273953
 11
57.6359166992
 21
84.4124273953
  0
LINE
  5
39A
100
AcDbEntity
  8
0
100
AcDbLine
 62
7
  6
BYLAYER
 10
39.4359166992
 20
85.8336418864
 11
46.4359166992
 21
85.8336418864
  0
LINE
  5
39B
100
AcDbEntity
  8
0
100
AcDbLine
 62
7
  6
BYLAYER
 10
49.2359166992
 20
85.8336418864
 11
56.2359166992
 21
85.8336418864
  0
LINE
  5
39C
100
AcDbEntity
  8
0
100
AcDbLine
 62
7
  6
BYLAYER
 10
38.0359166992
 20
86.2193831799
 11
57.6359166992
 21
86.2193831799
  0
LINE
  5
39D
100
AcDbEntity
  8
0
100
AcDbLine
 62
7
  6
BYLAYER
 10
57.6359166992
 20
86.6656924712
 11
38.0359166992
 21
86.6656924712
  0
LINE
  5
39E
100
AcDbEntity
  8
0
100
AcDbLine
 62
7
  6
BYLAYER
 10
39.4359166992
 20
86.7570973143
 11
46.4359166992
 21
86.7570973143
  0
LINE
  5
39F
100
AcDbEntity
  8
0
100
AcDbLine
 62
7
  6
BYLAYER
 10
49.2359166992
 20
86.7570973143
 11
56.2359166992
 21
86.7570973143
  0
LINE
  5
3A0
100
AcDbEntity
  8
0
100
AcDbLine
 62
7
  6
BYLAYER
 10
38.0359166992
 20
88.5336415467
 11
57.6359166992
 21
88.5336415467
  0
LINE
  5
3A1
100
AcDbEntity
  8
0
100
AcDbLine
 62
7
  6
BYLAYER
 10
38.0359166992
 20
90.8336432275
 11
57.6359166992
 21
90.8336432275
  0
LINE
  5
3A2
100
AcDbEntity
  8
0
100
AcDbLine
 62
7
  6
BYLAYER
 10
38.0359166992
 20
90.9336420284
 11
57.6359166992
 21
90.9336420284
  0
LINE
  5
3A3
100
AcDbEntity
  8
0
100
AcDbLine
 62
7
  6
BYLAYER
 10
39.0359166992
 20
91.7512567339
 11
46.8359166992
 21
91.7512567339
  0
LINE
  5
3A4
100
AcDbEntity
  8
0
100
AcDbLine
 62
7
  6
BYLAYER
 10
48.8359166992
 20
91.7512567339
 11
56.6359166992
 21
91.7512567339
  0
LINE
  5
3A5
100
AcDbEntity
  8
0
100
AcDbLine
 62
7
  6
BYLAYER
 10
57.6359166992
 20
91.9493051157
 11
56.6359166992
 21
91.9493051157
  0
LINE
  5
3A6
100
AcDbEntity
  8
0
100
AcDbLine
 62
7
  6
BYLAYER
 10
39.0359166992
 20
91.9493045565
 11
38.0359166992
 21
91.9493045565
  0
LINE
  5
3A7
100
AcDbEntity
  8
0
100
AcDbLine
 62
7
  6
BYLAYER
 10
46.8359166992
 20
91.9493076322
 11
48.8359166992
 21
91.9493076322
  0
LINE
  5
3A8
100
AcDbEntity
  8
0
100
AcDbLine
 62
7
  6
BYLAYER
 10
57.6359166992
 20
92.3336458323
 11
56.6359166992
 21
92.3336458323
  0
LINE
  5
3A9
100
AcDbEntity
  8
0
100
AcDbLine
 62
7
  6
BYLAYER
 10
48.8359166992
 20
92.3336458323
 11
46.8359166992
 21
92.3336458323
  0
LINE
  5
3AA
100
AcDbEntity
  8
0
100
AcDbLine
 62
7
  6
BYLAYER
 10
38.0359166992
 20
92.3336458323
 11
39.0359166992
 21
92.3336458323
  0
LINE
  5
3AB
100
AcDbEntity
  8
0
100
AcDbLine
 62
7
  6
BYLAYER
 10
42.7359166992
 20
22.9336428878
 11
44.2594715826
 21
23.7585158258
  0
LINE
  5
3AC
100
AcDbEntity
  8
0
100
AcDbLine
 62
7
  6
BYLAYER
 10
55.6359166992
 20
101.808821376
 11
49.9359166992
 21
101.808821376
  0
LINE
  5
3AD
100
AcDbEntity
  8
0
100
AcDbLine
 62
7
  6
BYLAYER
 10
45.8359166992
 20
101.808821376
 11
40.1359166992
 21
101.808821376
  0
LINE
  5
3AE
100
AcDbEntity
  8
0
100
AcDbLine
 62
7
  6
BYLAYER
 10
56.2359166992
 20
102.1329042842
 11
49.2359166992
 21
102.1329042842
  0
LINE
  5
3AF
100
AcDbEntity
  8
0
100
AcDbLine
 62
7
  6
BYLAYER
 10
46.4359166992
 20
102.1329042842
 11
39.4359166992
 21
102.1329042842
  0
LINE
  5
3B0
100
AcDbEntity
  8
0
100
AcDbLine
 62
7
  6
BYLAYER
 10
38.0359166992
 20
102.146621129
 11
39.1359166992
 21
102.146621129
  0
LINE
  5
3B1
100
AcDbEntity
  8
0
100
AcDbLine
 62
7
  6
BYLAYER
 10
46.9359166992
 20
102.146621129
 11
48.9359166992
 21
102.146621129
  0
LINE
  5
3B2
100
AcDbEntity
  8
0
100
AcDbLine
 62
7
  6
BYLAYER
 10
56.7359166992
 20
102.146621129
 11
57.6359166992
 21
102.146621129
  0
LINE
  5
3B3
100
AcDbEntity
  8
0
100
AcDbLine
 62
7
  6
BYLAYER
 10
39.1359166992
 20
102.146621129
 11
39.4359166992
 21
102.1466234324
  0
LINE
  5
3B4
100
AcDbEntity
  8
0
100
AcDbLine
 62
7
  6
BYLAYER
 10
46.4359166992
 20
102.1466234324
 11
46.9359166992
 21
102.146621129
  0
LINE
  5
3B5
100
AcDbEntity
  8
0
100
AcDbLine
 62
7
  6
BYLAYER
 10
48.9359166992
 20
102.146621129
 11
49.2359166992
 21
102.1466234324
  0
LINE
  5
3B6
100
AcDbEntity
  8
0
100
AcDbLine
 62
7
  6
BYLAYER
 10
56.2359166992
 20
102.1466234324
 11
56.7359166992
 21
102.146621129
  0
LINE
  5
3B7
100
AcDbEntity
  8
0
100
AcDbLine
 62
7
  6
BYLAYER
 10
39.4359166992
 20
102.2543667314
 11
46.4359166992
 21
102.2543667314
  0
LINE
  5
3B8
100
AcDbEntity
  8
0
100
AcDbLine
 62
7
  6
BYLAYER
 10
49.2359166992
 20
102.2543667314
 11
56.2359166992
 21
102.2543667314
  0
LINE
  5
3B9
100
AcDbEntity
  8
0
100
AcDbLine
 62
7
  6
BYLAYER
 10
39.4359166992
 20
102.4020893929
 11
46.4359166992
 21
102.4020893929
  0
LINE
  5
3BA
100
AcDbEntity
  8
0
100
AcDbLine
 62
7
  6
BYLAYER
 10
49.2359166992
 20
102.4020893929
 11
56.2359166992
 21
102.4020893929
  0
LINE
  5
3BB
100
AcDbEntity
  8
0
100
AcDbLine
 62
7
  6
BYLAYER
 10
39.4359166992
 20
102.4220643994
 11
46.4359166992
 21
102.4220643994
  0
LINE
  5
3BC
100
AcDbEntity
  8
0
100
AcDbLine
 62
7
  6
BYLAYER
 10
49.2359166992
 20
102.4220643994
 11
56.2359166992
 21
102.4220643994
  0
LINE
  5
3BD
100
AcDbEntity
  8
0
100
AcDbLine
 62
7
  6
BYLAYER
 10
56.2359166992
 20
102.5455349012
 11
49.2359166992
 21
102.5455349012
  0
LINE
  5
3BE
100
AcDbEntity
  8
0
100
AcDbLine
 62
7
  6
BYLAYER
 10
46.4359166992
 20
102.5455349012
 11
39.4359166992
 21
102.5455349012
  0
LINE
  5
3BF
100
AcDbEntity
  8
0
100
AcDbLine
 62
7
  6
BYLAYER
 10
39.4359166992
 20
102.6190279481
 11
46.4359166992
 21
102.6190279481
  0
LINE
  5
3C0
100
AcDbEntity
  8
0
100
AcDbLine
 62
7
  6
BYLAYER
 10
49.2359166992
 20
102.6190279481
 11
56.2359166992
 21
102.6190279481
  0
LINE
  5
3C1
100
AcDbEntity
  8
0
100
AcDbLine
 62
7
  6
BYLAYER
 10
39.4359166992
 20
102.6454328057
 11
46.4359166992
 21
102.6454328057
  0
LINE
  5
3C2
100
AcDbEntity
  8
0
100
AcDbLine
 62
7
  6
BYLAYER
 10
49.2359166992
 20
102.6454328057
 11
56.2359166992
 21
102.6454328057
  0
LINE
  5
3C3
100
AcDbEntity
  8
0
100
AcDbLine
 62
7
  6
BYLAYER
 10
39.4359166992
 20
103.1378416774
 11
46.4359166992
 21
103.1378416774
  0
LINE
  5
3C4
100
AcDbEntity
  8
0
100
AcDbLine
 62
7
  6
BYLAYER
 10
49.2359166992
 20
103.1378416774
 11
56.2359166992
 21
103.1378416774
  0
LINE
  5
3C5
100
AcDbEntity
  8
0
100
AcDbLine
 62
7
  6
BYLAYER
 10
39.4359166992
 20
103.1484310543
 11
46.4359166992
 21
103.1484310543
  0
LINE
  5
3C6
100
AcDbEntity
  8
0
100
AcDbLine
 62
7
  6
BYLAYER
 10
49.2359166992
 20
103.1484310543
 11
56.2359166992
 21
103.1484310543
  0
LINE
  5
3C7
100
AcDbEntity
  8
0
100
AcDbLine
 62
7
  6
BYLAYER
 10
39.4359166992
 20
103.1899361369
 11
46.4359166992
 21
103.1899361369
  0
LINE
  5
3C8
100
AcDbEntity
  8
0
100
AcDbLine
 62
7
  6
BYLAYER
 10
49.2359166992
 20
103.1899361369
 11
56.2359166992
 21
103.1899361369
  0
LINE
  5
3C9
100
AcDbEntity
  8
0
100
AcDbLine
 62
7
  6
BYLAYER
 10
39.4359166992
 20
103.3116115687
 11
46.4359166992
 21
103.3116115687
  0
LINE
  5
3CA
100
AcDbEntity
  8
0
100
AcDbLine
 62
7
  6
BYLAYER
 10
49.2359166992
 20
103.3116115687
 11
56.2359166992
 21
103.3116115687
  0
LINE
  5
3CB
100
AcDbEntity
  8
0
100
AcDbLine
 62
7
  6
BYLAYER
 10
39.4359166992
 20
103.3550200742
 11
46.4359166992
 21
103.3550200742
  0
LINE
  5
3CC
100
AcDbEntity
  8
0
100
AcDbLine
 62
7
  6
BYLAYER
 10
49.2359166992
 20
103.3550200742
 11
56.2359166992
 21
103.3550200742
  0
LINE
  5
3CD
100
AcDbEntity
  8
0
100
AcDbLine
 62
7
  6
BYLAYER
 10
39.4359166992
 20
103.4040211198
 11
46.4359166992
 21
103.4040211198
  0
LINE
  5
3CE
100
AcDbEntity
  8
0
100
AcDbLine
 62
7
  6
BYLAYER
 10
49.2359166992
 20
103.4040211198
 11
56.2359166992
 21
103.4040211198
  0
LINE
  5
3CF
100
AcDbEntity
  8
0
100
AcDbLine
 62
7
  6
BYLAYER
 10
39.4359166992
 20
104.197573083
 11
46.4359166992
 21
104.197573083
  0
LINE
  5
3D0
100
AcDbEntity
  8
0
100
AcDbLine
 62
7
  6
BYLAYER
 10
49.2359166992
 20
104.197573083
 11
56.2359166992
 21
104.197573083
  0
LINE
  5
3D1
100
AcDbEntity
  8
0
100
AcDbLine
 62
7
  6
BYLAYER
 10
56.2359166992
 20
104.5356245647
 11
49.2359166992
 21
104.5356245647
  0
LINE
  5
3D2
100
AcDbEntity
  8
0
100
AcDbLine
 62
7
  6
BYLAYER
 10
46.4359166992
 20
104.5356245647
 11
39.4359166992
 21
104.5356245647
  0
LINE
  5
3D3
100
AcDbEntity
  8
0
100
AcDbLine
 62
7
  6
BYLAYER
 10
39.4359166992
 20
104.7801359055
 11
46.4359166992
 21
104.7801359055
  0
LINE
  5
3D4
100
AcDbEntity
  8
0
100
AcDbLine
 62
7
  6
BYLAYER
 10
49.2359166992
 20
104.7801359055
 11
56.2359166992
 21
104.7801359055
  0
LINE
  5
3D5
100
AcDbEntity
  8
0
100
AcDbLine
 62
7
  6
BYLAYER
 10
39.4359166992
 20
104.930102808
 11
46.4359166992
 21
104.930102808
  0
LINE
  5
3D6
100
AcDbEntity
  8
0
100
AcDbLine
 62
7
  6
BYLAYER
 10
49.2359166992
 20
104.930102808
 11
56.2359166992
 21
104.930102808
  0
LINE
  5
3D7
100
AcDbEntity
  8
0
100
AcDbLine
 62
7
  6
BYLAYER
 10
39.4359166992
 20
105.0406082031
 11
46.4359166992
 21
105.0406082031
  0
LINE
  5
3D8
100
AcDbEntity
  8
0
100
AcDbLine
 62
7
  6
BYLAYER
 10
49.2359166992
 20
105.0406082031
 11
56.2359166992
 21
105.0406082031
  0
LINE
  5
3D9
100
AcDbEntity
  8
0
100
AcDbLine
 62
7
  6
BYLAYER
 10
39.4359166992
 20
105.0489651888
 11
46.4359166992
 21
105.0489651888
  0
LINE
  5
3DA
100
AcDbEntity
  8
0
100
AcDbLine
 62
7
  6
BYLAYER
 10
49.2359166992
 20
105.0489651888
 11
56.2359166992
 21
105.0489651888
  0
LINE
  5
3DB
100
AcDbEntity
  8
0
100
AcDbLine
 62
7
  6
BYLAYER
 10
39.4359166992
 20
105.1795317289
 11
46.4359166992
 21
105.1795317289
  0
LINE
  5
3DC
100
AcDbEntity
  8
0
100
AcDbLine
 62
7
  6
BYLAYER
 10
49.2359166992
 20
105.1795317289
 11
56.2359166992
 21
105.1795317289
  0
LINE
  5
3DD
100
AcDbEntity
  8
0
100
AcDbLine
 62
7
  6
BYLAYER
 10
39.4359166992
 20
105.2827498365
 11
46.4359166992
 21
105.2827498365
  0
LINE
  5
3DE
100
AcDbEntity
  8
0
100
AcDbLine
 62
7
  6
BYLAYER
 10
49.2359166992
 20
105.2827498365
 11
56.2359166992
 21
105.2827498365
  0
LINE
  5
3DF
100
AcDbEntity
  8
0
100
AcDbLine
 62
7
  6
BYLAYER
 10
39.4359166992
 20
105.4216681478
 11
46.4359166992
 21
105.4216681478
  0
LINE
  5
3E0
100
AcDbEntity
  8
0
100
AcDbLine
 62
7
  6
BYLAYER
 10
49.2359166992
 20
105.4216681478
 11
56.2359166992
 21
105.4216681478
  0
LINE
  5
3E1
100
AcDbEntity
  8
0
100
AcDbLine
 62
7
  6
BYLAYER
 10
39.4359166992
 20
105.9268473146
 11
46.4359166992
 21
105.9268473146
  0
LINE
  5
3E2
100
AcDbEntity
  8
0
100
AcDbLine
 62
7
  6
BYLAYER
 10
49.2359166992
 20
105.9268473146
 11
56.2359166992
 21
105.9268473146
  0
LINE
  5
3E3
100
AcDbEntity
  8
0
100
AcDbLine
 62
7
  6
BYLAYER
 10
38.0359166992
 20
108.0124282834
 11
39.4359166992
 21
108.0124282834
  0
LINE
  5
3E4
100
AcDbEntity
  8
0
100
AcDbLine
 62
7
  6
BYLAYER
 10
46.4359166992
 20
108.0124282834
 11
49.2359166992
 21
108.0124282834
  0
LINE
  5
3E5
100
AcDbEntity
  8
0
100
AcDbLine
 62
7
  6
BYLAYER
 10
56.2359166992
 20
108.0124282834
 11
57.6359166992
 21
108.0124282834
  0
LINE
  5
3E6
100
AcDbEntity
  8
0
100
AcDbLine
 62
7
  6
BYLAYER
 10
39.4359166992
 20
109.4336418864
 11
46.4359166992
 21
109.4336418864
  0
LINE
  5
3E7
100
AcDbEntity
  8
0
100
AcDbLine
 62
7
  6
BYLAYER
 10
49.2359166992
 20
109.4336418864
 11
56.2359166992
 21
109.4336418864
  0
LINE
  5
3E8
100
AcDbEntity
  8
0
100
AcDbLine
 62
7
  6
BYLAYER
 10
39.4359166992
 20
110.3570976181
 11
46.4359166992
 21
110.3570976181
  0
LINE
  5
3E9
100
AcDbEntity
  8
0
100
AcDbLine
 62
7
  6
BYLAYER
 10
49.2359166992
 20
110.3570976181
 11
56.2359166992
 21
110.3570976181
  0
LINE
  5
3EA
100
AcDbEntity
  8
0
100
AcDbLine
 62
7
  6
BYLAYER
 10
57.6359166992
 20
112.1336424348
 11
38.0359166992
 21
112.1336424348
  0
ARC
  5
3EB
100
AcDbEntity
  8
0
100
AcDbCircle
 62
7
  6
BYLAYER
 10
42.7359166992
 20
68.105503829
 40
59.1904663213
100
AcDbArc
 50
270.7833388266
 51
282.3493501404
  0
ARC
  5
3EC
100
AcDbEntity
  8
0
100
AcDbCircle
 62
7
  6
BYLAYER
 10
42.7359166992
 20
68.105503829
 40
59.1904663213
100
AcDbArc
 50
257.6506501027
 51
269.216624649
  0
ARC
  5
3ED
100
AcDbEntity
  8
0
100
AcDbCircle
 62
7
  6
BYLAYER
 10
42.2492173255
 20
-35.2109970685
 40
45.7569236739
100
AcDbArc
 50
83.6381117187
 51
89.3905546173
  0
ARC
  5
3EE
100
AcDbEntity
  8
0
100
AcDbCircle
 62
7
  6
BYLAYER
 10
43.2226160713
 20
-35.2109970584
 40
45.7569236638
100
AcDbArc
 50
90.6094453807
 51
96.3618882874
  0
ARC
  5
3EF
100
AcDbEntity
  8
0
100
AcDbCircle
 62
7
  6
BYLAYER
 10
48.135914634
 20
18.1779844098
 40
8.0000413592
100
AcDbArc
 50
270.0
 51
281.8263158214
  0
ARC
  5
3F0
100
AcDbEntity
  8
0
100
AcDbCircle
 62
7
  6
BYLAYER
 10
37.3359187638
 20
18.1779844077
 40
8.0000413572
100
AcDbArc
 50
258.1736841935
 51
270.0
  0
ARC
  5
3F1
100
AcDbEntity
  8
0
100
AcDbCircle
 62
7
  6
BYLAYER
 10
48.0614763652
 20
13.3825038534
 40
3.2054252937
100
AcDbArc
 50
256.6150518248
 51
268.6692893827
  0
ARC
  5
3F2
100
AcDbEntity
  8
0
100
AcDbCircle
 62
7
  6
BYLAYER
 10
37.4103570333
 20
13.3825038534
 40
3.2054252937
100
AcDbArc
 50
271.3307106173
 51
283.3849481561
  0
ARC
  5
3F3
100
AcDbEntity
  8
0
100
AcDbCircle
 62
7
  6
BYLAYER
 10
28.3512927744
 20
10.9536428823
 40
0.3
100
AcDbArc
 50
180.5000045772
 51
270.000000025
  0
ARC
  5
3F4
100
AcDbEntity
  8
0
100
AcDbCircle
 62
7
  6
BYLAYER
 10
57.120540624
 20
10.9536428823
 40
0.3
100
AcDbArc
 50
270.00000003
 51
359.4999974499
  0
ARC
  5
3F5
100
AcDbEntity
  8
0
100
AcDbCircle
 62
7
  6
BYLAYER
 10
32.160916478
 20
24.8536434499
 40
0.2999994658
100
AcDbArc
 50
90.0
 51
180.0
  0
ARC
  5
3F6
100
AcDbEntity
  8
0
100
AcDbCircle
 62
7
  6
BYLAYER
 10
53.3109169205
 20
24.8536434499
 40
0.2999994658
100
AcDbArc
 50
0.0
 51
90.0
  0
SPLINE
  5
3F7
100
AcDbEntity
  8
0
100
AcDbSpline
 62
7
  6
BYLAYER
 70
0
 71
3
 72
11
 73
7
 74
0
 42
0.0000001
 43
0.0000001
 44
0.0000000001
 40
0.0
 40
0.0
 40
0.0
 40
0.0
 40
0.2499988956
 40
0.5000095442
 40
0.7500005537
 40
1.0
 40
1.0
 40
1.0
 40
1.0
 10
30.0767418858
 20
10.2846029967
 30
0.0
 10
30.0759377387
 20
10.3153107794
 30
0.0
 10
30.0740980388
 20
10.376721989
 30
0.0
 10
30.0724361693
 20
10.468864223
 30
0.0
 10
30.0692573288
 20
10.5609694034
 30
0.0
 10
30.0656065175
 20
10.6223103199
 30
0.0
 10
30.0648023686
 20
10.6530181702
 30
0.0
  0
SPLINE
  5
3F8
100
AcDbEntity
  8
0
100
AcDbSpline
 62
7
  6
BYLAYER
 70
0
 71
3
 72
11
 73
7
 74
0
 42
0.0000001
 43
0.0000001
 44
0.0000000001
 40
0.0
 40
0.0
 40
0.0
 40
0.0
 40
0.1402944805
 40
0.3585645285
 40
0.6556524474
 40
1.0
 40
1.0
 40
1.0
 40
1.0
 10
54.9009166569
 20
37.7089520351
 30
0.0
 10
54.9009166569
 20
37.7495275645
 30
0.0
 10
54.8372227309
 20
37.8468228361
 30
0.0
 10
54.665987451
 20
37.9311854481
 30
0.0
 10
54.4261824859
 20
38.000906335
 30
0.0
 10
54.2416762507
 20
38.025377736
 30
0.0
 10
54.1424286556
 20
38.0336424659
 30
0.0
  0
SPLINE
  5
3F9
100
AcDbEntity
  8
0
100
AcDbSpline
 62
7
  6
BYLAYER
 70
0
 71
3
 72
33
 73
29
 74
0
 42
0.0000001
 43
0.0000001
 44
0.0000000001
 40
0.0
 40
0.0
 40
0.0
 40
0.0
 40
0.0854818875
 40
0.1328329689
 40
0.164240409
 40
0.1856275074
 40
0.2005762233
 40
0.2217612299
 40
0.2512130102
 40
0.2738692573
 40
0.2903867703
 40
0.3024852462
 40
0.3219426415
 40
0.3410711777
 40
0.3735408763
 40
0.4089004334
 40
0.4444578698
 40
0.480430335
 40
0.4976240478
 40
0.5095986879
 40
0.5243954947
 40
0.5432643825
 40
0.5681187747
 40
0.601648604
 40
0.6486533781
 40
0.7178421761
 40
0.8241582457
 40
1.0
 40
1.0
 40
1.0
 40
1.0
 10
42.4250233459
 20
44.050910575
 30
0.0
 10
42.4033800401
 20
44.050910575
 30
0.0
 10
42.369745903
 20
44.0510091454
 30
0.0
 10
42.3281689677
 20
44.0517060478
 30
0.0
 10
42.302818061
 20
44.0524425711
 30
0.0
 10
42.2856933651
 20
44.0532353674
 30
0.0
 10
42.2711218451
 20
44.0539503263
 30
0.0
 10
42.2547073363
 20
44.0553205186
 30
0.0
 10
42.2355729199
 20
44.0574053235
 30
0.0
 10
42.2203358268
 20
44.0597866562
 30
0.0
 10
42.2036250792
 20
44.0665042634
 30
0.0
 10
42.2133773002
 20
44.0789449564
 30
0.0
 10
42.2252577869
 20
44.0821678552
 30
0.0
 10
42.2421586622
 20
44.0889491241
 30
0.0
 10
42.263576262
 20
44.0939430389
 30
0.0
 10
42.2890649143
 20
44.0999617171
 30
0.0
 10
42.3156792994
 20
44.1048979656
 30
0.0
 10
42.3378332753
 20
44.1086224737
 30
0.0
 10
42.3541420351
 20
44.1110836358
 30
0.0
 10
42.3651567539
 20
44.112692716
 30
0.0
 10
42.3766025435
 20
44.1142839671
 30
0.0
 10
42.3912928675
 20
44.1162167803
 30
0.0
 10
42.4107063505
 20
44.1186076552
 30
0.0
 10
42.4372253885
 20
44.121572344
 30
0.0
 10
42.4749528479
 20
44.1252899021
 30
0.0
 10
42.5311153813
 20
44.1297781219
 30
0.0
 10
42.6199413598
 20
44.1347983854
 30
0.0
 10
42.6913950237
 20
44.1362444744
 30
0.0
 10
42.7359166992
 20
44.1362444744
 30
0.0
  0
SPLINE
  5
3FA
100
AcDbEntity
  8
0
100
AcDbSpline
 62
7
  6
BYLAYER
 70
0
 71
3
 72
18
 73
14
 74
0
 42
0.0000001
 43
0.0000001
 44
0.0000000001
 40
0.0
 40
0.0
 40
0.0
 40
0.0
 40
0.1362941224
 40
0.2617968316
 40
0.3662204721
 40
0.4427028348
 40
0.4877402381
 40
0.5114391795
 40
0.5555676479
 40
0.6316047411
 40
0.736578803
 40
0.8631751205
 40
1.0
 40
1.0
 40
1.0
 40
1.0
 10
32.7359166992
 20
60.2877972147
 30
0.0
 10
32.5202688863
 20
60.2877972147
 30
0.0
 10
32.1049575697
 20
60.2782918879
 30
0.0
 10
31.5308938307
 20
60.2325179298
 30
0.0
 10
31.039309131
 20
60.1696349929
 30
0.0
 10
30.7169861268
 20
60.0731805104
 30
0.0
 10
30.4571851895
 20
59.9999276116
 30
0.0
 10
30.4512104697
 20
59.7853081949
 30
0.0
 10
30.710836785
 20
59.7083693641
 30
0.0
 10
31.0300677363
 20
59.6125621978
 30
0.0
 10
31.5243119071
 20
59.5482448797
 30
0.0
 10
32.1014675129
 20
59.5021435658
 30
0.0
 10
32.5194291098
 20
59.4924885609
 30
0.0
 10
32.7359166992
 20
59.4924885609
 30
0.0
  0
SPLINE
  5
3FB
100
AcDbEntity
  8
0
100
AcDbSpline
 62
7
  6
BYLAYER
 70
0
 71
3
 72
18
 73
14
 74
0
 42
0.0000001
 43
0.0000001
 44
0.0000000001
 40
0.0
 40
0.0
 40
0.0
 40
0.0
 40
0.1362941224
 40
0.2617968316
 40
0.3662204721
 40
0.4427028348
 40
0.4877402381
 40
0.5114391795
 40
0.5555676479
 40
0.6316047411
 40
0.736578803
 40
0.8631751205
 40
1.0
 40
1.0
 40
1.0
 40
1.0
 10
32.7359166992
 20
59.4924885609
 30
0.0
 10
32.9515645122
 20
59.4924885609
 30
0.0
 10
33.3668758287
 20
59.5019938876
 30
0.0
 10
33.9409395678
 20
59.5477678458
 30
0.0
 10
34.4325242675
 20
59.6106507827
 30
0.0
 10
34.7548472717
 20
59.7071052652
 30
0.0
 10
35.0146482089
 20
59.780358164
 30
0.0
 10
35.0206229288
 20
59.9949775807
 30
0.0
 10
34.7609966135
 20
60.0719164115
 30
0.0
 10
34.4417656622
 20
60.1677235778
 30
0.0
 10
33.9475214913
 20
60.2320408959
 30
0.0
 10
33.3703658856
 20
60.2781422098
 30
0.0
 10
32.9524042887
 20
60.2877972147
 30
0.0
 10
32.7359166992
 20
60.2877972147
 30
0.0
  0
SPLINE
  5
3FC
100
AcDbEntity
  8
0
100
AcDbSpline
 62
7
  6
BYLAYER
 70
0
 71
3
 72
18
 73
14
 74
0
 42
0.0000001
 43
0.0000001
 44
0.0000000001
 40
0.0
 40
0.0
 40
0.0
 40
0.0
 40
0.1362941224
 40
0.2617968316
 40
0.3662204721
 40
0.4427028348
 40
0.4877402381
 40
0.5114391795
 40
0.5555676479
 40
0.6316047411
 40
0.736578803
 40
0.8631751205
 40
1.0
 40
1.0
 40
1.0
 40
1.0
 10
32.7359166992
 20
59.6099885609
 30
0.0
 10
32.5202688863
 20
59.6099885609
 30
0.0
 10
32.1049575697
 20
59.6194938876
 30
0.0
 10
31.5308938307
 20
59.6652678458
 30
0.0
 10
31.039309131
 20
59.7281507827
 30
0.0
 10
30.7169861268
 20
59.8246052652
 30
0.0
 10
30.4571851895
 20
59.897858164
 30
0.0
 10
30.4512104697
 20
60.1124775807
 30
0.0
 10
30.710836785
 20
60.1894164115
 30
0.0
 10
31.0300677363
 20
60.2852235778
 30
0.0
 10
31.5243119071
 20
60.3495408959
 30
0.0
 10
32.1014675129
 20
60.3956422098
 30
0.0
 10
32.5194291098
 20
60.4052972147
 30
0.0
 10
32.7359166992
 20
60.4052972147
 30
0.0
  0
SPLINE
  5
3FD
100
AcDbEntity
  8
0
100
AcDbSpline
 62
7
  6
BYLAYER
 70
0
 71
3
 72
18
 73
14
 74
0
 42
0.0000001
 43
0.0000001
 44
0.0000000001
 40
0.0
 40
0.0
 40
0.0
 40
0.0
 40
0.1362941224
 40
0.2617968316
 40
0.3662204721
 40
0.4427028348
 40
0.4877402381
 40
0.5114391795
 40
0.5555676479
 40
0.6316047411
 40
0.736578803
 40
0.8631751205
 40
1.0
 40
1.0
 40
1.0
 40
1.0
 10
32.7359166992
 20
60.4052972147
 30
0.0
 10
32.9515645122
 20
60.4052972147
 30
0.0
 10
33.3668758287
 20
60.3957918879
 30
0.0
 10
33.9409395678
 20
60.3500179298
 30
0.0
 10
34.4325242675
 20
60.2871349929
 30
0.0
 10
34.7548472717
 20
60.1906805104
 30
0.0
 10
35.0146482089
 20
60.1174276116
 30
0.0
 10
35.0206229288
 20
59.9028081949
 30
0.0
 10
34.7609966135
 20
59.8258693641
 30
0.0
 10
34.4417656622
 20
59.7300621978
 30
0.0
 10
33.9475214913
 20
59.6657448797
 30
0.0
 10
33.3703658856
 20
59.6196435658
 30
0.0
 10
32.9524042887
 20
59.6099885609
 30
0.0
 10
32.7359166992
 20
59.6099885609
 30
0.0
  0
SPLINE
  5
3FE
100
AcDbEntity
  8
0
100
AcDbSpline
 62
7
  6
BYLAYER
 70
0
 71
3
 72
18
 73
14
 74
0
 42
0.0000001
 43
0.0000001
 44
0.0000000001
 40
0.0
 40
0.0
 40
0.0
 40
0.0
 40
0.1362941224
 40
0.2617968316
 40
0.3662204721
 40
0.4427028348
 40
0.4877402381
 40
0.5114391795
 40
0.5555676479
 40
0.6316047411
 40
0.736578803
 40
0.8631751205
 40
1.0
 40
1.0
 40
1.0
 40
1.0
 10
42.9359166992
 20
107.4877972146
 30
0.0
 10
42.7202688863
 20
107.4877972146
 30
0.0
 10
42.3049575697
 20
107.4782918879
 30
0.0
 10
41.7308938307
 20
107.4325179298
 30
0.0
 10
41.239309131
 20
107.3696349929
 30
0.0
 10
40.9169861268
 20
107.2731805104
 30
0.0
 10
40.6571851895
 20
107.1999276116
 30
0.0
 10
40.6512104697
 20
106.9853081949
 30
0.0
 10
40.910836785
 20
106.9083693641
 30
0.0
 10
41.2300677363
 20
106.8125621978
 30
0.0
 10
41.7243119071
 20
106.7482448797
 30
0.0
 10
42.3014675129
 20
106.7021435658
 30
0.0
 10
42.7194291098
 20
106.6924885609
 30
0.0
 10
42.9359166992
 20
106.6924885609
 30
0.0
  0
SPLINE
  5
3FF
100
AcDbEntity
  8
0
100
AcDbSpline
 62
7
  6
BYLAYER
 70
0
 71
3
 72
18
 73
14
 74
0
 42
0.0000001
 43
0.0000001
 44
0.0000000001
 40
0.0
 40
0.0
 40
0.0
 40
0.0
 40
0.1362941224
 40
0.2617968316
 40
0.3662204721
 40
0.4427028348
 40
0.4877402381
 40
0.5114391795
 40
0.5555676479
 40
0.6316047411
 40
0.736578803
 40
0.8631751205
 40
1.0
 40
1.0
 40
1.0
 40
1.0
 10
42.9359166992
 20
106.6924885609
 30
0.0
 10
43.1515645122
 20
106.6924885609
 30
0.0
 10
43.5668758287
 20
106.7019938876
 30
0.0
 10
44.1409395678
 20
106.7477678458
 30
0.0
 10
44.6325242675
 20
106.8106507827
 30
0.0
 10
44.9548472717
 20
106.9071052652
 30
0.0
 10
45.2146482089
 20
106.980358164
 30
0.0
 10
45.2206229288
 20
107.1949775807
 30
0.0
 10
44.9609966135
 20
107.2719164115
 30
0.0
 10
44.6417656622
 20
107.3677235778
 30
0.0
 10
44.1475214913
 20
107.4320408959
 30
0.0
 10
43.5703658856
 20
107.4781422098
 30
0.0
 10
43.1524042887
 20
107.4877972146
 30
0.0
 10
42.9359166992
 20
107.4877972146
 30
0.0
  0
SPLINE
  5
400
100
AcDbEntity
  8
0
100
AcDbSpline
 62
7
  6
BYLAYER
 70
0
 71
3
 72
18
 73
14
 74
0
 42
0.0000001
 43
0.0000001
 44
0.0000000001
 40
0.0
 40
0.0
 40
0.0
 40
0.0
 40
0.1362941224
 40
0.2617968316
 40
0.3662204721
 40
0.4427028348
 40
0.4877402381
 40
0.5114391795
 40
0.5555676479
 40
0.6316047411
 40
0.736578803
 40
0.8631751205
 40
1.0
 40
1.0
 40
1.0
 40
1.0
 10
52.7359166992
 20
107.4877972146
 30
0.0
 10
52.5202688863
 20
107.4877972146
 30
0.0
 10
52.1049575697
 20
107.4782918879
 30
0.0
 10
51.5308938307
 20
107.4325179298
 30
0.0
 10
51.039309131
 20
107.3696349929
 30
0.0
 10
50.7169861268
 20
107.2731805104
 30
0.0
 10
50.4571851895
 20
107.1999276116
 30
0.0
 10
50.4512104697
 20
106.9853081949
 30
0.0
 10
50.710836785
 20
106.9083693641
 30
0.0
 10
51.0300677363
 20
106.8125621978
 30
0.0
 10
51.5243119071
 20
106.7482448797
 30
0.0
 10
52.1014675129
 20
106.7021435658
 30
0.0
 10
52.5194291098
 20
106.6924885609
 30
0.0
 10
52.7359166992
 20
106.6924885609
 30
0.0
  0
SPLINE
  5
401
100
AcDbEntity
  8
0
100
AcDbSpline
 62
7
  6
BYLAYER
 70
0
 71
3
 72
18
 73
14
 74
0
 42
0.0000001
 43
0.0000001
 44
0.0000000001
 40
0.0
 40
0.0
 40
0.0
 40
0.0
 40
0.1362941224
 40
0.2617968316
 40
0.3662204721
 40
0.4427028348
 40
0.4877402381
 40
0.5114391795
 40
0.5555676479
 40
0.6316047411
 40
0.736578803
 40
0.8631751205
 40
1.0
 40
1.0
 40
1.0
 40
1.0
 10
52.7359166992
 20
106.6924885609
 30
0.0
 10
52.9515645122
 20
106.6924885609
 30
0.0
 10
53.3668758287
 20
106.7019938876
 30
0.0
 10
53.9409395678
 20
106.7477678458
 30
0.0
 10
54.4325242675
 20
106.8106507827
 30
0.0
 10
54.7548472717
 20
106.9071052652
 30
0.0
 10
55.0146482089
 20
106.980358164
 30
0.0
 10
55.0206229288
 20
107.1949775807
 30
0.0
 10
54.7609966135
 20
107.2719164115
 30
0.0
 10
54.4417656622
 20
107.3677235778
 30
0.0
 10
53.9475214913
 20
107.4320408959
 30
0.0
 10
53.3703658856
 20
107.4781422098
 30
0.0
 10
52.9524042887
 20
107.4877972146
 30
0.0
 10
52.7359166992
 20
107.4877972146
 30
0.0
  0
SPLINE
  5
402
100
AcDbEntity
  8
0
100
AcDbSpline
 62
7
  6
BYLAYER
 70
0
 71
3
 72
18
 73
14
 74
0
 42
0.0000001
 43
0.0000001
 44
0.0000000001
 40
0.0
 40
0.0
 40
0.0
 40
0.0
 40
0.1362941224
 40
0.2617968316
 40
0.3662204721
 40
0.4427028348
 40
0.4877402381
 40
0.5114391795
 40
0.5555676479
 40
0.6316047411
 40
0.736578803
 40
0.8631751205
 40
1.0
 40
1.0
 40
1.0
 40
1.0
 10
42.9359166992
 20
106.8099885609
 30
0.0
 10
42.7202688863
 20
106.8099885609
 30
0.0
 10
42.3049575697
 20
106.8194938876
 30
0.0
 10
41.7308938307
 20
106.8652678458
 30
0.0
 10
41.239309131
 20
106.9281507827
 30
0.0
 10
40.9169861268
 20
107.0246052652
 30
0.0
 10
40.6571851895
 20
107.097858164
 30
0.0
 10
40.6512104697
 20
107.3124775807
 30
0.0
 10
40.910836785
 20
107.3894164115
 30
0.0
 10
41.2300677363
 20
107.4852235778
 30
0.0
 10
41.7243119071
 20
107.5495408959
 30
0.0
 10
42.3014675129
 20
107.5956422098
 30
0.0
 10
42.7194291098
 20
107.6052972146
 30
0.0
 10
42.9359166992
 20
107.6052972146
 30
0.0
  0
SPLINE
  5
403
100
AcDbEntity
  8
0
100
AcDbSpline
 62
7
  6
BYLAYER
 70
0
 71
3
 72
18
 73
14
 74
0
 42
0.0000001
 43
0.0000001
 44
0.0000000001
 40
0.0
 40
0.0
 40
0.0
 40
0.0
 40
0.1362941224
 40
0.2617968316
 40
0.3662204721
 40
0.4427028348
 40
0.4877402381
 40
0.5114391795
 40
0.5555676479
 40
0.6316047411
 40
0.736578803
 40
0.8631751205
 40
1.0
 40
1.0
 40
1.0
 40
1.0
 10
42.9359166992
 20
107.6052972146
 30
0.0
 10
43.1515645122
 20
107.6052972146
 30
0.0
 10
43.5668758287
 20
107.5957918879
 30
0.0
 10
44.1409395678
 20
107.5500179298
 30
0.0
 10
44.6325242675
 20
107.4871349929
 30
0.0
 10
44.9548472717
 20
107.3906805104
 30
0.0
 10
45.2146482089
 20
107.3174276116
 30
0.0
 10
45.2206229288
 20
107.1028081949
 30
0.0
 10
44.9609966135
 20
107.0258693641
 30
0.0
 10
44.6417656622
 20
106.9300621978
 30
0.0
 10
44.1475214913
 20
106.8657448797
 30
0.0
 10
43.5703658856
 20
106.8196435658
 30
0.0
 10
43.1524042887
 20
106.8099885609
 30
0.0
 10
42.9359166992
 20
106.8099885609
 30
0.0
  0
SPLINE
  5
404
100
AcDbEntity
  8
0
100
AcDbSpline
 62
7
  6
BYLAYER
 70
0
 71
3
 72
18
 73
14
 74
0
 42
0.0000001
 43
0.0000001
 44
0.0000000001
 40
0.0
 40
0.0
 40
0.0
 40
0.0
 40
0.1362941224
 40
0.2617968316
 40
0.3662204721
 40
0.4427028348
 40
0.4877402381
 40
0.5114391795
 40
0.5555676479
 40
0.6316047411
 40
0.736578803
 40
0.8631751205
 40
1.0
 40
1.0
 40
1.0
 40
1.0
 10
52.7359166992
 20
106.8099885609
 30
0.0
 10
52.5202688863
 20
106.8099885609
 30
0.0
 10
52.1049575697
 20
106.8194938876
 30
0.0
 10
51.5308938307
 20
106.8652678458
 30
0.0
 10
51.039309131
 20
106.9281507827
 30
0.0
 10
50.7169861268
 20
107.0246052652
 30
0.0
 10
50.4571851895
 20
107.097858164
 30
0.0
 10
50.4512104697
 20
107.3124775807
 30
0.0
 10
50.710836785
 20
107.3894164115
 30
0.0
 10
51.0300677363
 20
107.4852235778
 30
0.0
 10
51.5243119071
 20
107.5495408959
 30
0.0
 10
52.1014675129
 20
107.5956422098
 30
0.0
 10
52.5194291098
 20
107.6052972146
 30
0.0
 10
52.7359166992
 20
107.6052972146
 30
0.0
  0
SPLINE
  5
405
100
AcDbEntity
  8
0
100
AcDbSpline
 62
7
  6
BYLAYER
 70
0
 71
3
 72
18
 73
14
 74
0
 42
0.0000001
 43
0.0000001
 44
0.0000000001
 40
0.0
 40
0.0
 40
0.0
 40
0.0
 40
0.1362941224
 40
0.2617968316
 40
0.3662204721
 40
0.4427028348
 40
0.4877402381
 40
0.5114391795
 40
0.5555676479
 40
0.6316047411
 40
0.736578803
 40
0.8631751205
 40
1.0
 40
1.0
 40
1.0
 40
1.0
 10
52.7359166992
 20
107.6052972146
 30
0.0
 10
52.9515645122
 20
107.6052972146
 30
0.0
 10
53.3668758287
 20
107.5957918879
 30
0.0
 10
53.9409395678
 20
107.5500179298
 30
0.0
 10
54.4325242675
 20
107.4871349929
 30
0.0
 10
54.7548472717
 20
107.3906805104
 30
0.0
 10
55.0146482089
 20
107.3174276116
 30
0.0
 10
55.0206229288
 20
107.1028081949
 30
0.0
 10
54.7609966135
 20
107.0258693641
 30
0.0
 10
54.4417656622
 20
106.9300621978
 30
0.0
 10
53.9475214913
 20
106.8657448797
 30
0.0
 10
53.3703658856
 20
106.8196435658
 30
0.0
 10
52.9524042887
 20
106.8099885609
 30
0.0
 10
52.7359166992
 20
106.8099885609
 30
0.0
  0
SPLINE
  5
406
100
AcDbEntity
  8
0
100
AcDbSpline
 62
7
  6
BYLAYER
 70
0
 71
3
 72
11
 73
7
 74
0
 42
0.0000001
 43
0.0000001
 44
0.0000000001
 40
0.0
 40
0.0
 40
0.0
 40
0.0
 40
0.3469278161
 40
0.6395816943
 40
0.8565901822
 40
1.0
 40
1.0
 40
1.0
 40
1.0
 10
31.3294051195
 20
38.0336424659
 30
0.0
 10
31.2294250897
 20
38.0253167632
 30
0.0
 10
31.0455037692
 20
38.0008847727
 30
0.0
 10
30.8065024714
 20
37.9312575534
 30
0.0
 10
30.6361719428
 20
37.8478320876
 30
0.0
 10
30.5709168532
 20
37.7504239981
 30
0.0
 10
30.5709167416
 20
37.7089521266
 30
0.0
  0
SPLINE
  5
407
100
AcDbEntity
  8
0
100
AcDbSpline
 62
7
  6
BYLAYER
 70
0
 71
3
 72
18
 73
14
 74
0
 42
0.0000001
 43
0.0000001
 44
0.0000000001
 40
0.0
 40
0.0
 40
0.0
 40
0.0
 40
0.1359679956
 40
0.2612739151
 40
0.3662242647
 40
0.4431293473
 40
0.4880770216
 40
0.5119229784
 40
0.5568706527
 40
0.6337757353
 40
0.7387260849
 40
0.8640320044
 40
1.0
 40
1.0
 40
1.0
 40
1.0
 10
42.7359166992
 20
25.5399016154
 30
0.0
 10
42.9242667513
 20
25.5399016154
 30
0.0
 10
43.2871826603
 20
25.5482022269
 30
0.0
 10
43.7896574447
 20
25.5881160073
 30
0.0
 10
44.2215280162
 20
25.6433805599
 30
0.0
 10
44.5038509589
 20
25.7277762277
 30
0.0
 10
44.7335406037
 20
25.7932958442
 30
0.0
 10
44.7335406037
 20
25.982837013
 30
0.0
 10
44.5038509589
 20
26.0483566295
 30
0.0
 10
44.2215280162
 20
26.1327522973
 30
0.0
 10
43.7896574447
 20
26.1880168498
 30
0.0
 10
43.2871826603
 20
26.2279306303
 30
0.0
 10
42.9242667513
 20
26.2362312418
 30
0.0
 10
42.7359166992
 20
26.2362312418
 30
0.0
  0
SPLINE
  5
408
100
AcDbEntity
  8
0
100
AcDbSpline
 62
7
  6
BYLAYER
 70
0
 71
3
 72
18
 73
14
 74
0
 42
0.0000001
 43
0.0000001
 44
0.0000000001
 40
0.0
 40
0.0
 40
0.0
 40
0.0
 40
0.1359679956
 40
0.2612739151
 40
0.3662242647
 40
0.4431293473
 40
0.4880770216
 40
0.5119229784
 40
0.5568706527
 40
0.6337757353
 40
0.7387260849
 40
0.8640320044
 40
1.0
 40
1.0
 40
1.0
 40
1.0
 10
42.7359166992
 20
25.5399016154
 30
0.0
 10
42.5475666472
 20
25.5399016154
 30
0.0
 10
42.1846507382
 20
25.5482022269
 30
0.0
 10
41.6821759538
 20
25.5881160073
 30
0.0
 10
41.2503053822
 20
25.6433805599
 30
0.0
 10
40.9679824395
 20
25.7277762277
 30
0.0
 10
40.7382927948
 20
25.7932958442
 30
0.0
 10
40.7382927948
 20
25.982837013
 30
0.0
 10
40.9679824395
 20
26.0483566295
 30
0.0
 10
41.2503053822
 20
26.1327522973
 30
0.0
 10
41.6821759538
 20
26.1880168498
 30
0.0
 10
42.1846507382
 20
26.2279306303
 30
0.0
 10
42.5475666472
 20
26.2362312418
 30
0.0
 10
42.7359166992
 20
26.2362312418
 30
0.0
  0
SPLINE
  5
409
100
AcDbEntity
  8
0
100
AcDbSpline
 62
7
  6
BYLAYER
 70
0
 71
3
 72
18
 73
14
 74
0
 42
0.0000001
 43
0.0000001
 44
0.0000000001
 40
0.0
 40
0.0
 40
0.0
 40
0.0
 40
0.1359679956
 40
0.2612739151
 40
0.3662242647
 40
0.4431293473
 40
0.4880770216
 40
0.5119229784
 40
0.5568706527
 40
0.6337757353
 40
0.7387260849
 40
0.8640320044
 40
1.0
 40
1.0
 40
1.0
 40
1.0
 10
42.7359166992
 20
24.5559621093
 30
0.0
 10
42.9237969177
 20
24.5559621093
 30
0.0
 10
43.2858075437
 20
24.5642420152
 30
0.0
 10
43.7870289198
 20
24.6040562319
 30
0.0
 10
44.217822203
 20
24.6591829287
 30
0.0
 10
44.4994408996
 20
24.743368074
 30
0.0
 10
44.7285575904
 20
24.8087242537
 30
0.0
 10
44.7285575904
 20
24.9977926177
 30
0.0
 10
44.4994408996
 20
25.0631487975
 30
0.0
 10
44.217822203
 20
25.1473339428
 30
0.0
 10
43.7870289198
 20
25.2024606396
 30
0.0
 10
43.2858075437
 20
25.2422748563
 30
0.0
 10
42.9237969177
 20
25.2505547621
 30
0.0
 10
42.7359166992
 20
25.2505547621
 30
0.0
  0
SPLINE
  5
40A
100
AcDbEntity
  8
0
100
AcDbSpline
 62
7
  6
BYLAYER
 70
0
 71
3
 72
18
 73
14
 74
0
 42
0.0000001
 43
0.0000001
 44
0.0000000001
 40
0.0
 40
0.0
 40
0.0
 40
0.0
 40
0.1359679956
 40
0.2612739151
 40
0.3662242647
 40
0.4431293473
 40
0.4880770216
 40
0.5119229784
 40
0.5568706527
 40
0.6337757353
 40
0.7387260849
 40
0.8640320044
 40
1.0
 40
1.0
 40
1.0
 40
1.0
 10
42.7359166992
 20
23.5655322161
 30
0.0
 10
42.8862208845
 20
23.5655322161
 30
0.0
 10
43.1758294055
 20
23.5721561413
 30
0.0
 10
43.5768065343
 20
23.6040075169
 30
0.0
 10
43.9214411849
 20
23.6481088774
 30
0.0
 10
44.1467361578
 20
23.7154569983
 30
0.0
 10
44.3300295232
 20
23.7677419458
 30
0.0
 10
44.3300295232
 20
23.9189966475
 30
0.0
 10
44.1467361578
 20
23.9712815949
 30
0.0
 10
43.9214411849
 20
24.0386297159
 30
0.0
 10
43.5768065343
 20
24.0827310764
 30
0.0
 10
43.1758294055
 20
24.114582452
 30
0.0
 10
42.8862208845
 20
24.1212063771
 30
0.0
 10
42.7359166992
 20
24.1212063771
 30
0.0
  0
SPLINE
  5
40B
100
AcDbEntity
  8
0
100
AcDbSpline
 62
7
  6
BYLAYER
 70
0
 71
3
 72
18
 73
14
 74
0
 42
0.0000001
 43
0.0000001
 44
0.0000000001
 40
0.0
 40
0.0
 40
0.0
 40
0.0
 40
0.1359679956
 40
0.2612739151
 40
0.3662242647
 40
0.4431293473
 40
0.4880770216
 40
0.5119229784
 40
0.5568706527
 40
0.6337757353
 40
0.7387260849
 40
0.8640320044
 40
1.0
 40
1.0
 40
1.0
 40
1.0
 10
42.7359166992
 20
24.5559621093
 30
0.0
 10
42.5480364807
 20
24.5559621093
 30
0.0
 10
42.1860258547
 20
24.5642420152
 30
0.0
 10
41.6848044787
 20
24.6040562319
 30
0.0
 10
41.2540111954
 20
24.6591829287
 30
0.0
 10
40.9723924989
 20
24.743368074
 30
0.0
 10
40.7432758081
 20
24.8087242537
 30
0.0
 10
40.7432758081
 20
24.9977926177
 30
0.0
 10
40.9723924989
 20
25.0631487975
 30
0.0
 10
41.2540111954
 20
25.1473339428
 30
0.0
 10
41.6848044787
 20
25.2024606396
 30
0.0
 10
42.1860258547
 20
25.2422748563
 30
0.0
 10
42.5480364807
 20
25.2505547621
 30
0.0
 10
42.7359166992
 20
25.2505547621
 30
0.0
  0
SPLINE
  5
40C
100
AcDbEntity
  8
0
100
AcDbSpline
 62
7
  6
BYLAYER
 70
0
 71
3
 72
18
 73
14
 74
0
 42
0.0000001
 43
0.0000001
 44
0.0000000001
 40
0.0
 40
0.0
 40
0.0
 40
0.0
 40
0.1359679956
 40
0.2612739151
 40
0.3662242647
 40
0.4431293473
 40
0.4880770216
 40
0.5119229784
 40
0.5568706527
 40
0.6337757353
 40
0.7387260849
 40
0.8640320044
 40
1.0
 40
1.0
 40
1.0
 40
1.0
 10
42.7359166992
 20
23.5655322162
 30
0.0
 10
42.585612514
 20
23.5655322162
 30
0.0
 10
42.296003993
 20
23.5721561413
 30
0.0
 10
41.8950268642
 20
23.6040075169
 30
0.0
 10
41.5503922136
 20
23.6481088774
 30
0.0
 10
41.3250972407
 20
23.7154569984
 30
0.0
 10
41.1418038753
 20
23.7677419458
 30
0.0
 10
41.1418038753
 20
23.9189966475
 30
0.0
 10
41.3250972407
 20
23.971281595
 30
0.0
 10
41.5503922136
 20
24.0386297159
 30
0.0
 10
41.8950268642
 20
24.0827310764
 30
0.0
 10
42.296003993
 20
24.114582452
 30
0.0
 10
42.585612514
 20
24.1212063772
 30
0.0
 10
42.7359166992
 20
24.1212063772
 30
0.0
  0
SPLINE
  5
40D
100
AcDbEntity
  8
0
100
AcDbSpline
 62
7
  6
BYLAYER
 70
0
 71
3
 72
10
 73
6
 74
0
 42
0.0000001
 43
0.0000001
 44
0.0000000001
 40
0.0
 40
0.0
 40
0.0
 40
0.0
 40
0.3345613056
 40
0.6678125049
 40
1.0
 40
1.0
 40
1.0
 40
1.0
 10
43.7359167114
 20
10.1850932464
 30
0.0
 10
43.6243999972
 20
10.1866427764
 30
0.0
 10
43.4018448333
 20
10.1934372062
 30
0.0
 10
43.0684591158
 20
10.1892368155
 30
0.0
 10
42.8466528582
 20
10.1936541834
 30
0.0
 10
42.7359166992
 20
10.1936541834
 30
0.0
  0
SPLINE
  5
40E
100
AcDbEntity
  8
0
100
AcDbSpline
 62
7
  6
BYLAYER
 70
0
 71
3
 72
10
 73
6
 74
0
 42
0.0000001
 43
0.0000001
 44
0.0000000001
 40
0.0
 40
0.0
 40
0.0
 40
0.0
 40
0.3321903205
 40
0.6654414946
 40
1.0
 40
1.0
 40
1.0
 40
1.0
 10
42.7359166992
 20
10.1936541834
 30
0.0
 10
42.8466538006
 20
10.1936541834
 30
0.0
 10
43.0684609947
 20
10.1892371338
 30
0.0
 10
43.4018467189
 20
10.1934376986
 30
0.0
 10
43.6244009278
 20
10.186642501
 30
0.0
 10
43.7359167092
 20
10.185092984
 30
0.0
  0
SPLINE
  5
40F
100
AcDbEntity
  8
0
100
AcDbSpline
 62
7
  6
BYLAYER
 70
0
 71
3
 72
10
 73
6
 74
0
 42
0.0000001
 43
0.0000001
 44
0.0000000001
 40
0.0
 40
0.0
 40
0.0
 40
0.0
 40
0.3321903192
 40
0.6654414934
 40
1.0
 40
1.0
 40
1.0
 40
1.0
 10
42.7359166992
 20
10.1936541834
 30
0.0
 10
42.6251795983
 20
10.1936541834
 30
0.0
 10
42.4033724046
 20
10.1892371336
 30
0.0
 10
42.0699866803
 20
10.1934376993
 30
0.0
 10
41.8474324711
 20
10.1866424994
 30
0.0
 10
41.7359166893
 20
10.1850929824
 30
0.0
  0
SPLINE
  5
410
100
AcDbEntity
  8
0
100
AcDbSpline
 62
7
  6
BYLAYER
 70
0
 71
3
 72
10
 73
6
 74
0
 42
0.0000001
 43
0.0000001
 44
0.0000000001
 40
0.0
 40
0.0
 40
0.0
 40
0.0
 40
0.3345613041
 40
0.6678125034
 40
1.0
 40
1.0
 40
1.0
 40
1.0
 10
41.7359166871
 20
10.1850932481
 30
0.0
 10
41.8474334008
 20
10.1866427781
 30
0.0
 10
42.0699885642
 20
10.1934372055
 30
0.0
 10
42.4033742817
 20
10.1892368158
 30
0.0
 10
42.6251805398
 20
10.1936541834
 30
0.0
 10
42.7359166992
 20
10.1936541834
 30
0.0
  0
SPLINE
  5
411
100
AcDbEntity
  8
0
100
AcDbSpline
 62
7
  6
BYLAYER
 70
0
 71
3
 72
18
 73
14
 74
0
 42
0.0000001
 43
0.0000001
 44
0.0000000001
 40
0.0
 40
0.0
 40
0.0
 40
0.0
 40
0.1362115227
 40
0.2576045216
 40
0.3557736197
 40
0.4245821973
 40
0.4624008831
 40
0.4881152743
 40
0.5395237039
 40
0.622040772
 40
0.7314527863
 40
0.8604699502
 40
1.0
 40
1.0
 40
1.0
 40
1.0
 10
43.0468100481
 20
44.0509105365
 30
0.0
 10
43.2710128941
 20
44.0460932407
 30
0.0
 10
43.6962306191
 20
44.0269323539
 30
0.0
 10
44.2744075299
 20
43.9704404276
 30
0.0
 10
44.7564045627
 20
43.8879366033
 30
0.0
 10
45.0517031307
 20
43.7992861189
 30
0.0
 10
45.2982387915
 20
43.6795249796
 30
0.0
 10
45.2044275945
 20
43.4686795612
 30
0.0
 10
44.936049957
 20
43.4020698508
 30
0.0
 10
44.5564074445
 20
43.2961083726
 30
0.0
 10
44.0274583972
 20
43.2324143296
 30
0.0
 10
43.4082692176
 20
43.1846281368
 30
0.0
 10
42.9656348166
 20
43.1749742316
 30
0.0
 10
42.7359166992
 20
43.1749742316
 30
0.0
  0
SPLINE
  5
412
100
AcDbEntity
  8
0
100
AcDbSpline
 62
7
  6
BYLAYER
 70
0
 71
3
 72
18
 73
14
 74
0
 42
0.0000001
 43
0.0000001
 44
0.0000000001
 40
0.0
 40
0.0
 40
0.0
 40
0.0
 40
0.1395373641
 40
0.2685589458
 40
0.3779718525
 40
0.4604865569
 40
0.5118906295
 40
0.5376030149
 40
0.5754257302
 40
0.6442372243
 40
0.7424061869
 40
0.8637954436
 40
1.0
 40
1.0
 40
1.0
 40
1.0
 10
42.7359166992
 20
43.1749742316
 30
0.0
 10
42.5061865811
 20
43.1749742316
 30
0.0
 10
42.0635324474
 20
43.1846290373
 30
0.0
 10
41.4443246799
 20
43.2324192871
 30
0.0
 10
40.9153661757
 20
43.2961176488
 30
0.0
 10
40.5357464292
 20
43.4020828375
 30
0.0
 10
40.2673629899
 20
43.4686979354
 30
0.0
 10
40.17361469
 20
43.6795607521
 30
0.0
 10
40.4201675397
 20
43.7992907681
 30
0.0
 10
40.715476515
 20
43.8879512655
 30
0.0
 10
41.1974726729
 20
43.9704443482
 30
0.0
 10
41.7756320581
 20
44.0269345001
 30
0.0
 10
42.2008320107
 20
44.046093488
 30
0.0
 10
42.4250233502
 20
44.0509105365
 30
0.0
  0
SPLINE
  5
413
100
AcDbEntity
  8
0
100
AcDbSpline
 62
7
  6
BYLAYER
 70
0
 71
3
 72
18
 73
14
 74
0
 42
0.0000001
 43
0.0000001
 44
0.0000000001
 40
0.0
 40
0.0
 40
0.0
 40
0.0
 40
0.1364349627
 40
0.2615967675
 40
0.3657659256
 40
0.4423893738
 40
0.4876913072
 40
0.5114735014
 40
0.5558436663
 40
0.6320161804
 40
0.7367348203
 40
0.862997165
 40
1.0
 40
1.0
 40
1.0
 40
1.0
 10
42.7359166992
 20
43.3020391923
 30
0.0
 10
42.9055919954
 20
43.3020391923
 30
0.0
 10
43.2317817174
 20
43.3095071939
 30
0.0
 10
43.6824360114
 20
43.3454493836
 30
0.0
 10
44.0682678369
 20
43.3946938364
 30
0.0
 10
44.3217483571
 20
43.4704899611
 30
0.0
 10
44.5269165689
 20
43.527814842
 30
0.0
 10
44.5317156416
 20
43.6974321451
 30
0.0
 10
44.3266771696
 20
43.7577104125
 30
0.0
 10
44.0756922591
 20
43.8329851024
 30
0.0
 10
43.6877605527
 20
43.8833732165
 30
0.0
 10
43.2346273064
 20
43.9195834472
 30
0.0
 10
42.9062982213
 20
43.9271728667
 30
0.0
 10
42.7359166992
 20
43.9271728667
 30
0.0
  0
SPLINE
  5
414
100
AcDbEntity
  8
0
100
AcDbSpline
 62
7
  6
BYLAYER
 70
0
 71
3
 72
18
 73
14
 74
0
 42
0.0000001
 43
0.0000001
 44
0.0000000001
 40
0.0
 40
0.0
 40
0.0
 40
0.0
 40
0.1364349627
 40
0.2615967675
 40
0.3657659256
 40
0.4423893738
 40
0.4876913072
 40
0.5114735014
 40
0.5558436663
 40
0.6320161804
 40
0.7367348203
 40
0.862997165
 40
1.0
 40
1.0
 40
1.0
 40
1.0
 10
42.7359166992
 20
43.9271728667
 30
0.0
 10
42.5662414031
 20
43.9271728667
 30
0.0
 10
42.2400516811
 20
43.9197048652
 30
0.0
 10
41.7893973871
 20
43.8837626755
 30
0.0
 10
41.4035655615
 20
43.8345182227
 30
0.0
 10
41.1500850414
 20
43.758722098
 30
0.0
 10
40.9449168296
 20
43.7013972171
 30
0.0
 10
40.9401177569
 20
43.531779914
 30
0.0
 10
41.1451562289
 20
43.4715016466
 30
0.0
 10
41.3961411394
 20
43.3962269567
 30
0.0
 10
41.7840728457
 20
43.3458388425
 30
0.0
 10
42.237206092
 20
43.3096286119
 30
0.0
 10
42.5655351772
 20
43.3020391923
 30
0.0
 10
42.7359166992
 20
43.3020391923
 30
0.0
  0
SPLINE
  5
415
100
AcDbEntity
  8
0
100
AcDbSpline
 62
7
  6
BYLAYER
 70
0
 71
3
 72
33
 73
29
 74
0
 42
0.0000001
 43
0.0000001
 44
0.0000000001
 40
0.0
 40
0.0
 40
0.0
 40
0.0
 40
0.0869299432
 40
0.1360460444
 40
0.1667533464
 40
0.1872691526
 40
0.201028968
 40
0.2134749071
 40
0.2427421334
 40
0.2657219984
 40
0.2854328025
 40
0.2961509164
 40
0.3140253651
 40
0.3359399381
 40
0.3634459626
 40
0.4036235675
 40
0.437205065
 40
0.4770596117
 40
0.496997153
 40
0.5088760276
 40
0.5234574521
 40
0.54223095
 40
0.5669330757
 40
0.6002841692
 40
0.6470548551
 40
0.7161650646
 40
0.8226681977
 40
1.0
 40
1.0
 40
1.0
 40
1.0
 10
43.0468100533
 20
44.050910575
 30
0.0
 10
43.0688151759
 20
44.050910575
 30
0.0
 10
43.1032549754
 20
44.0510093324
 30
0.0
 10
43.1454595969
 20
44.0517465289
 30
0.0
 10
43.1708509922
 20
44.0525070177
 30
0.0
 10
43.1872780386
 20
44.0532895923
 30
0.0
 10
43.1990979479
 20
44.053916675
 30
0.0
 10
43.2130647039
 20
44.0549071286
 30
0.0
 10
43.2297227205
 20
44.0562368798
 30
0.0
 10
43.2465850695
 20
44.0599276342
 30
0.0
 10
43.262673039
 20
44.0610554043
 30
0.0
 10
43.2651786025
 20
44.0761546659
 30
0.0
 10
43.2500866647
 20
44.0806244785
 30
0.0
 10
43.2354622223
 20
44.0869195584
 30
0.0
 10
43.2130992493
 20
44.0929871203
 30
0.0
 10
43.1883078663
 20
44.0987610276
 30
0.0
 10
43.1600093193
 20
44.1041733565
 30
0.0
 10
43.1367410841
 20
44.1082718894
 30
0.0
 10
43.118786607
 20
44.1108939991
 30
0.0
 10
43.1071716725
 20
44.1126356593
 30
0.0
 10
43.0958284351
 20
44.1142000567
 30
0.0
 10
43.0812586324
 20
44.1161246137
 30
0.0
 10
43.0619573645
 20
44.1185089575
 30
0.0
 10
43.0355875981
 20
44.1214684812
 30
0.0
 10
42.9979939258
 20
44.1251906309
 30
0.0
 10
42.9418771926
 20
44.1296980267
 30
0.0
 10
42.8526687416
 20
44.1347771977
 30
0.0
 10
42.7808058122
 20
44.1362444744
 30
0.0
 10
42.7359166992
 20
44.1362444744
 30
0.0
  0
SPLINE
  5
416
100
AcDbEntity
  8
0
100
AcDbSpline
 62
7
  6
BYLAYER
 70
0
 71
3
 72
14
 73
10
 74
0
 42
0.0000001
 43
0.0000001
 44
0.0000000001
 40
0.0
 40
0.0
 40
0.0
 40
0.0
 40
0.2360230967
 40
0.4566578626
 40
0.6476712879
 40
0.7971875021
 40
0.8973302322
 40
0.949967209
 40
1.0
 40
1.0
 40
1.0
 40
1.0
 10
42.7359166992
 20
44.3029632899
 30
0.0
 10
42.9702000726
 20
44.3029632899
 30
0.0
 10
43.4233513485
 20
44.2933056241
 30
0.0
 10
44.0658578307
 20
44.2478433237
 30
0.0
 10
44.6163657854
 20
44.1819277605
 30
0.0
 10
45.0518708408
 20
44.0832534195
 30
0.0
 10
45.3225610028
 20
44.0028579709
 30
0.0
 10
45.5136980707
 20
43.8403381618
 30
0.0
 10
45.4225875873
 20
43.7389253606
 30
0.0
 10
45.3814791223
 20
43.7110576913
 30
0.0
  0
SPLINE
  5
417
100
AcDbEntity
  8
0
100
AcDbSpline
 62
7
  6
BYLAYER
 70
0
 71
3
 72
12
 73
8
 74
0
 42
0.0000001
 43
0.0000001
 44
0.0000000001
 40
0.0
 40
0.0
 40
0.0
 40
0.0
 40
0.1087895693
 40
0.2741743492
 40
0.4873770262
 40
0.7347915685
 40
1.0
 40
1.0
 40
1.0
 40
1.0
 10
45.3814791223
 20
43.7110576913
 30
0.0
 10
45.3008001834
 20
43.6563649662
 30
0.0
 10
45.0647860552
 20
43.5730991791
 30
0.0
 10
44.6392948662
 20
43.4811762676
 30
0.0
 10
44.0816425419
 20
43.4102106752
 30
0.0
 10
43.4329685994
 20
43.3647130733
 30
0.0
 10
42.9735299635
 20
43.3545047373
 30
0.0
 10
42.7359166992
 20
43.3545047373
 30
0.0
  0
SPLINE
  5
418
100
AcDbEntity
  8
0
100
AcDbSpline
 62
7
  6
BYLAYER
 70
0
 71
3
 72
12
 73
8
 74
0
 42
0.0000001
 43
0.0000001
 44
0.0000000001
 40
0.0
 40
0.0
 40
0.0
 40
0.0
 40
0.2653355904
 40
0.5128395562
 40
0.7260614332
 40
0.8913737096
 40
1.0
 40
1.0
 40
1.0
 40
1.0
 10
42.7359166992
 20
43.3545047373
 30
0.0
 10
42.4981116111
 20
43.3545047373
 30
0.0
 10
42.0383270644
 20
43.3647284651
 30
0.0
 10
41.389236184
 20
43.4102952771
 30
0.0
 10
40.8313646639
 20
43.4813562007
 30
0.0
 10
40.4059755059
 20
43.5733933324
 30
0.0
 10
40.1700854408
 20
43.6567600641
 30
0.0
 10
40.089616811
 20
43.7115587598
 30
0.0
  0
SPLINE
  5
419
100
AcDbEntity
  8
0
100
AcDbSpline
 62
7
  6
BYLAYER
 70
0
 71
3
 72
14
 73
10
 74
0
 42
0.0000001
 43
0.0000001
 44
0.0000000001
 40
0.0
 40
0.0
 40
0.0
 40
0.0
 40
0.0498852449
 40
0.1026296628
 40
0.2028799191
 40
0.3524478819
 40
0.5434574737
 40
0.7640459624
 40
1.0
 40
1.0
 40
1.0
 40
1.0
 10
40.089616811
 20
43.7115587598
 30
0.0
 10
40.0487003694
 20
43.7394226322
 30
0.0
 10
39.9582903475
 20
43.8412191817
 30
0.0
 10
40.1500354112
 20
44.0029641186
 30
0.0
 10
40.4206850286
 20
44.083555867
 30
0.0
 10
40.8563430906
 20
44.1820165189
 30
0.0
 10
41.4066538689
 20
44.2479169891
 30
0.0
 10
42.0488700374
 20
44.2933119629
 30
0.0
 10
42.5017704855
 20
44.3029632899
 30
0.0
 10
42.7359166992
 20
44.3029632899
 30
0.0
  0
SPLINE
  5
41A
100
AcDbEntity
  8
0
100
AcDbSpline
 62
7
  6
BYLAYER
 70
0
 71
3
 72
12
 73
8
 74
0
 42
0.0000001
 43
0.0000001
 44
0.0000000001
 40
0.0
 40
0.0
 40
0.0
 40
0.0
 40
0.2653747156
 40
0.5129061932
 40
0.7261339714
 40
0.8914239333
 40
1.0
 40
1.0
 40
1.0
 40
1.0
 10
42.7359166992
 20
45.3632199627
 30
0.0
 10
42.9584740696
 20
45.3632199627
 30
0.0
 10
43.3887707056
 20
45.3727902167
 30
0.0
 10
43.9962120851
 20
45.4154446933
 30
0.0
 10
44.5182472321
 20
45.4819602294
 30
0.0
 10
44.9162327782
 20
45.5681075635
 30
0.0
 10
45.1369074715
 20
45.6461386344
 30
0.0
 10
45.2121372158
 20
45.697441512
 30
0.0
  0
SPLINE
  5
41B
100
AcDbEntity
  8
0
100
AcDbSpline
 62
7
  6
BYLAYER
 70
0
 71
3
 72
14
 73
10
 74
0
 42
0.0000001
 43
0.0000001
 44
0.0000000001
 40
0.0
 40
0.0
 40
0.0
 40
0.0
 40
0.0498400413
 40
0.1026175545
 40
0.2029008318
 40
0.3524846566
 40
0.5434930223
 40
0.764067238
 40
1.0
 40
1.0
 40
1.0
 40
1.0
 10
45.2121372158
 20
45.697441512
 30
0.0
 10
45.2503655399
 20
45.723511294
 30
0.0
 10
45.334755504
 20
45.8188672981
 30
0.0
 10
45.1551758781
 20
45.9699809778
 30
0.0
 10
44.9019536194
 20
46.0454432785
 30
0.0
 10
44.494286878
 20
46.1375064049
 30
0.0
 10
43.9794455171
 20
46.1991618122
 30
0.0
 10
43.3786399179
 20
46.2416162294
 30
0.0
 10
42.9549560157
 20
46.2506446656
 30
0.0
 10
42.7359166992
 20
46.2506446656
 30
0.0
  0
SPLINE
  5
41C
100
AcDbEntity
  8
0
100
AcDbSpline
 62
7
  6
BYLAYER
 70
0
 71
3
 72
14
 73
10
 74
0
 42
0.0000001
 43
0.0000001
 44
0.0000000001
 40
0.0
 40
0.0
 40
0.0
 40
0.0
 40
0.2360434839
 40
0.456691896
 40
0.6477064098
 40
0.7972072707
 40
0.8973181572
 40
0.9499234119
 40
1.0
 40
1.0
 40
1.0
 40
1.0
 10
42.7359166992
 20
46.2506446656
 30
0.0
 10
42.5166716311
 20
46.2506446656
 30
0.0
 10
42.0926114654
 20
46.2416067207
 30
0.0
 10
41.491370366
 20
46.199051308
 30
0.0
 10
40.976233228
 20
46.1373732596
 30
0.0
 10
40.5687959873
 20
46.0449895797
 30
0.0
 10
40.3155129446
 20
45.9698217523
 30
0.0
 10
40.1368452996
 20
45.8175457005
 30
0.0
 10
40.2222860474
 20
45.7227653383
 30
0.0
 10
40.2608024183
 20
45.6966898638
 30
0.0
  0
SPLINE
  5
41D
100
AcDbEntity
  8
0
100
AcDbSpline
 62
7
  6
BYLAYER
 70
0
 71
3
 72
12
 73
8
 74
0
 42
0.0000001
 43
0.0000001
 44
0.0000000001
 40
0.0
 40
0.0
 40
0.0
 40
0.0
 40
0.1088378463
 40
0.2742440513
 40
0.487441047
 40
0.7348291545
 40
1.0
 40
1.0
 40
1.0
 40
1.0
 10
40.2608024183
 20
45.6966898638
 30
0.0
 10
40.3363476541
 20
45.6455459524
 30
0.0
 10
40.5572084534
 20
45.5676663076
 30
0.0
 10
40.9553470659
 20
45.4816903133
 30
0.0
 10
41.477053403
 20
45.4153177826
 30
0.0
 10
42.0838693419
 20
45.3727671276
 30
0.0
 10
42.5136470816
 20
45.3632199627
 30
0.0
 10
42.7359166992
 20
45.3632199627
 30
0.0
  0
SPLINE
  5
41E
100
AcDbEntity
  8
0
100
AcDbSpline
 62
7
  6
BYLAYER
 70
0
 71
3
 72
18
 73
14
 74
0
 42
0.0000001
 43
0.0000001
 44
0.0000000001
 40
0.0
 40
0.0
 40
0.0
 40
0.0
 40
0.1364349627
 40
0.2615967675
 40
0.3657659256
 40
0.4423893738
 40
0.4876913072
 40
0.5114735014
 40
0.5558436663
 40
0.6320161804
 40
0.7367348203
 40
0.862997165
 40
1.0
 40
1.0
 40
1.0
 40
1.0
 10
42.7359166992
 20
46.4684416449
 30
0.0
 10
42.5232213193
 20
46.4684416449
 30
0.0
 10
42.114328284
 20
46.4590801795
 30
0.0
 10
41.5494134822
 20
46.4140250779
 30
0.0
 10
41.0657564703
 20
46.3522950097
 30
0.0
 10
40.748007589
 20
46.2572812634
 30
0.0
 10
40.4908202921
 20
46.1854220264
 30
0.0
 10
40.4848044453
 20
45.9727993432
 30
0.0
 10
40.7418291077
 20
45.8972379076
 30
0.0
 10
41.0564496336
 20
45.8028778025
 30
0.0
 10
41.5427389376
 20
45.739714105
 30
0.0
 10
42.1107612141
 20
45.6943230024
 30
0.0
 10
42.5223360343
 20
45.6848093342
 30
0.0
 10
42.7359166992
 20
45.6848093342
 30
0.0
  0
SPLINE
  5
41F
100
AcDbEntity
  8
0
100
AcDbSpline
 62
7
  6
BYLAYER
 70
0
 71
3
 72
18
 73
14
 74
0
 42
0.0000001
 43
0.0000001
 44
0.0000000001
 40
0.0
 40
0.0
 40
0.0
 40
0.0
 40
0.1364349627
 40
0.2615967675
 40
0.3657659256
 40
0.4423893738
 40
0.4876913072
 40
0.5114735014
 40
0.5558436663
 40
0.6320161804
 40
0.7367348203
 40
0.862997165
 40
1.0
 40
1.0
 40
1.0
 40
1.0
 10
42.7359166992
 20
45.6848093342
 30
0.0
 10
42.9486120791
 20
45.6848093342
 30
0.0
 10
43.3575051145
 20
45.6941707997
 30
0.0
 10
43.9224199162
 20
45.7392259012
 30
0.0
 10
44.4060769282
 20
45.8009559694
 30
0.0
 10
44.7238258095
 20
45.8959697157
 30
0.0
 10
44.9810131064
 20
45.9678289528
 30
0.0
 10
44.9870289532
 20
46.1804516359
 30
0.0
 10
44.7300042908
 20
46.2560130716
 30
0.0
 10
44.4153837649
 20
46.3503731767
 30
0.0
 10
43.9290944609
 20
46.4135368742
 30
0.0
 10
43.3610721844
 20
46.4589279767
 30
0.0
 10
42.9494973641
 20
46.4684416449
 30
0.0
 10
42.7359166992
 20
46.4684416449
 30
0.0
  0
SPLINE
  5
420
100
AcDbEntity
  8
0
100
AcDbSpline
 62
7
  6
BYLAYER
 70
0
 71
3
 72
15
 73
11
 74
0
 42
0.0000001
 43
0.0000001
 44
0.0000000001
 40
0.0
 40
0.0
 40
0.0
 40
0.0
 40
0.2310862972
 40
0.4448411283
 40
0.6116119977
 40
0.7331124269
 40
0.8198821503
 40
0.8843178095
 40
0.9414727304
 40
1.0
 40
1.0
 40
1.0
 40
1.0
 10
42.7359166992
 20
43.1719358597
 30
0.0
 10
42.9644548329
 20
43.1719358597
 30
0.0
 10
43.4044647884
 20
43.1819775559
 30
0.0
 10
44.0080692251
 20
43.2250819249
 30
0.0
 10
44.5008166692
 20
43.2885045456
 30
0.0
 10
44.86482699
 20
43.3617203828
 30
0.0
 10
45.1233188528
 20
43.440822677
 30
0.0
 10
45.3097114272
 20
43.5316496298
 30
0.0
 10
45.4423521084
 20
43.6583230705
 30
0.0
 10
45.4716918464
 20
43.7783949856
 30
0.0
 10
45.4665692792
 20
43.8360497615
 30
0.0
  0
SPLINE
  5
421
100
AcDbEntity
  8
0
100
AcDbSpline
 62
7
  6
BYLAYER
 70
0
 71
3
 72
15
 73
11
 74
0
 42
0.0000001
 43
0.0000001
 44
0.0000000001
 40
0.0
 40
0.0
 40
0.0
 40
0.0
 40
0.0586459801
 40
0.1159697286
 40
0.1806101107
 40
0.2676268337
 40
0.3894308253
 40
0.5565163163
 40
0.7698804734
 40
1.0
 40
1.0
 40
1.0
 40
1.0
 10
40.0052641193
 20
43.8360497615
 30
0.0
 10
40.0001311966
 20
43.7782784345
 30
0.0
 10
40.0296421442
 20
43.6578969802
 30
0.0
 10
40.1628794782
 20
43.5311096688
 30
0.0
 10
40.349937032
 20
43.4402714392
 30
0.0
 10
40.6092083264
 20
43.3611703843
 30
0.0
 10
40.9740971637
 20
43.2880040323
 30
0.0
 10
41.4670918768
 20
43.2247718257
 30
0.0
 10
42.0696725877
 20
43.1819063029
 30
0.0
 10
42.5083362113
 20
43.1719358597
 30
0.0
 10
42.7359166992
 20
43.1719358597
 30
0.0
  0
SPLINE
  5
422
100
AcDbEntity
  8
0
100
AcDbSpline
 62
7
  6
BYLAYER
 70
0
 71
3
 72
15
 73
11
 74
0
 42
0.0000001
 43
0.0000001
 44
0.0000000001
 40
0.0
 40
0.0
 40
0.0
 40
0.0
 40
0.0695136368
 40
0.1359431262
 40
0.2050066576
 40
0.291328607
 40
0.4077615677
 40
0.5647657663
 40
0.7696657813
 40
1.0
 40
1.0
 40
1.0
 40
1.0
 10
45.2908501702
 20
45.8137779132
 30
0.0
 10
45.2851463532
 20
45.8779746242
 30
0.0
 10
45.2386826674
 20
46.0024783407
 30
0.0
 10
45.0956844223
 20
46.1340516874
 30
0.0
 10
44.9095916072
 20
46.2248012369
 30
0.0
 10
44.6681671876
 20
46.2989228316
 30
0.0
 10
44.3409440969
 20
46.3654380675
 30
0.0
 10
43.9009442236
 20
46.4231479547
 30
0.0
 10
43.3530743209
 20
46.4634470245
 30
0.0
 10
42.9494711537
 20
46.4729993347
 30
0.0
 10
42.7359166992
 20
46.4729993347
 30
0.0
  0
SPLINE
  5
423
100
AcDbEntity
  8
0
100
AcDbSpline
 62
7
  6
BYLAYER
 70
0
 71
3
 72
15
 73
11
 74
0
 42
0.0000001
 43
0.0000001
 44
0.0000000001
 40
0.0
 40
0.0
 40
0.0
 40
0.0
 40
0.2339066118
 40
0.4387351122
 40
0.595040767
 40
0.710746662
 40
0.7964512351
 40
0.8649867612
 40
0.9309314249
 40
1.0
 40
1.0
 40
1.0
 40
1.0
 10
42.7359166992
 20
46.4729993347
 30
0.0
 10
42.519046528
 20
46.4729993347
 30
0.0
 10
42.1121863952
 20
46.4632281981
 30
0.0
 10
41.5617499335
 20
46.4222385041
 30
0.0
 10
41.1231880453
 20
46.3641665129
 30
0.0
 10
40.7979257338
 20
46.2974754328
 30
0.0
 10
40.558332416
 20
46.2232743264
 30
0.0
 10
40.373928032
 20
46.1324768675
 30
0.0
 10
40.2325408922
 20
46.0012237193
 30
0.0
 10
40.1866506198
 20
45.8775646548
 30
0.0
 10
40.1809832283
 20
45.8137779134
 30
0.0
  0
ELLIPSE
  5
424
100
AcDbEntity
  8
0
100
AcDbEllipse
 62
7
  6
BYLAYER
 10
42.7359166185
 20
11855.3892275244
 30
0.0
 11
0.0
 21
11852.5681374561
 31
0.0
 40
0.0272265893
 41
-3.1779493445
 42
-3.176370832
  0
ELLIPSE
  5
425
100
AcDbEntity
  8
0
100
AcDbEllipse
 62
7
  6
BYLAYER
 10
42.7359166185
 20
11855.3892275244
 30
0.0
 11
0.0
 21
11852.5681374561
 31
0.0
 40
0.0272265893
 41
-3.1068144798
 42
-3.1052359634
  0
ELLIPSE
  5
426
100
AcDbEntity
  8
0
100
AcDbEllipse
 62
7
  6
BYLAYER
 10
42.7359166992
 20
44.3885375067
 30
0.0
 11
5.2234358174
 21
0.0
 31
0.0
 40
0.5773501719
 41
-2.0034380018
 42
-1.1381546518
  0
ELLIPSE
  5
427
100
AcDbEntity
  8
0
100
AcDbEllipse
 62
7
  6
BYLAYER
 10
42.7359167806
 20
11738.8937370514
 30
0.0
 11
0.0
 21
11735.9983744191
 31
0.0
 40
0.0274970219
 41
-3.177955814
 42
-3.1763598866
  0
ELLIPSE
  5
428
100
AcDbEntity
  8
0
100
AcDbEllipse
 62
7
  6
BYLAYER
 10
42.7359167806
 20
11738.8937370514
 30
0.0
 11
-0.0
 21
11735.9983744191
 31
0.0
 40
0.0274970219
 41
-3.1068254161
 42
-3.1052294928
  0
ELLIPSE
  5
429
100
AcDbEntity
  8
0
100
AcDbEllipse
 62
7
  6
BYLAYER
 10
42.7359166992
 20
42.710003033
 30
0.0
 11
1.8104314346
 21
-0.0
 31
0.0
 40
0.5320933763
 41
0.0
 42
6.2831853072
  0
ENDSEC
  0
SECTION
  2
OBJECTS
  0
DICTIONARY
  5
C
100
AcDbDictionary
280
0
281
1
  3
ACAD_GROUP
350
D
  3
ACAD_MLINESTYLE
350
17
  3
ACAD_LAYOUT
350
1A
  3
ACAD_PLOTSETTINGS
350
19
  3
ACAD_PLOTSTYLENAME
350
E
  0
DICTIONARY
  5
D
102
{ACAD_REACTORS
330
C
102
}
100
AcDbDictionary
280
0
281
1
  0
ACDBDICTIONARYWDFLT
  5
E
102
{ACAD_REACTORS
330
C
102
}
100
AcDbDictionary
281
1
  3
Normal
350
F
100
AcDbDictionaryWithDefault
340
F
  0
DICTIONARY
  5
17
102
{ACAD_REACTORS
330
C
102
}
100
AcDbDictionary
280
0
281
1
  3
Standard
350
18
  0
DICTIONARY
  5
19
102
{ACAD_REACTORS
330
C
102
}
100
AcDbDictionary
281
1
  0
DICTIONARY
  5
1A
102
{ACAD_REACTORS
330
C
102
}
100
AcDbDictionary
281
1
  3
Model
350
42A
  3
Layout1
350
42B
  0
ACDBPLACEHOLDER
  5
F
102
{ACAD_REACTORS
330
E
102
}
  0
MLINESTYLE
  5
18
102
{ACAD_REACTORS
330
17
102
}
100
AcDbMlineStyle
  2
STANDARD
 70
0
  3

 62
256
 51
90.0
 52
90.0
 71
2
 49
0.5
 62
256
  6
BYLAYER
 49
-0.5
 62
256
  6
BYLAYER
  0
LAYOUT
  5
42A
102
{ACAD_REACTORS
330
1A
102
}
100
AcDbPlotSettings
  1

  2
none_device
  4

  6

 40
0.0
 41
0.0
 42
0.0
 43
0.0
 44
210.0
 45
297.0
 46
0.0
 47
0.0
 48
0.0
 49
0.0
140
0.0
141
0.0
142
1.0
143
1.0
 70
1024
 72
1
 73
0
 74
0
  7

 75
0
147
1.0
148
0.0
149
0.0
100
AcDbLayout
  1
Model
 70
0
 71
0
 10
0.0
 20
0.0
 11
210.0
 21
297.0
 12
0.0
 22
0.0
 32
0.0
 14
0.0
 24
0.0
 34
0.0
 15
0.0
 25
0.0
 35
0.0
146
0.0
 13
0.0
 23
0.0
 33
0.0
 16
1.0
 26
0.0
 36
0.0
 17
0.0
 27
1.0
 37
0.0
 76
0
330
210
345
0
346
0
  0
LAYOUT
  5
42B
102
{ACAD_REACTORS
330
1A
102
}
100
AcDbPlotSettings
  1

  2
none_device
  4

  6

 40
0.0
 41
0.0
 42
0.0
 43
0.0
 44
210.0
 45
297.0
 46
0.0
 47
0.0
 48
0.0
 49
0.0
140
0.0
141
0.0
142
1.0
143
1.0
 70
0
 72
1
 73
0
 74
0
  7

 75
0
147
1.0
148
0.0
149
0.0
100
AcDbLayout
  1
Layout1
 70
0
 71
1
 10
0.0
 20
0.0
 11
210.0
 21
297.0
 12
0.0
 22
0.0
 32
0.0
 14
0.0
 24
0.0
 34
0.0
 15
0.0
 25
0.0
 35
0.0
146
0.0
 13
0.0
 23
0.0
 33
0.0
 16
1.0
 26
0.0
 36
0.0
 17
0.0
 27
1.0
 37
0.0
 76
0
330
211
345
0
346
0
  0
ENDSEC
  0
EOF
