999
DXF file: C:\Users\sesa63760\Dev\_Creo\CAD\MCADPP0003172_3D-CAD\drw0001_4.dxf
999
Pro/ENGINEER 2019471 by Parametric Technology Corporation
  0
SECTION
  2
HEADER
  9
$ACADVER
  1
AC1024
  9
$DWGCODEPAGE
  3
ANSI_1252
  9
$EXTMAX
 10
174.8157007338
 20
247.2393481807
 30
0.0
  9
$EXTMIN
 10
0.0
 20
0.0
 30
0.0
  9
$LIMMIN
 10
0.0
 20
0.0
  9
$LIMMAX
 10
174.8157007338
 20
247.2393481807
  9
$VIEWCTR
 10
87.4078503669
 20
123.6196740903
  9
$VIEWSIZE
 40
247.2393481807
  9
$CLAYER
  8
0
  9
$LTSCALE
 40
16.1163426962
  9
$CELTYPE
  6
BYLAYER
  9
$DIMSCALE
 40
1.0
  9
$DIMASZ
 40
2.0811392945
  9
$DIMEXO
 40
1.0
  9
$DIMDLI
 40
11.134927681
  9
$DIMEXE
 40
1.0
  9
$DIMCEN
 40
2.6372197139
  9
$DIMLFAC
 40
1.0
  9
$DIMBLK
  1
_FILLED
  9
$DIMALT
 70
0
  9
$DIMALTF
 40
0.0393700787
  9
$DIMTXT
 40
2.9135950122
  9
$DIMTOL
 70
1
  9
$DIMLIM
 70
0
  9
$DIMTFAC
 40
1.0
  9
$DIMTP
 40
0.01
  9
$DIMTM
 40
0.01
  9
$DIMGAP
 40
0.625
  9
$DIMDSEP
 70
46
  9
$AUNITS
 70
0
  9
$PDMODE
 70
3
  9
$PDSIZE
 40
0.3125
  9
$HANDSEED
  5
5B6
  9
$TILEMODE
 70
1
  9
$MEASUREMENT
 70
1
  9
$INSUNITS
 70
4
  0
ENDSEC
  0
SECTION
  2
CLASSES
  0
CLASS
  1
ACDBDICTIONARYWDFLT
  2
AcDbDictionaryWithDefault
  3
AutoCAD 2000
 90
0
 91
1
280
0
281
0
  0
CLASS
  1
ACDBPLACEHOLDER
  2
AcDbPlaceHolder
  3
AutoCAD 2000
 90
0
 91
1
280
0
281
0
  0
CLASS
  1
LAYOUT
  2
AcDbLayout
  3
AutoCAD 2000
 90
0
 91
0
280
0
281
0
  0
ENDSEC
  0
SECTION
  2
TABLES
  0
TABLE
  2
VPORT
  5
8
100
AcDbSymbolTable
 70
2
  0
VPORT
  5
1F4
100
AcDbSymbolTableRecord
100
AcDbViewportTableRecord
  2
*ACTIVE
 70
0
 10
0.0
 20
0.0
 11
1.0
 21
1.0
 12
87.4078503669
 22
123.6196740903
 13
0.0
 23
0.0
 14
1.0
 24
1.0
 15
0.0
 25
0.0
 16
0.0
 26
0.0
 36
1.0
 17
0.0
 27
0.0
 37
0.0
 40
247.2393481807
 41
0.7070707071
 42
50.0
 43
0.0
 44
0.0
 50
0.0
 51
0.0
 71
0
 72
100
 73
1
 74
1
 75
0
 76
0
 77
0
 78
0
  0
ENDTAB
  0
TABLE
  2
LTYPE
  5
5
100
AcDbSymbolTable
 70
6
  0
LTYPE
  5
14
100
AcDbSymbolTableRecord
100
AcDbLinetypeTableRecord
  2
BYBLOCK
 70
0
  3

 72
65
 73
0
 40
0.0
  0
LTYPE
  5
15
100
AcDbSymbolTableRecord
100
AcDbLinetypeTableRecord
  2
BYLAYER
 70
0
  3

 72
65
 73
0
 40
0.0
  0
LTYPE
  5
16
100
AcDbSymbolTableRecord
100
AcDbLinetypeTableRecord
  2
CONTINUOUS
 70
64
  3
Solid line
 72
65
 73
0
 40
0.0
  0
LTYPE
  5
1F5
100
AcDbSymbolTableRecord
100
AcDbLinetypeTableRecord
  2
CENTER
 70
64
  3
____ _ ____ _ ____ _ ____ _ ____ _ ____ _ ____
 72
65
 73
4
 40
0.6
 49
0.375
 74
0
 49
-0.075
 74
0
 49
0.075
 74
0
 49
-0.075
 74
0
  0
LTYPE
  5
1F6
100
AcDbSymbolTableRecord
100
AcDbLinetypeTableRecord
  2
HIDDEN
 70
64
  3
- - - - - - - - - - - - - - - - - - - -
 72
65
 73
2
 40
0.2
 49
0.1
 74
0
 49
-0.1
 74
0
  0
LTYPE
  5
1F7
100
AcDbSymbolTableRecord
100
AcDbLinetypeTableRecord
  2
PHANTOM
 70
64
  3
_____ _ _ _____ _ _ _____ _ _ _____
 72
65
 73
6
 40
0.8
 49
0.45
 74
0
 49
-0.05
 74
0
 49
0.1
 74
0
 49
-0.05
 74
0
 49
0.1
 74
0
 49
-0.05
 74
0
  0
LTYPE
  5
1F8
100
AcDbSymbolTableRecord
100
AcDbLinetypeTableRecord
  2
DOT
 70
64
  3
. . . . . . . . . . . . . . . . . . . .
 72
65
 73
2
 40
0.2
 49
0.1
 74
0
 49
-0.1
 74
0
  0
LTYPE
  5
1F9
100
AcDbSymbolTableRecord
100
AcDbLinetypeTableRecord
  2
DASHED
 70
64
  3
- - - - - - - - - - - - - - - - - - - -
 72
65
 73
2
 40
0.2
 49
0.1
 74
0
 49
-0.1
 74
0
  0
ENDTAB
  0
TABLE
  2
LAYER
  5
2
100
AcDbSymbolTable
 70
36
  0
LAYER
  5
10
100
AcDbSymbolTableRecord
100
AcDbLayerTableRecord
  2
0
 70
0
 62
7
  6
CONTINUOUS
370
-3
390
F
  0
LAYER
  5
1FA
100
AcDbSymbolTableRecord
100
AcDbLayerTableRecord
  2
DEFAULT_1
 70
0
 62
7
  6
CENTER
370
-3
390
F
  0
LAYER
  5
1FB
100
AcDbSymbolTableRecord
100
AcDbLayerTableRecord
  2
DEFAULT_2
 70
0
 62
8
  6
HIDDEN
370
-3
390
F
  0
LAYER
  5
1FC
100
AcDbSymbolTableRecord
100
AcDbLayerTableRecord
  2
DEFAULT_3
 70
0
 62
7
  6
PHANTOM
370
-3
390
F
  0
LAYER
  5
1FD
100
AcDbSymbolTableRecord
100
AcDbLayerTableRecord
  2
00_COMPONENTS
 70
0
 62
7
  6
CONTINUOUS
370
-3
390
F
  0
LAYER
  5
1FE
100
AcDbSymbolTableRecord
100
AcDbLayerTableRecord
  2
01_1_DEFAULT_DATUMS
 70
0
 62
7
  6
CONTINUOUS
370
-3
390
F
  0
LAYER
  5
1FF
100
AcDbSymbolTableRecord
100
AcDbLayerTableRecord
  2
01_PLANES
 70
0
 62
7
  6
CONTINUOUS
370
-3
390
F
  0
LAYER
  5
200
100
AcDbSymbolTableRecord
100
AcDbLayerTableRecord
  2
02_COORD_SYS
 70
0
 62
7
  6
CONTINUOUS
370
-3
390
F
  0
LAYER
  5
201
100
AcDbSymbolTableRecord
100
AcDbLayerTableRecord
  2
03_AXES
 70
0
 62
7
  6
CONTINUOUS
370
-3
390
F
  0
LAYER
  5
202
100
AcDbSymbolTableRecord
100
AcDbLayerTableRecord
  2
04_POINTS
 70
0
 62
7
  6
CONTINUOUS
370
-3
390
F
  0
LAYER
  5
203
100
AcDbSymbolTableRecord
100
AcDbLayerTableRecord
  2
05_CURVES
 70
0
 62
7
  6
CONTINUOUS
370
-3
390
F
  0
LAYER
  5
204
100
AcDbSymbolTableRecord
100
AcDbLayerTableRecord
  2
06_SURFS
 70
0
 62
7
  6
CONTINUOUS
370
-3
390
F
  0
LAYER
  5
205
100
AcDbSymbolTableRecord
100
AcDbLayerTableRecord
  2
07_COSMETICS
 70
0
 62
7
  6
CONTINUOUS
370
-3
390
F
  0
LAYER
  5
206
100
AcDbSymbolTableRecord
100
AcDbLayerTableRecord
  2
10_NOTES
 70
0
 62
7
  6
CONTINUOUS
370
-3
390
F
  0
LAYER
  5
207
100
AcDbSymbolTableRecord
100
AcDbLayerTableRecord
  2
11_NOTES_PUB
 70
0
 62
7
  6
CONTINUOUS
370
-3
390
F
  0
LAYER
  5
208
100
AcDbSymbolTableRecord
100
AcDbLayerTableRecord
  2
13_REF_GTOL
 70
0
 62
7
  6
CONTINUOUS
370
-3
390
F
  0
LAYER
  5
209
100
AcDbSymbolTableRecord
100
AcDbLayerTableRecord
  2
16_MISC
 70
0
 62
7
  6
CONTINUOUS
370
-3
390
F
  0
LAYER
  5
20A
100
AcDbSymbolTableRecord
100
AcDbLayerTableRecord
  2
17_NO_PRINT
 70
0
 62
7
  6
CONTINUOUS
370
-3
390
F
  0
LAYER
  5
20B
100
AcDbSymbolTableRecord
100
AcDbLayerTableRecord
  2
18_DATUM_CAMS_JOINTS
 70
0
 62
7
  6
CONTINUOUS
370
-3
390
F
  0
LAYER
  5
20C
100
AcDbSymbolTableRecord
100
AcDbLayerTableRecord
  2
19_DATUM_FUNCTIONAL
 70
0
 62
7
  6
CONTINUOUS
370
-3
390
F
  0
LAYER
  5
20D
100
AcDbSymbolTableRecord
100
AcDbLayerTableRecord
  2
20_DATUM_KINEMATIC_SCHEME
 70
0
 62
7
  6
CONTINUOUS
370
-3
390
F
  0
ENDTAB
  0
TABLE
  2
STYLE
  5
3
100
AcDbSymbolTable
 70
1
  0
STYLE
  5
11
100
AcDbSymbolTableRecord
100
AcDbTextStyleTableRecord
  2
STANDARD
 70
0
 40
0.0
 41
0.8
 50
0.0
 71
0
 42
0.2
  3
txt
  4

  0
STYLE
  5
20E
100
AcDbSymbolTableRecord
100
AcDbTextStyleTableRecord
  2
TEXTSTYLE_1
 70
0
 40
0.0
 41
0.8
 50
0.0
 71
0
 42
0.2
  3
gdt
  4

  0
ENDTAB
  0
TABLE
  2
VIEW
  5
6
100
AcDbSymbolTable
 70
0
  0
ENDTAB
  0
TABLE
  2
UCS
  5
7
100
AcDbSymbolTable
 70
0
  0
ENDTAB
  0
TABLE
  2
APPID
  5
9
100
AcDbSymbolTable
 70
1
  0
APPID
  5
20F
100
AcDbSymbolTableRecord
100
AcDbRegAppTableRecord
  2
ACAD
 70
0
  0
ENDTAB
  0
TABLE
  2
BLOCK_RECORD
  5
1
100
AcDbSymbolTable
 70
0
  0
BLOCK_RECORD
  5
210
100
AcDbSymbolTableRecord
100
AcDbBlockTableRecord
  2
*Model_Space
  0
BLOCK_RECORD
  5
211
100
AcDbSymbolTableRecord
100
AcDbBlockTableRecord
  2
*Paper_Space
  0
BLOCK_RECORD
  5
212
100
AcDbSymbolTableRecord
100
AcDbBlockTableRecord
  2
_FILLED
  0
ENDTAB
  0
TABLE
  2
DIMSTYLE
  5
A
100
AcDbSymbolTable
 70
1
100
AcDbDimStyleTable
 71
0
  0
DIMSTYLE
105
213
100
AcDbSymbolTableRecord
100
AcDbDimStyleTableRecord
  2
STANDARD
 70
0
  3

  4

 40
1.0
 41
2.0811392945
 42
1.0
 43
0.38
 44
1.0
 45
0.0
 46
0.0
 47
0.01
 48
0.01
140
2.9135950122
141
0.09
142
0.0
143
25.4
144
1.0
145
0.0
146
1.0
147
0.625
 71
1
 72
0
 73
0
 74
0
 75
0
 76
0
 77
1
 78
8
 79
2
170
0
171
1
172
0
173
0
174
0
175
0
176
0
177
0
178
0
270
2
179
2
271
2
272
2
273
2
274
2
275
0
280
0
281
0
282
0
283
1
284
8
285
0
286
0
287
3
288
0
340
11
278
46
341
212
342
212
343
212
344
212
  0
ENDTAB
  0
ENDSEC
  0
SECTION
  2
BLOCKS
  0
BLOCK
  5
20
100
AcDbEntity
  8
0
100
AcDbBlockBegin
  2
*Model_Space
 70
0
 10
0.0
 20
0.0
 30
0.0
  3
*Model_Space
  1

  0
ENDBLK
  5
21
100
AcDbEntity
  8
0
100
AcDbBlockEnd
  0
BLOCK
  5
1C
100
AcDbEntity
  8
0
100
AcDbBlockBegin
  2
*Paper_Space
 70
0
 10
0.0
 20
0.0
 30
0.0
  3
*Paper_Space
  1

  0
ENDBLK
  5
1D
100
AcDbEntity
  8
0
100
AcDbBlockEnd
  0
BLOCK
  5
214
100
AcDbEntity
  8
0
100
AcDbBlockBegin
  2
_FILLED
 70
64
 10
0.0
 20
0.0
  3
_FILLED
  1

  0
SOLID
  5
215
100
AcDbEntity
  8
0
  6
BYBLOCK
 62
0
100
AcDbTrace
 10
0.0
 20
0.0
 11
-1.0
 21
0.25
 12
-1.0
 22
-0.25
 13
-1.0
 23
-0.25
  0
ENDBLK
  5
216
100
AcDbEntity
  8
0
  6
BYBLOCK
 62
0
100
AcDbBlockEnd
  0
ENDSEC
  0
SECTION
  2
ENTITIES
  0
LWPOLYLINE
  5
217
100
AcDbEntity
  8
0
100
AcDbPolyline
 62
7
  6
CONTINUOUS
 90
10
 70
0
 10
96.6108547579
 20
17.7029528387
 10
96.8496034335
 20
17.70378779
 10
97.1143576268
 20
17.7068045915
 10
97.3405567608
 20
17.7115384917
 10
97.5239978055
 20
17.7175186365
 10
97.5996628858
 20
17.7208609233
 10
97.7210987165
 20
17.7281518648
 10
97.8084495869
 20
17.736534377
 10
97.8924135152
 20
17.7521328945
 10
97.9418320885
 20
17.7684732477
  0
LINE
  5
218
100
AcDbEntity
  8
0
100
AcDbLine
 62
7
  6
CONTINUOUS
 10
101.0096537556
 20
19.219278848
 11
99.3576091457
 21
18.8567810289
  0
LINE
  5
219
100
AcDbEntity
  8
0
100
AcDbLine
 62
7
  6
CONTINUOUS
 10
97.8001120022
 20
17.7413617849
 11
97.9417021859
 21
17.7684162186
  0
LINE
  5
21A
100
AcDbEntity
  8
0
100
AcDbLine
 62
7
  6
CONTINUOUS
 10
98.8837255179
 20
18.1449707169
 11
98.7410047101
 21
18.1181204577
  0
LWPOLYLINE
  5
21B
100
AcDbEntity
  8
0
100
AcDbPolyline
 62
7
  6
CONTINUOUS
 90
3
 70
0
 10
99.107059274
 20
18.5821799417
 10
99.5579315835
 20
18.6518491671
 10
99.8431221136
 20
18.7522837979
  0
LINE
  5
21C
100
AcDbEntity
  8
0
100
AcDbLine
 62
7
  6
CONTINUOUS
 10
82.7441240812
 20
17.7029525667
 11
96.6108547762
 21
17.7029525667
  0
LINE
  5
21D
100
AcDbEntity
  8
0
100
AcDbLine
 62
7
  6
CONTINUOUS
 10
98.7410047101
 20
18.1181204577
 11
80.6139741421
 21
18.1181204577
  0
LINE
  5
21E
100
AcDbEntity
  8
0
100
AcDbLine
 62
7
  6
CONTINUOUS
 10
96.6108547716
 20
20.5900759608
 11
82.7441240806
 21
20.5900759608
  0
LINE
  5
21F
100
AcDbEntity
  8
0
100
AcDbLine
 62
7
  6
CONTINUOUS
 10
82.7441240815
 20
21.0091824165
 11
96.6108547709
 21
21.0091824165
  0
LINE
  5
220
100
AcDbEntity
  8
0
100
AcDbLine
 62
7
  6
CONTINUOUS
 10
96.6108547715
 20
21.0753518572
 11
82.7441240807
 21
21.0753518572
  0
LINE
  5
221
100
AcDbEntity
  8
0
100
AcDbLine
 62
7
  6
CONTINUOUS
 10
82.7434582371
 20
21.4944583129
 11
96.6115235342
 21
21.4944583129
  0
LINE
  5
222
100
AcDbEntity
  8
0
100
AcDbLine
 62
7
  6
CONTINUOUS
 10
98.120170125
 20
21.5326360073
 11
81.2348087271
 21
21.5326360073
  0
LINE
  5
223
100
AcDbEntity
  8
0
100
AcDbLine
 62
7
  6
CONTINUOUS
 10
79.8013157341
 20
18.650498827
 11
80.2478068902
 21
18.581722228
  0
LINE
  5
224
100
AcDbEntity
  8
0
100
AcDbLine
 62
7
  6
CONTINUOUS
 10
80.6139741421
 20
18.1181204577
 11
80.4713058656
 21
18.1450960408
  0
LINE
  5
225
100
AcDbEntity
  8
0
100
AcDbLine
 62
7
  6
CONTINUOUS
 10
81.4132368714
 20
17.768432151
 11
81.5548668511
 21
17.7413617845
  0
LINE
  5
226
100
AcDbEntity
  8
0
100
AcDbLine
 62
7
  6
CONTINUOUS
 10
79.997369837
 20
18.8567813498
 11
78.3453833645
 21
19.2194212852
  0
LWPOLYLINE
  5
227
100
AcDbEntity
  8
0
100
AcDbPolyline
 62
7
  6
CONTINUOUS
 90
10
 70
0
 10
81.4128168869
 20
17.7686038783
 10
81.4566712831
 20
17.7537425828
 10
81.5427531883
 20
17.7370168388
 10
81.6309467166
 20
17.7283735397
 10
81.752893114
 20
17.7209798054
 10
81.8285178814
 20
17.7176174558
 10
82.0113004266
 20
17.7116214337
 10
82.2363655496
 20
17.706873388
 10
82.5003031759
 20
17.7038240196
 10
82.7441240943
 20
17.7029529816
  0
LINE
  5
228
100
AcDbEntity
  8
0
100
AcDbLine
 62
7
  6
CONTINUOUS
 10
79.5111830246
 20
18.7525473024
 11
79.8013157341
 21
18.650498827
  0
LINE
  5
229
100
AcDbEntity
  8
0
100
AcDbLine
 62
7
  6
CONTINUOUS
 10
79.4655760778
 20
18.7705273912
 11
79.5109594004
 21
18.7526261394
  0
LINE
  5
22A
100
AcDbEntity
  8
0
100
AcDbLine
 62
7
  6
CONTINUOUS
 10
80.4714781515
 20
18.1455375981
 11
81.4132368714
 21
17.768432151
  0
LINE
  5
22B
100
AcDbEntity
  8
0
100
AcDbLine
 62
7
  6
CONTINUOUS
 10
81.5548668501
 20
17.7413617849
 11
80.6139741421
 21
18.1181204577
  0
LINE
  5
22C
100
AcDbEntity
  8
0
100
AcDbLine
 62
7
  6
CONTINUOUS
 10
79.4655763862
 20
18.7705272678
 11
78.3452649872
 21
19.219129996
  0
LINE
  5
22D
100
AcDbEntity
  8
0
100
AcDbLine
 62
7
  6
CONTINUOUS
 10
80.1014531694
 20
18.7928857161
 11
79.8746887243
 21
18.8836882812
  0
LINE
  5
22E
100
AcDbEntity
  8
0
100
AcDbLine
 62
7
  6
CONTINUOUS
 10
81.2348087271
 20
25.025189805
 11
98.1201701251
 21
25.025189805
  0
LINE
  5
22F
100
AcDbEntity
  8
0
100
AcDbLine
 62
7
  6
CONTINUOUS
 10
97.8054894261
 20
25.8231851091
 11
81.5494894261
 21
25.8231851091
  0
LINE
  5
230
100
AcDbEntity
  8
0
100
AcDbLine
 62
7
  6
CONTINUOUS
 10
103.9649894261
 20
33.2474128289
 11
103.9387430354
 21
33.2474128289
  0
LINE
  5
231
100
AcDbEntity
  8
0
100
AcDbLine
 62
7
  6
CONTINUOUS
 10
75.4157258362
 20
33.2474128289
 11
75.3899894261
 21
33.2474128289
  0
LINE
  5
232
100
AcDbEntity
  8
0
100
AcDbLine
 62
7
  6
CONTINUOUS
 10
81.5494894261
 20
40.8567240204
 11
97.8054894261
 21
40.8567240204
  0
LINE
  5
233
100
AcDbEntity
  8
0
100
AcDbLine
 62
7
  6
CONTINUOUS
 10
81.5494894261
 20
40.9495884601
 11
97.8054894261
 21
40.9495884601
  0
LINE
  5
234
100
AcDbEntity
  8
0
100
AcDbLine
 62
7
  6
CONTINUOUS
 10
98.1201701251
 20
41.7475837642
 11
81.2348087271
 21
41.7475837642
  0
LINE
  5
235
100
AcDbEntity
  8
0
100
AcDbLine
 62
7
  6
CONTINUOUS
 10
98.1201701251
 20
44.5356485989
 11
81.2348086456
 21
44.5356485989
  0
LWPOLYLINE
  5
236
100
AcDbEntity
  8
0
100
AcDbPolyline
 62
7
  6
CONTINUOUS
 90
3
 70
0
 10
81.2348085645
 20
44.5356450656
 10
79.8013157852
 20
44.3148327316
 10
79.5111830248
 20
44.2127842401
  0
LWPOLYLINE
  5
237
100
AcDbEntity
  8
0
100
AcDbPolyline
 62
7
  6
CONTINUOUS
 90
3
 70
0
 10
99.8431221137
 20
44.2130477445
 10
99.5579316345
 20
44.3134823592
 10
98.1201701709
 20
44.5356466596
  0
LINE
  5
238
100
AcDbEntity
  8
0
100
AcDbLine
 62
7
  6
CONTINUOUS
 10
102.8518957021
 20
39.8372584625
 11
103.9649894261
 21
39.391545885
  0
LINE
  5
239
100
AcDbEntity
  8
0
100
AcDbLine
 62
7
  6
CONTINUOUS
 10
99.8433484083
 20
44.2129660367
 11
99.8894028051
 21
44.1948041389
  0
LINE
  5
23A
100
AcDbEntity
  8
0
100
AcDbLine
 62
7
  6
CONTINUOUS
 10
99.8894024381
 20
44.1948042859
 11
101.009713865
 21
43.7462015465
  0
LINE
  5
23B
100
AcDbEntity
  8
0
100
AcDbLine
 62
7
  6
CONTINUOUS
 10
103.9649894261
 20
33.2474128289
 11
103.9460313295
 21
33.2607346664
  0
LINE
  5
23C
100
AcDbEntity
  8
0
100
AcDbLine
 62
7
  6
CONTINUOUS
 10
96.4338894261
 20
64.2807735696
 11
94.0208894261
 21
64.2807735696
  0
LINE
  5
23D
100
AcDbEntity
  8
0
100
AcDbLine
 62
7
  6
CONTINUOUS
 10
82.9210894261
 20
64.2807735696
 11
85.3340894261
 21
64.2807735696
  0
LINE
  5
23E
100
AcDbEntity
  8
0
100
AcDbLine
 62
7
  6
CONTINUOUS
 10
78.6030894261
 20
186.4940707158
 11
78.7554894261
 21
186.6464707158
  0
LINE
  5
23F
100
AcDbEntity
  8
0
100
AcDbLine
 62
7
  6
CONTINUOUS
 10
98.3909551761
 20
83.4970707158
 11
97.7038894261
 21
83.4970707158
  0
LINE
  5
240
100
AcDbEntity
  8
0
100
AcDbLine
 62
7
  6
CONTINUOUS
 10
94.0208894261
 20
83.4970707158
 11
85.3340894261
 21
83.4970707158
  0
LINE
  5
241
100
AcDbEntity
  8
0
100
AcDbLine
 62
7
  6
CONTINUOUS
 10
81.6510894261
 20
83.4970707158
 11
80.9640236761
 21
83.4970707158
  0
LINE
  5
242
100
AcDbEntity
  8
0
100
AcDbLine
 62
7
  6
CONTINUOUS
 10
98.246662416
 20
84.0744616254
 11
97.7038894261
 21
84.0744616254
  0
LINE
  5
243
100
AcDbEntity
  8
0
100
AcDbLine
 62
7
  6
CONTINUOUS
 10
94.0208894261
 20
84.0744616254
 11
93.141274449
 21
84.0744616254
  0
LINE
  5
244
100
AcDbEntity
  8
0
100
AcDbLine
 62
7
  6
CONTINUOUS
 10
86.2137043942
 20
84.0744616254
 11
85.3340894261
 21
84.0744616254
  0
LINE
  5
245
100
AcDbEntity
  8
0
100
AcDbLine
 62
7
  6
CONTINUOUS
 10
81.6510894261
 20
84.0744616254
 11
81.1083164373
 21
84.0744616254
  0
LINE
  5
246
100
AcDbEntity
  8
0
100
AcDbLine
 62
7
  6
CONTINUOUS
 10
91.1798773158
 20
84.8694848304
 11
88.1751015364
 21
84.8694848304
  0
LINE
  5
247
100
AcDbEntity
  8
0
100
AcDbLine
 62
7
  6
CONTINUOUS
 10
81.1083164338
 20
85.8196577335
 11
81.6510894261
 21
85.8196577335
  0
LINE
  5
248
100
AcDbEntity
  8
0
100
AcDbLine
 62
7
  6
CONTINUOUS
 10
85.3340894261
 20
85.8196577335
 11
86.2137043971
 21
85.8196577335
  0
LINE
  5
249
100
AcDbEntity
  8
0
100
AcDbLine
 62
7
  6
CONTINUOUS
 10
93.1412744546
 20
85.8196577335
 11
94.0208894261
 21
85.8196577335
  0
LINE
  5
24A
100
AcDbEntity
  8
0
100
AcDbLine
 62
7
  6
CONTINUOUS
 10
97.7038894261
 20
85.8196577335
 11
98.2466624184
 21
85.8196577335
  0
LINE
  5
24B
100
AcDbEntity
  8
0
100
AcDbLine
 62
7
  6
CONTINUOUS
 10
92.879305576
 20
217.6399010052
 11
92.8812407283
 21
217.644432623
  0
LINE
  5
24C
100
AcDbEntity
  8
0
100
AcDbLine
 62
7
  6
CONTINUOUS
 10
88.2151077433
 20
90.1129506553
 11
91.1398711089
 21
90.1129506547
  0
LINE
  5
24D
100
AcDbEntity
  8
0
100
AcDbLine
 62
7
  6
CONTINUOUS
 10
97.8001120021
 20
20.3626380033
 11
98.7410047101
 21
18.1181204577
  0
LINE
  5
24E
100
AcDbEntity
  8
0
100
AcDbLine
 62
7
  6
CONTINUOUS
 10
99.1205548901
 20
18.4948415282
 11
98.1796621822
 21
20.7393590736
  0
LINE
  5
24F
100
AcDbEntity
  8
0
100
AcDbLine
 62
7
  6
CONTINUOUS
 10
98.1796621821
 20
20.7519948072
 11
99.1205548901
 21
18.5074772617
  0
LINE
  5
250
100
AcDbEntity
  8
0
100
AcDbLine
 62
7
  6
CONTINUOUS
 10
98.120170125
 20
21.5326360073
 11
98.2086065711
 21
21.3216691739
  0
LINE
  5
251
100
AcDbEntity
  8
0
100
AcDbLine
 62
7
  6
CONTINUOUS
 10
98.5395429527
 20
21.1278586556
 11
99.4802901279
 21
18.8836882812
  0
LINE
  5
252
100
AcDbEntity
  8
0
100
AcDbLine
 62
7
  6
CONTINUOUS
 10
91.2691839653
 20
227.0080192878
 11
91.1629363087
 21
226.5828667575
  0
LINE
  5
253
100
AcDbEntity
  8
0
100
AcDbLine
 62
7
  6
CONTINUOUS
 10
92.6868782795
 20
225.059795137
 11
92.793125936
 21
225.4849476674
  0
LINE
  5
254
100
AcDbEntity
  8
0
100
AcDbLine
 62
7
  6
CONTINUOUS
 10
98.3549823901
 20
204.9204884779
 11
98.7983117186
 21
205.9128806875
  0
LINE
  5
255
100
AcDbEntity
  8
0
100
AcDbLine
 62
7
  6
CONTINUOUS
 10
103.9649894261
 20
23.5737856575
 11
102.8518957021
 21
26.2290920194
  0
LINE
  5
256
100
AcDbEntity
  8
0
100
AcDbLine
 62
7
  6
CONTINUOUS
 10
76.3070960659
 20
120.903641612
 11
76.3257142471
 21
106.4224351044
  0
LINE
  5
257
100
AcDbEntity
  8
0
100
AcDbLine
 62
7
  6
CONTINUOUS
 10
76.3347080701
 20
104.8294208826
 11
76.355306717
 21
88.807800715
  0
LINE
  5
258
100
AcDbEntity
  8
0
100
AcDbLine
 62
7
  6
CONTINUOUS
 10
75.3899894261
 20
39.391545885
 11
75.3899894261
 21
33.2474128289
  0
LINE
  5
259
100
AcDbEntity
  8
0
100
AcDbLine
 62
7
  6
CONTINUOUS
 10
75.3899894261
 20
29.7179187136
 11
75.3899894261
 21
23.5737856575
  0
LINE
  5
25A
100
AcDbEntity
  8
0
100
AcDbLine
 62
7
  6
CONTINUOUS
 10
75.4280894261
 20
177.2549404642
 11
75.4280894261
 21
163.1411718131
  0
LINE
  5
25B
100
AcDbEntity
  8
0
100
AcDbLine
 62
7
  6
CONTINUOUS
 10
75.8090894261
 20
122.5678163986
 11
75.8090894261
 21
190.7141324428
  0
LINE
  5
25C
100
AcDbEntity
  8
0
100
AcDbLine
 62
7
  6
CONTINUOUS
 10
76.2154894261
 20
88.2483184879
 11
76.2154894261
 21
121.0675288713
  0
LINE
  5
25D
100
AcDbEntity
  8
0
100
AcDbLine
 62
7
  6
CONTINUOUS
 10
76.2154894261
 20
190.7142572708
 11
76.2154894261
 21
223.2718229437
  0
LINE
  5
25E
100
AcDbEntity
  8
0
100
AcDbLine
 62
7
  6
CONTINUOUS
 10
76.3663803527
 20
218.129808249
 11
76.2813608463
 21
190.7142572708
  0
LINE
  5
25F
100
AcDbEntity
  8
0
100
AcDbLine
 62
7
  6
CONTINUOUS
 10
76.3874846315
 20
222.5835800285
 11
76.3778997707
 21
219.4928142626
  0
LINE
  5
260
100
AcDbEntity
  8
0
100
AcDbLine
 62
7
  6
CONTINUOUS
 10
92.846233367
 20
211.4632479525
 11
92.6670541658
 21
210.6051516444
  0
LINE
  5
261
100
AcDbEntity
  8
0
100
AcDbLine
 62
7
  6
CONTINUOUS
 10
98.3909551761
 20
228.0230707158
 11
98.2082105964
 21
227.291813924
  0
LINE
  5
262
100
AcDbEntity
  8
0
100
AcDbLine
 62
7
  6
CONTINUOUS
 10
100.7518894261
 20
161.8560707158
 11
100.5994894261
 21
161.7036707158
  0
LINE
  5
263
100
AcDbEntity
  8
0
100
AcDbLine
 62
7
  6
CONTINUOUS
 10
101.2173027708
 20
105.4394484875
 11
97.7038894261
 21
105.4394484875
  0
LINE
  5
264
100
AcDbEntity
  8
0
100
AcDbLine
 62
7
  6
CONTINUOUS
 10
94.0208894261
 20
105.4394484875
 11
93.1664992053
 21
105.4394484875
  0
LINE
  5
265
100
AcDbEntity
  8
0
100
AcDbLine
 62
7
  6
CONTINUOUS
 10
86.1884796469
 20
105.4394484875
 11
85.3340894261
 21
105.4394484875
  0
LINE
  5
266
100
AcDbEntity
  8
0
100
AcDbLine
 62
7
  6
CONTINUOUS
 10
81.6510894261
 20
105.4394484875
 11
78.1376762775
 21
105.4394484875
  0
LINE
  5
267
100
AcDbEntity
  8
0
100
AcDbLine
 62
7
  6
CONTINUOUS
 10
101.2173027372
 20
106.0420252947
 11
97.7038894261
 21
106.0420252947
  0
LINE
  5
268
100
AcDbEntity
  8
0
100
AcDbLine
 62
7
  6
CONTINUOUS
 10
94.0208894261
 20
106.0420252947
 11
93.1721626521
 21
106.0420252947
  0
LINE
  5
269
100
AcDbEntity
  8
0
100
AcDbLine
 62
7
  6
CONTINUOUS
 10
78.1376762775
 20
106.042025296
 11
81.6510894261
 21
106.042025296
  0
LINE
  5
26A
100
AcDbEntity
  8
0
100
AcDbLine
 62
7
  6
CONTINUOUS
 10
85.3340894261
 20
106.042025296
 11
86.1828162153
 21
106.042025296
  0
LINE
  5
26B
100
AcDbEntity
  8
0
100
AcDbLine
 62
7
  6
CONTINUOUS
 10
77.8496561632
 20
106.6446021049
 11
81.6510894261
 21
106.6446021049
  0
LINE
  5
26C
100
AcDbEntity
  8
0
100
AcDbLine
 62
7
  6
CONTINUOUS
 10
85.3340894261
 20
106.6446021048
 11
86.1799844996
 21
106.6446021048
  0
LINE
  5
26D
100
AcDbEntity
  8
0
100
AcDbLine
 62
7
  6
CONTINUOUS
 10
93.1749943526
 20
106.6446021048
 11
94.0208894261
 21
106.6446021048
  0
LINE
  5
26E
100
AcDbEntity
  8
0
100
AcDbLine
 62
7
  6
CONTINUOUS
 10
97.7038894261
 20
106.6446021049
 11
101.505322689
 21
106.644602105
  0
LINE
  5
26F
100
AcDbEntity
  8
0
100
AcDbLine
 62
7
  6
CONTINUOUS
 10
81.8186938177
 20
84.6673965228
 11
81.6510894261
 21
85.559557601
  0
LINE
  5
270
100
AcDbEntity
  8
0
100
AcDbLine
 62
7
  6
CONTINUOUS
 10
81.6350843509
 20
119.9364558857
 11
81.6340599365
 21
119.94694319
  0
LWPOLYLINE
  5
271
100
AcDbEntity
  8
0
100
AcDbPolyline
 62
7
  6
CONTINUOUS
 90
6
 70
0
 10
78.9805240157
 20
148.3375760439
 10
78.9808421536
 20
148.3336840663
 10
78.9826550907
 20
148.3033767711
 10
78.9849609905
 20
148.2491430884
 10
78.9874619204
 20
148.171728919
 10
78.9900671815
 20
148.0702993128
  0
LINE
  5
272
100
AcDbEntity
  8
0
100
AcDbLine
 62
7
  6
CONTINUOUS
 10
78.8728382682
 20
189.7875932743
 11
78.8814907058
 21
189.3746491904
  0
LINE
  5
273
100
AcDbEntity
  8
0
100
AcDbLine
 62
7
  6
CONTINUOUS
 10
78.9900671815
 20
148.0702993128
 11
78.9954478811
 21
147.789511452
  0
LINE
  5
274
100
AcDbEntity
  8
0
100
AcDbLine
 62
7
  6
CONTINUOUS
 10
78.8814907058
 20
189.3746491904
 11
78.8902807365
 21
188.8586575834
  0
LINE
  5
275
100
AcDbEntity
  8
0
100
AcDbLine
 62
7
  6
CONTINUOUS
 10
78.8902807365
 20
188.8586575834
 11
78.8991797545
 21
188.2264474932
  0
LINE
  5
276
100
AcDbEntity
  8
0
100
AcDbLine
 62
7
  6
CONTINUOUS
 10
78.9954478811
 20
147.789511452
 11
78.9995767121
 21
147.5008496286
  0
LINE
  5
277
100
AcDbEntity
  8
0
100
AcDbLine
 62
7
  6
CONTINUOUS
 10
78.8991797545
 20
188.2264474932
 11
78.9058922054
 21
187.6671284917
  0
LINE
  5
278
100
AcDbEntity
  8
0
100
AcDbLine
 62
7
  6
CONTINUOUS
 10
78.9995767121
 20
147.5008496286
 11
79.0051057241
 21
146.9923659457
  0
LINE
  5
279
100
AcDbEntity
  8
0
100
AcDbLine
 62
7
  6
CONTINUOUS
 10
78.9058922054
 20
187.6671284917
 11
78.914818402
 21
186.7959691792
  0
LINE
  5
27A
100
AcDbEntity
  8
0
100
AcDbLine
 62
7
  6
CONTINUOUS
 10
78.914818402
 20
186.7959691792
 11
78.9236004598
 21
185.7673258437
  0
LINE
  5
27B
100
AcDbEntity
  8
0
100
AcDbLine
 62
7
  6
CONTINUOUS
 10
79.0051057241
 20
146.9923659457
 11
79.0104712566
 21
146.3175528105
  0
LINE
  5
27C
100
AcDbEntity
  8
0
100
AcDbLine
 62
7
  6
CONTINUOUS
 10
78.9236004598
 20
185.7673258437
 11
78.9320908069
 21
184.5637787553
  0
LWPOLYLINE
  5
27D
100
AcDbEntity
  8
0
100
AcDbPolyline
 62
7
  6
CONTINUOUS
 90
11
 70
0
 10
78.9320908069
 20
184.5637787553
 10
78.9400980991
 20
183.165663609
 10
78.9438441838
 20
182.3874052264
 10
78.9473681934
 20
181.5527515452
 10
78.9506252791
 20
180.6593699773
 10
78.9535639997
 20
179.7049378672
 10
78.9561259474
 20
178.6864844289
 10
78.958243469
 20
177.6014498241
 10
78.9598355456
 20
176.4481663772
 10
78.9608092647
 20
175.2261229087
 10
78.9610736632
 20
174.1750707269
  0
LWPOLYLINE
  5
27E
100
AcDbEntity
  8
0
100
AcDbPolyline
 62
7
  6
CONTINUOUS
 90
6
 70
0
 10
79.0104712566
 20
146.3175528105
 10
79.0153736394
 20
145.444896751
 10
79.0175130742
 20
144.9235963391
 10
79.0193393511
 20
144.3400336165
 10
79.0207535049
 20
143.6898853751
 10
79.0216285991
 20
142.9696692165
  0
LINE
  5
27F
100
AcDbEntity
  8
0
100
AcDbLine
 62
7
  6
CONTINUOUS
 10
77.8496561632
 20
106.6446021049
 11
77.8328427894
 21
119.7220308754
  0
LINE
  5
280
100
AcDbEntity
  8
0
100
AcDbLine
 62
7
  6
CONTINUOUS
 10
77.8792486878
 20
89.0299251982
 11
77.858650043
 21
105.0515347595
  0
LINE
  5
281
100
AcDbEntity
  8
0
100
AcDbLine
 62
7
  6
CONTINUOUS
 10
78.4516043727
 20
162.3281965289
 11
78.4876072317
 21
131.2136083862
  0
LINE
  5
282
100
AcDbEntity
  8
0
100
AcDbLine
 62
7
  6
CONTINUOUS
 10
78.7415993963
 20
131.2506291327
 11
78.706305106
 21
161.7528550359
  0
LINE
  5
283
100
AcDbEntity
  8
0
100
AcDbLine
 62
7
  6
CONTINUOUS
 10
76.5030831501
 20
26.2290920195
 11
76.5030831501
 21
39.8372584626
  0
LINE
  5
284
100
AcDbEntity
  8
0
100
AcDbLine
 62
7
  6
CONTINUOUS
 10
78.1376762775
 20
106.042025296
 11
78.1376762775
 21
105.4394484875
  0
LINE
  5
285
100
AcDbEntity
  8
0
100
AcDbLine
 62
7
  6
CONTINUOUS
 10
78.1623389579
 20
123.3467941698
 11
78.1623389579
 21
119.5338467641
  0
LINE
  5
286
100
AcDbEntity
  8
0
100
AcDbLine
 62
7
  6
CONTINUOUS
 10
78.1807389993
 20
218.6130765454
 11
78.1807389993
 21
218.1163293855
  0
LINE
  5
287
100
AcDbEntity
  8
0
100
AcDbLine
 62
7
  6
CONTINUOUS
 10
78.2220894261
 20
126.4007343918
 11
78.2220894261
 21
190.7140500676
  0
LINE
  5
288
100
AcDbEntity
  8
0
100
AcDbLine
 62
7
  6
CONTINUOUS
 10
78.6030894261
 20
186.4940740173
 11
78.6030894261
 21
161.8560674143
  0
LINE
  5
289
100
AcDbEntity
  8
0
100
AcDbLine
 62
7
  6
CONTINUOUS
 10
78.7554894261
 20
188.4371707158
 11
78.7554894261
 21
159.9129707158
  0
LINE
  5
28A
100
AcDbEntity
  8
0
100
AcDbLine
 62
7
  6
CONTINUOUS
 10
79.0721751938
 20
142.2863709527
 11
79.0721751938
 21
193.4976280703
  0
LINE
  5
28B
100
AcDbEntity
  8
0
100
AcDbLine
 62
7
  6
CONTINUOUS
 10
79.6660013165
 20
40.1904700062
 11
79.6660013165
 21
26.582303563
  0
LINE
  5
28C
100
AcDbEntity
  8
0
100
AcDbLine
 62
7
  6
CONTINUOUS
 10
80.1841902586
 20
218.1163293855
 11
80.1841902586
 21
218.6130765454
  0
LINE
  5
28D
100
AcDbEntity
  8
0
100
AcDbLine
 62
7
  6
CONTINUOUS
 10
80.2344239621
 20
18.4948415282
 11
80.2344239621
 21
18.5074772617
  0
LINE
  5
28E
100
AcDbEntity
  8
0
100
AcDbLine
 62
7
  6
CONTINUOUS
 10
80.2672221971
 20
129.7349816736
 11
80.2672221971
 21
129.4441157224
  0
LINE
  5
28F
100
AcDbEntity
  8
0
100
AcDbLine
 62
7
  6
CONTINUOUS
 10
80.2978211988
 20
205.9129671621
 11
80.2978182813
 21
206.2518624077
  0
LINE
  5
290
100
AcDbEntity
  8
0
100
AcDbLine
 62
7
  6
CONTINUOUS
 10
80.3126615681
 20
129.7349816736
 11
80.3126616958
 21
129.4441157224
  0
LINE
  5
291
100
AcDbEntity
  8
0
100
AcDbLine
 62
7
  6
CONTINUOUS
 10
80.3904848853
 20
205.9129671621
 11
80.3904848853
 21
206.2518624077
  0
LINE
  5
292
100
AcDbEntity
  8
0
100
AcDbLine
 62
7
  6
CONTINUOUS
 10
80.4257377221
 20
217.6195822256
 11
80.4257377221
 21
218.1167075272
  0
LINE
  5
293
100
AcDbEntity
  8
0
100
AcDbLine
 62
7
  6
CONTINUOUS
 10
80.59612819
 20
193.4974513239
 11
80.59612819
 21
142.2865347097
  0
LINE
  5
294
100
AcDbEntity
  8
0
100
AcDbLine
 62
7
  6
CONTINUOUS
 10
80.7874894261
 20
26.5795052766
 11
80.7874894261
 21
40.1932682925
  0
LINE
  5
295
100
AcDbEntity
  8
0
100
AcDbLine
 62
7
  6
CONTINUOUS
 10
81.1083164375
 20
85.8196577335
 11
81.1083164375
 21
84.0744616254
  0
LINE
  5
296
100
AcDbEntity
  8
0
100
AcDbLine
 62
7
  6
CONTINUOUS
 10
81.17531667
 20
20.7393590736
 11
81.17531667
 21
20.7519948072
  0
LINE
  5
297
100
AcDbEntity
  8
0
100
AcDbLine
 62
7
  6
CONTINUOUS
 10
81.2348086456
 20
44.5356485379
 11
81.2348086456
 21
41.7475837642
  0
LINE
  5
298
100
AcDbEntity
  8
0
100
AcDbLine
 62
7
  6
CONTINUOUS
 10
81.2348087271
 20
25.025189805
 11
81.2348087271
 21
21.5326360073
  0
LINE
  5
299
100
AcDbEntity
  8
0
100
AcDbLine
 62
7
  6
CONTINUOUS
 10
81.4150097258
 20
118.6716303602
 11
81.4150097258
 21
122.4789023734
  0
LINE
  5
29A
100
AcDbEntity
  8
0
100
AcDbLine
 62
7
  6
CONTINUOUS
 10
81.4246868737
 20
143.5955432652
 11
81.4246868737
 21
192.5625979926
  0
LINE
  5
29B
100
AcDbEntity
  8
0
100
AcDbLine
 62
7
  6
CONTINUOUS
 10
81.5494894261
 20
40.9495884601
 11
81.5494894261
 21
40.8567240204
  0
LINE
  5
29C
100
AcDbEntity
  8
0
100
AcDbLine
 62
7
  6
CONTINUOUS
 10
81.551667531
 20
192.5626125358
 11
81.551667531
 21
143.5955288958
  0
LINE
  5
29D
100
AcDbEntity
  8
0
100
AcDbLine
 62
7
  6
CONTINUOUS
 10
81.6510894261
 20
119.7879407086
 11
81.6510894261
 21
48.6259229024
  0
LINE
  5
29E
100
AcDbEntity
  8
0
100
AcDbLine
 62
7
  6
CONTINUOUS
 10
81.6809423583
 20
192.5603101363
 11
81.6809423583
 21
143.5978310907
  0
LINE
  5
29F
100
AcDbEntity
  8
0
100
AcDbLine
 62
7
  6
CONTINUOUS
 10
82.3389476061
 20
193.4768732682
 11
82.3389476061
 21
193.3498926109
  0
LINE
  5
2A0
100
AcDbEntity
  8
0
100
AcDbLine
 62
7
  6
CONTINUOUS
 10
82.338947606
 20
142.8082488207
 11
82.338947606
 21
142.6812681634
  0
LINE
  5
2A1
100
AcDbEntity
  8
0
100
AcDbLine
 62
7
  6
CONTINUOUS
 10
82.3412417761
 20
193.3475984409
 11
82.3412417761
 21
193.2206177836
  0
LINE
  5
2A2
100
AcDbEntity
  8
0
100
AcDbLine
 62
7
  6
CONTINUOUS
 10
82.3412417763
 20
142.937523648
 11
82.3412417763
 21
142.8105429907
  0
LINE
  5
2A3
100
AcDbEntity
  8
0
100
AcDbLine
 62
7
  6
CONTINUOUS
 10
82.7441240825
 20
21.4944583129
 11
82.744124076
 21
20.5900759608
  0
LINE
  5
2A4
100
AcDbEntity
  8
0
100
AcDbLine
 62
7
  6
CONTINUOUS
 10
82.7441240812
 20
17.7031846617
 11
82.7441240812
 21
17.7029525667
  0
LINE
  5
2A5
100
AcDbEntity
  8
0
100
AcDbLine
 62
7
  6
CONTINUOUS
 10
82.8787448832
 20
48.2783880556
 11
82.8787476231
 21
48.1848439619
  0
LINE
  5
2A6
100
AcDbEntity
  8
0
100
AcDbLine
 62
7
  6
CONTINUOUS
 10
82.8787560928
 20
120.1224898639
 11
82.8787560928
 21
83.5038557151
  0
LINE
  5
2A7
100
AcDbEntity
  8
0
100
AcDbLine
 62
7
  6
CONTINUOUS
 10
82.9210894261
 20
120.5243806313
 11
82.9210894261
 21
44.5356485989
  0
LINE
  5
2A8
100
AcDbEntity
  8
0
100
AcDbLine
 62
7
  6
CONTINUOUS
 10
82.8787522407
 20
83.4035422841
 11
82.8787404774
 21
45.8807912387
  0
LWPOLYLINE
  5
2A9
100
AcDbEntity
  8
0
100
AcDbPolyline
 62
7
  6
CONTINUOUS
 90
8
 70
0
 10
79.0216285991
 20
142.9696692165
 10
79.0216362526
 20
141.8939386714
 10
79.0207583064
 20
141.1624762181
 10
79.0193123957
 20
140.4998248047
 10
79.0174300373
 20
139.9037870757
 10
79.0152127656
 20
139.3706674742
 10
79.0127471863
 20
138.8968520181
 10
79.010099926
 20
138.4783402239
  0
LINE
  5
2AA
100
AcDbEntity
  8
0
100
AcDbLine
 62
7
  6
CONTINUOUS
 10
78.9565871953
 20
169.8715830091
 11
78.9610862175
 21
174.1750700969
  0
LWPOLYLINE
  5
2AB
100
AcDbEntity
  8
0
100
AcDbPolyline
 62
7
  6
CONTINUOUS
 90
27
 70
0
 10
78.9565794495
 20
169.8715497963
 10
78.9528069466
 20
168.381970557
 10
78.949562755
 20
167.3836349798
 10
78.9459664092
 20
166.4514162197
 10
78.9420743763
 20
165.5829646651
 10
78.9379377791
 20
164.7758658395
 10
78.9336004984
 20
164.0273644693
 10
78.9290992909
 20
163.3347156497
 10
78.9244687063
 20
162.6954280835
 10
78.919739413
 20
162.1069739781
 10
78.914936941
 20
161.5668384245
 10
78.9100827669
 20
161.0724929837
 10
78.9051961687
 20
160.6214360097
 10
78.9002935307
 20
160.2113213696
 10
78.8953880788
 20
159.8399259
 10
78.8904906414
 20
159.5050763945
 10
78.8856104742
 20
159.2046803234
 10
78.8807604418
 20
158.9371088704
 10
78.8759567259
 20
158.7010105456
 10
78.871215238
 20
158.4949767178
 10
78.8665524249
 20
158.3175051038
 10
78.8619864453
 20
158.1671228147
 10
78.8575424599
 20
158.0424932754
 10
78.8532742714
 20
157.9427312665
 10
78.8492727528
 20
157.8669547633
 10
78.8457159735
 20
157.814435183
 10
78.8430063953
 20
157.7849770236
  0
LINE
  5
2AC
100
AcDbEntity
  8
0
100
AcDbLine
 62
7
  6
CONTINUOUS
 10
78.5153480302
 20
204.4950668689
 11
78.4474120055
 21
180.1540839917
  0
LINE
  5
2AD
100
AcDbEntity
  8
0
100
AcDbLine
 62
7
  6
CONTINUOUS
 10
78.7196618944
 20
186.6106431841
 11
78.7693401957
 21
204.4100168943
  0
LINE
  5
2AE
100
AcDbEntity
  8
0
100
AcDbLine
 62
7
  6
CONTINUOUS
 10
77.8068853291
 20
190.7142572708
 11
77.8903225524
 21
217.6195822258
  0
LINE
  5
2AF
100
AcDbEntity
  8
0
100
AcDbLine
 62
7
  6
CONTINUOUS
 10
77.9114266022
 20
222.0732801767
 11
77.9018417886
 21
218.9825430375
  0
LINE
  5
2B0
100
AcDbEntity
  8
0
100
AcDbLine
 62
7
  6
CONTINUOUS
 10
80.2043744523
 20
225.1217098345
 11
80.1841902586
 21
218.6130765454
  0
LINE
  5
2B1
100
AcDbEntity
  8
0
100
AcDbLine
 62
7
  6
CONTINUOUS
 10
80.4257377913
 20
217.6195822258
 11
80.3904848853
 21
206.2518624077
  0
LINE
  5
2B2
100
AcDbEntity
  8
0
100
AcDbLine
 62
7
  6
CONTINUOUS
 10
79.010099926
 20
138.4783402239
 11
79.0044749141
 21
137.7915121949
  0
LWPOLYLINE
  5
2B3
100
AcDbEntity
  8
0
100
AcDbPolyline
 62
7
  6
CONTINUOUS
 90
9
 70
0
 10
79.0044749141
 20
137.7915121949
 10
78.9986616044
 20
137.2792664377
 10
78.9957507448
 20
137.0795002282
 10
78.9928633127
 20
136.9132371041
 10
78.9900272727
 20
136.7781300447
 10
78.9872760124
 20
136.6720003671
 10
78.9846597077
 20
136.5929653358
 10
78.9823096232
 20
136.5400861888
 10
78.9805799097
 20
136.513223304
  0
LWPOLYLINE
  5
2B4
100
AcDbEntity
  8
0
100
AcDbPolyline
 62
7
  6
CONTINUOUS
 90
3
 70
0
 10
81.6510894261
 20
117.964779209
 10
81.6301496324
 20
117.8013871649
 10
81.6356097204
 20
117.6149818232
  0
LINE
  5
2B5
100
AcDbEntity
  8
0
100
AcDbLine
 62
7
  6
CONTINUOUS
 10
78.9970860566
 20
132.3865634592
 11
78.7415993963
 21
131.2506291327
  0
LINE
  5
2B6
100
AcDbEntity
  8
0
100
AcDbLine
 62
7
  6
CONTINUOUS
 10
80.2672221966
 20
129.7349817404
 11
80.5210403387
 21
130.8634975558
  0
LINE
  5
2B7
100
AcDbEntity
  8
0
100
AcDbLine
 62
7
  6
CONTINUOUS
 10
99.057160104
 20
205.9129671621
 11
98.8339385135
 21
204.920488478
  0
LINE
  5
2B8
100
AcDbEntity
  8
0
100
AcDbLine
 62
7
  6
CONTINUOUS
 10
100.3578928973
 20
203.3974230268
 11
100.5856386565
 21
204.4100168945
  0
LINE
  5
2B9
100
AcDbEntity
  8
0
100
AcDbLine
 62
7
  6
CONTINUOUS
 10
102.9674942207
 20
222.5835800275
 11
103.1394894261
 21
223.2718229437
  0
LINE
  5
2BA
100
AcDbEntity
  8
0
100
AcDbLine
 62
7
  6
CONTINUOUS
 10
80.9357881855
 20
130.8634975557
 11
80.3126616162
 21
129.7349816068
  0
LINE
  5
2BB
100
AcDbEntity
  8
0
100
AcDbLine
 62
7
  6
CONTINUOUS
 10
97.9399691264
 20
118.6716303602
 11
101.1926398943
 21
119.5338467641
  0
LINE
  5
2BC
100
AcDbEntity
  8
0
100
AcDbLine
 62
7
  6
CONTINUOUS
 10
78.1623389579
 20
119.5338467641
 11
81.4150097258
 21
118.6716303602
  0
LINE
  5
2BD
100
AcDbEntity
  8
0
100
AcDbLine
 62
7
  6
CONTINUOUS
 10
91.1798773158
 20
84.8694848304
 11
91.3630885605
 21
84.1363606674
  0
LINE
  5
2BE
100
AcDbEntity
  8
0
100
AcDbLine
 62
7
  6
CONTINUOUS
 10
81.6352589466
 20
119.9356168344
 11
81.6350843509
 21
119.9364558857
  0
LINE
  5
2BF
100
AcDbEntity
  8
0
100
AcDbLine
 62
7
  6
CONTINUOUS
 10
81.625798021
 20
119.2859906169
 11
81.6254516985
 21
119.2877248321
  0
LINE
  5
2C0
100
AcDbEntity
  8
0
100
AcDbLine
 62
7
  6
CONTINUOUS
 10
81.625798021
 20
121.6076016088
 11
81.6254516985
 21
121.609335824
  0
LWPOLYLINE
  5
2C1
100
AcDbEntity
  8
0
100
AcDbPolyline
 62
7
  6
CONTINUOUS
 90
6
 70
0
 10
81.6254516985
 20
121.609335824
 10
81.6467808524
 20
121.4886640365
 10
81.6991333594
 20
121.0032292617
 10
81.68561635
 20
120.5558018646
 10
81.6301496324
 20
120.1229981568
 10
81.6356097204
 20
119.9365928151
  0
LINE
  5
2C2
100
AcDbEntity
  8
0
100
AcDbLine
 62
7
  6
CONTINUOUS
 10
81.6254516985
 20
119.2877248321
 11
81.6244774235
 21
119.294525313
  0
LINE
  5
2C3
100
AcDbEntity
  8
0
100
AcDbLine
 62
7
  6
CONTINUOUS
 10
81.6254516985
 20
121.609335824
 11
81.6244774235
 21
121.6161363049
  0
LWPOLYLINE
  5
2C4
100
AcDbEntity
  8
0
100
AcDbPolyline
 62
7
  6
CONTINUOUS
 90
10
 70
0
 10
92.7610028259
 20
89.4919496283
 10
92.7604835522
 20
89.4981089464
 10
92.7583137824
 20
89.5343309934
 10
92.7556375937
 20
89.5973501701
 10
92.7527598144
 20
89.686599602
 10
92.7497782033
 20
89.8031499902
 10
92.7467405044
 20
89.9486394679
 10
92.7436672893
 20
90.1255224189
 10
92.7405764128
 20
90.3368337323
 10
92.7374908055
 20
90.5860481022
  0
LINE
  5
2C5
100
AcDbEntity
  8
0
100
AcDbLine
 62
7
  6
CONTINUOUS
 10
86.5875044544
 20
117.5848323279
 11
86.5931257461
 21
117.2738070367
  0
LINE
  5
2C6
100
AcDbEntity
  8
0
100
AcDbLine
 62
7
  6
CONTINUOUS
 10
86.5931257461
 20
117.2738070367
 11
86.5987925555
 21
116.8443399063
  0
LINE
  5
2C7
100
AcDbEntity
  8
0
100
AcDbLine
 62
7
  6
CONTINUOUS
 10
86.5987925555
 20
116.8443399063
 11
86.6043300933
 21
116.2756893367
  0
LWPOLYLINE
  5
2C8
100
AcDbEntity
  8
0
100
AcDbPolyline
 62
7
  6
CONTINUOUS
 90
5
 70
0
 10
86.6043300933
 20
116.2756893367
 10
86.6094802132
 20
115.544912748
 10
86.6117980111
 20
115.1112073058
 10
86.613864711
 20
114.6278371979
 10
86.6156073593
 20
114.0916384976
  0
LWPOLYLINE
  5
2C9
100
AcDbEntity
  8
0
100
AcDbPolyline
 62
7
  6
CONTINUOUS
 90
7
 70
0
 10
86.5753996611
 20
117.9420167758
 10
86.5754019826
 20
117.9415704978
 10
86.5771517177
 20
117.915429609
 10
86.5795059074
 20
117.8659131957
 10
86.5820744737
 20
117.7948216613
 10
86.5847549152
 20
117.7015701348
 10
86.5875044544
 20
117.5848323279
  0
LINE
  5
2CA
100
AcDbEntity
  8
0
100
AcDbLine
 62
7
  6
CONTINUOUS
 10
86.707311551
 20
221.4857957175
 11
86.7353718646
 21
209.4857830756
  0
LINE
  5
2CB
100
AcDbEntity
  8
0
100
AcDbLine
 62
7
  6
CONTINUOUS
 10
88.2593139314
 20
209.8801817488
 11
88.2312535217
 21
221.8802359408
  0
LINE
  5
2CC
100
AcDbEntity
  8
0
100
AcDbLine
 62
7
  6
CONTINUOUS
 10
86.6156073593
 20
114.0916384976
 11
86.6174917246
 21
113.0993480613
  0
LINE
  5
2CD
100
AcDbEntity
  8
0
100
AcDbLine
 62
7
  6
CONTINUOUS
 10
86.1799844996
 20
106.6446021048
 11
86.1581496027
 21
123.6400461949
  0
LINE
  5
2CE
100
AcDbEntity
  8
0
100
AcDbLine
 62
7
  6
CONTINUOUS
 10
86.2137043971
 20
85.8196577335
 11
86.1884796469
 21
105.4394484875
  0
LINE
  5
2CF
100
AcDbEntity
  8
0
100
AcDbLine
 62
7
  6
CONTINUOUS
 10
86.4339748304
 20
106.6816210377
 11
86.4121241199
 21
123.6770667567
  0
LINE
  5
2D0
100
AcDbEntity
  8
0
100
AcDbLine
 62
7
  6
CONTINUOUS
 10
86.4679483209
 20
85.6594322878
 11
86.4424699725
 21
105.4764714207
  0
LINE
  5
2D1
100
AcDbEntity
  8
0
100
AcDbLine
 62
7
  6
CONTINUOUS
 10
86.5207072795
 20
111.7297818288
 11
86.539460789
 21
94.3356087229
  0
LWPOLYLINE
  5
2D2
100
AcDbEntity
  8
0
100
AcDbPolyline
 62
7
  6
CONTINUOUS
 90
11
 70
0
 10
86.6175031078
 20
113.0998525891
 10
86.6364033507
 20
95.5421827126
 10
86.6365440859
 20
94.7322869329
 10
86.635775306
 20
93.9929191131
 10
86.6343092567
 20
93.3252595877
 10
86.6323077155
 20
92.7267651592
 10
86.6299065528
 20
92.1944176037
 10
86.6272106675
 20
91.7241456311
 10
86.6243053209
 20
91.3115905938
 10
86.621254557
 20
90.9522168658
 10
86.6181136214
 20
90.6417961101
  0
LINE
  5
2D3
100
AcDbEntity
  8
0
100
AcDbLine
 62
7
  6
CONTINUOUS
 10
85.3340894261
 20
44.5356485989
 11
85.3340894261
 21
120.5243806313
  0
LINE
  5
2D4
100
AcDbEntity
  8
0
100
AcDbLine
 62
7
  6
CONTINUOUS
 10
86.2137050536
 20
84.0744616254
 11
86.2137050536
 21
85.8196577335
  0
LINE
  5
2D5
100
AcDbEntity
  8
0
100
AcDbLine
 62
7
  6
CONTINUOUS
 10
86.7472731703
 20
126.8397964906
 11
86.6911657725
 21
90.3775904766
  0
LINE
  5
2D6
100
AcDbEntity
  8
0
100
AcDbLine
 62
7
  6
CONTINUOUS
 10
88.2151077433
 20
90.1129506553
 11
88.2712151667
 21
126.5752507642
  0
LINE
  5
2D7
100
AcDbEntity
  8
0
100
AcDbLine
 62
7
  6
CONTINUOUS
 10
86.5087427801
 20
211.4629552896
 11
86.5270436831
 21
217.3642102058
  0
LINE
  5
2D8
100
AcDbEntity
  8
0
100
AcDbLine
 62
7
  6
CONTINUOUS
 10
86.5366700479
 20
217.3644322993
 11
86.5618529162
 21
225.4849476674
  0
LWPOLYLINE
  5
2D9
100
AcDbEntity
  8
0
100
AcDbPolyline
 62
7
  6
CONTINUOUS
 90
9
 70
0
 10
86.6181136214
 20
90.6417961101
 10
86.6133296503
 20
90.259431407
 10
86.610138968
 20
90.0543295372
 10
86.6069737567
 20
89.8846685633
 10
86.6038519053
 20
89.7473143426
 10
86.6008079239
 20
89.6400436225
 10
86.5979183246
 20
89.5614344522
 10
86.5953655175
 20
89.5108812163
 10
86.5942629281
 20
89.4951765482
  0
LINE
  5
2DA
100
AcDbEntity
  8
0
100
AcDbLine
 62
7
  6
CONTINUOUS
 10
86.6362420736
 20
95.7055652498
 11
86.6362562689
 21
95.7060026523
  0
LINE
  5
2DB
100
AcDbEntity
  8
0
100
AcDbLine
 62
7
  6
CONTINUOUS
 10
86.6175032027
 20
113.0997645545
 11
86.6174889681
 21
113.099334949
  0
LINE
  5
2DC
100
AcDbEntity
  8
0
100
AcDbLine
 62
7
  6
CONTINUOUS
 10
86.4121241199
 20
123.6770667567
 11
86.6879393467
 21
125.114671466
  0
LINE
  5
2DD
100
AcDbEntity
  8
0
100
AcDbLine
 62
7
  6
CONTINUOUS
 10
76.355306717
 20
88.807800715
 11
76.2154894261
 21
88.2483184879
  0
LINE
  5
2DE
100
AcDbEntity
  8
0
100
AcDbLine
 62
7
  6
CONTINUOUS
 10
101.1926398943
 20
123.3467941698
 11
97.9399691264
 21
122.4789023734
  0
LINE
  5
2DF
100
AcDbEntity
  8
0
100
AcDbLine
 62
7
  6
CONTINUOUS
 10
97.3154387706
 20
124.7998969421
 11
100.5681095385
 21
125.6677887385
  0
LINE
  5
2E0
100
AcDbEntity
  8
0
100
AcDbLine
 62
7
  6
CONTINUOUS
 10
81.4150097257
 20
122.4789023734
 11
78.1623389579
 21
123.3467941698
  0
LINE
  5
2E1
100
AcDbEntity
  8
0
100
AcDbLine
 62
7
  6
CONTINUOUS
 10
78.7868693137
 20
125.6677887385
 11
82.0395400816
 21
124.7998969421
  0
LINE
  5
2E2
100
AcDbEntity
  8
0
100
AcDbLine
 62
7
  6
CONTINUOUS
 10
92.8870305313
 20
85.6594322878
 11
92.7038192866
 21
86.3925564509
  0
LINE
  5
2E3
100
AcDbEntity
  8
0
100
AcDbLine
 62
7
  6
CONTINUOUS
 10
98.246662416
 20
84.0744616254
 11
98.3909551761
 21
83.4970707158
  0
LWPOLYLINE
  5
2E4
100
AcDbEntity
  8
0
100
AcDbPolyline
 62
7
  6
CONTINUOUS
 90
10
 70
0
 10
78.8426603703
 20
190.5680276742
 10
78.8429893594
 20
190.5653094813
 10
78.8453755473
 20
190.5399581453
 10
78.8486563949
 20
190.4933156566
 10
78.8523180135
 20
190.4270915415
 10
78.8561978719
 20
190.3411759549
 10
78.8602248833
 20
190.2349605857
 10
78.864358455
 20
190.1077465614
 10
78.8685704522
 20
189.9588357121
 10
78.8728382682
 20
189.7875932743
  0
LINE
  5
2E5
100
AcDbEntity
  8
0
100
AcDbLine
 62
7
  6
CONTINUOUS
 10
92.7374898784
 20
113.0993336455
 11
92.7374756494
 21
113.0997645193
  0
LINE
  5
2E6
100
AcDbEntity
  8
0
100
AcDbLine
 62
7
  6
CONTINUOUS
 10
92.7187225833
 20
95.7060026296
 11
92.7187367852
 21
95.7055664059
  0
LWPOLYLINE
  5
2E7
100
AcDbEntity
  8
0
100
AcDbPolyline
 62
7
  6
CONTINUOUS
 90
10
 70
0
 10
92.7374908055
 20
90.5860481022
 10
92.734440215
 20
90.8766664834
 10
92.7314632645
 20
91.2122068399
 10
92.7286082627
 20
91.5964148698
 10
92.7259294971
 20
92.0333874468
 10
92.7234980727
 20
92.5271021625
 10
92.7214023509
 20
93.0814123699
 10
92.7197538423
 20
93.6993838161
 10
92.7186895964
 20
94.3836179436
 10
92.7183756222
 20
95.1350326533
  0
LINE
  5
2E8
100
AcDbEntity
  8
0
100
AcDbLine
 62
7
  6
CONTINUOUS
 10
92.793125936
 20
225.4849476674
 11
92.8183088043
 21
217.3644322992
  0
LINE
  5
2E9
100
AcDbEntity
  8
0
100
AcDbLine
 62
7
  6
CONTINUOUS
 10
92.8279351416
 20
217.3642180235
 11
92.846233367
 21
211.4632479525
  0
LINE
  5
2EA
100
AcDbEntity
  8
0
100
AcDbLine
 62
7
  6
CONTINUOUS
 10
91.0837637977
 20
126.5751789932
 11
91.1398711089
 21
90.1129506547
  0
LINE
  5
2EB
100
AcDbEntity
  8
0
100
AcDbLine
 62
7
  6
CONTINUOUS
 10
92.6638130797
 20
90.3775904766
 11
92.6077057966
 21
126.8397216415
  0
LINE
  5
2EC
100
AcDbEntity
  8
0
100
AcDbLine
 62
7
  6
CONTINUOUS
 10
93.1412750001
 20
85.8196577335
 11
93.1412750001
 21
84.0744616254
  0
LINE
  5
2ED
100
AcDbEntity
  8
0
100
AcDbLine
 62
7
  6
CONTINUOUS
 10
94.0208894261
 20
120.5243806313
 11
94.0208894261
 21
44.5356485989
  0
LINE
  5
2EE
100
AcDbEntity
  8
0
100
AcDbLine
 62
7
  6
CONTINUOUS
 10
96.4338894261
 20
44.5356485989
 11
96.4338894261
 21
120.5243806313
  0
LINE
  5
2EF
100
AcDbEntity
  8
0
100
AcDbLine
 62
7
  6
CONTINUOUS
 10
96.4762227594
 20
83.503855438
 11
96.4762227594
 21
120.1224898639
  0
LINE
  5
2F0
100
AcDbEntity
  8
0
100
AcDbLine
 62
7
  6
CONTINUOUS
 10
96.476227312
 20
48.9604715614
 11
96.476227312
 21
83.4034757488
  0
LINE
  5
2F1
100
AcDbEntity
  8
0
100
AcDbLine
 62
7
  6
CONTINUOUS
 10
96.6108547762
 20
17.7029525667
 11
96.6108547762
 21
17.7031846617
  0
LINE
  5
2F2
100
AcDbEntity
  8
0
100
AcDbLine
 62
7
  6
CONTINUOUS
 10
96.610854771
 20
20.5900759608
 11
96.6108547715
 21
21.4944583129
  0
LINE
  5
2F3
100
AcDbEntity
  8
0
100
AcDbLine
 62
7
  6
CONTINUOUS
 10
97.0137370761
 20
142.8105429907
 11
97.0137370761
 21
142.937523648
  0
LINE
  5
2F4
100
AcDbEntity
  8
0
100
AcDbLine
 62
7
  6
CONTINUOUS
 10
97.0137370759
 20
193.2206177836
 11
97.0137370759
 21
193.3475984409
  0
LINE
  5
2F5
100
AcDbEntity
  8
0
100
AcDbLine
 62
7
  6
CONTINUOUS
 10
97.0160312461
 20
142.6812681634
 11
97.0160312461
 21
142.8082488207
  0
LINE
  5
2F6
100
AcDbEntity
  8
0
100
AcDbLine
 62
7
  6
CONTINUOUS
 10
97.0160312462
 20
193.3498926109
 11
97.0160312462
 21
193.4809867522
  0
LINE
  5
2F7
100
AcDbEntity
  8
0
100
AcDbLine
 62
7
  6
CONTINUOUS
 10
97.6740364939
 20
143.597831118
 11
97.6740364939
 21
192.5603101642
  0
LINE
  5
2F8
100
AcDbEntity
  8
0
100
AcDbLine
 62
7
  6
CONTINUOUS
 10
96.4762291012
 20
45.8807880422
 11
96.4762383661
 21
45.9702810828
  0
LINE
  5
2F9
100
AcDbEntity
  8
0
100
AcDbLine
 62
7
  6
CONTINUOUS
 10
92.8155180655
 20
94.3356108872
 11
92.8342715743
 21
111.7297833249
  0
LINE
  5
2FA
100
AcDbEntity
  8
0
100
AcDbLine
 62
7
  6
CONTINUOUS
 10
92.9125089016
 20
105.4764884715
 11
92.8870305313
 21
85.6594322878
  0
LINE
  5
2FB
100
AcDbEntity
  8
0
100
AcDbLine
 62
7
  6
CONTINUOUS
 10
92.942854822
 20
123.6771560592
 11
92.9210040177
 21
106.6816178153
  0
LINE
  5
2FC
100
AcDbEntity
  8
0
100
AcDbLine
 62
7
  6
CONTINUOUS
 10
93.1412744546
 20
85.8196577335
 11
93.1664992053
 21
105.4394484875
  0
LINE
  5
2FD
100
AcDbEntity
  8
0
100
AcDbLine
 62
7
  6
CONTINUOUS
 10
93.1749943526
 20
106.6446021048
 11
93.1968451505
 21
123.6401353138
  0
LWPOLYLINE
  5
2FE
100
AcDbEntity
  8
0
100
AcDbPolyline
 62
7
  6
CONTINUOUS
 90
17
 70
0
 10
92.7183756222
 20
95.1350326533
 10
92.7382171414
 20
113.593125662
 10
92.739912291
 20
114.2768321352
 10
92.7421482648
 20
114.8843924001
 10
92.7447828179
 20
115.4202025298
 10
92.7477075675
 20
115.8895587609
 10
92.7508317425
 20
116.2974740291
 10
92.7540868811
 20
116.6489817645
 10
92.7574143026
 20
116.9488070213
 10
92.7607684631
 20
117.2014598782
 10
92.7641152463
 20
117.4113461548
 10
92.7674284403
 20
117.5826941505
 10
92.7706851206
 20
117.7190296479
 10
92.7738412026
 20
117.8227980731
 10
92.7767920016
 20
117.8955383313
 10
92.7792052821
 20
117.936940444
 10
92.7793796146
 20
117.9391905434
  0
LINE
  5
2FF
100
AcDbEntity
  8
0
100
AcDbLine
 62
7
  6
CONTINUOUS
 10
91.0956649038
 20
209.880174457
 11
91.1237253305
 21
221.8802359397
  0
LINE
  5
300
100
AcDbEntity
  8
0
100
AcDbLine
 62
7
  6
CONTINUOUS
 10
92.6196069189
 20
209.4857538221
 11
92.6476673012
 21
221.4857957175
  0
LINE
  5
301
100
AcDbEntity
  8
0
100
AcDbLine
 62
7
  6
CONTINUOUS
 10
80.9640236761
 20
83.4970707158
 11
81.1083164373
 21
84.0744616254
  0
LINE
  5
302
100
AcDbEntity
  8
0
100
AcDbLine
 62
7
  6
CONTINUOUS
 10
86.6511595656
 20
86.3925564509
 11
86.4679483209
 21
85.6594322878
  0
LINE
  5
303
100
AcDbEntity
  8
0
100
AcDbLine
 62
7
  6
CONTINUOUS
 10
87.9918902917
 20
84.1363606674
 11
88.1751015364
 21
84.8694848304
  0
LINE
  5
304
100
AcDbEntity
  8
0
100
AcDbLine
 62
7
  6
CONTINUOUS
 10
96.852325895
 20
121.3253782223
 11
96.4792714487
 21
120.5578943973
  0
LINE
  5
305
100
AcDbEntity
  8
0
100
AcDbLine
 62
7
  6
CONTINUOUS
 10
97.1020715423
 20
129.4194398854
 11
99.0422990657
 21
129.7349259583
  0
LINE
  5
306
100
AcDbEntity
  8
0
100
AcDbLine
 62
7
  6
CONTINUOUS
 10
80.3126616752
 20
129.4441232051
 11
80.267222199
 21
129.4441157227
  0
LINE
  5
307
100
AcDbEntity
  8
0
100
AcDbLine
 62
7
  6
CONTINUOUS
 10
93.9498510301
 20
126.7786707158
 11
93.7707483153
 21
126.7786707158
  0
LINE
  5
308
100
AcDbEntity
  8
0
100
AcDbLine
 62
7
  6
CONTINUOUS
 10
99.0877566527
 20
129.4441157267
 11
99.0422990537
 21
129.4441157252
  0
LINE
  5
309
100
AcDbEntity
  8
0
100
AcDbLine
 62
7
  6
CONTINUOUS
 10
80.3126616162
 20
129.7349816068
 11
80.2672221966
 21
129.7349817404
  0
LINE
  5
30A
100
AcDbEntity
  8
0
100
AcDbLine
 62
7
  6
CONTINUOUS
 10
99.0422990563
 20
129.7349817403
 11
99.0877566519
 21
129.7349817405
  0
LINE
  5
30B
100
AcDbEntity
  8
0
100
AcDbLine
 62
7
  6
CONTINUOUS
 10
98.8339385135
 20
130.8634975558
 11
98.4191906719
 21
130.8634975559
  0
LINE
  5
30C
100
AcDbEntity
  8
0
100
AcDbLine
 62
7
  6
CONTINUOUS
 10
80.9357881855
 20
130.8634975557
 11
80.5210403387
 21
130.8634975558
  0
LINE
  5
30D
100
AcDbEntity
  8
0
100
AcDbLine
 62
7
  6
CONTINUOUS
 10
103.1394894261
 20
88.2483184879
 11
102.9996721352
 21
88.8078007127
  0
LINE
  5
30E
100
AcDbEntity
  8
0
100
AcDbLine
 62
7
  6
CONTINUOUS
 10
78.7693401957
 20
204.4100168943
 11
78.9970859548
 21
203.3974230275
  0
LWPOLYLINE
  5
30F
100
AcDbEntity
  8
0
100
AcDbPolyline
 62
7
  6
CONTINUOUS
 90
6
 70
0
 10
100.3744520503
 20
136.512600724
 10
100.3741391649
 20
136.5164282814
 10
100.3723289849
 20
136.5466519799
 10
100.3700237467
 20
136.6008307984
 10
100.3675226974
 20
136.6782224618
 10
100.3649171359
 20
136.7796119481
  0
LINE
  5
310
100
AcDbEntity
  8
0
100
AcDbLine
 62
7
  6
CONTINUOUS
 10
100.3649171359
 20
136.7796119481
 11
100.3595358942
 21
137.0603204595
  0
LINE
  5
311
100
AcDbEntity
  8
0
100
AcDbLine
 62
7
  6
CONTINUOUS
 10
100.4771043445
 20
158.7998163737
 11
100.4682484034
 21
159.2791357148
  0
LINE
  5
312
100
AcDbEntity
  8
0
100
AcDbLine
 62
7
  6
CONTINUOUS
 10
100.4682484034
 20
159.2791357148
 11
100.4592668005
 21
159.8721829571
  0
LINE
  5
313
100
AcDbEntity
  8
0
100
AcDbLine
 62
7
  6
CONTINUOUS
 10
100.3595358942
 20
137.0603204595
 11
100.3554066109
 21
137.348949498
  0
LINE
  5
314
100
AcDbEntity
  8
0
100
AcDbLine
 62
7
  6
CONTINUOUS
 10
100.4592668005
 20
159.8721829571
 11
100.45020475
 21
160.5940482591
  0
LINE
  5
315
100
AcDbEntity
  8
0
100
AcDbLine
 62
7
  6
CONTINUOUS
 10
100.3554066109
 20
137.348949498
 11
100.3498768074
 21
137.8573838753
  0
LINE
  5
316
100
AcDbEntity
  8
0
100
AcDbLine
 62
7
  6
CONTINUOUS
 10
100.45020475
 20
160.5940482591
 11
100.4411487564
 21
161.4601685563
  0
LINE
  5
317
100
AcDbEntity
  8
0
100
AcDbLine
 62
7
  6
CONTINUOUS
 10
100.4411487564
 20
161.4601685563
 11
100.4322259135
 21
162.4864583012
  0
LINE
  5
318
100
AcDbEntity
  8
0
100
AcDbLine
 62
7
  6
CONTINUOUS
 10
100.3498768074
 20
137.8573838753
 11
100.3445102218
 21
138.5321748836
  0
LINE
  5
319
100
AcDbEntity
  8
0
100
AcDbLine
 62
7
  6
CONTINUOUS
 10
100.4322259135
 20
162.4864583012
 11
100.4235881999
 21
163.6907449955
  0
LWPOLYLINE
  5
31A
100
AcDbEntity
  8
0
100
AcDbPolyline
 62
7
  6
CONTINUOUS
 90
11
 70
0
 10
100.4235881999
 20
163.6907449955
 10
100.4154297175
 20
165.0934744757
 10
100.4116083515
 20
165.8757197435
 10
100.40801037
 20
166.715630662
 10
100.4046820675
 20
167.6157001694
 10
100.4016763139
 20
168.5782932881
 10
100.3990533251
 20
169.6064804132
 10
100.396883048
 20
170.7029774325
 10
100.3952489171
 20
171.8695663358
 10
100.3942477683
 20
173.1068510786
 10
100.3939746966
 20
174.1750707078
  0
LWPOLYLINE
  5
31B
100
AcDbEntity
  8
0
100
AcDbPolyline
 62
7
  6
CONTINUOUS
 90
5
 70
0
 10
100.3445102218
 20
138.5321748836
 10
100.3396072038
 20
139.4048602018
 10
100.3374672375
 20
139.9261804827
 10
100.3356398979
 20
140.5097873712
 10
100.3342247784
 20
141.1599874134
  0
LINE
  5
31C
100
AcDbEntity
  8
0
100
AcDbLine
 62
7
  6
CONTINUOUS
 10
98.9644939669
 20
206.2518624077
 11
98.9292410632
 21
217.6195822264
  0
LINE
  5
31D
100
AcDbEntity
  8
0
100
AcDbLine
 62
7
  6
CONTINUOUS
 10
99.1707885936
 20
218.6130765454
 11
99.1506043999
 21
225.1217098346
  0
LINE
  5
31E
100
AcDbEntity
  8
0
100
AcDbLine
 62
7
  6
CONTINUOUS
 10
101.44355225
 20
222.0732801767
 11
101.4531370636
 21
218.9825430375
  0
LINE
  5
31F
100
AcDbEntity
  8
0
100
AcDbLine
 62
7
  6
CONTINUOUS
 10
101.4646562998
 20
217.6195822258
 11
101.548093523
 21
190.7142572708
  0
LINE
  5
320
100
AcDbEntity
  8
0
100
AcDbLine
 62
7
  6
CONTINUOUS
 10
102.9770790827
 20
219.4928130547
 11
102.9674942207
 21
222.5835800275
  0
LINE
  5
321
100
AcDbEntity
  8
0
100
AcDbLine
 62
7
  6
CONTINUOUS
 10
103.0736180059
 20
190.7142572708
 11
102.9885985231
 21
218.1298006279
  0
LINE
  5
322
100
AcDbEntity
  8
0
100
AcDbLine
 62
7
  6
CONTINUOUS
 10
100.5856386565
 20
204.4100168945
 11
100.6353169578
 21
186.6106431841
  0
LINE
  5
323
100
AcDbEntity
  8
0
100
AcDbLine
 62
7
  6
CONTINUOUS
 10
100.9075668467
 20
180.1540839919
 11
100.8396308222
 21
204.4950668689
  0
LINE
  5
324
100
AcDbEntity
  8
0
100
AcDbLine
 62
7
  6
CONTINUOUS
 10
100.3342247784
 20
141.1599874134
 11
100.3332062914
 21
142.2863890422
  0
LINE
  5
325
100
AcDbEntity
  8
0
100
AcDbLine
 62
7
  6
CONTINUOUS
 10
97.7038894261
 20
48.6259229024
 11
97.7038894261
 21
119.7879407086
  0
LINE
  5
326
100
AcDbEntity
  8
0
100
AcDbLine
 62
7
  6
CONTINUOUS
 10
97.8033113212
 20
143.5955288958
 11
97.8033113212
 21
192.5626125358
  0
LINE
  5
327
100
AcDbEntity
  8
0
100
AcDbLine
 62
7
  6
CONTINUOUS
 10
97.8054894261
 20
40.8567240204
 11
97.8054894261
 21
40.9495884601
  0
LINE
  5
328
100
AcDbEntity
  8
0
100
AcDbLine
 62
7
  6
CONTINUOUS
 10
97.9302919785
 20
192.5626125358
 11
97.9302919785
 21
143.5955432786
  0
LINE
  5
329
100
AcDbEntity
  8
0
100
AcDbLine
 62
7
  6
CONTINUOUS
 10
97.9399691264
 20
122.4789023734
 11
97.9399691264
 21
118.6716303602
  0
LINE
  5
32A
100
AcDbEntity
  8
0
100
AcDbLine
 62
7
  6
CONTINUOUS
 10
98.1201702066
 20
21.5326360073
 11
98.1201702066
 21
25.025189805
  0
LINE
  5
32B
100
AcDbEntity
  8
0
100
AcDbLine
 62
7
  6
CONTINUOUS
 10
98.1201701251
 20
41.7475837642
 11
98.1201701251
 21
44.5356485437
  0
LINE
  5
32C
100
AcDbEntity
  8
0
100
AcDbLine
 62
7
  6
CONTINUOUS
 10
98.1796621821
 20
20.7519948072
 11
98.1796621822
 21
20.7393590736
  0
LINE
  5
32D
100
AcDbEntity
  8
0
100
AcDbLine
 62
7
  6
CONTINUOUS
 10
98.2466624159
 20
84.0744616254
 11
98.2466624159
 21
85.8196577335
  0
LINE
  5
32E
100
AcDbEntity
  8
0
100
AcDbLine
 62
7
  6
CONTINUOUS
 10
98.5674894261
 20
40.1932682925
 11
98.5674894261
 21
26.5795052766
  0
LINE
  5
32F
100
AcDbEntity
  8
0
100
AcDbLine
 62
7
  6
CONTINUOUS
 10
98.7588506622
 20
142.2865347107
 11
98.7588506622
 21
193.4974513245
  0
LINE
  5
330
100
AcDbEntity
  8
0
100
AcDbLine
 62
7
  6
CONTINUOUS
 10
98.9292411428
 20
218.116708662
 11
98.9292411428
 21
217.6195822261
  0
LINE
  5
331
100
AcDbEntity
  8
0
100
AcDbLine
 62
7
  6
CONTINUOUS
 10
98.9644939669
 20
206.2518624065
 11
98.9644939669
 21
205.9129671622
  0
LINE
  5
332
100
AcDbEntity
  8
0
100
AcDbLine
 62
7
  6
CONTINUOUS
 10
99.0422990644
 20
129.7349817404
 11
99.0422990644
 21
129.4441157259
  0
LINE
  5
333
100
AcDbEntity
  8
0
100
AcDbLine
 62
7
  6
CONTINUOUS
 10
99.0571602606
 20
206.2518624065
 11
99.0571591676
 21
205.9129671622
  0
LINE
  5
334
100
AcDbEntity
  8
0
100
AcDbLine
 62
7
  6
CONTINUOUS
 10
99.0877566522
 20
129.4441157259
 11
99.0877566522
 21
129.7349817404
  0
LINE
  5
335
100
AcDbEntity
  8
0
100
AcDbLine
 62
7
  6
CONTINUOUS
 10
99.1205548901
 20
18.4948415282
 11
99.1205548901
 21
18.5074772617
  0
LINE
  5
336
100
AcDbEntity
  8
0
100
AcDbLine
 62
7
  6
CONTINUOUS
 10
99.1707885845
 20
218.6130765454
 11
99.1707885845
 21
218.1163293855
  0
LINE
  5
337
100
AcDbEntity
  8
0
100
AcDbLine
 62
7
  6
CONTINUOUS
 10
99.6889775357
 20
26.582303563
 11
99.6889775357
 21
40.1904700062
  0
LINE
  5
338
100
AcDbEntity
  8
0
100
AcDbLine
 62
7
  6
CONTINUOUS
 10
100.2828036584
 20
193.4976280385
 11
100.2828036584
 21
142.2863709213
  0
LINE
  5
339
100
AcDbEntity
  8
0
100
AcDbLine
 62
7
  6
CONTINUOUS
 10
100.5994894261
 20
159.9129707158
 11
100.5994894261
 21
188.4371707158
  0
LINE
  5
33A
100
AcDbEntity
  8
0
100
AcDbLine
 62
7
  6
CONTINUOUS
 10
100.7518894261
 20
161.8560641585
 11
100.7518894261
 21
186.4940772731
  0
LINE
  5
33B
100
AcDbEntity
  8
0
100
AcDbLine
 62
7
  6
CONTINUOUS
 10
101.1328894261
 20
190.7141324428
 11
101.1328894261
 21
126.4007343918
  0
LINE
  5
33C
100
AcDbEntity
  8
0
100
AcDbLine
 62
7
  6
CONTINUOUS
 10
101.1742399674
 20
218.1163293855
 11
101.1742399674
 21
218.6130765454
  0
LINE
  5
33D
100
AcDbEntity
  8
0
100
AcDbLine
 62
7
  6
CONTINUOUS
 10
101.1926398943
 20
119.5338467641
 11
101.1926398943
 21
123.3467941698
  0
LINE
  5
33E
100
AcDbEntity
  8
0
100
AcDbLine
 62
7
  6
CONTINUOUS
 10
101.2173027708
 20
105.4394484875
 11
101.2173027708
 21
106.0420252961
  0
LINE
  5
33F
100
AcDbEntity
  8
0
100
AcDbLine
 62
7
  6
CONTINUOUS
 10
102.8518957021
 20
39.8372584625
 11
102.8518957021
 21
26.2290920194
  0
LINE
  5
340
100
AcDbEntity
  8
0
100
AcDbLine
 62
7
  6
CONTINUOUS
 10
103.1394894261
 20
223.2718229437
 11
103.1394894261
 21
190.7142572708
  0
LINE
  5
341
100
AcDbEntity
  8
0
100
AcDbLine
 62
7
  6
CONTINUOUS
 10
103.1394894261
 20
121.0679262211
 11
103.1394894261
 21
88.2483184879
  0
LINE
  5
342
100
AcDbEntity
  8
0
100
AcDbLine
 62
7
  6
CONTINUOUS
 10
103.5458894261
 20
122.5678163986
 11
103.5458894261
 21
190.7140500676
  0
LINE
  5
343
100
AcDbEntity
  8
0
100
AcDbLine
 62
7
  6
CONTINUOUS
 10
103.5996615903
 20
163.0268718131
 11
103.5996615903
 21
177.3692404642
  0
LINE
  5
344
100
AcDbEntity
  8
0
100
AcDbLine
 62
7
  6
CONTINUOUS
 10
103.9649894261
 20
39.391545885
 11
103.9649894261
 21
33.2474128289
  0
LINE
  5
345
100
AcDbEntity
  8
0
100
AcDbLine
 62
7
  6
CONTINUOUS
 10
103.9649894261
 20
29.7179187136
 11
103.9649894261
 21
23.5737856575
  0
LWPOLYLINE
  5
346
100
AcDbEntity
  8
0
100
AcDbPolyline
 62
7
  6
CONTINUOUS
 90
8
 70
0
 10
100.3332062914
 20
142.2863890422
 10
100.3333406384
 20
142.956142146
 10
100.3342214983
 20
143.687626028
 10
100.3356668486
 20
144.3503087418
 10
100.3375487074
 20
144.946362888
 10
100.339766042
 20
145.4795112375
 10
100.3422319244
 20
145.9533378395
 10
100.3448794309
 20
146.3718523815
  0
LINE
  5
347
100
AcDbEntity
  8
0
100
AcDbLine
 62
7
  6
CONTINUOUS
 10
100.3984507091
 20
178.4727689856
 11
100.3939621404
 21
174.1750700986
  0
LINE
  5
348
100
AcDbEntity
  8
0
100
AcDbLine
 62
7
  6
CONTINUOUS
 10
100.6486737462
 20
161.7528550359
 11
100.6133794559
 21
131.2506291327
  0
LINE
  5
349
100
AcDbEntity
  8
0
100
AcDbLine
 62
7
  6
CONTINUOUS
 10
100.8673716181
 20
131.2136083862
 11
100.903374479
 21
162.3281965289
  0
LINE
  5
34A
100
AcDbEntity
  8
0
100
AcDbLine
 62
7
  6
CONTINUOUS
 10
101.4757301644
 20
89.0299251982
 11
101.4963288092
 21
105.0515347595
  0
LINE
  5
34B
100
AcDbEntity
  8
0
100
AcDbLine
 62
7
  6
CONTINUOUS
 10
101.522136199
 20
119.7221367592
 11
101.505322689
 21
106.644602105
  0
LINE
  5
34C
100
AcDbEntity
  8
0
100
AcDbLine
 62
7
  6
CONTINUOUS
 10
102.9996721352
 20
88.8078007127
 11
103.0202707843
 21
104.8294292741
  0
LINE
  5
34D
100
AcDbEntity
  8
0
100
AcDbLine
 62
7
  6
CONTINUOUS
 10
103.0292645942
 20
106.4224266389
 11
103.0478826093
 21
120.9035039512
  0
LWPOLYLINE
  5
34E
100
AcDbEntity
  8
0
100
AcDbPolyline
 62
7
  6
CONTINUOUS
 90
3
 70
0
 10
100.3984585008
 20
178.4728319527
 10
100.4008540293
 20
179.4733441705
 10
100.4035802155
 20
180.4016064567
  0
LINE
  5
34F
100
AcDbEntity
  8
0
100
AcDbLine
 62
7
  6
CONTINUOUS
 10
100.4035802155
 20
180.4016064567
 11
100.4099019534
 21
182.0905286776
  0
LINE
  5
350
100
AcDbEntity
  8
0
100
AcDbLine
 62
7
  6
CONTINUOUS
 10
100.4099019534
 20
182.0905286776
 11
100.417098351
 21
183.5699689347
  0
LINE
  5
351
100
AcDbEntity
  8
0
100
AcDbLine
 62
7
  6
CONTINUOUS
 10
100.417098351
 20
183.5699689347
 11
100.4248983679
 21
184.8580996794
  0
LINE
  5
352
100
AcDbEntity
  8
0
100
AcDbLine
 62
7
  6
CONTINUOUS
 10
100.4248983679
 20
184.8580996794
 11
100.4330940709
 21
185.9722651892
  0
LINE
  5
353
100
AcDbEntity
  8
0
100
AcDbLine
 62
7
  6
CONTINUOUS
 10
100.3448794309
 20
146.3718523815
 11
100.3505045778
 21
147.0586876578
  0
LINE
  5
354
100
AcDbEntity
  8
0
100
AcDbLine
 62
7
  6
CONTINUOUS
 10
100.4330940709
 20
185.9722651892
 11
100.4415289809
 21
186.9296226516
  0
LINE
  5
355
100
AcDbEntity
  8
0
100
AcDbLine
 62
7
  6
CONTINUOUS
 10
100.4415289809
 20
186.9296226516
 11
100.4500768234
 21
187.7449223528
  0
LWPOLYLINE
  5
356
100
AcDbEntity
  8
0
100
AcDbPolyline
 62
7
  6
CONTINUOUS
 90
9
 70
0
 10
100.3505045778
 20
147.0586876578
 10
100.3563180696
 20
147.5709491988
 10
100.3592290654
 20
147.7706982868
 10
100.3621166527
 20
147.9369526217
 10
100.3649527505
 20
148.072067586
 10
100.3677039925
 20
148.1781903392
 10
100.3703203162
 20
148.2571967945
 10
100.3726706273
 20
148.3100745322
 10
100.3744004781
 20
148.3369423057
  0
LINE
  5
357
100
AcDbEntity
  8
0
100
AcDbLine
 62
7
  6
CONTINUOUS
 10
100.4500768234
 20
187.7449223528
 11
100.4586317615
 21
188.4316177329
  0
LINE
  5
358
100
AcDbEntity
  8
0
100
AcDbLine
 62
7
  6
CONTINUOUS
 10
100.4586317615
 20
188.4316177329
 11
100.4671199843
 21
189.0026509978
  0
LINE
  5
359
100
AcDbEntity
  8
0
100
AcDbLine
 62
7
  6
CONTINUOUS
 10
100.4671199843
 20
189.0026509978
 11
100.4754991771
 21
189.4707469728
  0
LWPOLYLINE
  5
35A
100
AcDbEntity
  8
0
100
AcDbPolyline
 62
7
  6
CONTINUOUS
 90
10
 70
0
 10
100.4754991771
 20
189.4707469728
 10
100.4837471417
 20
189.846855057
 10
100.4878124198
 20
190.0031695888
 10
100.491819655
 20
190.1392110977
 10
100.4957485105
 20
190.2555786525
 10
100.4995729427
 20
190.3529042016
 10
100.5032542842
 20
190.4317967837
 10
100.5067231842
 20
190.4927527714
 10
100.5098199236
 20
190.5357527516
 10
100.5121192339
 20
190.5596569078
  0
LWPOLYLINE
  5
35B
100
AcDbEntity
  8
0
100
AcDbPolyline
 62
7
  6
CONTINUOUS
 90
6
 70
0
 10
97.7193691318
 20
119.9365928152
 10
97.7248292201
 20
120.1229981561
 10
97.6693625029
 20
120.5558018701
 10
97.655845493
 20
121.0032292873
 10
97.7081979998
 20
121.4886640619
 10
97.7295650865
 20
121.6095370683
  0
LWPOLYLINE
  5
35C
100
AcDbEntity
  8
0
100
AcDbPolyline
 62
7
  6
CONTINUOUS
 90
3
 70
0
 10
97.7193691318
 20
117.6149818233
 10
97.7248292201
 20
117.8013871643
 10
97.7038894261
 20
117.9647792136
  0
LINE
  5
35D
100
AcDbEntity
  8
0
100
AcDbLine
 62
7
  6
CONTINUOUS
 10
97.7209189157
 20
119.94694319
 11
97.7198945013
 21
119.9364558857
  0
LINE
  5
35E
100
AcDbEntity
  8
0
100
AcDbLine
 62
7
  6
CONTINUOUS
 10
97.730522272
 20
121.6162479888
 11
97.7295650865
 21
121.6095370683
  0
LINE
  5
35F
100
AcDbEntity
  8
0
100
AcDbLine
 62
7
  6
CONTINUOUS
 10
97.730522272
 20
119.2946369969
 11
97.7295650865
 21
119.2879260765
  0
LINE
  5
360
100
AcDbEntity
  8
0
100
AcDbLine
 62
7
  6
CONTINUOUS
 10
97.7295650865
 20
121.6095370683
 11
97.7292246
 21
121.6078328056
  0
LINE
  5
361
100
AcDbEntity
  8
0
100
AcDbLine
 62
7
  6
CONTINUOUS
 10
97.7295650865
 20
119.2879260765
 11
97.7292246
 21
119.2862218137
  0
LINE
  5
362
100
AcDbEntity
  8
0
100
AcDbLine
 62
7
  6
CONTINUOUS
 10
97.7198945013
 20
119.9364558857
 11
97.7197199056
 21
119.9356168344
  0
LINE
  5
363
100
AcDbEntity
  8
0
100
AcDbLine
 62
7
  6
CONTINUOUS
 10
76.2154894261
 20
223.2718229437
 11
76.3874846315
 21
222.5835800285
  0
LINE
  5
364
100
AcDbEntity
  8
0
100
AcDbLine
 62
7
  6
CONTINUOUS
 10
80.5210403387
 20
204.9204884779
 11
80.2978187386
 21
205.912967162
  0
LINE
  5
365
100
AcDbEntity
  8
0
100
AcDbLine
 62
7
  6
CONTINUOUS
 10
98.8339385135
 20
130.8634975558
 11
99.0877566519
 21
129.7349817405
  0
LINE
  5
366
100
AcDbEntity
  8
0
100
AcDbLine
 62
7
  6
CONTINUOUS
 10
100.6133794559
 20
131.2506291327
 11
100.3578927958
 21
132.3865634584
  0
LINE
  5
367
100
AcDbEntity
  8
0
100
AcDbLine
 62
7
  6
CONTINUOUS
 10
86.6879246891
 20
210.605159206
 11
86.5087427801
 21
211.4629552896
  0
LWPOLYLINE
  5
368
100
AcDbEntity
  8
0
100
AcDbPolyline
 62
7
  6
CONTINUOUS
 90
11
 70
0
 10
100.5123613344
 20
157.7885404539
 10
100.5119282163
 20
157.7921282563
 10
100.5094338889
 20
157.81912762
 10
100.5060752973
 20
157.8677766866
 10
100.5023427082
 20
157.9365299689
 10
100.4983930395
 20
158.0255902112
 10
100.4942962404
 20
158.1356284156
 10
100.4900931218
 20
158.2673753254
 10
100.4858125993
 20
158.4215373962
 10
100.48147819
 20
158.5987416354
 10
100.4771043445
 20
158.7998163737
  0
LINE
  5
369
100
AcDbEntity
  8
0
100
AcDbLine
 62
7
  6
CONTINUOUS
 10
98.1138691006
 20
140.3017368767
 11
81.2412396827
 21
140.3017365056
  0
LINE
  5
36A
100
AcDbEntity
  8
0
100
AcDbLine
 62
7
  6
CONTINUOUS
 10
79.0721751938
 20
142.2865347097
 11
100.2828036584
 21
142.2865346971
  0
LINE
  5
36B
100
AcDbEntity
  8
0
100
AcDbLine
 62
7
  6
CONTINUOUS
 10
79.0449699662
 20
142.4250706829
 11
78.9280715221
 21
142.4250706814
  0
LINE
  5
36C
100
AcDbEntity
  8
0
100
AcDbLine
 62
7
  6
CONTINUOUS
 10
100.3100140734
 20
142.4250707417
 11
100.4269042165
 21
142.4250707425
  0
LINE
  5
36D
100
AcDbEntity
  8
0
100
AcDbLine
 62
7
  6
CONTINUOUS
 10
97.0160168767
 20
142.6812681634
 11
82.3389619888
 21
142.6812681634
  0
LINE
  5
36E
100
AcDbEntity
  8
0
100
AcDbLine
 62
7
  6
CONTINUOUS
 10
82.3389476061
 20
142.8082488207
 11
97.0160312461
 21
142.8082488207
  0
LINE
  5
36F
100
AcDbEntity
  8
0
100
AcDbLine
 62
7
  6
CONTINUOUS
 10
82.3412498283
 20
142.937523648
 11
97.0137290512
 21
142.937523648
  0
LINE
  5
370
100
AcDbEntity
  8
0
100
AcDbLine
 62
7
  6
CONTINUOUS
 10
81.4246868737
 20
143.5955288958
 11
81.551667531
 21
143.5955288958
  0
LINE
  5
371
100
AcDbEntity
  8
0
100
AcDbLine
 62
7
  6
CONTINUOUS
 10
97.8033113212
 20
143.5955288957
 11
97.9302919785
 21
143.5955288957
  0
LINE
  5
372
100
AcDbEntity
  8
0
100
AcDbLine
 62
7
  6
CONTINUOUS
 10
81.553961701
 20
143.5978230658
 11
81.6809423583
 21
143.5978230658
  0
LINE
  5
373
100
AcDbEntity
  8
0
100
AcDbLine
 62
7
  6
CONTINUOUS
 10
97.6740364939
 20
143.597823066
 11
97.8010171512
 21
143.597823066
  0
LINE
  5
374
100
AcDbEntity
  8
0
100
AcDbLine
 62
7
  6
CONTINUOUS
 10
78.6030894261
 20
161.8560707158
 11
78.7554894261
 21
161.7036707158
  0
LINE
  5
375
100
AcDbEntity
  8
0
100
AcDbLine
 62
7
  6
CONTINUOUS
 10
81.1467682559
 20
227.291813924
 11
80.9640236761
 21
228.0230707158
  0
LINE
  5
376
100
AcDbEntity
  8
0
100
AcDbLine
 62
7
  6
CONTINUOUS
 10
86.5618529162
 20
225.4849476674
 11
86.6681005727
 21
225.059795137
  0
LINE
  5
377
100
AcDbEntity
  8
0
100
AcDbLine
 62
7
  6
CONTINUOUS
 10
76.5030831501
 20
26.2290920195
 11
75.3899894261
 21
23.5737856575
  0
LINE
  5
378
100
AcDbEntity
  8
0
100
AcDbLine
 62
7
  6
CONTINUOUS
 10
80.5566597748
 20
205.9128806332
 11
80.9999964594
 21
204.9204884779
  0
LINE
  5
379
100
AcDbEntity
  8
0
100
AcDbLine
 62
7
  6
CONTINUOUS
 10
88.1920425435
 20
226.5828667574
 11
88.0857948869
 21
227.0080192878
  0
LINE
  5
37A
100
AcDbEntity
  8
0
100
AcDbLine
 62
7
  6
CONTINUOUS
 10
79.8746887243
 20
18.8836882812
 11
80.8154359243
 21
21.1278587147
  0
LINE
  5
37B
100
AcDbEntity
  8
0
100
AcDbLine
 62
7
  6
CONTINUOUS
 10
81.1463724013
 20
21.3216694606
 11
81.2348087271
 21
21.5326360073
  0
LINE
  5
37C
100
AcDbEntity
  8
0
100
AcDbLine
 62
7
  6
CONTINUOUS
 10
80.2344239621
 20
18.5074772617
 11
81.17531667
 21
20.7519948072
  0
LINE
  5
37D
100
AcDbEntity
  8
0
100
AcDbLine
 62
7
  6
CONTINUOUS
 10
81.17531667
 20
20.7393590736
 11
80.2344239621
 21
18.4948415282
  0
LINE
  5
37E
100
AcDbEntity
  8
0
100
AcDbLine
 62
7
  6
CONTINUOUS
 10
80.6139741421
 20
18.1181204577
 11
81.5548668501
 21
20.3626380033
  0
LINE
  5
37F
100
AcDbEntity
  8
0
100
AcDbLine
 62
7
  6
CONTINUOUS
 10
86.4737386423
 20
217.6444313109
 11
86.4756745036
 21
217.639897907
  0
LINE
  5
380
100
AcDbEntity
  8
0
100
AcDbLine
 62
7
  6
CONTINUOUS
 10
101.1328894261
 20
162.3283718131
 11
100.7518894261
 21
162.3283718131
  0
LINE
  5
381
100
AcDbEntity
  8
0
100
AcDbLine
 62
7
  6
CONTINUOUS
 10
78.2220894261
 20
162.3283718131
 11
78.6030894261
 21
162.3283718131
  0
LINE
  5
382
100
AcDbEntity
  8
0
100
AcDbLine
 62
7
  6
CONTINUOUS
 10
103.5996615903
 20
163.0268718131
 11
103.5458894261
 21
163.0268718131
  0
LINE
  5
383
100
AcDbEntity
  8
0
100
AcDbLine
 62
7
  6
CONTINUOUS
 10
75.4280894261
 20
163.1411718131
 11
75.8090894261
 21
163.1411718131
  0
LINE
  5
384
100
AcDbEntity
  8
0
100
AcDbLine
 62
7
  6
CONTINUOUS
 10
75.4280894261
 20
171.0405718131
 11
75.8090894261
 21
171.0405718131
  0
LINE
  5
385
100
AcDbEntity
  8
0
100
AcDbLine
 62
7
  6
CONTINUOUS
 10
103.5996615903
 20
171.1548718131
 11
103.5458894261
 21
171.1548718131
  0
LINE
  5
386
100
AcDbEntity
  8
0
100
AcDbLine
 62
7
  6
CONTINUOUS
 10
101.1328894261
 20
171.8533718131
 11
100.7518894261
 21
171.8533718131
  0
LINE
  5
387
100
AcDbEntity
  8
0
100
AcDbLine
 62
7
  6
CONTINUOUS
 10
78.2220894261
 20
171.8533718131
 11
78.6030894261
 21
171.8533718131
  0
LINE
  5
388
100
AcDbEntity
  8
0
100
AcDbLine
 62
7
  6
CONTINUOUS
 10
81.553961701
 20
192.5603183658
 11
81.551667531
 21
192.5626125358
  0
LINE
  5
389
100
AcDbEntity
  8
0
100
AcDbLine
 62
7
  6
CONTINUOUS
 10
82.3412417761
 20
193.3475984409
 11
82.3389476061
 21
193.3498926109
  0
LINE
  5
38A
100
AcDbEntity
  8
0
100
AcDbLine
 62
7
  6
CONTINUOUS
 10
103.5458894261
 20
175.2954003307
 11
101.1328894261
 21
175.2954003307
  0
LINE
  5
38B
100
AcDbEntity
  8
0
100
AcDbLine
 62
7
  6
CONTINUOUS
 10
78.2220894261
 20
175.2954003307
 11
75.8090894261
 21
175.2954003307
  0
LINE
  5
38C
100
AcDbEntity
  8
0
100
AcDbLine
 62
7
  6
CONTINUOUS
 10
75.4280894261
 20
177.2549404642
 11
75.8090894261
 21
177.2549404642
  0
LINE
  5
38D
100
AcDbEntity
  8
0
100
AcDbLine
 62
7
  6
CONTINUOUS
 10
103.5996615903
 20
177.3692404642
 11
103.5458894261
 21
177.3692404642
  0
LINE
  5
38E
100
AcDbEntity
  8
0
100
AcDbLine
 62
7
  6
CONTINUOUS
 10
101.1328894261
 20
178.0677404642
 11
100.7518894261
 21
178.0677404642
  0
LINE
  5
38F
100
AcDbEntity
  8
0
100
AcDbLine
 62
7
  6
CONTINUOUS
 10
78.2220894261
 20
178.0677404642
 11
78.6030894261
 21
178.0677404642
  0
LINE
  5
390
100
AcDbEntity
  8
0
100
AcDbLine
 62
7
  6
CONTINUOUS
 10
78.2220894261
 20
180.1540839917
 11
78.4474120055
 21
180.1540839917
  0
LINE
  5
391
100
AcDbEntity
  8
0
100
AcDbLine
 62
7
  6
CONTINUOUS
 10
100.9075668467
 20
180.1540839919
 11
101.1328894261
 21
180.1540839918
  0
LINE
  5
392
100
AcDbEntity
  8
0
100
AcDbLine
 62
7
  6
CONTINUOUS
 10
100.7518894261
 20
186.4940707158
 11
100.5994894261
 21
186.6464707158
  0
LINE
  5
393
100
AcDbEntity
  8
0
100
AcDbLine
 62
7
  6
CONTINUOUS
 10
75.3899894261
 20
33.2474128289
 11
75.4089431222
 21
33.2603149542
  0
LINE
  5
394
100
AcDbEntity
  8
0
100
AcDbLine
 62
7
  6
CONTINUOUS
 10
79.4655763862
 20
44.1948042747
 11
78.3452649872
 21
43.7462015465
  0
LINE
  5
395
100
AcDbEntity
  8
0
100
AcDbLine
 62
7
  6
CONTINUOUS
 10
79.4655760791
 20
44.1948041517
 11
79.5109594019
 21
44.2127054036
  0
LINE
  5
396
100
AcDbEntity
  8
0
100
AcDbLine
 62
7
  6
CONTINUOUS
 10
97.0160312464
 20
193.4809888804
 11
82.3389621615
 21
193.4768732723
  0
LINE
  5
397
100
AcDbEntity
  8
0
100
AcDbLine
 62
7
  6
CONTINUOUS
 10
78.2220894261
 20
190.7142572708
 11
75.8090894261
 21
190.7142572708
  0
LINE
  5
398
100
AcDbEntity
  8
0
100
AcDbLine
 62
7
  6
CONTINUOUS
 10
101.1328894261
 20
190.7142572708
 11
103.5458894261
 21
190.7142572708
  0
LINE
  5
399
100
AcDbEntity
  8
0
100
AcDbLine
 62
7
  6
CONTINUOUS
 10
97.8010171512
 20
192.5603183658
 11
97.6740364939
 21
192.5603183658
  0
LINE
  5
39A
100
AcDbEntity
  8
0
100
AcDbLine
 62
7
  6
CONTINUOUS
 10
81.6809423583
 20
192.5603183656
 11
81.553961701
 21
192.5603183656
  0
LINE
  5
39B
100
AcDbEntity
  8
0
100
AcDbLine
 62
7
  6
CONTINUOUS
 10
97.9302919785
 20
192.5626125358
 11
97.8033113212
 21
192.5626125358
  0
LINE
  5
39C
100
AcDbEntity
  8
0
100
AcDbLine
 62
7
  6
CONTINUOUS
 10
81.551667531
 20
192.5626125359
 11
81.4246868737
 21
192.5626125359
  0
LINE
  5
39D
100
AcDbEntity
  8
0
100
AcDbLine
 62
7
  6
CONTINUOUS
 10
97.0137288466
 20
193.2206177836
 11
82.3412499777
 21
193.2206177836
  0
LINE
  5
39E
100
AcDbEntity
  8
0
100
AcDbLine
 62
7
  6
CONTINUOUS
 10
97.0160312461
 20
193.3498926109
 11
82.3389476061
 21
193.3498926109
  0
LINE
  5
39F
100
AcDbEntity
  8
0
100
AcDbLine
 62
7
  6
CONTINUOUS
 10
100.2828036584
 20
193.4974513245
 11
98.7588506622
 21
193.4974513245
  0
LINE
  5
3A0
100
AcDbEntity
  8
0
100
AcDbLine
 62
7
  6
CONTINUOUS
 10
80.59612819
 20
193.4974513377
 11
79.0721751938
 21
193.4974513377
  0
LINE
  5
3A1
100
AcDbEntity
  8
0
100
AcDbLine
 62
7
  6
CONTINUOUS
 10
80.59612819
 20
193.4974513239
 11
97.0160312464
 21
193.4809888804
  0
LINE
  5
3A2
100
AcDbEntity
  8
0
100
AcDbLine
 62
7
  6
CONTINUOUS
 10
75.3899894261
 20
39.391545885
 11
76.5030831501
 21
39.8372584626
  0
LINE
  5
3A3
100
AcDbEntity
  8
0
100
AcDbLine
 62
7
  6
CONTINUOUS
 10
81.2381822864
 20
196.4557524524
 11
98.11684771
 21
196.4557481913
  0
LINE
  5
3A4
100
AcDbEntity
  8
0
100
AcDbLine
 62
7
  6
CONTINUOUS
 10
80.5210403387
 20
204.9204884779
 11
80.9999964594
 21
204.9204884779
  0
LINE
  5
3A5
100
AcDbEntity
  8
0
100
AcDbLine
 62
7
  6
CONTINUOUS
 10
98.3549823901
 20
204.9204884779
 11
98.8339385135
 21
204.920488478
  0
LINE
  5
3A6
100
AcDbEntity
  8
0
100
AcDbLine
 62
7
  6
CONTINUOUS
 10
99.057160104
 20
205.9129671621
 11
98.9644939669
 21
205.9129671622
  0
LINE
  5
3A7
100
AcDbEntity
  8
0
100
AcDbLine
 62
7
  6
CONTINUOUS
 10
80.3904848853
 20
205.9129671622
 11
80.2978187386
 21
205.912967162
  0
LINE
  5
3A8
100
AcDbEntity
  8
0
100
AcDbLine
 62
7
  6
CONTINUOUS
 10
80.2978187484
 20
206.2518624031
 11
80.3904848853
 21
206.2518624077
  0
LINE
  5
3A9
100
AcDbEntity
  8
0
100
AcDbLine
 62
7
  6
CONTINUOUS
 10
98.9644939669
 20
206.2518624077
 11
99.0571601022
 21
206.2518624053
  0
LINE
  5
3AA
100
AcDbEntity
  8
0
100
AcDbLine
 62
7
  6
CONTINUOUS
 10
98.7982921671
 20
205.9128755474
 11
98.4488244925
 21
205.9224396196
  0
LINE
  5
3AB
100
AcDbEntity
  8
0
100
AcDbLine
 62
7
  6
CONTINUOUS
 10
99.4802901279
 20
18.8836882812
 11
99.253709509
 21
18.792959325
  0
LINE
  5
3AC
100
AcDbEntity
  8
0
100
AcDbLine
 62
7
  6
CONTINUOUS
 10
99.8894024381
 20
18.7705272566
 11
101.009713865
 21
19.219129996
  0
LINE
  5
3AD
100
AcDbEntity
  8
0
100
AcDbLine
 62
7
  6
CONTINUOUS
 10
98.7410047101
 20
18.1181204577
 11
97.8001120021
 21
17.7413617849
  0
LINE
  5
3AE
100
AcDbEntity
  8
0
100
AcDbLine
 62
7
  6
CONTINUOUS
 10
97.941741982
 20
17.7684321514
 11
98.8835007007
 21
18.1455375981
  0
LINE
  5
3AF
100
AcDbEntity
  8
0
100
AcDbLine
 62
7
  6
CONTINUOUS
 10
97.9417021859
 20
17.7684162186
 11
97.941741982
 21
17.7684321514
  0
LINE
  5
3B0
100
AcDbEntity
  8
0
100
AcDbLine
 62
7
  6
CONTINUOUS
 10
99.843348407
 20
18.7523655053
 11
99.8894028038
 21
18.770527403
  0
LINE
  5
3B1
100
AcDbEntity
  8
0
100
AcDbLine
 62
7
  6
CONTINUOUS
 10
86.5366700479
 20
217.3644322993
 11
86.5270436831
 21
217.3642102058
  0
LINE
  5
3B2
100
AcDbEntity
  8
0
100
AcDbLine
 62
7
  6
CONTINUOUS
 10
101.4646562998
 20
217.6195822258
 11
98.9292410632
 21
217.6195822264
  0
LINE
  5
3B3
100
AcDbEntity
  8
0
100
AcDbLine
 62
7
  6
CONTINUOUS
 10
80.4257377913
 20
217.6195822258
 11
77.8903225524
 21
217.6195822258
  0
LINE
  5
3B4
100
AcDbEntity
  8
0
100
AcDbLine
 62
7
  6
CONTINUOUS
 10
78.1807389993
 20
218.1163293855
 11
80.1841902586
 21
218.1163293855
  0
LINE
  5
3B5
100
AcDbEntity
  8
0
100
AcDbLine
 62
7
  6
CONTINUOUS
 10
99.170788593
 20
218.1163293855
 11
101.1742399674
 21
218.1163293855
  0
LINE
  5
3B6
100
AcDbEntity
  8
0
100
AcDbLine
 62
7
  6
CONTINUOUS
 10
78.1807389993
 20
218.6130765454
 11
80.1841902586
 21
218.6130765454
  0
LINE
  5
3B7
100
AcDbEntity
  8
0
100
AcDbLine
 62
7
  6
CONTINUOUS
 10
99.1707885936
 20
218.6130765454
 11
101.1742399674
 21
218.6130765454
  0
LINE
  5
3B8
100
AcDbEntity
  8
0
100
AcDbLine
 62
7
  6
CONTINUOUS
 10
91.1237253305
 20
221.8802359397
 11
88.2312535217
 21
221.8802359408
  0
LINE
  5
3B9
100
AcDbEntity
  8
0
100
AcDbLine
 62
7
  6
CONTINUOUS
 10
88.1920425435
 20
226.5828667574
 11
91.1629363087
 21
226.5828667575
  0
LINE
  5
3BA
100
AcDbEntity
  8
0
100
AcDbLine
 62
7
  6
CONTINUOUS
 10
98.3916404649
 20
228.0230707158
 11
80.9633210253
 21
228.0230707158
  0
LINE
  5
3BB
100
AcDbEntity
  8
0
100
AcDbLine
 62
7
  6
CONTINUOUS
 10
92.8183088043
 20
217.3644322992
 11
92.8279351416
 21
217.3642180235
  0
ARC
  5
3BC
100
AcDbEntity
  8
0
100
AcDbCircle
 62
7
  6
CONTINUOUS
 10
-632.4456455759
 20
142.4451830503
 40
711.4674779278
100
AcDbArc
 50
359.9983775108
 51
0.2056698991
  0
ARC
  5
3BD
100
AcDbEntity
  8
0
100
AcDbCircle
 62
7
  6
CONTINUOUS
 10
-591.6574552265
 20
142.3277709857
 40
670.6792759676
100
AcDbArc
 50
359.7871415261
 51
359.9964099981
  0
ARC
  5
3BE
100
AcDbEntity
  8
0
100
AcDbCircle
 62
7
  6
CONTINUOUS
 10
-520.7819555033
 20
95.0103094317
 40
607.4186101487
100
AcDbArc
 50
359.8172267573
 51
0.0655916151
  0
ARC
  5
3BF
100
AcDbEntity
  8
0
100
AcDbCircle
 62
7
  6
CONTINUOUS
 10
-450.0996693774
 20
112.5624282119
 40
536.7174415514
100
AcDbArc
 50
0.057371256
 51
0.3229998158
  0
ARC
  5
3C0
100
AcDbEntity
  8
0
100
AcDbCircle
 62
7
  6
CONTINUOUS
 10
-37.6316670066
 20
92.0092910165
 40
124.2573697323
100
AcDbArc
 50
359.1894475541
 51
359.4458624287
  0
ARC
  5
3C1
100
AcDbEntity
  8
0
100
AcDbCircle
 62
7
  6
CONTINUOUS
 10
17.5577630855
 20
91.3224634365
 40
75.2423950505
100
AcDbArc
 50
359.0348413545
 51
359.2172952109
  0
ARC
  5
3C2
100
AcDbEntity
  8
0
100
AcDbCircle
 62
7
  6
CONTINUOUS
 10
86.9629937818
 20
107.8298388875
 40
13.3616985134
100
AcDbArc
 50
107.9986999749
 51
108.3281008051
  0
ARC
  5
3C3
100
AcDbEntity
  8
0
100
AcDbCircle
 62
7
  6
CONTINUOUS
 10
78.7934178852
 20
89.8710975349
 40
7.8109835906
100
AcDbArc
 50
357.8164322257
 51
357.962458541
  0
ARC
  5
3C4
100
AcDbEntity
  8
0
100
AcDbCircle
 62
7
  6
CONTINUOUS
 10
80.3118996377
 20
123.6074700836
 40
6.1275266174
100
AcDbArc
 50
69.1140890735
 51
89.9924147876
  0
ARC
  5
3C5
100
AcDbEntity
  8
0
100
AcDbCircle
 62
7
  6
CONTINUOUS
 10
80.3129155088
 20
123.5749019772
 40
5.869224285
100
AcDbArc
 50
69.5703124436
 51
90.0024779388
  0
ARC
  5
3C6
100
AcDbEntity
  8
0
100
AcDbCircle
 62
7
  6
CONTINUOUS
 10
80.9652427076
 20
88.2467317091
 40
4.7497038408
100
AcDbArc
 50
179.9706584836
 51
269.9768212141
  0
ARC
  5
3C7
100
AcDbEntity
  8
0
100
AcDbCircle
 62
7
  6
CONTINUOUS
 10
81.2242731251
 20
23.1641124016
 40
4.7325046024
100
AcDbArc
 50
248.7750381735
 51
257.5330279462
  0
ARC
  5
3C8
100
AcDbEntity
  8
0
100
AcDbCircle
 62
7
  6
CONTINUOUS
 10
85.3340894261
 20
48.6259229024
 40
3.683
100
AcDbArc
 50
179.9999999994
 51
228.1874696546
  0
ARC
  5
3C9
100
AcDbEntity
  8
0
100
AcDbCircle
 62
7
  6
CONTINUOUS
 10
83.9558463047
 20
85.4599675838
 40
2.2940517853
100
AcDbArc
 50
200.3791254217
 51
210.360956395
  0
ARC
  5
3CA
100
AcDbEntity
  8
0
100
AcDbCircle
 62
7
  6
CONTINUOUS
 10
80.9163706082
 20
120.1336646803
 40
2.0047372727
100
AcDbArc
 50
4.0801550184
 51
12.216655767
  0
ARC
  5
3CB
100
AcDbEntity
  8
0
100
AcDbCircle
 62
7
  6
CONTINUOUS
 10
80.9153183025
 20
120.1220666573
 40
1.9634595704
100
AcDbArc
 50
4.0811695254
 51
12.219963742
  0
ARC
  5
3CC
100
AcDbEntity
  8
0
100
AcDbCircle
 62
7
  6
CONTINUOUS
 10
80.9177845196
 20
120.122460726
 40
1.9609715734
100
AcDbArc
 50
0.0008513522
 51
4.074813148
  0
ARC
  5
3CD
100
AcDbEntity
  8
0
100
AcDbCircle
 62
7
  6
CONTINUOUS
 10
88.1752634423
 20
86.3936486465
 40
1.5241431537
100
AcDbArc
 50
180.0410589774
 51
269.9939137026
  0
ARC
  5
3CE
100
AcDbEntity
  8
0
100
AcDbCircle
 62
7
  6
CONTINUOUS
 10
80.5211413785
 20
132.3876122726
 40
1.5240935731
100
AcDbArc
 50
180.0392144792
 51
269.9962015813
  0
ARC
  5
3CF
100
AcDbEntity
  8
0
100
AcDbCircle
 62
7
  6
CONTINUOUS
 10
87.9919742859
 20
85.6604428429
 40
1.5240591429
100
AcDbArc
 50
180.0379930042
 51
269.9968416561
  0
ARC
  5
3D0
100
AcDbEntity
  8
0
100
AcDbCircle
 62
7
  6
CONTINUOUS
 10
82.3389690856
 20
143.5955503753
 40
0.9142869928
100
AcDbArc
 50
180.0004455751
 51
269.9995552621
  0
ARC
  5
3D1
100
AcDbEntity
  8
0
100
AcDbCircle
 62
7
  6
CONTINUOUS
 10
82.3412477783
 20
143.597829068
 40
0.7872851266
100
AcDbArc
 50
180.0004368
 51
269.999563211
  0
ARC
  5
3D2
100
AcDbEntity
  8
0
100
AcDbCircle
 62
7
  6
CONTINUOUS
 10
80.9516634562
 20
119.7876506998
 40
0.69942603
100
AcDbArc
 50
0.0237570219
 51
12.2134160726
  0
ARC
  5
3D3
100
AcDbEntity
  8
0
100
AcDbCircle
 62
7
  6
CONTINUOUS
 10
82.3412051825
 20
143.5977863466
 40
0.6602622213
100
AcDbArc
 50
179.9961172301
 51
270.0038742341
  0
ARC
  5
3D4
100
AcDbEntity
  8
0
100
AcDbCircle
 62
7
  6
CONTINUOUS
 10
-1934.07642329
 20
174.1958765911
 40
2013.037509615
100
AcDbArc
 50
359.9994077983
 51
0.167440451
  0
ARC
  5
3D5
100
AcDbEntity
  8
0
100
AcDbCircle
 62
7
  6
CONTINUOUS
 10
-612.9795990147
 20
180.3547562633
 40
691.9243921503
100
AcDbArc
 50
0.4075652514
 51
0.5579639396
  0
ARC
  5
3D6
100
AcDbEntity
  8
0
100
AcDbCircle
 62
7
  6
CONTINUOUS
 10
-301.4428538466
 20
183.3569774693
 40
380.3731843328
100
AcDbArc
 50
0.5627410228
 51
0.7824399328
  0
ARC
  5
3D7
100
AcDbEntity
  8
0
100
AcDbCircle
 62
7
  6
CONTINUOUS
 10
-259.0330358626
 20
164.4954663264
 40
337.9605342927
100
AcDbArc
 50
359.2038479873
 51
359.4514333755
  0
ARC
  5
3D8
100
AcDbEntity
  8
0
100
AcDbCircle
 62
7
  6
CONTINUOUS
 10
-220.3387853249
 20
164.2783720759
 40
320.9563741188
100
AcDbArc
 50
359.2008555228
 51
359.4140744444
  0
ARC
  5
3D9
100
AcDbEntity
  8
0
100
AcDbCircle
 62
7
  6
CONTINUOUS
 10
80.1824598141
 20
296.3691228157
 40
78.2527934493
100
AcDbArc
 50
270.0012670112
 51
270.1781255239
  0
ARC
  5
3DA
100
AcDbEntity
  8
0
100
AcDbCircle
 62
7
  6
CONTINUOUS
 10
80.1747644187
 20
244.6664826098
 40
26.0534071615
100
AcDbArc
 50
270.0207289911
 51
270.4950584487
  0
ARC
  5
3DB
100
AcDbEntity
  8
0
100
AcDbCircle
 62
7
  6
CONTINUOUS
 10
78.5268894261
 20
173.3052404642
 40
25.4
100
AcDbArc
 50
352.9711876708
 51
9.2068962213
  0
ARC
  5
3DC
100
AcDbEntity
  8
0
100
AcDbCircle
 62
7
  6
CONTINUOUS
 10
78.5268894261
 20
167.0908718131
 40
25.4
100
AcDbArc
 50
350.7931037787
 51
9.2068962213
  0
ARC
  5
3DD
100
AcDbEntity
  8
0
100
AcDbCircle
 62
7
  6
CONTINUOUS
 10
80.9652428426
 20
223.2734093748
 40
4.7497038382
100
AcDbArc
 50
90.0231831295
 51
180.0293398662
  0
ARC
  5
3DE
100
AcDbEntity
  8
0
100
AcDbCircle
 62
7
  6
CONTINUOUS
 10
81.1327461641
 20
222.5506565575
 40
4.7411781018
100
AcDbArc
 50
89.8305467906
 51
106.8351541116
  0
ARC
  5
3DF
100
AcDbEntity
  8
0
100
AcDbCircle
 62
7
  6
CONTINUOUS
 10
77.0175433172
 20
190.4221753664
 40
1.8326356484
100
AcDbArc
 50
4.5982686378
 51
4.7743188068
  0
ARC
  5
3E0
100
AcDbEntity
  8
0
100
AcDbCircle
 62
7
  6
CONTINUOUS
 10
80.5207894261
 20
159.9129707158
 40
1.7653
100
AcDbArc
 50
180.0
 51
199.4478337538
  0
ARC
  5
3E1
100
AcDbEntity
  8
0
100
AcDbCircle
 62
7
  6
CONTINUOUS
 10
80.5207894261
 20
188.4371707158
 40
1.7653
100
AcDbArc
 50
160.5505007798
 51
180.0
  0
ARC
  5
3E2
100
AcDbEntity
  8
0
100
AcDbCircle
 62
7
  6
CONTINUOUS
 10
88.1922036172
 20
225.0587021565
 40
1.5241431369
100
AcDbArc
 50
90.0060550108
 51
179.9589114946
  0
ARC
  5
3E3
100
AcDbEntity
  8
0
100
AcDbCircle
 62
7
  6
CONTINUOUS
 10
80.5211405476
 20
203.3963729758
 40
1.5240935578
100
AcDbArc
 50
90.0037673547
 51
179.9607559544
  0
ARC
  5
3E4
100
AcDbEntity
  8
0
100
AcDbCircle
 62
7
  6
CONTINUOUS
 10
88.0858414446
 20
225.4839376791
 40
1.524045269
100
AcDbArc
 50
90.0017502159
 51
179.9620285906
  0
ARC
  5
3E5
100
AcDbEntity
  8
0
100
AcDbCircle
 62
7
  6
CONTINUOUS
 10
85.0880933687
 20
217.3416290925
 40
1.4487561711
100
AcDbArc
 50
0.9019054404
 51
21.833670002
  0
ARC
  5
3E6
100
AcDbEntity
  8
0
100
AcDbCircle
 62
7
  6
CONTINUOUS
 10
82.3389691904
 20
192.5625909556
 40
0.9142870965
100
AcDbArc
 50
90.0004404815
 51
179.9995590117
  0
ARC
  5
3E7
100
AcDbEntity
  8
0
100
AcDbCircle
 62
7
  6
CONTINUOUS
 10
82.3412477784
 20
192.5603123636
 40
0.7872851266
100
AcDbArc
 50
90.0004368033
 51
179.9995632085
  0
ARC
  5
3E8
100
AcDbEntity
  8
0
100
AcDbCircle
 62
7
  6
CONTINUOUS
 10
85.7613929841
 20
217.3372499312
 40
0.7757534446
100
AcDbArc
 50
2.0080527501
 51
22.9620936605
  0
ARC
  5
3E9
100
AcDbEntity
  8
0
100
AcDbCircle
 62
7
  6
CONTINUOUS
 10
85.7612942423
 20
217.3637303116
 40
0.7657174876
100
AcDbArc
 50
0.0359105909
 51
21.5042922808
  0
ARC
  5
3EA
100
AcDbEntity
  8
0
100
AcDbCircle
 62
7
  6
CONTINUOUS
 10
82.3412050499
 20
192.5603549668
 40
0.660262164
100
AcDbArc
 50
89.9961012946
 51
180.0038902628
  0
ARC
  5
3EB
100
AcDbEntity
  8
0
100
AcDbCircle
 62
7
  6
CONTINUOUS
 10
89.7488991056
 20
33.005355759
 40
4.8815878565
100
AcDbArc
 50
1.6966324354
 51
3.3698159205
  0
ARC
  5
3EC
100
AcDbEntity
  8
0
100
AcDbCircle
 62
7
  6
CONTINUOUS
 10
89.6056041799
 20
33.0053749774
 40
4.8811124216
100
AcDbArc
 50
176.6304757644
 51
178.3033784786
  0
ARC
  5
3ED
100
AcDbEntity
  8
0
100
AcDbCircle
 62
7
  6
CONTINUOUS
 10
98.3897288877
 20
88.2467393699
 40
4.7497105903
100
AcDbArc
 50
270.0230571085
 51
0.0294592966
  0
ARC
  5
3EE
100
AcDbEntity
  8
0
100
AcDbCircle
 62
7
  6
CONTINUOUS
 10
98.1307041972
 20
23.1641259874
 40
4.7325179293
100
AcDbArc
 50
282.4667360577
 51
291.2162039397
  0
ARC
  5
3EF
100
AcDbEntity
  8
0
100
AcDbCircle
 62
7
  6
CONTINUOUS
 10
94.0208894261
 20
48.6259229024
 40
3.683
100
AcDbArc
 50
311.8125205508
 51
359.9999999906
  0
ARC
  5
3F0
100
AcDbEntity
  8
0
100
AcDbCircle
 62
7
  6
CONTINUOUS
 10
89.6776875319
 20
33.1403298319
 40
3.1962156446
100
AcDbArc
 50
269.9964487287
 51
290.6678646828
  0
ARC
  5
3F1
100
AcDbEntity
  8
0
100
AcDbCircle
 62
7
  6
CONTINUOUS
 10
89.6798309668
 20
33.1331355707
 40
3.1887279098
100
AcDbArc
 50
290.6774548176
 51
295.0746761424
  0
ARC
  5
3F2
100
AcDbEntity
  8
0
100
AcDbCircle
 62
7
  6
CONTINUOUS
 10
89.6855936304
 20
33.122394342
 40
3.1765568335
100
AcDbArc
 50
295.0626373926
 51
311.6543482756
  0
ARC
  5
3F3
100
AcDbEntity
  8
0
100
AcDbCircle
 62
7
  6
CONTINUOUS
 10
89.6967578294
 20
33.1092376397
 40
3.1593064724
100
AcDbArc
 50
311.6616546547
 51
312.9432189613
  0
ARC
  5
3F4
100
AcDbEntity
  8
0
100
AcDbCircle
 62
7
  6
CONTINUOUS
 10
89.6987950852
 20
33.1076932412
 40
3.1567880303
100
AcDbArc
 50
312.935247954
 51
327.3322125139
  0
ARC
  5
3F5
100
AcDbEntity
  8
0
100
AcDbCircle
 62
7
  6
CONTINUOUS
 10
89.7094559989
 20
33.1005774857
 40
3.1439726777
100
AcDbArc
 50
327.3365085427
 51
336.4044765948
  0
ARC
  5
3F6
100
AcDbEntity
  8
0
100
AcDbCircle
 62
7
  6
CONTINUOUS
 10
89.716904639
 20
33.0971336172
 40
3.1357682906
100
AcDbArc
 50
336.407663504
 51
348.0516959534
  0
ARC
  5
3F7
100
AcDbEntity
  8
0
100
AcDbCircle
 62
7
  6
CONTINUOUS
 10
89.7237504363
 20
33.0954838114
 40
3.1287292574
100
AcDbArc
 50
348.055299609
 51
359.9993483123
  0
ARC
  5
3F8
100
AcDbEntity
  8
0
100
AcDbCircle
 62
7
  6
CONTINUOUS
 10
94.653169468
 20
85.5594603394
 40
3.0507199596
100
AcDbArc
 50
359.1657232369
 51
0.0018298273
  0
ARC
  5
3F9
100
AcDbEntity
  8
0
100
AcDbCircle
 62
7
  6
CONTINUOUS
 10
94.9034774107
 20
85.5594731067
 40
2.8004120169
100
AcDbArc
 50
359.0862137665
 51
0.0018197452
  0
ARC
  5
3FA
100
AcDbEntity
  8
0
100
AcDbCircle
 62
7
  6
CONTINUOUS
 10
95.3988906688
 20
85.4589431159
 40
2.2939375496
100
AcDbArc
 50
330.0141160598
 51
339.6201083564
  0
ARC
  5
3FB
100
AcDbEntity
  8
0
100
AcDbCircle
 62
7
  6
CONTINUOUS
 10
89.6544148817
 20
32.9623085951
 40
1.7295165806
100
AcDbArc
 50
178.906953345
 51
179.1317767565
  0
ARC
  5
3FC
100
AcDbEntity
  8
0
100
AcDbCircle
 62
7
  6
CONTINUOUS
 10
89.7005639835
 20
32.9623085953
 40
1.7295165676
100
AcDbArc
 50
0.8682386802
 51
1.0930466558
  0
ARC
  5
3FD
100
AcDbEntity
  8
0
100
AcDbCircle
 62
7
  6
CONTINUOUS
 10
91.1797162497
 20
86.3936494394
 40
1.5241431372
100
AcDbArc
 50
270.0060547269
 51
359.95891119
  0
ARC
  5
3FE
100
AcDbEntity
  8
0
100
AcDbCircle
 62
7
  6
CONTINUOUS
 10
91.363002917
 20
85.6604502019
 40
1.5240608777
100
AcDbArc
 50
270.0032194637
 51
359.96173186
  0
ARC
  5
3FF
100
AcDbEntity
  8
0
100
AcDbCircle
 62
7
  6
CONTINUOUS
 10
234.617456608
 20
92.2202029209
 40
141.8894042455
100
AcDbArc
 50
180.5575871571
 51
180.7959508711
  0
ARC
  5
400
100
AcDbEntity
  8
0
100
AcDbCircle
 62
7
  6
CONTINUOUS
 10
169.2686614028
 20
91.4354572901
 40
82.7146881008
100
AcDbArc
 50
180.7872524808
 51
180.9449608455
  0
ARC
  5
401
100
AcDbEntity
  8
0
100
AcDbCircle
 62
7
  6
CONTINUOUS
 10
92.3919850706
 20
107.8298388881
 40
13.3616985127
100
AcDbArc
 50
71.6718991949
 51
72.0013000251
  0
ARC
  5
402
100
AcDbEntity
  8
0
100
AcDbCircle
 62
7
  6
CONTINUOUS
 10
98.4341696697
 20
120.1344391789
 40
2.0002353303
100
AcDbArc
 50
167.7778465495
 51
168.9526147893
  0
ARC
  5
403
100
AcDbEntity
  8
0
100
AcDbCircle
 62
7
  6
CONTINUOUS
 10
98.4384190528
 20
120.1222040638
 40
1.9622172837
100
AcDbArc
 50
168.6062035497
 51
171.8485672943
  0
ARC
  5
404
100
AcDbEntity
  8
0
100
AcDbCircle
 62
7
  6
CONTINUOUS
 10
98.4372792642
 20
120.1224310378
 40
1.9610551184
100
AcDbArc
 50
167.7757147647
 51
168.6061256672
  0
ARC
  5
405
100
AcDbEntity
  8
0
100
AcDbCircle
 62
7
  6
CONTINUOUS
 10
98.4371440402
 20
120.1224232956
 40
1.9609240683
100
AcDbArc
 50
171.8496259771
 51
179.9991488124
  0
ARC
  5
406
100
AcDbEntity
  8
0
100
AcDbCircle
 62
7
  6
CONTINUOUS
 10
102.3366973639
 20
157.9344671328
 40
1.8318723275
100
AcDbArc
 50
184.596864119
 51
184.7757391376
  0
ARC
  5
407
100
AcDbEntity
  8
0
100
AcDbCircle
 62
7
  6
CONTINUOUS
 10
98.8338383119
 20
132.3876130665
 40
1.5240935585
100
AcDbArc
 50
270.0037668421
 51
359.9607556376
  0
CIRCLE
  5
408
100
AcDbEntity
  8
0
100
AcDbCircle
 62
7
  6
CONTINUOUS
 10
89.6774894261
 20
145.2190707158
 40
1.3081
  0
ARC
  5
409
100
AcDbEntity
  8
0
100
AcDbCircle
 62
7
  6
CONTINUOUS
 10
97.0160097666
 20
143.5955503753
 40
0.9142869928
100
AcDbArc
 50
270.0004455735
 51
359.999555265
  0
ARC
  5
40A
100
AcDbEntity
  8
0
100
AcDbCircle
 62
7
  6
CONTINUOUS
 10
97.0137310738
 20
143.597829068
 40
0.7872851266
100
AcDbArc
 50
270.0004368008
 51
359.999563211
  0
ARC
  5
40B
100
AcDbEntity
  8
0
100
AcDbCircle
 62
7
  6
CONTINUOUS
 10
98.403315396
 20
119.7876506998
 40
0.69942603
100
AcDbArc
 50
167.7865839274
 51
179.9762429781
  0
ARC
  5
40C
100
AcDbEntity
  8
0
100
AcDbCircle
 62
7
  6
CONTINUOUS
 10
97.0137737681
 20
143.5977865013
 40
0.6602622591
100
AcDbArc
 50
269.9961195961
 51
0.0038717106
  0
ARC
  5
40D
100
AcDbEntity
  8
0
100
AcDbCircle
 62
7
  6
CONTINUOUS
 10
807.5281352471
 20
142.3960605322
 40
707.1949844227
100
AcDbArc
 50
180.0089370292
 51
180.2061890501
  0
ARC
  5
40E
100
AcDbEntity
  8
0
100
AcDbCircle
 62
7
  6
CONTINUOUS
 10
775.4409123245
 20
142.5096548524
 40
675.1077708359
100
AcDbArc
 50
179.7874518283
 51
180.0071810417
  0
ARC
  5
40F
100
AcDbEntity
  8
0
100
AcDbCircle
 62
7
  6
CONTINUOUS
 10
717.2850090159
 20
95.0282429359
 40
624.566654172
100
AcDbArc
 50
179.9378547229
 51
180.1807179642
  0
ARC
  5
410
100
AcDbEntity
  8
0
100
AcDbCircle
 62
7
  6
CONTINUOUS
 10
581.823625169
 20
112.7206107391
 40
489.0862964585
100
AcDbArc
 50
179.6643733315
 51
179.9555723724
  0
ARC
  5
411
100
AcDbEntity
  8
0
100
AcDbCircle
 62
7
  6
CONTINUOUS
 10
2112.5301525923
 20
174.1542198248
 40
2012.13619056
100
AcDbArc
 50
179.9994062864
 51
180.1675230112
  0
ARC
  5
412
100
AcDbEntity
  8
0
100
AcDbCircle
 62
7
  6
CONTINUOUS
 10
792.2534010444
 20
168.0000235306
 40
691.8431631438
100
AcDbArc
 50
180.4070666826
 51
180.5584257275
  0
ARC
  5
413
100
AcDbEntity
  8
0
100
AcDbCircle
 62
7
  6
CONTINUOUS
 10
479.7495714311
 20
164.986631391
 40
379.3248082731
100
AcDbArc
 50
180.5633317189
 51
180.7834428766
  0
ARC
  5
414
100
AcDbEntity
  8
0
100
AcDbCircle
 62
7
  6
CONTINUOUS
 10
437.391270093
 20
183.8611925414
 40
336.9636717499
100
AcDbArc
 50
179.2027937615
 51
179.4508924995
  0
ARC
  5
415
100
AcDbEntity
  8
0
100
AcDbCircle
 62
7
  6
CONTINUOUS
 10
400.2674960934
 20
184.0705668148
 40
321.5301552824
100
AcDbArc
 50
179.2018655188
 51
179.4137438817
  0
ARC
  5
416
100
AcDbEntity
  8
0
100
AcDbCircle
 62
7
  6
CONTINUOUS
 10
99.1736664203
 20
255.2822425061
 40
37.1660343832
100
AcDbArc
 50
269.6233064771
 51
269.995563118
  0
ARC
  5
417
100
AcDbEntity
  8
0
100
AcDbCircle
 62
7
  6
CONTINUOUS
 10
99.1802144984
 20
244.6664981504
 40
26.0534228484
100
AcDbArc
 50
269.5049417954
 51
269.9792708785
  0
ARC
  5
418
100
AcDbEntity
  8
0
100
AcDbCircle
 62
7
  6
CONTINUOUS
 10
98.3897289574
 20
223.273402321
 40
4.7497105961
100
AcDbArc
 50
359.97053476
 51
89.9769412735
  0
ARC
  5
419
100
AcDbEntity
  8
0
100
AcDbCircle
 62
7
  6
CONTINUOUS
 10
98.2222147078
 20
222.5505338
 40
4.7413008056
100
AcDbArc
 50
73.1650675489
 51
90.1692315414
  0
ARC
  5
41A
100
AcDbEntity
  8
0
100
AcDbCircle
 62
7
  6
CONTINUOUS
 10
98.8341894261
 20
188.4371707158
 40
1.7653
100
AcDbArc
 50
0.0
 51
19.4364494422
  0
ARC
  5
41B
100
AcDbEntity
  8
0
100
AcDbCircle
 62
7
  6
CONTINUOUS
 10
98.8341894261
 20
159.9129707158
 40
1.7653
100
AcDbArc
 50
340.5670093117
 51
360.0
  0
ARC
  5
41C
100
AcDbEntity
  8
0
100
AcDbCircle
 62
7
  6
CONTINUOUS
 10
91.1627744099
 20
225.0587029338
 40
1.5241431537
100
AcDbArc
 50
0.0410592575
 51
89.9939139687
  0
ARC
  5
41D
100
AcDbEntity
  8
0
100
AcDbCircle
 62
7
  6
CONTINUOUS
 10
98.8338374804
 20
203.3963737534
 40
1.5240935736
100
AcDbArc
 50
0.0392147706
 51
89.9962018466
  0
ARC
  5
41E
100
AcDbEntity
  8
0
100
AcDbCircle
 62
7
  6
CONTINUOUS
 10
91.2691407906
 20
225.4839376637
 40
1.524044599
100
AcDbArc
 50
0.0379720107
 51
89.998376964
  0
ARC
  5
41F
100
AcDbEntity
  8
0
100
AcDbCircle
 62
7
  6
CONTINUOUS
 10
94.2668896366
 20
217.3416283274
 40
1.4487603381
100
AcDbArc
 50
158.166315498
 51
179.0980623502
  0
CIRCLE
  5
420
100
AcDbEntity
  8
0
100
AcDbCircle
 62
7
  6
CONTINUOUS
 10
89.6774894261
 20
190.4564707158
 40
1.3081
  0
ARC
  5
421
100
AcDbEntity
  8
0
100
AcDbCircle
 62
7
  6
CONTINUOUS
 10
97.0137310739
 20
192.5603123635
 40
0.7872851266
100
AcDbArc
 50
0.0004368029
 51
89.9995632089
  0
ARC
  5
422
100
AcDbEntity
  8
0
100
AcDbCircle
 62
7
  6
CONTINUOUS
 10
93.5901716813
 20
217.3380060536
 40
0.7723151218
100
AcDbArc
 50
156.9905735595
 51
178.0391320751
  0
ARC
  5
423
100
AcDbEntity
  8
0
100
AcDbCircle
 62
7
  6
CONTINUOUS
 10
93.5941534832
 20
217.3636408954
 40
0.7661874573
100
AcDbArc
 50
158.5022339387
 51
179.956840378
  0
ARC
  5
424
100
AcDbEntity
  8
0
100
AcDbCircle
 62
7
  6
CONTINUOUS
 10
97.0137736406
 20
192.5603550578
 40
0.6602622115
100
AcDbArc
 50
359.9961042643
 51
90.0038870942
  0
SPLINE
  5
425
100
AcDbEntity
  8
0
100
AcDbSpline
 62
7
  6
CONTINUOUS
 70
0
 71
3
 72
15
 73
11
 74
0
 42
0.0000001
 43
0.0000001
 44
0.0000000001
 40
0.0
 40
0.0
 40
0.0
 40
0.0
 40
0.1258465589
 40
0.2515647918
 40
0.3770466688
 40
0.5022178286
 40
0.6270514442
 40
0.7515715421
 40
0.8758513578
 40
1.0
 40
1.0
 40
1.0
 40
1.0
 10
89.6774894261
 20
31.2605157907
 30
0.0
 10
89.5627738893
 20
31.2605157907
 30
0.0
 10
89.3328339253
 20
31.2829393955
 30
0.0
 10
89.0017103951
 20
31.3825415943
 30
0.0
 10
88.6965901036
 20
31.5441935933
 30
0.0
 10
88.4293802179
 20
31.7615827851
 30
0.0
 10
88.2102563542
 20
32.0262464032
 30
0.0
 10
88.0475571786
 20
32.3280078205
 30
0.0
 10
87.9474265032
 20
32.6551062501
 30
0.0
 10
87.9248894261
 20
32.8821985148
 30
0.0
 10
87.9248894261
 20
32.9953663143
 30
0.0
  0
SPLINE
  5
426
100
AcDbEntity
  8
0
100
AcDbSpline
 62
7
  6
CONTINUOUS
 70
0
 71
3
 72
17
 73
13
 74
0
 42
0.0000001
 43
0.0000001
 44
0.0000000001
 40
0.0
 40
0.0
 40
0.0
 40
0.0
 40
0.125422665
 40
0.1881890458
 40
0.2509195868
 40
0.3761428308
 40
0.5011949009
 40
0.5637296964
 40
0.6262191462
 40
0.7509230082
 40
0.8754969251
 40
1.0
 40
1.0
 40
1.0
 40
1.0
 10
89.6774894261
 20
36.3943388516
 30
0.0
 10
89.8849472608
 20
36.3943388516
 30
0.0
 10
90.1973327782
 20
36.3638076145
 30
0.0
 10
90.6005529654
 20
36.2634969645
 30
0.0
 10
90.991929063
 20
36.1245518428
 30
0.0
 10
91.4524516579
 20
35.880408009
 30
0.0
 10
91.8563448902
 20
35.5513843184
 30
0.0
 10
92.1356522437
 20
35.245485193
 30
0.0
 10
92.3832891267
 20
34.9141695256
 30
0.0
 10
92.6296297992
 20
34.4569435618
 30
0.0
 10
92.8115009857
 20
33.8621063972
 30
0.0
 10
92.8524751045
 20
33.4489415941
 30
0.0
 10
92.8524749236
 20
33.2430048256
 30
0.0
  0
SPLINE
  5
427
100
AcDbEntity
  8
0
100
AcDbSpline
 62
7
  6
CONTINUOUS
 70
0
 71
3
 72
15
 73
11
 74
0
 42
0.0000001
 43
0.0000001
 44
0.0000000001
 40
0.0
 40
0.0
 40
0.0
 40
0.0
 40
0.1254581147
 40
0.2508473355
 40
0.3761074158
 40
0.5011970132
 40
0.6261072233
 40
0.7508486233
 40
0.8754598359
 40
1.0
 40
1.0
 40
1.0
 40
1.0
 10
89.6774894261
 20
30.7156349269
 30
0.0
 10
89.8438678769
 20
30.7156349269
 30
0.0
 10
90.177442489
 20
30.7481972931
 30
0.0
 10
90.6579419872
 20
30.8928740246
 30
0.0
 10
91.1010060833
 20
31.127841572
 30
0.0
 10
91.4893691264
 20
31.4441067163
 30
0.0
 10
91.8081576472
 20
31.8295281493
 30
0.0
 10
92.0450743846
 20
32.2693799204
 30
0.0
 10
92.1909843734
 20
32.7464988898
 30
0.0
 10
92.2238345205
 20
33.0778437259
 30
0.0
 10
92.2238345278
 20
33.2430048207
 30
0.0
  0
SPLINE
  5
428
100
AcDbEntity
  8
0
100
AcDbSpline
 62
7
  6
CONTINUOUS
 70
0
 71
3
 72
15
 73
11
 74
0
 42
0.0000001
 43
0.0000001
 44
0.0000000001
 40
0.0
 40
0.0
 40
0.0
 40
0.0
 40
0.1241486901
 40
0.2484285269
 40
0.3729485982
 40
0.4977821712
 40
0.6229532881
 40
0.7484351383
 40
0.8741533914
 40
1.0
 40
1.0
 40
1.0
 40
1.0
 10
91.4300894261
 20
32.9953663143
 30
0.0
 10
91.4300894261
 20
32.8821984712
 30
0.0
 10
91.4075523245
 20
32.6551061445
 30
0.0
 10
91.3074216225
 20
32.3280076818
 30
0.0
 10
91.1447224324
 20
32.0262463231
 30
0.0
 10
90.9255986303
 20
31.7615827901
 30
0.0
 10
90.658388831
 20
31.5441936583
 30
0.0
 10
90.3532685987
 20
31.3825416459
 30
0.0
 10
90.0221450352
 20
31.2829394189
 30
0.0
 10
89.7922050082
 20
31.2605157907
 30
0.0
 10
89.6774894261
 20
31.2605157907
 30
0.0
  0
SPLINE
  5
429
100
AcDbEntity
  8
0
100
AcDbSpline
 62
7
  6
CONTINUOUS
 70
0
 71
3
 72
15
 73
11
 74
0
 42
0.0000001
 43
0.0000001
 44
0.0000000001
 40
0.0
 40
0.0
 40
0.0
 40
0.0
 40
0.124539629
 40
0.249149321
 40
0.3738888535
 40
0.4987978237
 40
0.623887546
 40
0.7491486065
 40
0.8745400794
 40
1.0
 40
1.0
 40
1.0
 40
1.0
 10
87.1311443244
 20
33.2430048195
 30
0.0
 10
87.1311443171
 20
33.0778444475
 30
0.0
 10
87.1639940754
 20
32.7465023786
 30
0.0
 10
87.3099015497
 20
32.2693882231
 30
0.0
 10
87.5468134327
 20
31.8295410367
 30
0.0
 10
87.8655964898
 20
31.4441203401
 30
0.0
 10
88.2539571728
 20
31.1278527235
 30
0.0
 10
88.697023072
 20
30.8928789463
 30
0.0
 10
89.1775286882
 20
30.7481988826
 30
0.0
 10
89.5111085936
 20
30.7156349269
 30
0.0
 10
89.6774894261
 20
30.7156349269
 30
0.0
  0
SPLINE
  5
42A
100
AcDbEntity
  8
0
100
AcDbSpline
 62
7
  6
CONTINUOUS
 70
0
 71
3
 72
15
 73
11
 74
0
 42
0.0000001
 43
0.0000001
 44
0.0000000001
 40
0.0
 40
0.0
 40
0.0
 40
0.0
 40
0.1252985717
 40
0.2505433764
 40
0.3757118748
 40
0.5007698221
 40
0.6257105857
 40
0.7505452935
 40
0.8752906539
 40
1.0
 40
1.0
 40
1.0
 40
1.0
 10
89.6774894261
 20
29.9394283317
 30
0.0
 10
89.4701455255
 20
29.9394283317
 30
0.0
 10
89.0544102997
 20
29.9800434589
 30
0.0
 10
88.4555189819
 20
30.1605591633
 30
0.0
 10
87.9031615173
 20
30.453753136
 30
0.0
 10
87.4188686282
 20
30.8485275863
 30
0.0
 10
87.0212041363
 20
31.3297564238
 30
0.0
 10
86.7256042346
 20
31.8791027726
 30
0.0
 10
86.5434852255
 20
32.4751222905
 30
0.0
 10
86.5024894261
 20
32.8890793739
 30
0.0
 10
86.5024894261
 20
33.0954482249
 30
0.0
  0
SPLINE
  5
42B
100
AcDbEntity
  8
0
100
AcDbSpline
 62
7
  6
CONTINUOUS
 70
0
 71
3
 72
15
 73
11
 74
0
 42
0.0000001
 43
0.0000001
 44
0.0000000001
 40
0.0
 40
0.0
 40
0.0
 40
0.0
 40
0.1247093013
 40
0.2494546514
 40
0.3742893797
 40
0.4992301793
 40
0.6242881624
 40
0.7494566804
 40
0.8747014735
 40
1.0
 40
1.0
 40
1.0
 40
1.0
 10
92.8524894261
 20
33.0954482249
 30
0.0
 10
92.8524894261
 20
32.8890794483
 30
0.0
 10
92.8114936499
 20
32.4751224577
 30
0.0
 10
92.6293746997
 20
31.8791029834
 30
0.0
 10
92.3337748023
 20
31.3297565447
 30
0.0
 10
91.9361102253
 20
30.8485275756
 30
0.0
 10
91.4518172035
 20
30.4537530441
 30
0.0
 10
90.8994596518
 20
30.1605590799
 30
0.0
 10
90.3005683822
 20
29.9800434352
 30
0.0
 10
89.8848332517
 20
29.9394283317
 30
0.0
 10
89.6774894261
 20
29.9394283317
 30
0.0
  0
SPLINE
  5
42C
100
AcDbEntity
  8
0
100
AcDbSpline
 62
7
  6
CONTINUOUS
 70
0
 71
3
 72
17
 73
13
 74
0
 42
0.0000001
 43
0.0000001
 44
0.0000000001
 40
0.0
 40
0.0
 40
0.0
 40
0.0
 40
0.1245028637
 40
0.249075632
 40
0.3737778668
 40
0.4362665834
 40
0.4988008113
 40
0.6238525828
 40
0.7490765152
 40
0.8118076384
 40
0.8745752559
 40
1.0
 40
1.0
 40
1.0
 40
1.0
 10
86.5025039286
 20
33.2430048146
 30
0.0
 10
86.5025041094
 20
33.4489412358
 30
0.0
 10
86.5434772713
 20
33.8621038192
 30
0.0
 10
86.7253465173
 20
34.4569363033
 30
0.0
 10
86.9716822477
 20
34.9141582866
 30
0.0
 10
87.2193155291
 20
35.2454705488
 30
0.0
 10
87.4986181777
 20
35.5513703531
 30
0.0
 10
87.9025095572
 20
35.880395932
 30
0.0
 10
88.363031625
 20
36.1245442317
 30
0.0
 10
88.7544110877
 20
36.2634924001
 30
0.0
 10
89.1576370913
 20
36.3638063999
 30
0.0
 10
89.4700281504
 20
36.3943388516
 30
0.0
 10
89.6774894261
 20
36.3943388516
 30
0.0
  0
SPLINE
  5
42D
100
AcDbEntity
  8
0
100
AcDbSpline
 62
7
  6
CONTINUOUS
 70
0
 71
3
 72
15
 73
11
 74
0
 42
0.0000001
 43
0.0000001
 44
0.0000000001
 40
0.0
 40
0.0
 40
0.0
 40
0.0
 40
0.1254581147
 40
0.2508473355
 40
0.3761074158
 40
0.5011970132
 40
0.6261072233
 40
0.7508486233
 40
0.8754598359
 40
1.0
 40
1.0
 40
1.0
 40
1.0
 10
89.6774894261
 20
35.7703747133
 30
0.0
 10
89.5111109753
 20
35.7703747133
 30
0.0
 10
89.1775363632
 20
35.7378123471
 30
0.0
 10
88.697036865
 20
35.5931356156
 30
0.0
 10
88.2539727689
 20
35.3581680682
 30
0.0
 10
87.8656097258
 20
35.0419029239
 30
0.0
 10
87.546821205
 20
34.6564814909
 30
0.0
 10
87.3099044676
 20
34.2166297198
 30
0.0
 10
87.1639944788
 20
33.7395107504
 30
0.0
 10
87.1311443317
 20
33.4081659143
 30
0.0
 10
87.1311443244
 20
33.2430048195
 30
0.0
  0
SPLINE
  5
42E
100
AcDbEntity
  8
0
100
AcDbSpline
 62
7
  6
CONTINUOUS
 70
0
 71
3
 72
15
 73
11
 74
0
 42
0.0000001
 43
0.0000001
 44
0.0000000001
 40
0.0
 40
0.0
 40
0.0
 40
0.0
 40
0.125439223
 40
0.2508189582
 40
0.3760734447
 40
0.5011706675
 40
0.6260915269
 40
0.750845451
 40
0.8754644308
 40
1.0
 40
1.0
 40
1.0
 40
1.0
 10
89.6774894261
 20
35.6228181181
 30
0.0
 10
89.8378785939
 20
35.6228181181
 30
0.0
 10
90.159394531
 20
35.5925663503
 30
0.0
 10
90.6238753388
 20
35.4580576127
 30
0.0
 10
91.0547721099
 20
35.2391780679
 30
0.0
 10
91.4364848073
 20
34.9437424792
 30
0.0
 10
91.7554246154
 20
34.5822737153
 30
0.0
 10
92.0001690482
 20
34.1676150021
 30
0.0
 10
92.1619470712
 20
33.7147962928
 30
0.0
 10
92.2106396888
 20
33.3976539266
 30
0.0
 10
92.2197402776
 20
33.238680462
 30
0.0
  0
SPLINE
  5
42F
100
AcDbEntity
  8
0
100
AcDbSpline
 62
7
  6
CONTINUOUS
 70
0
 71
3
 72
15
 73
11
 74
0
 42
0.0000001
 43
0.0000001
 44
0.0000000001
 40
0.0
 40
0.0
 40
0.0
 40
0.0
 40
0.1245406242
 40
0.2491513351
 40
0.3738915844
 40
0.4988003362
 40
0.623893166
 40
0.7491501097
 40
0.8745458193
 40
1.0
 40
1.0
 40
1.0
 40
1.0
 10
91.4300805685
 20
32.9953663143
 30
0.0
 10
91.4300805685
 20
33.1090434994
 30
0.0
 10
91.4074703251
 20
33.3371007711
 30
0.0
 10
91.3070448945
 20
33.6654906762
 30
0.0
 10
91.1439810913
 20
33.9682278066
 30
0.0
 10
90.924569547
 20
34.2335091766
 30
0.0
 10
90.6572654497
 20
34.4511820801
 30
0.0
 10
90.3523145247
 20
34.6129191034
 30
0.0
 10
90.0215936846
 20
34.7124852275
 30
0.0
 10
89.7920004799
 20
34.7349026997
 30
0.0
 10
89.6774894261
 20
34.7349026997
 30
0.0
  0
SPLINE
  5
430
100
AcDbEntity
  8
0
100
AcDbSpline
 62
7
  6
CONTINUOUS
 70
0
 71
3
 72
23
 73
19
 74
0
 42
0.0000001
 43
0.0000001
 44
0.0000000001
 40
0.0
 40
0.0
 40
0.0
 40
0.0
 40
0.0627270904
 40
0.1254249452
 40
0.188053417
 40
0.2505998319
 40
0.3130542078
 40
0.3754243324
 40
0.4377296879
 40
0.5
 40
0.5622703121
 40
0.6245756676
 40
0.6869457922
 40
0.7494001681
 40
0.811946583
 40
0.8745750548
 40
0.9372729096
 40
1.0
 40
1.0
 40
1.0
 40
1.0
 10
89.6774894261
 20
35.113233714
 30
0.0
 10
89.8125377885
 20
35.113233714
 30
0.0
 10
90.0833080353
 20
35.0867956764
 30
0.0
 10
90.4733429392
 20
34.9693727664
 30
0.0
 10
90.8329861496
 20
34.7786278934
 30
0.0
 10
91.1482306556
 20
34.5219183058
 30
0.0
 10
91.4069931834
 20
34.2090500717
 30
0.0
 10
91.5993021253
 20
33.8520520637
 30
0.0
 10
91.7177386386
 20
33.4646380649
 30
0.0
 10
91.7577329002
 20
33.0617152595
 30
0.0
 10
91.7177386386
 20
32.6587924541
 30
0.0
 10
91.5993021253
 20
32.2713784553
 30
0.0
 10
91.4069931834
 20
31.9143804473
 30
0.0
 10
91.1482306556
 20
31.6015122131
 30
0.0
 10
90.8329861496
 20
31.3448026256
 30
0.0
 10
90.4733429392
 20
31.1540577525
 30
0.0
 10
90.0833080353
 20
31.0366348426
 30
0.0
 10
89.8125377885
 20
31.010196805
 30
0.0
 10
89.6774894261
 20
31.010196805
 30
0.0
  0
SPLINE
  5
431
100
AcDbEntity
  8
0
100
AcDbSpline
 62
7
  6
CONTINUOUS
 70
0
 71
3
 72
15
 73
11
 74
0
 42
0.0000001
 43
0.0000001
 44
0.0000000001
 40
0.0
 40
0.0
 40
0.0
 40
0.0
 40
0.1254541807
 40
0.2508498903
 40
0.376106834
 40
0.5011996638
 40
0.6261084156
 40
0.7508486649
 40
0.8754593758
 40
1.0
 40
1.0
 40
1.0
 40
1.0
 10
89.6774894261
 20
34.7349026997
 30
0.0
 10
89.5629783722
 20
34.7349026997
 30
0.0
 10
89.3333851676
 20
34.7124852275
 30
0.0
 10
89.0026643275
 20
34.6129191034
 30
0.0
 10
88.6977134025
 20
34.4511820801
 30
0.0
 10
88.4304093052
 20
34.2335091766
 30
0.0
 10
88.2109977609
 20
33.9682278066
 30
0.0
 10
88.0479339577
 20
33.6654906762
 30
0.0
 10
87.9475085271
 20
33.3371007711
 30
0.0
 10
87.9248982837
 20
33.1090434994
 30
0.0
 10
87.9248982837
 20
32.9953663143
 30
0.0
  0
SPLINE
  5
432
100
AcDbEntity
  8
0
100
AcDbSpline
 62
7
  6
CONTINUOUS
 70
0
 71
3
 72
23
 73
19
 74
0
 42
0.0000001
 43
0.0000001
 44
0.0000000001
 40
0.0
 40
0.0
 40
0.0
 40
0.0
 40
0.0627270904
 40
0.1254249452
 40
0.188053417
 40
0.2505998319
 40
0.3130542078
 40
0.3754243324
 40
0.4377296879
 40
0.5
 40
0.5622703121
 40
0.6245756676
 40
0.6869457922
 40
0.7494001681
 40
0.811946583
 40
0.8745750548
 40
0.9372729096
 40
1.0
 40
1.0
 40
1.0
 40
1.0
 10
89.6774894261
 20
31.010196805
 30
0.0
 10
89.5424410637
 20
31.010196805
 30
0.0
 10
89.2716708169
 20
31.0366348426
 30
0.0
 10
88.881635913
 20
31.1540577525
 30
0.0
 10
88.5219927026
 20
31.3448026256
 30
0.0
 10
88.2067481966
 20
31.6015122131
 30
0.0
 10
87.9479856688
 20
31.9143804473
 30
0.0
 10
87.7556767269
 20
32.2713784553
 30
0.0
 10
87.6372402136
 20
32.6587924541
 30
0.0
 10
87.597245952
 20
33.0617152595
 30
0.0
 10
87.6372402136
 20
33.4646380649
 30
0.0
 10
87.7556767269
 20
33.8520520637
 30
0.0
 10
87.9479856688
 20
34.2090500717
 30
0.0
 10
88.2067481966
 20
34.5219183058
 30
0.0
 10
88.5219927026
 20
34.7786278934
 30
0.0
 10
88.881635913
 20
34.9693727664
 30
0.0
 10
89.2716708169
 20
35.0867956764
 30
0.0
 10
89.5424410637
 20
35.113233714
 30
0.0
 10
89.6774894261
 20
35.113233714
 30
0.0
  0
SPLINE
  5
433
100
AcDbEntity
  8
0
100
AcDbSpline
 62
7
  6
CONTINUOUS
 70
0
 71
3
 72
15
 73
11
 74
0
 42
0.0000001
 43
0.0000001
 44
0.0000000001
 40
0.0
 40
0.0
 40
0.0
 40
0.0
 40
0.1254477391
 40
0.250840998
 40
0.3760960385
 40
0.5011909151
 40
0.6261036002
 40
0.7508483267
 40
0.8754615057
 40
1.0
 40
1.0
 40
1.0
 40
1.0
 10
89.6774894261
 20
34.7018422288
 30
0.0
 10
89.7906213633
 20
34.7018422288
 30
0.0
 10
90.0174380378
 20
34.6799630071
 30
0.0
 10
90.3444819205
 20
34.5827656224
 30
0.0
 10
90.6466627231
 20
34.4247709865
 30
0.0
 10
90.9124956909
 20
34.2119350889
 30
0.0
 10
91.1320339657
 20
33.9521983422
 30
0.0
 10
91.297024593
 20
33.6552661464
 30
0.0
 10
91.4012479735
 20
33.3324367202
 30
0.0
 10
91.4276233614
 20
33.1075925569
 30
0.0
 10
91.4297658388
 20
32.9953010365
 30
0.0
  0
SPLINE
  5
434
100
AcDbEntity
  8
0
100
AcDbSpline
 62
7
  6
CONTINUOUS
 70
0
 71
3
 72
15
 73
11
 74
0
 42
0.0000001
 43
0.0000001
 44
0.0000000001
 40
0.0
 40
0.0
 40
0.0
 40
0.0
 40
0.1245355692
 40
0.249154549
 40
0.3739084731
 40
0.4988293325
 40
0.6239265553
 40
0.7491810418
 40
0.874560777
 40
1.0
 40
1.0
 40
1.0
 40
1.0
 10
87.1352385746
 20
33.2386804608
 30
0.0
 10
87.1443391633
 20
33.3976539255
 30
0.0
 10
87.1930317807
 20
33.7147962918
 30
0.0
 10
87.3548098036
 20
34.1676150013
 30
0.0
 10
87.5995542364
 20
34.5822737147
 30
0.0
 10
87.9184940444
 20
34.9437424788
 30
0.0
 10
88.3002067419
 20
35.2391780677
 30
0.0
 10
88.7311035131
 20
35.4580576126
 30
0.0
 10
89.195584321
 20
35.5925663503
 30
0.0
 10
89.5171002582
 20
35.6228181181
 30
0.0
 10
89.6774894261
 20
35.6228181181
 30
0.0
  0
SPLINE
  5
435
100
AcDbEntity
  8
0
100
AcDbSpline
 62
7
  6
CONTINUOUS
 70
0
 71
3
 72
15
 73
11
 74
0
 42
0.0000001
 43
0.0000001
 44
0.0000000001
 40
0.0
 40
0.0
 40
0.0
 40
0.0
 40
0.1245384943
 40
0.2491516733
 40
0.3738963998
 40
0.4988090849
 40
0.6239039615
 40
0.749159002
 40
0.8745522609
 40
1.0
 40
1.0
 40
1.0
 40
1.0
 10
87.9252130134
 20
32.9953010365
 30
0.0
 10
87.9273554908
 20
33.1075925569
 30
0.0
 10
87.9537308787
 20
33.3324367202
 30
0.0
 10
88.0579542592
 20
33.6552661464
 30
0.0
 10
88.2229448865
 20
33.9521983422
 30
0.0
 10
88.4424831613
 20
34.2119350889
 30
0.0
 10
88.7083161291
 20
34.4247709865
 30
0.0
 10
89.0104969317
 20
34.5827656224
 30
0.0
 10
89.3375408144
 20
34.6799630071
 30
0.0
 10
89.5643574889
 20
34.7018422288
 30
0.0
 10
89.6774894261
 20
34.7018422288
 30
0.0
  0
SPLINE
  5
436
100
AcDbEntity
  8
0
100
AcDbSpline
 62
7
  6
CONTINUOUS
 70
0
 71
3
 72
17
 73
13
 74
0
 42
0.0000001
 43
0.0000001
 44
0.0000000001
 40
0.0
 40
0.0
 40
0.0
 40
0.0
 40
0.1245034307
 40
0.2490769201
 40
0.3737797236
 40
0.4362683835
 40
0.4988025131
 40
0.6238561512
 40
0.7490799788
 40
0.811810377
 40
0.8745768255
 40
1.0
 40
1.0
 40
1.0
 40
1.0
 10
86.5024991588
 20
33.0954482249
 30
0.0
 10
86.5024991588
 20
32.8895107004
 30
0.0
 10
86.5434732439
 20
32.4763456832
 30
0.0
 10
86.7253442765
 20
31.8815098848
 30
0.0
 10
86.9716834512
 20
31.4242869782
 30
0.0
 10
87.2193175934
 20
31.092974101
 30
0.0
 10
87.4986239002
 20
30.7870732841
 30
0.0
 10
87.9025199879
 20
30.4580483437
 30
0.0
 10
88.3630452918
 20
30.2139017039
 30
0.0
 10
88.7544226685
 20
30.074956572
 30
0.0
 10
89.1576438342
 20
29.9746455541
 30
0.0
 10
89.4700305799
 20
29.9441141934
 30
0.0
 10
89.6774894261
 20
29.9441141934
 30
0.0
  0
SPLINE
  5
437
100
AcDbEntity
  8
0
100
AcDbSpline
 62
7
  6
CONTINUOUS
 70
0
 71
3
 72
15
 73
11
 74
0
 42
0.0000001
 43
0.0000001
 44
0.0000000001
 40
0.0
 40
0.0
 40
0.0
 40
0.0
 40
0.124539629
 40
0.249149321
 40
0.3738888535
 40
0.4987978237
 40
0.623887546
 40
0.7491486065
 40
0.8745400794
 40
1.0
 40
1.0
 40
1.0
 40
1.0
 10
92.2238345278
 20
33.2430048207
 30
0.0
 10
92.2238345351
 20
33.4081651927
 30
0.0
 10
92.1909847768
 20
33.7395072616
 30
0.0
 10
92.0450773025
 20
34.2166214171
 30
0.0
 10
91.8081654195
 20
34.6564686035
 30
0.0
 10
91.4893823624
 20
35.0418893001
 30
0.0
 10
91.1010216794
 20
35.3581569167
 30
0.0
 10
90.6579557802
 20
35.5931306939
 30
0.0
 10
90.1774501639
 20
35.7378107576
 30
0.0
 10
89.8438702586
 20
35.7703747133
 30
0.0
 10
89.6774894261
 20
35.7703747133
 30
0.0
  0
SPLINE
  5
438
100
AcDbEntity
  8
0
100
AcDbSpline
 62
7
  6
CONTINUOUS
 70
0
 71
3
 72
17
 73
13
 74
0
 42
0.0000001
 43
0.0000001
 44
0.0000000001
 40
0.0
 40
0.0
 40
0.0
 40
0.0
 40
0.125422665
 40
0.1881890458
 40
0.2509195868
 40
0.3761428308
 40
0.5011949009
 40
0.5637296964
 40
0.6262191462
 40
0.7509230082
 40
0.8754969251
 40
1.0
 40
1.0
 40
1.0
 40
1.0
 10
89.6774894261
 20
30.0916707886
 30
0.0
 10
89.4700315914
 20
30.0916707886
 30
0.0
 10
89.157646074
 20
30.1222020257
 30
0.0
 10
88.7544258868
 20
30.2225126757
 30
0.0
 10
88.3630497891
 20
30.3614577974
 30
0.0
 10
87.9025271943
 20
30.6056016312
 30
0.0
 10
87.498633962
 20
30.9346253218
 30
0.0
 10
87.2193266085
 20
31.2405244472
 30
0.0
 10
86.9716897255
 20
31.5718401146
 30
0.0
 10
86.725349053
 20
32.0290660784
 30
0.0
 10
86.5434778665
 20
32.623903243
 30
0.0
 10
86.5025037477
 20
33.0370680461
 30
0.0
 10
86.5025039286
 20
33.2430048146
 30
0.0
  0
SPLINE
  5
439
100
AcDbEntity
  8
0
100
AcDbSpline
 62
7
  6
CONTINUOUS
 70
0
 71
3
 72
17
 73
13
 74
0
 42
0.0000001
 43
0.0000001
 44
0.0000000001
 40
0.0
 40
0.0
 40
0.0
 40
0.0
 40
0.1245028637
 40
0.249075632
 40
0.3737778668
 40
0.4362665834
 40
0.4988008113
 40
0.6238525828
 40
0.7490765152
 40
0.8118076384
 40
0.8745752559
 40
1.0
 40
1.0
 40
1.0
 40
1.0
 10
92.8524749236
 20
33.2430048256
 30
0.0
 10
92.8524747428
 20
33.0370684044
 30
0.0
 10
92.8115015809
 20
32.623905821
 30
0.0
 10
92.6296323349
 20
32.0290733369
 30
0.0
 10
92.3832966045
 20
31.5718513536
 30
0.0
 10
92.1356633231
 20
31.2405390914
 30
0.0
 10
91.8563606745
 20
30.9346392871
 30
0.0
 10
91.452469295
 20
30.6056137082
 30
0.0
 10
90.9919472271
 20
30.3614654085
 30
0.0
 10
90.6005677645
 20
30.2225172401
 30
0.0
 10
90.1973417609
 20
30.1222032403
 30
0.0
 10
89.8849507018
 20
30.0916707886
 30
0.0
 10
89.6774894261
 20
30.0916707886
 30
0.0
  0
SPLINE
  5
43A
100
AcDbEntity
  8
0
100
AcDbSpline
 62
7
  6
CONTINUOUS
 70
0
 71
3
 72
18
 73
14
 74
0
 42
0.0000001
 43
0.0000001
 44
0.0000000001
 40
0.0
 40
0.0
 40
0.0
 40
0.0
 40
0.0128010863
 40
0.0338670265
 40
0.0630876805
 40
0.1002886146
 40
0.145232964
 40
0.1974967972
 40
0.3220906561
 40
0.4700137094
 40
0.6361506337
 40
0.8149276395
 40
1.0
 40
1.0
 40
1.0
 40
1.0
 10
97.8000978441
 20
17.7413618281
 30
0.0
 10
97.7953795532
 20
17.7394765063
 30
0.0
 10
97.7821056681
 20
17.7367492833
 30
0.0
 10
97.7573794505
 20
17.7331328418
 30
0.0
 10
97.7227951758
 20
17.7296480872
 30
0.0
 10
97.678737331
 20
17.7261757874
 30
0.0
 10
97.6254847706
 20
17.7228628242
 30
0.0
 10
97.5375610798
 20
17.7183914198
 30
0.0
 10
97.4087319815
 20
17.7135913889
 30
0.0
 10
97.2346780126
 20
17.7090793355
 30
0.0
 10
97.0390874108
 20
17.7057145989
 30
0.0
 10
96.8287335467
 20
17.7036537494
 30
0.0
 10
96.6843137956
 20
17.7031855369
 30
0.0
 10
96.6108547695
 20
17.7031850232
 30
0.0
  0
SPLINE
  5
43B
100
AcDbEntity
  8
0
100
AcDbSpline
 62
7
  6
CONTINUOUS
 70
0
 71
3
 72
18
 73
14
 74
0
 42
0.0000001
 43
0.0000001
 44
0.0000000001
 40
0.0
 40
0.0
 40
0.0
 40
0.0
 40
0.1850920175
 40
0.3638546399
 40
0.529987785
 40
0.6779140099
 40
0.8025061168
 40
0.8547680934
 40
0.8997111667
 40
0.9369120377
 40
0.966133291
 40
0.9871996299
 40
1.0
 40
1.0
 40
1.0
 40
1.0
 10
82.7441240833
 20
17.703185161
 30
0.0
 10
82.6706570115
 20
17.7031856428
 30
0.0
 10
82.5262346876
 20
17.7036536148
 30
0.0
 10
82.3158795351
 20
17.7057147408
 30
0.0
 10
82.1202942401
 20
17.7090796707
 30
0.0
 10
81.9462406297
 20
17.7135916115
 30
0.0
 10
81.8174112698
 20
17.7183914705
 30
0.0
 10
81.7294892298
 20
17.7228629137
 30
0.0
 10
81.6762377715
 20
17.7261760258
 30
0.0
 10
81.6321801018
 20
17.7296486751
 30
0.0
 10
81.5975953633
 20
17.7331336752
 30
0.0
 10
81.572868957
 20
17.7367501317
 30
0.0
 10
81.5595950693
 20
17.7394768171
 30
0.0
 10
81.5548769373
 20
17.7413618157
 30
0.0
  0
SPLINE
  5
43C
100
AcDbEntity
  8
0
100
AcDbSpline
 62
7
  6
CONTINUOUS
 70
0
 71
3
 72
15
 73
11
 74
0
 42
0.0000001
 43
0.0000001
 44
0.0000000001
 40
0.0
 40
0.0
 40
0.0
 40
0.0
 40
0.1245402956
 40
0.2491505346
 40
0.3738903367
 40
0.498799719
 40
0.6238896385
 40
0.7491511207
 40
0.8745363424
 40
1.0
 40
1.0
 40
1.0
 40
1.0
 10
84.7244954563
 20
33.293522344
 30
0.0
 10
84.7244945205
 20
32.9722612972
 30
0.0
 10
84.788395295
 20
32.3277527212
 30
0.0
 10
85.0722124658
 20
31.3996995369
 30
0.0
 10
85.5330437459
 20
30.5441358294
 30
0.0
 10
86.153128777
 20
29.7944460793
 30
0.0
 10
86.9085385514
 20
29.1792512504
 30
0.0
 10
87.7703589246
 20
28.7222229233
 30
0.0
 10
88.7049920402
 20
28.4407718175
 30
0.0
 10
89.3538464975
 20
28.3774412558
 30
0.0
 10
89.6774894261
 20
28.3774412558
 30
0.0
  0
SPLINE
  5
43D
100
AcDbEntity
  8
0
100
AcDbSpline
 62
7
  6
CONTINUOUS
 70
0
 71
3
 72
11
 73
7
 74
0
 42
0.0000001
 43
0.0000001
 44
0.0000000001
 40
0.0
 40
0.0
 40
0.0
 40
0.0
 40
0.2508845865
 40
0.5012218382
 40
0.7508434684
 40
1.0
 40
1.0
 40
1.0
 40
1.0
 10
97.8054894261
 20
25.8231851091
 30
0.0
 10
97.9045753547
 20
25.8231851091
 30
0.0
 10
98.1046758024
 20
25.862448292
 30
0.0
 10
98.3579273724
 20
26.0305476988
 30
0.0
 10
98.5277246272
 20
26.281933497
 30
0.0
 10
98.5674894261
 20
26.4811018368
 30
0.0
 10
98.5674894261
 20
26.5795052766
 30
0.0
  0
SPLINE
  5
43E
100
AcDbEntity
  8
0
100
AcDbSpline
 62
7
  6
CONTINUOUS
 70
0
 71
3
 72
11
 73
7
 74
0
 42
0.0000001
 43
0.0000001
 44
0.0000000001
 40
0.0
 40
0.0
 40
0.0
 40
0.0
 40
0.2491564304
 40
0.4987780343
 40
0.7491153117
 40
1.0
 40
1.0
 40
1.0
 40
1.0
 10
80.7874894261
 20
26.5795052766
 30
0.0
 10
80.7874894261
 20
26.4811018768
 30
0.0
 10
80.827254196
 20
26.2819335896
 30
0.0
 10
80.9970513822
 20
26.0305477956
 30
0.0
 10
81.250302957
 20
25.8624483205
 30
0.0
 10
81.4504034573
 20
25.8231851091
 30
0.0
 10
81.5494894261
 20
25.8231851091
 30
0.0
  0
SPLINE
  5
43F
100
AcDbEntity
  8
0
100
AcDbSpline
 62
7
  6
CONTINUOUS
 70
0
 71
3
 72
15
 73
11
 74
0
 42
0.0000001
 43
0.0000001
 44
0.0000000001
 40
0.0
 40
0.0
 40
0.0
 40
0.0
 40
0.1254614875
 40
0.2508452382
 40
0.3761062516
 40
0.5011966833
 40
0.6261073268
 40
0.750848551
 40
0.8754596859
 40
1.0
 40
1.0
 40
1.0
 40
1.0
 10
89.6774894261
 20
28.3774412558
 30
0.0
 10
90.0011267469
 20
28.3774412558
 30
0.0
 10
90.6499717333
 20
28.4407696066
 30
0.0
 10
91.5845956533
 20
28.7222136615
 30
0.0
 10
92.446415591
 20
29.1792346964
 30
0.0
 10
93.2018316983
 20
29.7944271714
 30
0.0
 10
93.8219254783
 20
30.5441206443
 30
0.0
 10
94.2827628816
 20
31.3996915981
 30
0.0
 10
94.5665834658
 20
32.327750407
 30
0.0
 10
94.6304824601
 20
32.9722612609
 30
0.0
 10
94.6304833959
 20
33.2935223457
 30
0.0
  0
SPLINE
  5
440
100
AcDbEntity
  8
0
100
AcDbSpline
 62
7
  6
CONTINUOUS
 70
0
 71
3
 72
15
 73
11
 74
0
 42
0.0000001
 43
0.0000001
 44
0.0000000001
 40
0.0
 40
0.0
 40
0.0
 40
0.0
 40
0.1256093182
 40
0.251304803
 40
0.3769340512
 40
0.5023309876
 40
0.6273744194
 40
0.7519958301
 40
0.8761797245
 40
1.0
 40
1.0
 40
1.0
 40
1.0
 10
81.234808731
 20
21.5326360167
 30
0.0
 10
80.9261321712
 20
21.5363804096
 30
0.0
 10
80.3076571904
 20
21.603567088
 30
0.0
 10
79.4175982465
 20
21.8793156535
 30
0.0
 10
78.5965734966
 20
22.3195777858
 30
0.0
 10
77.876275927
 20
22.9078173688
 30
0.0
 10
77.2840154291
 20
23.6216628573
 30
0.0
 10
76.8425089161
 20
24.4341639506
 30
0.0
 10
76.5685624712
 20
25.313916571
 30
0.0
 10
76.5046594541
 20
25.9247937823
 30
0.0
 10
76.5030832227
 20
26.2290921925
 30
0.0
  0
SPLINE
  5
441
100
AcDbEntity
  8
0
100
AcDbSpline
 62
7
  6
CONTINUOUS
 70
0
 71
3
 72
18
 73
14
 74
0
 42
0.0000001
 43
0.0000001
 44
0.0000000001
 40
0.0
 40
0.0
 40
0.0
 40
0.0
 40
0.0150556734
 40
0.0365771356
 40
0.0656240384
 40
0.1026847044
 40
0.1479746489
 40
0.2013334699
 40
0.3305007083
 40
0.4841734658
 40
0.653490738
 40
0.8285094993
 40
1.0
 40
1.0
 40
1.0
 40
1.0
 10
76.5030866886
 20
26.2290918194
 30
0.0
 10
76.5124781186
 20
26.2421738497
 30
0.0
 10
76.5432010298
 20
26.2678299208
 30
0.0
 10
76.6055541433
 20
26.3002013976
 30
0.0
 10
76.693650679
 20
26.3328777291
 30
0.0
 10
76.8083719502
 20
26.3652630848
 30
0.0
 10
76.9501112342
 20
26.3968857574
 30
0.0
 10
77.1899614686
 20
26.440164422
 30
0.0
 10
77.5467586043
 20
26.4865560707
 30
0.0
 10
78.0285567056
 20
26.5295720342
 30
0.0
 10
78.5604247377
 20
26.5604207201
 30
0.0
 10
79.1119208439
 20
26.5784180314
 30
0.0
 10
79.4825700526
 20
26.5823035908
 30
0.0
 10
79.6660013165
 20
26.5823036174
 30
0.0
  0
SPLINE
  5
442
100
AcDbEntity
  8
0
100
AcDbSpline
 62
7
  6
CONTINUOUS
 70
0
 71
3
 72
18
 73
14
 74
0
 42
0.0000001
 43
0.0000001
 44
0.0000000001
 40
0.0
 40
0.0
 40
0.0
 40
0.0
 40
0.1714904782
 40
0.3465092274
 40
0.5158264976
 40
0.6694992611
 40
0.7986665098
 40
0.8520253362
 40
0.8973152859
 40
0.9343759563
 40
0.9634228624
 40
0.9849443265
 40
1.0
 40
1.0
 40
1.0
 40
1.0
 10
99.6889775357
 20
26.5823036162
 30
0.0
 10
99.872408865
 20
26.5823036017
 30
0.0
 10
100.2430582177
 20
26.5784180658
 30
0.0
 10
100.7945545549
 20
26.5604207875
 30
0.0
 10
101.32642284
 20
26.5295721306
 30
0.0
 10
101.8082211954
 20
26.4865561895
 30
0.0
 10
102.1650185331
 20
26.4401645542
 30
0.0
 10
102.4048689121
 20
26.3968858959
 30
0.0
 10
102.5466082856
 20
26.3652632255
 30
0.0
 10
102.6613296316
 20
26.3328778704
 30
0.0
 10
102.7494262267
 20
26.3002015381
 30
0.0
 10
102.8117793841
 20
26.2678300596
 30
0.0
 10
102.8425023208
 20
26.2421739859
 30
0.0
 10
102.8518937606
 20
26.2290919529
 30
0.0
  0
SPLINE
  5
443
100
AcDbEntity
  8
0
100
AcDbSpline
 62
7
  6
CONTINUOUS
 70
0
 71
3
 72
15
 73
11
 74
0
 42
0.0000001
 43
0.0000001
 44
0.0000000001
 40
0.0
 40
0.0
 40
0.0
 40
0.0
 40
0.1238201127
 40
0.2480038386
 40
0.3726251761
 40
0.4976685751
 40
0.6230655374
 40
0.7486948644
 40
0.8743905034
 40
1.0
 40
1.0
 40
1.0
 40
1.0
 10
102.8518956991
 20
26.2290920265
 30
0.0
 10
102.8503208028
 20
25.9247940148
 30
0.0
 10
102.7864158612
 20
25.3139176631
 30
0.0
 10
102.5124709796
 20
24.4341658853
 30
0.0
 10
102.0709649584
 20
23.6216651964
 30
0.0
 10
101.4787051074
 20
22.9078195118
 30
0.0
 10
100.7584077375
 20
22.319579386
 30
0.0
 10
99.9373826628
 20
21.8793165905
 30
0.0
 10
99.0473228416
 20
21.6035672183
 30
0.0
 10
98.4288470417
 20
21.5363809326
 30
0.0
 10
98.1201700533
 20
21.5326361781
 30
0.0
  0
SPLINE
  5
444
100
AcDbEntity
  8
0
100
AcDbSpline
 62
7
  6
CONTINUOUS
 70
0
 71
3
 72
15
 73
11
 74
0
 42
0.0000001
 43
0.0000001
 44
0.0000000001
 40
0.0
 40
0.0
 40
0.0
 40
0.0
 40
0.1254614875
 40
0.2508452382
 40
0.3761062516
 40
0.5011966833
 40
0.6261073268
 40
0.750848551
 40
0.8754596859
 40
1.0
 40
1.0
 40
1.0
 40
1.0
 10
89.6774894261
 20
38.209603434
 30
0.0
 10
89.3538521053
 20
38.209603434
 30
0.0
 10
88.7050071189
 20
38.1462750832
 30
0.0
 10
87.7703831988
 20
37.8648310283
 30
0.0
 10
86.9085632612
 20
37.4078099934
 30
0.0
 10
86.1531471539
 20
36.7926175184
 30
0.0
 10
85.5330533739
 20
36.0429240454
 30
0.0
 10
85.0722159706
 20
35.1873530916
 30
0.0
 10
84.7883953864
 20
34.2592942828
 30
0.0
 10
84.7244963921
 20
33.6147834288
 30
0.0
 10
84.7244954563
 20
33.293522344
 30
0.0
  0
SPLINE
  5
445
100
AcDbEntity
  8
0
100
AcDbSpline
 62
7
  6
CONTINUOUS
 70
0
 71
3
 72
11
 73
7
 74
0
 42
0.0000001
 43
0.0000001
 44
0.0000000001
 40
0.0
 40
0.0
 40
0.0
 40
0.0
 40
0.2508013529
 40
0.5011113594
 40
0.7507799807
 40
1.0
 40
1.0
 40
1.0
 40
1.0
 10
97.8054894261
 20
40.8567240204
 30
0.0
 10
97.897245288
 20
40.8567240204
 30
0.0
 10
98.0822812415
 20
40.8231734279
 30
0.0
 10
98.3226040563
 20
40.6784595649
 30
0.0
 10
98.4959639801
 20
40.4585593036
 30
0.0
 10
98.551433385
 20
40.2796084183
 30
0.0
 10
98.5622139617
 20
40.1890706657
 30
0.0
  0
SPLINE
  5
446
100
AcDbEntity
  8
0
100
AcDbSpline
 62
7
  6
CONTINUOUS
 70
0
 71
3
 72
11
 73
7
 74
0
 42
0.0000001
 43
0.0000001
 44
0.0000000001
 40
0.0
 40
0.0
 40
0.0
 40
0.0
 40
0.2492199074
 40
0.4988885125
 40
0.7491985481
 40
1.0
 40
1.0
 40
1.0
 40
1.0
 10
80.7927649553
 20
40.1890712635
 30
0.0
 10
80.8035455852
 20
40.279608919
 30
0.0
 10
80.859015068
 20
40.4585596176
 30
0.0
 10
81.0323749468
 20
40.6784596607
 30
0.0
 10
81.2726976751
 20
40.8231734449
 30
0.0
 10
81.4577335775
 20
40.8567240204
 30
0.0
 10
81.5494894261
 20
40.8567240204
 30
0.0
  0
SPLINE
  5
447
100
AcDbEntity
  8
0
100
AcDbSpline
 62
7
  6
CONTINUOUS
 70
0
 71
3
 72
18
 73
14
 74
0
 42
0.0000001
 43
0.0000001
 44
0.0000000001
 40
0.0
 40
0.0
 40
0.0
 40
0.0
 40
0.0150556726
 40
0.0365771339
 40
0.0656240358
 40
0.1026847009
 40
0.1479746447
 40
0.2013334651
 40
0.3305007031
 40
0.4841734608
 40
0.6534907341
 40
0.8285094971
 40
1.0
 40
1.0
 40
1.0
 40
1.0
 10
102.8518921636
 20
39.8372585871
 30
0.0
 10
102.8425007336
 20
39.850340616
 30
0.0
 10
102.8117778221
 20
39.8759966831
 30
0.0
 10
102.7494247085
 20
39.9083681513
 30
0.0
 10
102.6613281727
 20
39.9410444707
 30
0.0
 10
102.5466069016
 20
39.9734298107
 30
0.0
 10
102.4048676176
 20
40.0050524638
 30
0.0
 10
102.1650173827
 20
40.0483310957
 30
0.0
 10
101.8082202466
 20
40.0947226954
 30
0.0
 10
101.3264221455
 20
40.1377385929
 30
0.0
 10
100.7945541135
 20
40.1685872059
 30
0.0
 10
100.2430580075
 20
40.1865844416
 30
0.0
 10
99.8724087993
 20
40.1904699503
 30
0.0
 10
99.6889775357
 20
40.1904699517
 30
0.0
  0
SPLINE
  5
448
100
AcDbEntity
  8
0
100
AcDbSpline
 62
7
  6
CONTINUOUS
 70
0
 71
3
 72
11
 73
7
 74
0
 42
0.0000001
 43
0.0000001
 44
0.0000000001
 40
0.0
 40
0.0
 40
0.0
 40
0.0
 40
0.2493252383
 40
0.4987750815
 40
0.7489420746
 40
1.0
 40
1.0
 40
1.0
 40
1.0
 10
79.6660075543
 20
40.1904700057
 30
0.0
 10
79.6660230991
 20
40.3932689303
 30
0.0
 10
79.7473575945
 20
40.8035002103
 30
0.0
 10
80.0966147857
 20
41.3214918581
 30
0.0
 10
80.6184469872
 20
41.6672528077
 30
0.0
 10
81.030600451
 20
41.7475593841
 30
0.0
 10
81.2348087277
 20
41.7475768412
 30
0.0
  0
SPLINE
  5
449
100
AcDbEntity
  8
0
100
AcDbSpline
 62
7
  6
CONTINUOUS
 70
0
 71
3
 72
11
 73
7
 74
0
 42
0.0000001
 43
0.0000001
 44
0.0000000001
 40
0.0
 40
0.0
 40
0.0
 40
0.0
 40
0.2510556143
 40
0.5012225997
 40
0.750672463
 40
1.0
 40
1.0
 40
1.0
 40
1.0
 10
98.1201701246
 20
41.747577573
 30
0.0
 10
98.324376521
 20
41.7475621528
 30
0.0
 10
98.7365280242
 20
41.6672534841
 30
0.0
 10
99.2583594117
 20
41.3214964696
 30
0.0
 10
99.6076205702
 20
40.8035040403
 30
0.0
 10
99.6889529625
 20
40.3932707992
 30
0.0
 10
99.6889705607
 20
40.1904700056
 30
0.0
  0
SPLINE
  5
44A
100
AcDbEntity
  8
0
100
AcDbSpline
 62
7
  6
CONTINUOUS
 70
0
 71
3
 72
15
 73
11
 74
0
 42
0.0000001
 43
0.0000001
 44
0.0000000001
 40
0.0
 40
0.0
 40
0.0
 40
0.0
 40
0.1250080318
 40
0.2499749288
 40
0.3749205555
 40
0.4998643927
 40
0.6248298252
 40
0.7498242039
 40
0.8748915685
 40
1.0
 40
1.0
 40
1.0
 40
1.0
 10
99.8894000343
 20
44.1947958484
 30
0.0
 10
100.1054720776
 20
44.108260151
 30
0.0
 10
100.5254130276
 20
43.9029355623
 30
0.0
 10
101.1023416805
 20
43.5055935237
 30
0.0
 10
101.6142909263
 20
43.0273920011
 30
0.0
 10
102.0499345268
 20
42.4788187894
 30
0.0
 10
102.3997855327
 20
41.8718240641
 30
0.0
 10
102.6563313611
 20
41.2196023618
 30
0.0
 10
102.8138692097
 20
40.5365591642
 30
0.0
 10
102.8507060818
 20
40.0701988195
 30
0.0
 10
102.8518956305
 20
39.8372584912
 30
0.0
  0
SPLINE
  5
44B
100
AcDbEntity
  8
0
100
AcDbSpline
 62
7
  6
CONTINUOUS
 70
0
 71
3
 72
11
 73
7
 74
0
 42
0.0000001
 43
0.0000001
 44
0.0000000001
 40
0.0
 40
0.0
 40
0.0
 40
0.0
 40
0.1639365948
 40
0.3789076411
 40
0.6564319668
 40
1.0
 40
1.0
 40
1.0
 40
1.0
 10
80.8154359242
 20
21.1278587144
 30
0.0
 10
80.8237345581
 20
21.1476122112
 30
0.0
 10
80.8557263027
 20
21.1875547668
 30
0.0
 10
80.9272413443
 20
21.2357429014
 30
0.0
 10
81.0267962392
 20
21.2815647271
 30
0.0
 10
81.1035824715
 20
21.3081055072
 30
0.0
 10
81.1463811822
 20
21.3216904081
 30
0.0
  0
SPLINE
  5
44C
100
AcDbEntity
  8
0
100
AcDbSpline
 62
7
  6
CONTINUOUS
 70
0
 71
3
 72
11
 73
7
 74
0
 42
0.0000001
 43
0.0000001
 44
0.0000000001
 40
0.0
 40
0.0
 40
0.0
 40
0.0
 40
0.2378762735
 40
0.496492372
 40
0.757252827
 40
1.0
 40
1.0
 40
1.0
 40
1.0
 10
81.1753280306
 20
20.7519946614
 30
0.0
 10
81.1749783222
 20
20.79706381
 30
0.0
 10
81.1564897496
 20
20.8918275173
 30
0.0
 10
81.0768561585
 20
21.0154420551
 30
0.0
 10
80.9561088833
 20
21.1008212162
 30
0.0
 10
80.8613194518
 20
21.1246783269
 30
0.0
 10
80.8154352497
 20
21.1278457433
 30
0.0
  0
SPLINE
  5
44D
100
AcDbEntity
  8
0
100
AcDbSpline
 62
7
  6
CONTINUOUS
 70
0
 71
3
 72
11
 73
7
 74
0
 42
0.0000001
 43
0.0000001
 44
0.0000000001
 40
0.0
 40
0.0
 40
0.0
 40
0.0
 40
0.1987250183
 40
0.4403230861
 40
0.7122740928
 40
1.0
 40
1.0
 40
1.0
 40
1.0
 10
81.1463724013
 20
21.3216694606
 30
0.0
 10
81.2486870237
 20
21.3519254612
 30
0.0
 10
81.4801644131
 20
21.4025654094
 30
0.0
 10
81.8592414062
 20
21.454468368
 30
0.0
 10
82.2884429191
 20
21.4870569968
 30
0.0
 10
82.5889796506
 20
21.4944559208
 30
0.0
 10
82.7434582371
 20
21.4944583129
 30
0.0
  0
SPLINE
  5
44E
100
AcDbEntity
  8
0
100
AcDbSpline
 62
7
  6
CONTINUOUS
 70
0
 71
3
 72
12
 73
8
 74
0
 42
0.0000001
 43
0.0000001
 44
0.0000000001
 40
0.0
 40
0.0
 40
0.0
 40
0.0
 40
0.2541015667
 40
0.5251876154
 40
0.6571080534
 40
0.7816729624
 40
1.0
 40
1.0
 40
1.0
 40
1.0
 10
81.4576326661
 20
20.9222318888
 30
0.0
 10
81.4557070952
 20
20.9682746293
 30
0.0
 10
81.4371982503
 20
21.0632430195
 30
0.0
 10
81.380019419
 20
21.170326709
 30
0.0
 10
81.3145809088
 20
21.2408003295
 30
0.0
 10
81.2456693047
 20
21.2929106609
 30
0.0
 10
81.1856061459
 20
21.3159457503
 30
0.0
 10
81.1464286914
 20
21.3216811161
 30
0.0
  0
SPLINE
  5
44F
100
AcDbEntity
  8
0
100
AcDbSpline
 62
7
  6
CONTINUOUS
 70
0
 71
3
 72
11
 73
7
 74
0
 42
0.0000001
 43
0.0000001
 44
0.0000000001
 40
0.0
 40
0.0
 40
0.0
 40
0.0
 40
0.3435678615
 40
0.621091622
 40
0.8360628837
 40
1.0
 40
1.0
 40
1.0
 40
1.0
 10
98.2085976699
 20
21.321690408
 30
0.0
 10
98.251396451
 20
21.3081058289
 30
0.0
 10
98.328182478
 20
21.2815647095
 30
0.0
 10
98.4277370089
 20
21.2357422925
 30
0.0
 10
98.4992523494
 20
21.1875549975
 30
0.0
 10
98.5312448455
 20
21.1476125131
 30
0.0
 10
98.5395429279
 20
21.1278587146
 30
0.0
  0
SPLINE
  5
450
100
AcDbEntity
  8
0
100
AcDbSpline
 62
7
  6
CONTINUOUS
 70
0
 71
3
 72
11
 73
7
 74
0
 42
0.0000001
 43
0.0000001
 44
0.0000000001
 40
0.0
 40
0.0
 40
0.0
 40
0.0
 40
0.2427477094
 40
0.5035082115
 40
0.7621240589
 40
1.0
 40
1.0
 40
1.0
 40
1.0
 10
98.5395433219
 20
21.1278516557
 30
0.0
 10
98.4936590373
 20
21.1246834815
 30
0.0
 10
98.3988698156
 20
21.1008247381
 30
0.0
 10
98.2781238639
 20
21.0154434258
 30
0.0
 10
98.1984922513
 20
20.8918276593
 30
0.0
 10
98.1800049299
 20
20.7970637991
 30
0.0
 10
98.1796557284
 20
20.7519946773
 30
0.0
  0
SPLINE
  5
451
100
AcDbEntity
  8
0
100
AcDbSpline
 62
7
  6
CONTINUOUS
 70
0
 71
3
 72
12
 73
8
 74
0
 42
0.0000001
 43
0.0000001
 44
0.0000000001
 40
0.0
 40
0.0
 40
0.0
 40
0.0
 40
0.2541104353
 40
0.5252032408
 40
0.6571235313
 40
0.7816855169
 40
1.0
 40
1.0
 40
1.0
 40
1.0
 10
97.8973373142
 20
20.9222362162
 30
0.0
 10
97.8992641884
 20
20.9682844374
 30
0.0
 10
97.9177791249
 20
21.0632633132
 30
0.0
 10
97.9749726808
 20
21.1703548107
 30
0.0
 10
98.0404255154
 20
21.2408274177
 30
0.0
 10
98.10934819
 20
21.2929307568
 30
0.0
 10
98.1694185552
 20
21.3159558635
 30
0.0
 10
98.2085983215
 20
21.321682975
 30
0.0
  0
SPLINE
  5
452
100
AcDbEntity
  8
0
100
AcDbSpline
 62
7
  6
CONTINUOUS
 70
0
 71
3
 72
15
 73
11
 74
0
 42
0.0000001
 43
0.0000001
 44
0.0000000001
 40
0.0
 40
0.0
 40
0.0
 40
0.0
 40
0.0487057176
 40
0.0818660242
 40
0.121508529
 40
0.2203405969
 40
0.3435343761
 40
0.4878883332
 40
0.6489230446
 40
1.0
 40
1.0
 40
1.0
 40
1.0
 10
81.5548810081
 20
20.3626377462
 30
0.0
 10
81.5626465707
 20
20.3811233415
 30
0.0
 10
81.5886095304
 20
20.4057914142
 30
0.0
 10
81.63089113
 20
20.4318432338
 30
0.0
 10
81.6951321873
 20
20.4619599864
 30
0.0
 10
81.7979087475
 20
20.4949605473
 30
0.0
 10
81.9452244296
 20
20.5279477493
 30
0.0
 10
82.1196961901
 20
20.5548778622
 30
0.0
 10
82.3886050628
 20
20.5824394962
 30
0.0
 10
82.5995977932
 20
20.5900677862
 30
0.0
 10
82.7441240827
 20
20.5900738067
 30
0.0
  0
SPLINE
  5
453
100
AcDbEntity
  8
0
100
AcDbSpline
 62
7
  6
CONTINUOUS
 70
0
 71
3
 72
15
 73
11
 74
0
 42
0.0000001
 43
0.0000001
 44
0.0000000001
 40
0.0
 40
0.0
 40
0.0
 40
0.0
 40
0.3510825643
 40
0.5121139562
 40
0.6564711766
 40
0.7796633235
 40
0.8784928641
 40
0.9181359909
 40
0.9512974477
 40
1.0
 40
1.0
 40
1.0
 40
1.0
 10
96.6108547689
 20
20.5900729861
 30
0.0
 10
96.7553836239
 20
20.5900673395
 30
0.0
 10
96.9663778186
 20
20.5824404536
 30
0.0
 10
97.2352891654
 20
20.5548758188
 30
0.0
 10
97.409760598
 20
20.5279464469
 30
0.0
 10
97.5570764903
 20
20.4949604702
 30
0.0
 10
97.6598514874
 20
20.4619588858
 30
0.0
 10
97.7240913696
 20
20.4318397987
 30
0.0
 10
97.7663713422
 20
20.4057867306
 30
0.0
 10
97.7923359339
 20
20.3811218649
 30
0.0
 10
97.8001019149
 20
20.3626378201
 30
0.0
  0
SPLINE
  5
454
100
AcDbEntity
  8
0
100
AcDbSpline
 62
7
  6
CONTINUOUS
 70
0
 71
3
 72
11
 73
7
 74
0
 42
0.0000001
 43
0.0000001
 44
0.0000000001
 40
0.0
 40
0.0
 40
0.0
 40
0.0
 40
0.2493252383
 40
0.4987750815
 40
0.7489420746
 40
1.0
 40
1.0
 40
1.0
 40
1.0
 10
99.6889712979
 20
26.5823035634
 30
0.0
 10
99.6889557531
 20
26.3795046388
 30
0.0
 10
99.6076212577
 20
25.9692733588
 30
0.0
 10
99.2583640665
 20
25.451281711
 30
0.0
 10
98.736531865
 20
25.1055207614
 30
0.0
 10
98.3243784012
 20
25.0252141851
 30
0.0
 10
98.1201701245
 20
25.0251967279
 30
0.0
  0
SPLINE
  5
455
100
AcDbEntity
  8
0
100
AcDbSpline
 62
7
  6
CONTINUOUS
 70
0
 71
3
 72
11
 73
7
 74
0
 42
0.0000001
 43
0.0000001
 44
0.0000000001
 40
0.0
 40
0.0
 40
0.0
 40
0.0
 40
0.2510556143
 40
0.5012225997
 40
0.750672463
 40
1.0
 40
1.0
 40
1.0
 40
1.0
 10
81.2348087276
 20
25.0251959962
 30
0.0
 10
81.0306023312
 20
25.0252114164
 30
0.0
 10
80.618450828
 20
25.105520085
 30
0.0
 10
80.0966194405
 20
25.4512770995
 30
0.0
 10
79.747358282
 20
25.9692695289
 30
0.0
 10
79.6660258897
 20
26.37950277
 30
0.0
 10
79.6660082915
 20
26.5823035636
 30
0.0
  0
SPLINE
  5
456
100
AcDbEntity
  8
0
100
AcDbSpline
 62
7
  6
CONTINUOUS
 70
0
 71
3
 72
15
 73
11
 74
0
 42
0.0000001
 43
0.0000001
 44
0.0000000001
 40
0.0
 40
0.0
 40
0.0
 40
0.0
 40
0.1245402956
 40
0.2491505346
 40
0.3738903367
 40
0.498799719
 40
0.6238896385
 40
0.7491511207
 40
0.8745363424
 40
1.0
 40
1.0
 40
1.0
 40
1.0
 10
94.6304833959
 20
33.2935223457
 30
0.0
 10
94.6304843317
 20
33.6147833926
 30
0.0
 10
94.5665835572
 20
34.2592919685
 30
0.0
 10
94.2827663864
 20
35.1873451529
 30
0.0
 10
93.8219351063
 20
36.0429088604
 30
0.0
 10
93.2018500752
 20
36.7925986105
 30
0.0
 10
92.4464403008
 20
37.4077934394
 30
0.0
 10
91.5846199276
 20
37.8648217665
 30
0.0
 10
90.649986812
 20
38.1462728723
 30
0.0
 10
90.0011323546
 20
38.209603434
 30
0.0
 10
89.6774894261
 20
38.209603434
 30
0.0
  0
SPLINE
  5
457
100
AcDbEntity
  8
0
100
AcDbSpline
 62
7
  6
CONTINUOUS
 70
0
 71
3
 72
11
 73
7
 74
0
 42
0.0000001
 43
0.0000001
 44
0.0000000001
 40
0.0
 40
0.0
 40
0.0
 40
0.0
 40
0.2491564304
 40
0.4987780343
 40
0.7491153117
 40
1.0
 40
1.0
 40
1.0
 40
1.0
 10
98.5674894261
 20
40.1932682925
 30
0.0
 10
98.5674894261
 20
40.2916716923
 30
0.0
 10
98.5277246562
 20
40.4908399795
 30
0.0
 10
98.35792747
 20
40.7422257736
 30
0.0
 10
98.1046758952
 20
40.9103252486
 30
0.0
 10
97.9045753949
 20
40.9495884601
 30
0.0
 10
97.8054894261
 20
40.9495884601
 30
0.0
  0
SPLINE
  5
458
100
AcDbEntity
  8
0
100
AcDbSpline
 62
7
  6
CONTINUOUS
 70
0
 71
3
 72
11
 73
7
 74
0
 42
0.0000001
 43
0.0000001
 44
0.0000000001
 40
0.0
 40
0.0
 40
0.0
 40
0.0
 40
0.2508845865
 40
0.5012218382
 40
0.7508434684
 40
1.0
 40
1.0
 40
1.0
 40
1.0
 10
81.5494894261
 20
40.9495884601
 30
0.0
 10
81.4504034975
 20
40.9495884601
 30
0.0
 10
81.2503030498
 20
40.9103252771
 30
0.0
 10
80.9970514798
 20
40.7422258704
 30
0.0
 10
80.827254225
 20
40.4908400721
 30
0.0
 10
80.7874894261
 20
40.2916717323
 30
0.0
 10
80.7874894261
 20
40.1932682925
 30
0.0
  0
SPLINE
  5
459
100
AcDbEntity
  8
0
100
AcDbSpline
 62
7
  6
CONTINUOUS
 70
0
 71
3
 72
18
 73
14
 74
0
 42
0.0000001
 43
0.0000001
 44
0.0000000001
 40
0.0
 40
0.0
 40
0.0
 40
0.0
 40
0.1714904792
 40
0.3465092292
 40
0.5158264999
 40
0.6694992635
 40
0.7986665119
 40
0.8520253381
 40
0.8973152874
 40
0.9343759575
 40
0.9634228632
 40
0.9849443269
 40
1.0
 40
1.0
 40
1.0
 40
1.0
 10
79.6660013165
 20
40.1904699529
 30
0.0
 10
79.4825699873
 20
40.1904699499
 30
0.0
 10
79.1119206349
 20
40.1865844371
 30
0.0
 10
78.5604242978
 20
40.1685871935
 30
0.0
 10
78.0285560127
 20
40.1377385698
 30
0.0
 10
77.5467576574
 20
40.094722659
 30
0.0
 10
77.1899603195
 20
40.048331046
 30
0.0
 10
76.9501099402
 20
40.0050524027
 30
0.0
 10
76.8083705668
 20
39.9734297412
 30
0.0
 10
76.6936492208
 20
39.9410443933
 30
0.0
 10
76.6055526257
 20
39.9083680665
 30
0.0
 10
76.5431994683
 20
39.875996592
 30
0.0
 10
76.5124765314
 20
39.8503405201
 30
0.0
 10
76.5030850916
 20
39.8372584877
 30
0.0
  0
SPLINE
  5
45A
100
AcDbEntity
  8
0
100
AcDbSpline
 62
7
  6
CONTINUOUS
 70
0
 71
3
 72
15
 73
11
 74
0
 42
0.0000001
 43
0.0000001
 44
0.0000000001
 40
0.0
 40
0.0
 40
0.0
 40
0.0
 40
0.1251083489
 40
0.2501755324
 40
0.3751698807
 40
0.500135289
 40
0.6250791462
 40
0.7500248332
 40
0.8749918378
 40
1.0
 40
1.0
 40
1.0
 40
1.0
 10
76.503083154
 20
39.8372584641
 30
0.0
 10
76.5042716884
 20
40.0701986477
 30
0.0
 10
76.5411094579
 20
40.5365585702
 30
0.0
 10
76.6986473158
 20
41.2196010758
 30
0.0
 10
76.9551923863
 20
41.8718226449
 30
0.0
 10
77.3050434082
 20
42.4788173107
 30
0.0
 10
77.7406868495
 20
43.0273907828
 30
0.0
 10
78.2526362137
 20
43.5055927091
 30
0.0
 10
78.8295651902
 20
43.9029353077
 30
0.0
 10
79.2495065965
 20
44.1082599908
 30
0.0
 10
79.4655788418
 20
44.1947958477
 30
0.0
  0
SPLINE
  5
45B
100
AcDbEntity
  8
0
100
AcDbSpline
 62
7
  6
CONTINUOUS
 70
0
 71
3
 72
17
 73
13
 74
0
 42
0.0000001
 43
0.0000001
 44
0.0000000001
 40
0.0
 40
0.0
 40
0.0
 40
0.0
 40
0.1244998728
 40
0.1868482005
 40
0.2492244921
 40
0.3739433084
 40
0.4988299297
 40
0.5614081398
 40
0.6240289846
 40
0.7492512541
 40
0.8745899955
 40
1.0
 40
1.0
 40
1.0
 40
1.0
 10
84.7329300697
 20
33.2922643076
 30
0.0
 10
84.7511142504
 20
33.6011268916
 30
0.0
 10
84.8229308819
 20
34.0636167777
 30
0.0
 10
85.0042978047
 20
34.6565182523
 30
0.0
 10
85.2413264699
 20
35.2302342095
 30
0.0
 10
85.6385965415
 20
35.9017834146
 30
0.0
 10
86.155778637
 20
36.4866693701
 30
0.0
 10
86.6296602571
 20
36.89002702
 30
0.0
 10
87.1400452575
 20
37.2474937063
 30
0.0
 10
87.8386170778
 20
37.6019626352
 30
0.0
 10
88.7410844495
 20
37.8630006361
 30
0.0
 10
89.3658302227
 20
37.921723671
 30
0.0
 10
89.6774894261
 20
37.921723671
 30
0.0
  0
SPLINE
  5
45C
100
AcDbEntity
  8
0
100
AcDbSpline
 62
7
  6
CONTINUOUS
 70
0
 71
3
 72
17
 73
13
 74
0
 42
0.0000001
 43
0.0000001
 44
0.0000000001
 40
0.0
 40
0.0
 40
0.0
 40
0.0
 40
0.1254078523
 40
0.2507449869
 40
0.375966718
 40
0.4385876148
 40
0.5011661457
 40
0.626053926
 40
0.7507741818
 40
0.8131511012
 40
0.8754998698
 40
1.0
 40
1.0
 40
1.0
 40
1.0
 10
89.6774894261
 20
37.921723671
 30
0.0
 10
89.9891418748
 20
37.921723671
 30
0.0
 10
90.6138754202
 20
37.8630033884
 30
0.0
 10
91.5163296886
 20
37.6019743146
 30
0.0
 10
92.2148961926
 20
37.2475148333
 30
0.0
 10
92.725282762
 20
36.8900559346
 30
0.0
 10
93.1991678076
 20
36.4867007373
 30
0.0
 10
93.7163582722
 20
35.9018171748
 30
0.0
 10
94.1136352005
 20
35.230266671
 30
0.0
 10
94.3506701383
 20
34.6565495572
 30
0.0
 10
94.5320399117
 20
34.0636484344
 30
0.0
 10
94.6038606127
 20
33.6011595752
 30
0.0
 10
94.6220463681
 20
33.2922978417
 30
0.0
  0
SPLINE
  5
45D
100
AcDbEntity
  8
0
100
AcDbSpline
 62
7
  6
CONTINUOUS
 70
0
 71
3
 72
11
 73
7
 74
0
 42
0.0000001
 43
0.0000001
 44
0.0000000001
 40
0.0
 40
0.0
 40
0.0
 40
0.0
 40
0.2375652068
 40
0.4970475804
 40
0.758386248
 40
1.0
 40
1.0
 40
1.0
 40
1.0
 10
98.1796533373
 20
20.7393589867
 30
0.0
 10
98.179293328
 20
20.6928183062
 30
0.0
 10
98.159531332
 20
20.5946739335
 30
0.0
 10
98.074463422
 20
20.4680407798
 30
0.0
 10
97.9465026661
 20
20.3837252926
 30
0.0
 10
97.8474394531
 20
20.3634965344
 30
0.0
 10
97.8001120047
 20
20.3626379973
 30
0.0
  0
SPLINE
  5
45E
100
AcDbEntity
  8
0
100
AcDbSpline
 62
7
  6
CONTINUOUS
 70
0
 71
3
 72
16
 73
12
 74
0
 42
0.0000001
 43
0.0000001
 44
0.0000000001
 40
0.0
 40
0.0
 40
0.0
 40
0.0
 40
0.3530291779
 40
0.5148697235
 40
0.6597749883
 40
0.7831984732
 40
0.8816510486
 40
0.9208638716
 40
0.953343098
 40
0.9794083667
 40
1.0
 40
1.0
 40
1.0
 40
1.0
 10
96.6108547712
 20
21.0091928024
 30
0.0
 10
96.8014037825
 20
21.0091873493
 30
0.0
 10
97.0794922938
 20
21.000104424
 30
0.0
 10
97.4341844659
 20
20.9674913386
 30
0.0
 10
97.6642905349
 20
20.9355245524
 30
0.0
 10
97.8584799581
 20
20.8965335074
 30
0.0
 10
97.9942304822
 20
20.8573021561
 30
0.0
 10
98.0789942955
 20
20.8216853372
 30
0.0
 10
98.1253258506
 20
20.7961020034
 30
0.0
 10
98.159220296
 20
20.7697972675
 30
0.0
 10
98.1749624439
 20
20.749430043
 30
0.0
 10
98.1796621822
 20
20.7393581592
 30
0.0
  0
SPLINE
  5
45F
100
AcDbEntity
  8
0
100
AcDbSpline
 62
7
  6
CONTINUOUS
 70
0
 71
3
 72
11
 73
7
 74
0
 42
0.0000001
 43
0.0000001
 44
0.0000000001
 40
0.0
 40
0.0
 40
0.0
 40
0.0
 40
0.3422254828
 40
0.6193723864
 40
0.8345898633
 40
1.0
 40
1.0
 40
1.0
 40
1.0
 10
97.8973384407
 20
20.922231701
 30
0.0
 10
97.9339570984
 20
20.9103113244
 30
0.0
 10
97.9997238841
 20
20.8870755424
 30
0.0
 10
98.0850597948
 20
20.8471764132
 30
0.0
 10
98.1462320735
 20
20.8047281054
 30
0.0
 10
98.1730183302
 20
20.7693788752
 30
0.0
 10
98.1796556495
 20
20.751989191
 30
0.0
  0
SPLINE
  5
460
100
AcDbEntity
  8
0
100
AcDbSpline
 62
7
  6
CONTINUOUS
 70
0
 71
3
 72
11
 73
7
 74
0
 42
0.0000001
 43
0.0000001
 44
0.0000000001
 40
0.0
 40
0.0
 40
0.0
 40
0.0
 40
0.2870926022
 40
0.558754218
 40
0.8003240272
 40
1.0
 40
1.0
 40
1.0
 40
1.0
 10
96.6108547711
 20
21.0753507253
 30
0.0
 10
96.7352340683
 20
21.0753499282
 30
0.0
 10
96.9773493267
 20
21.0687252921
 30
0.0
 10
97.3231270297
 20
21.0400218324
 30
0.0
 10
97.6286862018
 20
20.9937246623
 30
0.0
 10
97.8150829235
 20
20.9490074002
 30
0.0
 10
97.8973432167
 20
20.9222356283
 30
0.0
  0
SPLINE
  5
461
100
AcDbEntity
  8
0
100
AcDbSpline
 62
7
  6
CONTINUOUS
 70
0
 71
3
 72
11
 73
7
 74
0
 42
0.0000001
 43
0.0000001
 44
0.0000000001
 40
0.0
 40
0.0
 40
0.0
 40
0.0
 40
0.2877254447
 40
0.559675916
 40
0.8012736839
 40
1.0
 40
1.0
 40
1.0
 40
1.0
 10
96.6115235342
 20
21.4944583129
 30
0.0
 10
96.7660015951
 20
21.494456898
 30
0.0
 10
97.0665372213
 20
21.4870558322
 30
0.0
 10
97.4957373193
 20
21.4544680528
 30
0.0
 10
97.8748136375
 20
21.402563853
 30
0.0
 10
98.1062915139
 20
21.3519254857
 30
0.0
 10
98.2086065711
 20
21.3216691739
 30
0.0
  0
SPLINE
  5
462
100
AcDbEntity
  8
0
100
AcDbSpline
 62
7
  6
CONTINUOUS
 70
0
 71
3
 72
16
 73
12
 74
0
 42
0.0000001
 43
0.0000001
 44
0.0000000001
 40
0.0
 40
0.0
 40
0.0
 40
0.0
 40
0.0205918442
 40
0.0466571548
 40
0.0791365123
 40
0.118349546
 40
0.2168024473
 40
0.3402262
 40
0.4851315143
 40
0.6469720071
 40
1.0
 40
1.0
 40
1.0
 40
1.0
 10
81.17531667
 20
20.7393579628
 30
0.0
 10
81.1800161086
 20
20.7494301119
 30
0.0
 10
81.1957583385
 20
20.7697976281
 30
0.0
 10
81.2296534155
 20
20.7961018535
 30
0.0
 10
81.2759852436
 20
20.8216850624
 30
0.0
 10
81.3607493958
 20
20.8573020136
 30
0.0
 10
81.4965003814
 20
20.8965333376
 30
0.0
 10
81.6906901501
 20
20.9355243816
 30
0.0
 10
81.9207963379
 20
20.9674913306
 30
0.0
 10
82.2754878778
 20
21.0001043123
 30
0.0
 10
82.5535757114
 20
21.0091870804
 30
0.0
 10
82.7441240811
 20
21.0091927139
 30
0.0
  0
SPLINE
  5
463
100
AcDbEntity
  8
0
100
AcDbSpline
 62
7
  6
CONTINUOUS
 70
0
 71
3
 72
11
 73
7
 74
0
 42
0.0000001
 43
0.0000001
 44
0.0000000001
 40
0.0
 40
0.0
 40
0.0
 40
0.0
 40
0.2416140327
 40
0.5029525781
 40
0.7624347718
 40
1.0
 40
1.0
 40
1.0
 40
1.0
 10
81.5548668469
 20
20.3626379959
 30
0.0
 10
81.5075397253
 20
20.3634970118
 30
0.0
 10
81.4084774711
 20
20.383726596
 30
0.0
 10
81.28051849
 20
20.4680424987
 30
0.0
 10
81.1954520762
 20
20.5946750574
 30
0.0
 10
81.1756904639
 20
20.6928186126
 30
0.0
 10
81.1753304636
 20
20.7393589306
 30
0.0
  0
SPLINE
  5
464
100
AcDbEntity
  8
0
100
AcDbSpline
 62
7
  6
CONTINUOUS
 70
0
 71
3
 72
11
 73
7
 74
0
 42
0.0000001
 43
0.0000001
 44
0.0000000001
 40
0.0
 40
0.0
 40
0.0
 40
0.0
 40
0.1996769006
 40
0.4412506392
 40
0.7129225537
 40
1.0
 40
1.0
 40
1.0
 40
1.0
 10
81.4576331971
 20
20.9222362498
 30
0.0
 10
81.5398940569
 20
20.9490080788
 30
0.0
 10
81.726292967
 20
20.9937266785
 30
0.0
 10
82.0318595237
 20
21.0400232948
 30
0.0
 10
82.3776376341
 20
21.0687238418
 30
0.0
 10
82.6197511281
 20
21.0753498183
 30
0.0
 10
82.7441240813
 20
21.0753512261
 30
0.0
  0
SPLINE
  5
465
100
AcDbEntity
  8
0
100
AcDbSpline
 62
7
  6
CONTINUOUS
 70
0
 71
3
 72
11
 73
7
 74
0
 42
0.0000001
 43
0.0000001
 44
0.0000000001
 40
0.0
 40
0.0
 40
0.0
 40
0.0
 40
0.1654173534
 40
0.3806232748
 40
0.6577722588
 40
1.0
 40
1.0
 40
1.0
 40
1.0
 10
81.1753281369
 20
20.7519847169
 30
0.0
 10
81.1819666787
 20
20.7693748408
 30
0.0
 10
81.2087485979
 20
20.8047259318
 30
0.0
 10
81.2699208964
 20
20.847175718
 30
0.0
 10
81.3552564629
 20
20.8870734199
 30
0.0
 10
81.4210237638
 20
20.9103097082
 30
0.0
 10
81.4576426581
 20
20.9222304097
 30
0.0
  0
SPLINE
  5
466
100
AcDbEntity
  8
0
100
AcDbSpline
 62
7
  6
CONTINUOUS
 70
0
 71
3
 72
11
 73
7
 74
0
 42
0.0000001
 43
0.0000001
 44
0.0000000001
 40
0.0
 40
0.0
 40
0.0
 40
0.0
 40
0.2505086256
 40
0.5006343658
 40
0.7504072135
 40
1.0
 40
1.0
 40
1.0
 40
1.0
 10
97.31543079
 20
124.7999266013
 30
0.0
 10
96.8492583098
 20
124.6755404275
 30
0.0
 10
95.9515303383
 20
124.2712974308
 30
0.0
 10
94.8767987968
 20
123.2677767696
 30
0.0
 10
94.1809636713
 20
121.9743010064
 30
0.0
 10
94.0209179635
 20
121.0050985318
 30
0.0
 10
94.0209179635
 20
120.5243806313
 30
0.0
  0
SPLINE
  5
467
100
AcDbEntity
  8
0
100
AcDbSpline
 62
7
  6
CONTINUOUS
 70
0
 71
3
 72
9
 73
5
 74
0
 42
0.0000001
 43
0.0000001
 44
0.0000000001
 40
0.0
 40
0.0
 40
0.0
 40
0.0
 40
0.4973419708
 40
1.0
 40
1.0
 40
1.0
 40
1.0
 10
97.7035332828
 20
85.5148124094
 30
0.0
 10
97.7012357577
 20
85.3710626515
 30
0.0
 10
97.6739437503
 20
85.0816904482
 30
0.0
 10
97.5918359152
 20
84.802136155
 30
0.0
 10
97.5366783029
 20
84.6677072293
 30
0.0
  0
SPLINE
  5
468
100
AcDbEntity
  8
0
100
AcDbSpline
 62
7
  6
CONTINUOUS
 70
0
 71
3
 72
9
 73
5
 74
0
 42
0.0000001
 43
0.0000001
 44
0.0000000001
 40
0.0
 40
0.0
 40
0.0
 40
0.0
 40
0.2228157928
 40
1.0
 40
1.0
 40
1.0
 40
1.0
 10
97.7038665751
 20
119.7879407086
 30
0.0
 10
97.7038665751
 20
119.7924680414
 30
0.0
 10
97.7012885757
 20
119.812863402
 30
0.0
 10
97.6884520142
 20
119.8305245017
 30
0.0
 10
97.6773362783
 20
119.8417409398
 30
0.0
  0
SPLINE
  5
469
100
AcDbEntity
  8
0
100
AcDbSpline
 62
7
  6
CONTINUOUS
 70
0
 71
3
 72
12
 73
8
 74
0
 42
0.0000001
 43
0.0000001
 44
0.0000000001
 40
0.0
 40
0.0
 40
0.0
 40
0.0
 40
0.0543637911
 40
0.1287050713
 40
0.3402035491
 40
0.6334002258
 40
1.0
 40
1.0
 40
1.0
 40
1.0
 10
97.6773362783
 20
119.8417409398
 30
0.0
 10
97.6614697318
 20
119.8577512283
 30
0.0
 10
97.6164015138
 20
119.8877833741
 30
0.0
 10
97.4873737776
 20
119.9449852148
 30
0.0
 10
97.2542597236
 20
120.0071525503
 30
0.0
 10
96.8989669599
 20
120.07180309
 30
0.0
 10
96.6273289293
 20
120.1060187996
 30
0.0
 10
96.4762227594
 20
120.1224898639
 30
0.0
  0
SPLINE
  5
46A
100
AcDbEntity
  8
0
100
AcDbSpline
 62
7
  6
CONTINUOUS
 70
0
 71
3
 72
10
 73
6
 74
0
 42
0.0000001
 43
0.0000001
 44
0.0000000001
 40
0.0
 40
0.0
 40
0.0
 40
0.0
 40
0.1388181774
 40
0.505425424
 40
1.0
 40
1.0
 40
1.0
 40
1.0
 10
96.4762383661
 20
45.9702810828
 30
0.0
 10
96.4762378363
 20
46.0721873009
 30
0.0
 10
96.4763030206
 20
46.4432193979
 30
0.0
 10
96.4757097897
 20
47.1773173753
 30
0.0
 10
96.4772354973
 20
47.809511536
 30
0.0
 10
96.4762363536
 20
48.1725766237
 30
0.0
  0
LINE
  5
46B
100
AcDbEntity
  8
0
100
AcDbLine
 62
7
  6
CONTINUOUS
 10
96.4762363536
 20
48.1725766237
 11
96.4758939942
 21
48.2781145434
  0
SPLINE
  5
46C
100
AcDbEntity
  8
0
100
AcDbSpline
 62
7
  6
CONTINUOUS
 70
0
 71
3
 72
9
 73
5
 74
0
 42
0.0000001
 43
0.0000001
 44
0.0000000001
 40
0.0
 40
0.0
 40
0.0
 40
0.0
 40
0.7511310258
 40
1.0
 40
1.0
 40
1.0
 40
1.0
 10
96.4758939942
 20
48.2781145434
 30
0.0
 10
96.475279123
 20
48.4489610025
 30
0.0
 10
96.4742158695
 20
48.6764166092
 30
0.0
 10
96.4756525059
 20
48.903868111
 30
0.0
 10
96.4762307524
 20
48.9604713379
 30
0.0
  0
SPLINE
  5
46D
100
AcDbEntity
  8
0
100
AcDbSpline
 62
7
  6
CONTINUOUS
 70
0
 71
3
 72
11
 73
7
 74
0
 42
0.0000001
 43
0.0000001
 44
0.0000000001
 40
0.0
 40
0.0
 40
0.0
 40
0.0
 40
0.3438898628
 40
0.5975153287
 40
0.7957698832
 40
1.0
 40
1.0
 40
1.0
 40
1.0
 10
97.7279086499
 20
119.2669153694
 30
0.0
 10
97.7404653733
 20
119.2814794341
 30
0.0
 10
97.7609549681
 20
119.3079196892
 30
0.0
 10
97.7806560884
 20
119.3488416004
 30
0.0
 10
97.7784205648
 20
119.3877781185
 30
0.0
 10
97.761948155
 20
119.4054518516
 30
0.0
 10
97.75263375
 20
119.4120596525
 30
0.0
  0
SPLINE
  5
46E
100
AcDbEntity
  8
0
100
AcDbSpline
 62
7
  6
CONTINUOUS
 70
0
 71
3
 72
18
 73
14
 74
0
 42
0.0000001
 43
0.0000001
 44
0.0000000001
 40
0.0
 40
0.0
 40
0.0
 40
0.0
 40
0.0416473561
 40
0.0738456596
 40
0.0990160098
 40
0.1219372771
 40
0.1480393156
 40
0.1810524478
 40
0.2740047744
 40
0.4051103336
 40
0.57175428
 40
0.7718714017
 40
1.0
 40
1.0
 40
1.0
 40
1.0
 10
97.7279086499
 20
121.5885263613
 30
0.0
 10
97.7388629462
 20
121.6012318319
 30
0.0
 10
97.7573046568
 20
121.6247008707
 30
0.0
 10
97.7763006757
 20
121.6601051445
 30
0.0
 10
97.7814790799
 20
121.6932442911
 30
0.0
 10
97.7689999774
 20
121.7221152452
 30
0.0
 10
97.7417453947
 20
121.7425393018
 30
0.0
 10
97.6830529358
 20
121.7619267724
 30
0.0
 10
97.5775343576
 20
121.7617142598
 30
0.0
 10
97.4230780041
 20
121.7288887864
 30
0.0
 10
97.2373623983
 20
121.6494878365
 30
0.0
 10
97.0371699297
 20
121.5156759869
 30
0.0
 10
96.9122332772
 20
121.3950140687
 30
0.0
 10
96.8522640321
 20
121.325388723
 30
0.0
  0
SPLINE
  5
46F
100
AcDbEntity
  8
0
100
AcDbSpline
 62
7
  6
CONTINUOUS
 70
0
 71
3
 72
9
 73
5
 74
0
 42
0.0000001
 43
0.0000001
 44
0.0000000001
 40
0.0
 40
0.0
 40
0.0
 40
0.0
 40
0.4547132184
 40
1.0
 40
1.0
 40
1.0
 40
1.0
 10
97.5366783029
 20
84.6677072293
 30
0.0
 10
97.4448352179
 20
84.4438692729
 30
0.0
 10
97.1548022287
 20
83.9841147151
 30
0.0
 10
96.726439714
 20
83.6507524883
 30
0.0
 10
96.4762295396
 20
83.5038633053
 30
0.0
  0
SPLINE
  5
470
100
AcDbEntity
  8
0
100
AcDbSpline
 62
7
  6
CONTINUOUS
 70
0
 71
3
 72
10
 73
6
 74
0
 42
0.0000001
 43
0.0000001
 44
0.0000000001
 40
0.0
 40
0.0
 40
0.0
 40
0.0
 40
0.7073824796
 40
0.9045655951
 40
1.0
 40
1.0
 40
1.0
 40
1.0
 10
96.4762227594
 20
120.1224898639
 30
0.0
 10
96.4657217981
 20
120.1236345028
 30
0.0
 10
96.4518017425
 20
120.1256832122
 30
0.0
 10
96.4382475983
 20
120.1295133044
 30
0.0
 10
96.4338894261
 20
120.132600944
 30
0.0
 10
96.4338894261
 20
120.1340260416
 30
0.0
  0
SPLINE
  5
471
100
AcDbEntity
  8
0
100
AcDbSpline
 62
7
  6
CONTINUOUS
 70
0
 71
3
 72
10
 73
6
 74
0
 42
0.0000001
 43
0.0000001
 44
0.0000000001
 40
0.0
 40
0.0
 40
0.0
 40
0.0
 40
0.6992647759
 40
0.8997859767
 40
1.0
 40
1.0
 40
1.0
 40
1.0
 10
96.5206939418
 20
120.5376630593
 30
0.0
 10
96.5103282459
 20
120.5410330681
 30
0.0
 10
96.4965903884
 20
120.5458413946
 30
0.0
 10
96.4835237967
 20
120.5528205703
 30
0.0
 10
96.4793852738
 20
120.5564501107
 30
0.0
 10
96.4793931723
 20
120.5580121715
 30
0.0
  0
SPLINE
  5
472
100
AcDbEntity
  8
0
100
AcDbSpline
 62
7
  6
CONTINUOUS
 70
0
 71
3
 72
15
 73
11
 74
0
 42
0.0000001
 43
0.0000001
 44
0.0000000001
 40
0.0
 40
0.0
 40
0.0
 40
0.0
 40
0.401285824
 40
0.5663222101
 40
0.7052579257
 40
0.817145747
 40
0.9017544842
 40
0.9342234228
 40
0.9606804235
 40
1.0
 40
1.0
 40
1.0
 40
1.0
 10
96.4762227594
 20
96.5089144967
 30
0.0
 10
96.6496960968
 20
96.4900053383
 30
0.0
 10
96.8941665507
 20
96.4587507321
 30
0.0
 10
97.1958793298
 20
96.403419264
 30
0.0
 10
97.3721469831
 20
96.3624907446
 30
0.0
 10
97.5117170459
 20
96.3197656712
 30
0.0
 10
97.6038241438
 20
96.2809204798
 30
0.0
 10
97.6567054614
 20
96.2471194723
 30
0.0
 10
97.6887917585
 20
96.2193251734
 30
0.0
 10
97.7038665742
 20
96.1914636291
 30
0.0
 10
97.7038665737
 20
96.1743653414
 30
0.0
  0
SPLINE
  5
473
100
AcDbEntity
  8
0
100
AcDbSpline
 62
7
  6
CONTINUOUS
 70
0
 71
3
 72
10
 73
6
 74
0
 42
0.0000001
 43
0.0000001
 44
0.0000000001
 40
0.0
 40
0.0
 40
0.0
 40
0.0
 40
0.7073736906
 40
0.9045691801
 40
1.0
 40
1.0
 40
1.0
 40
1.0
 10
96.4762273118
 20
83.4035280364
 30
0.0
 10
96.4657252793
 20
83.4046715698
 30
0.0
 10
96.4518041155
 20
83.4067223104
 30
0.0
 10
96.4382481554
 20
83.410551438
 30
0.0
 10
96.4338894328
 20
83.4136395211
 30
0.0
 10
96.4338894261
 20
83.4150647104
 30
0.0
  0
SPLINE
  5
474
100
AcDbEntity
  8
0
100
AcDbSpline
 62
7
  6
CONTINUOUS
 70
0
 71
3
 72
8
 73
4
 74
0
 42
0.0000001
 43
0.0000001
 44
0.0000000001
 40
0.0
 40
0.0
 40
0.0
 40
0.0
 40
1.0
 40
1.0
 40
1.0
 40
1.0
 10
96.4760317152
 20
83.5035228322
 30
0.0
 10
96.4730983697
 20
83.4984070961
 30
0.0
 10
96.4708421533
 20
83.4928679671
 30
0.0
 10
96.469198485
 20
83.4872046089
 30
0.0
  0
SPLINE
  5
475
100
AcDbEntity
  8
0
100
AcDbSpline
 62
7
  6
CONTINUOUS
 70
0
 71
3
 72
9
 73
5
 74
0
 42
0.0000001
 43
0.0000001
 44
0.0000000001
 40
0.0
 40
0.0
 40
0.0
 40
0.0
 40
0.2264327996
 40
1.0
 40
1.0
 40
1.0
 40
1.0
 10
96.4691984679
 20
83.4872045987
 30
0.0
 10
96.467413908
 20
83.4810557896
 30
0.0
 10
96.4630187767
 20
83.452941842
 30
0.0
 10
96.4684730047
 20
83.4239194622
 30
0.0
 10
96.4762465298
 20
83.4034742628
 30
0.0
  0
SPLINE
  5
476
100
AcDbEntity
  8
0
100
AcDbSpline
 62
7
  6
CONTINUOUS
 70
0
 71
3
 72
9
 73
5
 74
0
 42
0.0000001
 43
0.0000001
 44
0.0000000001
 40
0.0
 40
0.0
 40
0.0
 40
0.0
 40
0.5034837917
 40
1.0
 40
1.0
 40
1.0
 40
1.0
 10
97.7035660279
 20
85.5150407528
 30
0.0
 10
97.7014305135
 20
85.3687129448
 30
0.0
 10
97.6756467212
 20
85.0777865283
 30
0.0
 10
97.5995293244
 20
84.7953670797
 30
0.0
 10
97.5492375127
 20
84.660095238
 30
0.0
  0
SPLINE
  5
477
100
AcDbEntity
  8
0
100
AcDbSpline
 62
7
  6
CONTINUOUS
 70
0
 71
3
 72
9
 73
5
 74
0
 42
0.0000001
 43
0.0000001
 44
0.0000000001
 40
0.0
 40
0.0
 40
0.0
 40
0.0
 40
0.4737777788
 40
1.0
 40
1.0
 40
1.0
 40
1.0
 10
97.3857813818
 20
84.31246382
 30
0.0
 10
97.2834212736
 20
84.1352625331
 30
0.0
 10
97.014788658
 20
83.7899668642
 30
0.0
 10
96.6694017625
 20
83.5232502643
 30
0.0
 10
96.476227312
 20
83.4034757488
 30
0.0
  0
SPLINE
  5
478
100
AcDbEntity
  8
0
100
AcDbSpline
 62
7
  6
CONTINUOUS
 70
0
 71
3
 72
15
 73
11
 74
0
 42
0.0000001
 43
0.0000001
 44
0.0000000001
 40
0.0
 40
0.0
 40
0.0
 40
0.0
 40
0.4013367284
 40
0.5663076
 40
0.7052422938
 40
0.8171429858
 40
0.9017858265
 40
0.9342377246
 40
0.9606878749
 40
1.0
 40
1.0
 40
1.0
 40
1.0
 10
96.476227312
 20
48.9604715614
 30
0.0
 10
96.6497219367
 20
48.9415600195
 30
0.0
 10
96.8941881273
 20
48.9103214032
 30
0.0
 10
97.1958873376
 20
48.8549660786
 30
0.0
 10
97.3721359742
 20
48.8140560761
 30
0.0
 10
97.5117174231
 20
48.7713120687
 30
0.0
 10
97.6038581424
 20
48.7325094781
 30
0.0
 10
97.6567226779
 20
48.6986617116
 30
0.0
 10
97.6887530304
 20
48.6708407362
 30
0.0
 10
97.7038894261
 20
48.6430178797
 30
0.0
 10
97.7038894261
 20
48.6259229024
 30
0.0
  0
SPLINE
  5
479
100
AcDbEntity
  8
0
100
AcDbSpline
 62
7
  6
CONTINUOUS
 70
0
 71
3
 72
18
 73
14
 74
0
 42
0.0000001
 43
0.0000001
 44
0.0000000001
 40
0.0
 40
0.0
 40
0.0
 40
0.0
 40
0.2029703572
 40
0.3922192183
 40
0.5617653058
 40
0.7076147262
 40
0.8246601591
 40
0.87179741
 40
0.910829722
 40
0.9415911011
 40
0.9649068825
 40
0.98290948
 40
1.0
 40
1.0
 40
1.0
 40
1.0
 10
96.5206686489
 20
120.5376707755
 30
0.0
 10
96.5474290254
 20
120.659952709
 30
0.0
 10
96.6237004906
 20
120.891527963
 30
0.0
 10
96.7965174138
 20
121.1947767566
 30
0.0
 10
97.008805695
 20
121.4258448401
 30
0.0
 10
97.2271001918
 20
121.5821518161
 30
0.0
 10
97.4042137604
 20
121.6588986165
 30
0.0
 10
97.5267209404
 20
121.6866555227
 30
0.0
 10
97.598767736
 20
121.6933948396
 30
0.0
 10
97.6563811902
 20
121.6893653125
 30
0.0
 10
97.6993747651
 20
121.675713684
 30
0.0
 10
97.7275071191
 20
121.6502202075
 30
0.0
 10
97.7311852668
 20
121.6271671262
 30
0.0
 10
97.730139181
 20
121.6166791043
 30
0.0
  0
SPLINE
  5
47A
100
AcDbEntity
  8
0
100
AcDbSpline
 62
7
  6
CONTINUOUS
 70
0
 71
3
 72
8
 73
4
 74
0
 42
0.0000001
 43
0.0000001
 44
0.0000000001
 40
0.0
 40
0.0
 40
0.0
 40
0.0
 40
1.0
 40
1.0
 40
1.0
 40
1.0
 10
97.7237992853
 20
119.3273888694
 30
0.0
 10
97.729216674
 20
119.3178396245
 30
0.0
 10
97.7312288206
 20
119.305992803
 30
0.0
 10
97.730139181
 20
119.2950681124
 30
0.0
  0
SPLINE
  5
47B
100
AcDbEntity
  8
0
100
AcDbSpline
 62
7
  6
CONTINUOUS
 70
0
 71
3
 72
13
 73
9
 74
0
 42
0.0000001
 43
0.0000001
 44
0.0000000001
 40
0.0
 40
0.0
 40
0.0
 40
0.0
 40
0.3946020235
 40
0.6966755712
 40
0.8098012665
 40
0.8969363041
 40
0.9588585681
 40
1.0
 40
1.0
 40
1.0
 40
1.0
 10
96.5936789354
 20
120.5137166789
 30
0.0
 10
96.7542000933
 20
120.4605363908
 30
0.0
 10
97.0357980036
 20
120.3612894882
 30
0.0
 10
97.3562772055
 20
120.2265516663
 30
0.0
 10
97.5461477469
 20
120.1249236445
 30
0.0
 10
97.6398064296
 20
120.0619693053
 30
0.0
 10
97.6999084247
 20
120.0070348011
 30
0.0
 10
97.7209189157
 20
119.9645737681
 30
0.0
 10
97.7209189157
 20
119.94694319
 30
0.0
  0
SPLINE
  5
47C
100
AcDbEntity
  8
0
100
AcDbSpline
 62
7
  6
CONTINUOUS
 70
0
 71
3
 72
11
 73
7
 74
0
 42
0.0000001
 43
0.0000001
 44
0.0000000001
 40
0.0
 40
0.0
 40
0.0
 40
0.0
 40
0.250512008
 40
0.5006349657
 40
0.7504054711
 40
1.0
 40
1.0
 40
1.0
 40
1.0
 10
82.0395480622
 20
124.7999266013
 30
0.0
 10
82.5057256421
 20
124.6755390668
 30
0.0
 10
83.4034000949
 20
124.2711814611
 30
0.0
 10
84.4781692723
 20
123.2677550155
 30
0.0
 10
85.1741034727
 20
121.9743166055
 30
0.0
 10
85.3340608887
 20
121.0051006557
 30
0.0
 10
85.3340608887
 20
120.5243806313
 30
0.0
  0
SPLINE
  5
47D
100
AcDbEntity
  8
0
100
AcDbSpline
 62
7
  6
CONTINUOUS
 70
0
 71
3
 72
15
 73
11
 74
0
 42
0.0000001
 43
0.0000001
 44
0.0000000001
 40
0.0
 40
0.0
 40
0.0
 40
0.0
 40
0.0393195765
 40
0.0657765772
 40
0.0982455158
 40
0.182854253
 40
0.2947420743
 40
0.4336777899
 40
0.598714176
 40
1.0
 40
1.0
 40
1.0
 40
1.0
 10
81.6511122785
 20
96.1743653414
 30
0.0
 10
81.651112278
 20
96.1914636291
 30
0.0
 10
81.6661870937
 20
96.2193251734
 30
0.0
 10
81.6982733907
 20
96.2471194723
 30
0.0
 10
81.7511547084
 20
96.2809204798
 30
0.0
 10
81.8432618063
 20
96.3197656712
 30
0.0
 10
81.9828318691
 20
96.3624907446
 30
0.0
 10
82.1590995224
 20
96.403419264
 30
0.0
 10
82.4608123015
 20
96.4587507321
 30
0.0
 10
82.7052827554
 20
96.4900053383
 30
0.0
 10
82.8787560928
 20
96.5089144967
 30
0.0
  0
SPLINE
  5
47E
100
AcDbEntity
  8
0
100
AcDbSpline
 62
7
  6
CONTINUOUS
 70
0
 71
3
 72
9
 73
5
 74
0
 42
0.0000001
 43
0.0000001
 44
0.0000000001
 40
0.0
 40
0.0
 40
0.0
 40
0.0
 40
0.5037352459
 40
1.0
 40
1.0
 40
1.0
 40
1.0
 10
81.6248399386
 20
119.2950654257
 30
0.0
 10
81.6240192145
 20
119.3032907033
 30
0.0
 10
81.6255413626
 20
119.3203233042
 30
0.0
 10
81.6352627273
 20
119.3344215934
 30
0.0
 10
81.6411271821
 20
119.3400718429
 30
0.0
  0
SPLINE
  5
47F
100
AcDbEntity
  8
0
100
AcDbSpline
 62
7
  6
CONTINUOUS
 70
0
 71
3
 72
10
 73
6
 74
0
 42
0.0000001
 43
0.0000001
 44
0.0000000001
 40
0.0
 40
0.0
 40
0.0
 40
0.0
 40
0.3394839847
 40
0.6254512767
 40
1.0
 40
1.0
 40
1.0
 40
1.0
 10
81.6510894261
 20
48.6259229024
 30
0.0
 10
81.6510894261
 20
48.6598609894
 30
0.0
 10
81.7082267071
 20
48.7102395265
 30
0.0
 10
81.7946426846
 20
48.7517308527
 30
0.0
 10
81.8578626965
 20
48.7746999109
 30
0.0
 10
81.8935345413
 20
48.7860812494
 30
0.0
  0
SPLINE
  5
480
100
AcDbEntity
  8
0
100
AcDbSpline
 62
7
  6
CONTINUOUS
 70
0
 71
3
 72
14
 73
10
 74
0
 42
0.0000001
 43
0.0000001
 44
0.0000000001
 40
0.0
 40
0.0
 40
0.0
 40
0.0
 40
0.1777676968
 40
0.3466294019
 40
0.6418209
 40
0.764227763
 40
0.8655390301
 40
0.944628026
 40
1.0
 40
1.0
 40
1.0
 40
1.0
 10
82.8756180064
 20
120.5578646325
 30
0.0
 10
82.8520600761
 20
120.6655117872
 30
0.0
 10
82.787125874
 20
120.8717832081
 30
0.0
 10
82.6049741779
 20
121.227020205
 30
0.0
 10
82.3521381233
 20
121.501906218
 30
0.0
 10
82.0765466427
 20
121.6702955165
 30
0.0
 10
81.9000113419
 20
121.7379658939
 30
0.0
 10
81.755727022
 20
121.7635356185
 30
0.0
 10
81.6705610184
 20
121.7600759163
 30
0.0
 10
81.6377038515
 20
121.7501489437
 30
0.0
  0
SPLINE
  5
481
100
AcDbEntity
  8
0
100
AcDbSpline
 62
7
  6
CONTINUOUS
 70
0
 71
3
 72
10
 73
6
 74
0
 42
0.0000001
 43
0.0000001
 44
0.0000000001
 40
0.0
 40
0.0
 40
0.0
 40
0.0
 40
0.5414731258
 40
0.7624993779
 40
1.0
 40
1.0
 40
1.0
 40
1.0
 10
81.6377038515
 20
121.7501489437
 30
0.0
 10
81.6184017417
 20
121.7443172932
 30
0.0
 10
81.5898973346
 20
121.7307209473
 30
0.0
 10
81.5743895209
 20
121.6952216179
 30
0.0
 10
81.5759868116
 20
121.6775801325
 30
0.0
 10
81.578117416
 20
121.6689963602
 30
0.0
  0
SPLINE
  5
482
100
AcDbEntity
  8
0
100
AcDbSpline
 62
7
  6
CONTINUOUS
 70
0
 71
3
 72
10
 73
6
 74
0
 42
0.0000001
 43
0.0000001
 44
0.0000000001
 40
0.0
 40
0.0
 40
0.0
 40
0.0
 40
0.5411080889
 40
0.7622808079
 40
1.0
 40
1.0
 40
1.0
 40
1.0
 10
81.6373748195
 20
119.4284381868
 30
0.0
 10
81.6181555891
 20
119.4225899059
 30
0.0
 10
81.589784371
 20
119.4089640361
 30
0.0
 10
81.5743918812
 20
119.3735486752
 30
0.0
 10
81.5759912955
 20
119.3559510759
 30
0.0
 10
81.578117416
 20
119.3473853683
 30
0.0
  0
SPLINE
  5
483
100
AcDbEntity
  8
0
100
AcDbSpline
 62
7
  6
CONTINUOUS
 70
0
 71
3
 72
18
 73
14
 74
0
 42
0.0000001
 43
0.0000001
 44
0.0000000001
 40
0.0
 40
0.0
 40
0.0
 40
0.0
 40
0.0170907148
 40
0.0350931163
 40
0.0584085254
 40
0.0891695035
 40
0.1282014582
 40
0.1753384342
 40
0.2923835413
 40
0.4382329612
 40
0.6077792852
 40
0.7970285364
 40
1.0
 40
1.0
 40
1.0
 40
1.0
 10
81.6248399386
 20
121.6166764175
 30
0.0
 10
81.6237934269
 20
121.6271645328
 30
0.0
 10
81.6274703548
 20
121.650217842
 30
0.0
 10
81.6556016107
 20
121.6757124293
 30
0.0
 10
81.6985944891
 20
121.6893647448
 30
0.0
 10
81.7562072786
 20
121.6933949246
 30
0.0
 10
81.8282536109
 20
121.6866562403
 30
0.0
 10
81.9507605735
 20
121.6589002284
 30
0.0
 10
82.12787445
 20
121.5821542948
 30
0.0
 10
82.3461697335
 20
121.4258478315
 30
0.0
 10
82.5584593167
 20
121.1947798037
 30
0.0
 10
82.7312778384
 20
120.8915300622
 30
0.0
 10
82.8075497682
 20
120.6599535714
 30
0.0
 10
82.8343103201
 20
120.5376707937
 30
0.0
  0
SPLINE
  5
484
100
AcDbEntity
  8
0
100
AcDbSpline
 62
7
  6
CONTINUOUS
 70
0
 71
3
 72
9
 73
5
 74
0
 42
0.0000001
 43
0.0000001
 44
0.0000000001
 40
0.0
 40
0.0
 40
0.0
 40
0.0
 40
0.5453074999
 40
1.0
 40
1.0
 40
1.0
 40
1.0
 10
82.8787539915
 20
83.5038599331
 30
0.0
 10
82.628587581
 20
83.6507269722
 30
0.0
 10
82.2003150375
 20
83.9840090918
 30
0.0
 10
81.9102709039
 20
84.4436146966
 30
0.0
 10
81.8184096139
 20
84.6673792077
 30
0.0
  0
SPLINE
  5
485
100
AcDbEntity
  8
0
100
AcDbSpline
 62
7
  6
CONTINUOUS
 70
0
 71
3
 72
10
 73
6
 74
0
 42
0.0000001
 43
0.0000001
 44
0.0000000001
 40
0.0
 40
0.0
 40
0.0
 40
0.0
 40
0.7073824796
 40
0.9045655951
 40
1.0
 40
1.0
 40
1.0
 40
1.0
 10
82.8787560928
 20
96.5089144967
 30
0.0
 10
82.8892570541
 20
96.5100591356
 30
0.0
 10
82.9031771097
 20
96.512107845
 30
0.0
 10
82.9167312539
 20
96.5159379372
 30
0.0
 10
82.9210894261
 20
96.5190255769
 30
0.0
 10
82.9210894261
 20
96.5204506744
 30
0.0
  0
SPLINE
  5
486
100
AcDbEntity
  8
0
100
AcDbSpline
 62
7
  6
CONTINUOUS
 70
0
 71
3
 72
9
 73
5
 74
0
 42
0.0000001
 43
0.0000001
 44
0.0000000001
 40
0.0
 40
0.0
 40
0.0
 40
0.0
 40
0.7595453533
 40
1.0
 40
1.0
 40
1.0
 40
1.0
 10
82.8787586823
 20
83.4035289615
 30
0.0
 10
82.8840778202
 20
83.4175323778
 30
0.0
 10
82.8884720461
 20
83.4371398899
 30
0.0
 10
82.8890512636
 20
83.4568682634
 30
0.0
 10
82.8889371167
 20
83.4616090925
 30
0.0
  0
SPLINE
  5
487
100
AcDbEntity
  8
0
100
AcDbSpline
 62
7
  6
CONTINUOUS
 70
0
 71
3
 72
9
 73
5
 74
0
 42
0.0000001
 43
0.0000001
 44
0.0000000001
 40
0.0
 40
0.0
 40
0.0
 40
0.0
 40
0.2760090466
 40
1.0
 40
1.0
 40
1.0
 40
1.0
 10
82.8889371167
 20
83.4616090925
 30
0.0
 10
82.8888371652
 20
83.4657603479
 30
0.0
 10
82.88777158
 20
83.4807190135
 30
0.0
 10
82.8837330516
 20
83.4958751345
 30
0.0
 10
82.8779931886
 20
83.5051322253
 30
0.0
  0
SPLINE
  5
488
100
AcDbEntity
  8
0
100
AcDbSpline
 62
7
  6
CONTINUOUS
 70
0
 71
3
 72
9
 73
5
 74
0
 42
0.0000001
 43
0.0000001
 44
0.0000000001
 40
0.0
 40
0.0
 40
0.0
 40
0.0
 40
0.5050246825
 40
1.0
 40
1.0
 40
1.0
 40
1.0
 10
82.8750046244
 20
83.5068245132
 30
0.0
 10
82.88896447
 20
83.4958627092
 30
0.0
 10
82.9126279339
 20
83.4681381134
 30
0.0
 10
82.9210894261
 20
83.4324613394
 30
0.0
 10
82.9210894261
 20
83.4150652068
 30
0.0
  0
SPLINE
  5
489
100
AcDbEntity
  8
0
100
AcDbSpline
 62
7
  6
CONTINUOUS
 70
0
 71
3
 72
10
 73
6
 74
0
 42
0.0000001
 43
0.0000001
 44
0.0000000001
 40
0.0
 40
0.0
 40
0.0
 40
0.0
 40
0.7073686495
 40
0.9045572528
 40
1.0
 40
1.0
 40
1.0
 40
1.0
 10
82.8787522408
 20
48.9604716362
 30
0.0
 10
82.889253889
 20
48.9616162563
 30
0.0
 10
82.9031754259
 20
48.9636644796
 30
0.0
 10
82.9167300473
 20
48.9674953739
 30
0.0
 10
82.9210894261
 20
48.9705828919
 30
0.0
 10
82.9210894261
 20
48.9720082338
 30
0.0
  0
SPLINE
  5
48A
100
AcDbEntity
  8
0
100
AcDbSpline
 62
7
  6
CONTINUOUS
 70
0
 71
3
 72
9
 73
5
 74
0
 42
0.0000001
 43
0.0000001
 44
0.0000000001
 40
0.0
 40
0.0
 40
0.0
 40
0.0
 40
0.5044815516
 40
1.0
 40
1.0
 40
1.0
 40
1.0
 10
81.6510894261
 20
85.5595577688
 30
0.0
 10
81.6510894261
 20
85.4056421687
 30
0.0
 10
81.6741554342
 20
85.0998293902
 30
0.0
 10
81.752702878
 20
84.8028148348
 30
0.0
 10
81.8053816923
 20
84.6611086823
 30
0.0
  0
SPLINE
  5
48B
100
AcDbEntity
  8
0
100
AcDbSpline
 62
7
  6
CONTINUOUS
 70
0
 71
3
 72
9
 73
5
 74
0
 42
0.0000001
 43
0.0000001
 44
0.0000000001
 40
0.0
 40
0.0
 40
0.0
 40
0.0
 40
0.4740385596
 40
1.0
 40
1.0
 40
1.0
 40
1.0
 10
81.9764046804
 20
84.3004485241
 30
0.0
 10
82.0788447777
 20
84.1257163044
 30
0.0
 10
82.3459086405
 20
83.7854934292
 30
0.0
 10
82.6874111675
 20
83.5214124348
 30
0.0
 10
82.8787522407
 20
83.4035422841
 30
0.0
  0
SPLINE
  5
48C
100
AcDbEntity
  8
0
100
AcDbSpline
 62
7
  6
CONTINUOUS
 70
0
 71
3
 72
10
 73
6
 74
0
 42
0.0000001
 43
0.0000001
 44
0.0000000001
 40
0.0
 40
0.0
 40
0.0
 40
0.0
 40
0.1865484131
 40
0.4173070655
 40
1.0
 40
1.0
 40
1.0
 40
1.0
 10
81.8935345413
 20
48.7860812494
 30
0.0
 10
81.9528782323
 20
48.8050152473
 30
0.0
 10
82.087927162
 20
48.840089684
 30
0.0
 10
82.4156370481
 20
48.9045695408
 30
0.0
 10
82.6853289952
 20
48.9393877608
 30
0.0
 10
82.8787522407
 20
48.9604716377
 30
0.0
  0
SPLINE
  5
48D
100
AcDbEntity
  8
0
100
AcDbSpline
 62
7
  6
CONTINUOUS
 70
0
 71
3
 72
10
 73
6
 74
0
 42
0.0000001
 43
0.0000001
 44
0.0000000001
 40
0.0
 40
0.0
 40
0.0
 40
0.0
 40
0.6992647441
 40
0.8997859743
 40
1.0
 40
1.0
 40
1.0
 40
1.0
 10
82.8342850375
 20
120.5376628494
 30
0.0
 10
82.8446507503
 20
120.5410328609
 30
0.0
 10
82.8583886315
 20
120.5458411895
 30
0.0
 10
82.8714552465
 20
120.5528203718
 30
0.0
 10
82.8755937813
 20
120.5564499106
 30
0.0
 10
82.8755858861
 20
120.558011974
 30
0.0
  0
SPLINE
  5
48E
100
AcDbEntity
  8
0
100
AcDbSpline
 62
7
  6
CONTINUOUS
 70
0
 71
3
 72
12
 73
8
 74
0
 42
0.0000001
 43
0.0000001
 44
0.0000000001
 40
0.0
 40
0.0
 40
0.0
 40
0.0
 40
0.3665997742
 40
0.6597964509
 40
0.8712949287
 40
0.9456362089
 40
1.0
 40
1.0
 40
1.0
 40
1.0
 10
82.8787560928
 20
120.1224898639
 30
0.0
 10
82.7276499229
 20
120.1060187996
 30
0.0
 10
82.4560118923
 20
120.07180309
 30
0.0
 10
82.1007191286
 20
120.0071525503
 30
0.0
 10
81.8676050746
 20
119.9449852148
 30
0.0
 10
81.7385773384
 20
119.8877833741
 30
0.0
 10
81.6935091204
 20
119.8577512283
 30
0.0
 10
81.6776425738
 20
119.8417409398
 30
0.0
  0
SPLINE
  5
48F
100
AcDbEntity
  8
0
100
AcDbSpline
 62
7
  6
CONTINUOUS
 70
0
 71
3
 72
9
 73
5
 74
0
 42
0.0000001
 43
0.0000001
 44
0.0000000001
 40
0.0
 40
0.0
 40
0.0
 40
0.0
 40
0.2916974275
 40
1.0
 40
1.0
 40
1.0
 40
1.0
 10
81.6776425738
 20
119.8417409398
 30
0.0
 10
81.6734815811
 20
119.8375422509
 30
0.0
 10
81.6600682289
 20
119.8225145588
 30
0.0
 10
81.6511122771
 20
119.8022944587
 30
0.0
 10
81.6511122771
 20
119.7879407086
 30
0.0
  0
SPLINE
  5
490
100
AcDbEntity
  8
0
100
AcDbSpline
 62
7
  6
CONTINUOUS
 70
0
 71
3
 72
13
 73
9
 74
0
 42
0.0000001
 43
0.0000001
 44
0.0000000001
 40
0.0
 40
0.0
 40
0.0
 40
0.0
 40
0.0411414319
 40
0.1030636959
 40
0.1901987335
 40
0.3033244288
 40
0.6053979765
 40
1.0
 40
1.0
 40
1.0
 40
1.0
 10
81.6340599365
 20
119.94694319
 30
0.0
 10
81.6340599365
 20
119.9645737681
 30
0.0
 10
81.6550704275
 20
120.0070348011
 30
0.0
 10
81.7151724226
 20
120.0619693053
 30
0.0
 10
81.8088311053
 20
120.1249236445
 30
0.0
 10
81.9987016467
 20
120.2265516663
 30
0.0
 10
82.3191808486
 20
120.3612894882
 30
0.0
 10
82.6007787589
 20
120.4605363908
 30
0.0
 10
82.7612999168
 20
120.5137166789
 30
0.0
  0
SPLINE
  5
491
100
AcDbEntity
  8
0
100
AcDbSpline
 62
7
  6
CONTINUOUS
 70
0
 71
3
 72
9
 73
5
 74
0
 42
0.0000001
 43
0.0000001
 44
0.0000000001
 40
0.0
 40
0.0
 40
0.0
 40
0.0
 40
0.2277849437
 40
1.0
 40
1.0
 40
1.0
 40
1.0
 10
81.578117416
 20
121.6689963602
 30
0.0
 10
81.5787501996
 20
121.6664470036
 30
0.0
 10
81.5820409575
 20
121.6553812668
 30
0.0
 10
81.5871135715
 20
121.6449109853
 30
0.0
 10
81.5915241374
 20
121.6371751502
 30
0.0
  0
SPLINE
  5
492
100
AcDbEntity
  8
0
100
AcDbSpline
 62
7
  6
CONTINUOUS
 70
0
 71
3
 72
9
 73
5
 74
0
 42
0.0000001
 43
0.0000001
 44
0.0000000001
 40
0.0
 40
0.0
 40
0.0
 40
0.0
 40
0.2259964969
 40
1.0
 40
1.0
 40
1.0
 40
1.0
 10
81.578117416
 20
119.3473853683
 30
0.0
 10
81.5788026269
 20
119.3446247925
 30
0.0
 10
81.5824412388
 20
119.332558722
 30
0.0
 10
81.5881562998
 20
119.3212051964
 30
0.0
 10
81.5931175584
 20
119.3128217815
 30
0.0
  0
SPLINE
  5
493
100
AcDbEntity
  8
0
100
AcDbSpline
 62
7
  6
CONTINUOUS
 70
0
 71
3
 72
11
 73
7
 74
0
 42
0.0000001
 43
0.0000001
 44
0.0000000001
 40
0.0
 40
0.0
 40
0.0
 40
0.0
 40
0.2491701747
 40
0.498732355
 40
0.7490120928
 40
1.0
 40
1.0
 40
1.0
 40
1.0
 10
86.4121556903
 20
123.6770667679
 30
0.0
 10
86.4113582277
 20
124.2821707069
 30
0.0
 10
86.224546241
 20
125.5009644333
 30
0.0
 10
85.4130274049
 20
127.158791869
 30
0.0
 10
84.1447181755
 20
128.5057687359
 30
0.0
 10
83.0658594694
 20
129.11501226
 30
0.0
 10
82.4964135329
 20
129.3323702127
 30
0.0
  0
SPLINE
  5
494
100
AcDbEntity
  8
0
100
AcDbSpline
 62
7
  6
CONTINUOUS
 70
0
 71
3
 72
11
 73
7
 74
0
 42
0.0000001
 43
0.0000001
 44
0.0000000001
 40
0.0
 40
0.0
 40
0.0
 40
0.0
 40
0.2491239254
 40
0.4986770073
 40
0.7489791501
 40
1.0
 40
1.0
 40
1.0
 40
1.0
 10
92.942919707
 20
123.6771632236
 30
0.0
 10
92.9438363445
 20
124.303371122
 30
0.0
 10
93.1438582519
 20
125.5653485292
 30
0.0
 10
94.0121095763
 20
127.2693830608
 30
0.0
 10
95.362787917
 20
128.6298732976
 30
0.0
 10
96.5036021921
 20
129.2195243337
 30
0.0
 10
97.1020612305
 20
129.4194704542
 30
0.0
  0
SPLINE
  5
495
100
AcDbEntity
  8
0
100
AcDbSpline
 62
7
  6
CONTINUOUS
 70
0
 71
3
 72
13
 73
9
 74
0
 42
0.0000001
 43
0.0000001
 44
0.0000000001
 40
0.0
 40
0.0
 40
0.0
 40
0.0
 40
0.1686259369
 40
0.3208400779
 40
0.4563864717
 40
0.5788985294
 40
0.7978309937
 40
1.0
 40
1.0
 40
1.0
 40
1.0
 10
98.4488431045
 20
205.9224366317
 30
0.0
 10
97.9640149824
 20
205.9494156125
 30
0.0
 10
97.0438169217
 20
206.1105127039
 30
0.0
 10
95.823518217
 20
206.6232523446
 30
0.0
 10
94.8435680752
 20
207.2972269675
 30
0.0
 10
93.873126769
 20
208.2782305064
 30
0.0
 10
93.0764512285
 20
209.6629295255
 30
0.0
 10
92.8533192876
 20
210.8812606836
 30
0.0
 10
92.8461659937
 20
211.4633861259
 30
0.0
  0
SPLINE
  5
496
100
AcDbEntity
  8
0
100
AcDbSpline
 62
7
  6
CONTINUOUS
 70
0
 71
3
 72
13
 73
9
 74
0
 42
0.0000001
 43
0.0000001
 44
0.0000000001
 40
0.0
 40
0.0
 40
0.0
 40
0.0
 40
0.2494769093
 40
0.4990161224
 40
0.6242839796
 40
0.7494341661
 40
0.8749340817
 40
1.0
 40
1.0
 40
1.0
 40
1.0
 10
97.9302919785
 20
192.5626125358
 30
0.0
 10
97.9298258491
 20
192.6816134284
 30
0.0
 10
97.8830772837
 20
192.9222140351
 30
0.0
 10
97.712262761
 20
193.1760303377
 30
0.0
 10
97.5268804463
 20
193.3282163684
 30
0.0
 10
97.3670609805
 20
193.4121188525
 30
0.0
 10
97.1953618123
 20
193.4661864996
 30
0.0
 10
97.075687944
 20
193.4807686018
 30
0.0
 10
97.0160312461
 20
193.4809888804
 30
0.0
  0
SPLINE
  5
497
100
AcDbEntity
  8
0
100
AcDbSpline
 62
7
  6
CONTINUOUS
 70
0
 71
3
 72
10
 73
6
 74
0
 42
0.0000001
 43
0.0000001
 44
0.0000000001
 40
0.0
 40
0.0
 40
0.0
 40
0.0
 40
0.2500006442
 40
0.6250004194
 40
1.0
 40
1.0
 40
1.0
 40
1.0
 10
97.0160312461
 20
193.4809888804
 30
0.0
 10
97.1612723944
 20
193.4815941691
 30
0.0
 10
97.5243781703
 20
193.4833808731
 30
0.0
 10
98.105269471
 20
193.4933662739
 30
0.0
 10
98.5409897447
 20
193.4965433948
 30
0.0
 10
98.7588506622
 20
193.4974513245
 30
0.0
  0
SPLINE
  5
498
100
AcDbEntity
  8
0
100
AcDbSpline
 62
7
  6
CONTINUOUS
 70
0
 71
3
 72
11
 73
7
 74
0
 42
0.0000001
 43
0.0000001
 44
0.0000000001
 40
0.0
 40
0.0
 40
0.0
 40
0.0
 40
0.2501792265
 40
0.499998373
 40
0.7498192578
 40
1.0
 40
1.0
 40
1.0
 40
1.0
 10
81.5516680994
 20
192.5626125347
 30
0.0
 10
81.551662133
 20
192.6650270175
 30
0.0
 10
81.5941696011
 20
192.8714229651
 30
0.0
 10
81.7672720835
 20
193.134286124
 30
0.0
 10
82.0301354438
 20
193.3073889809
 30
0.0
 10
82.2365325039
 20
193.3498983602
 30
0.0
 10
82.3389476072
 20
193.3498922844
 30
0.0
  0
SPLINE
  5
499
100
AcDbEntity
  8
0
100
AcDbSpline
 62
7
  6
CONTINUOUS
 70
0
 71
3
 72
11
 73
7
 74
0
 42
0.0000001
 43
0.0000001
 44
0.0000000001
 40
0.0
 40
0.0
 40
0.0
 40
0.0
 40
0.2501792265
 40
0.499998373
 40
0.7498192578
 40
1.0
 40
1.0
 40
1.0
 40
1.0
 10
97.016031245
 20
193.3498920425
 30
0.0
 10
97.1184457278
 20
193.3498980089
 30
0.0
 10
97.3248416754
 20
193.3073905408
 30
0.0
 10
97.5877048343
 20
193.1342880584
 30
0.0
 10
97.7608076912
 20
192.8714246981
 30
0.0
 10
97.8033170705
 20
192.665027638
 30
0.0
 10
97.8033109947
 20
192.5626125347
 30
0.0
  0
SPLINE
  5
49A
100
AcDbEntity
  8
0
100
AcDbSpline
 62
7
  6
CONTINUOUS
 70
0
 71
3
 72
11
 73
7
 74
0
 42
0.0000001
 43
0.0000001
 44
0.0000000001
 40
0.0
 40
0.0
 40
0.0
 40
0.0
 40
0.2501792265
 40
0.499998373
 40
0.7498192578
 40
1.0
 40
1.0
 40
1.0
 40
1.0
 10
97.8033107528
 20
143.5955288968
 30
0.0
 10
97.8033167192
 20
143.493114414
 30
0.0
 10
97.7608092511
 20
143.2867184664
 30
0.0
 10
97.5877067687
 20
143.0238553076
 30
0.0
 10
97.3248434085
 20
142.8507524507
 30
0.0
 10
97.1184463483
 20
142.8082430714
 30
0.0
 10
97.016031245
 20
142.8082491471
 30
0.0
  0
SPLINE
  5
49B
100
AcDbEntity
  8
0
100
AcDbSpline
 62
7
  6
CONTINUOUS
 70
0
 71
3
 72
11
 73
7
 74
0
 42
0.0000001
 43
0.0000001
 44
0.0000000001
 40
0.0
 40
0.0
 40
0.0
 40
0.0
 40
0.2501792265
 40
0.499998373
 40
0.7498192578
 40
1.0
 40
1.0
 40
1.0
 40
1.0
 10
82.3389476072
 20
142.8082493891
 30
0.0
 10
82.2365331243
 20
142.8082434227
 30
0.0
 10
82.0301371768
 20
142.8507508908
 30
0.0
 10
81.7672740179
 20
143.0238533732
 30
0.0
 10
81.594171161
 20
143.2867167334
 30
0.0
 10
81.5516617817
 20
143.4931137936
 30
0.0
 10
81.5516678574
 20
143.5955288969
 30
0.0
  0
SPLINE
  5
49C
100
AcDbEntity
  8
0
100
AcDbSpline
 62
7
  6
CONTINUOUS
 70
0
 71
3
 72
15
 73
11
 74
0
 42
0.0000001
 43
0.0000001
 44
0.0000000001
 40
0.0
 40
0.0
 40
0.0
 40
0.0
 40
0.0380952875
 40
0.06645287
 40
0.1022219448
 40
0.196268983
 40
0.3188293144
 40
0.4659672669
 40
0.6326575578
 40
1.0
 40
1.0
 40
1.0
 40
1.0
 10
86.6911657725
 20
90.377590478
 30
0.0
 10
86.6921581115
 20
90.3575386715
 30
0.0
 10
86.7178292066
 20
90.3266877495
 30
0.0
 10
86.7625452526
 20
90.2984883343
 30
0.0
 10
86.8387282198
 20
90.2630459919
 30
0.0
 10
86.9664184143
 20
90.2251830044
 30
0.0
 10
87.1544446071
 20
90.1868723136
 30
0.0
 10
87.3823455331
 20
90.1552573949
 30
0.0
 10
87.7399124736
 20
90.1225147229
 30
0.0
 10
88.0215171819
 20
90.1132395677
 30
0.0
 10
88.2151076849
 20
90.1129506553
 30
0.0
  0
SPLINE
  5
49D
100
AcDbEntity
  8
0
100
AcDbSpline
 62
7
  6
CONTINUOUS
 70
0
 71
3
 72
18
 73
14
 74
0
 42
0.0000001
 43
0.0000001
 44
0.0000000001
 40
0.0
 40
0.0
 40
0.0
 40
0.0
 40
0.008797049
 40
0.025332581
 40
0.0495665398
 40
0.0814415409
 40
0.1208551685
 40
0.1676704428
 40
0.2829307163
 40
0.4257595336
 40
0.5943646493
 40
0.7865828715
 40
1.0
 40
1.0
 40
1.0
 40
1.0
 10
100.3578927958
 20
132.3865634584
 30
0.0
 10
100.3552993994
 20
132.3980888368
 30
0.0
 10
100.352680703
 20
132.4321662663
 30
0.0
 10
100.3482393904
 20
132.4984734892
 30
0.0
 10
100.3443468042
 20
132.5960110055
 30
0.0
 10
100.3401140447
 20
132.7241952979
 30
0.0
 10
100.336028246
 20
132.8827541733
 30
0.0
 10
100.3301817262
 20
133.1532671607
 30
0.0
 10
100.3234263656
 20
133.5626721707
 30
0.0
 10
100.3161065566
 20
134.1356323812
 30
0.0
 10
100.3093056083
 20
134.8119535753
 30
0.0
 10
100.3031034851
 20
135.5830761554
 30
0.0
 10
100.2996047243
 20
136.127792745
 30
0.0
 10
100.2979477485
 20
136.4143857335
 30
0.0
  0
SPLINE
  5
49E
100
AcDbEntity
  8
0
100
AcDbSpline
 62
7
  6
CONTINUOUS
 70
0
 71
3
 72
9
 73
5
 74
0
 42
0.0000001
 43
0.0000001
 44
0.0000000001
 40
0.0
 40
0.0
 40
0.0
 40
0.0
 40
0.2271728756
 40
1.0
 40
1.0
 40
1.0
 40
1.0
 10
100.2979477485
 20
136.4143857335
 30
0.0
 10
100.2953769663
 20
136.8590320444
 30
0.0
 10
100.2860390434
 20
138.8163469914
 30
0.0
 10
100.2828042583
 20
140.7736882463
 30
0.0
 10
100.2828036584
 20
142.2863709213
 30
0.0
  0
SPLINE
  5
49F
100
AcDbEntity
  8
0
100
AcDbSpline
 62
7
  6
CONTINUOUS
 70
0
 71
3
 72
21
 73
17
 74
0
 42
0.0000001
 43
0.0000001
 44
0.0000000001
 40
0.0
 40
0.0
 40
0.0
 40
0.0
 40
0.1909142333
 40
0.3748114963
 40
0.5449349022
 40
0.6950346404
 40
0.7608149722
 40
0.8195965596
 40
0.8708266251
 40
0.9140454449
 40
0.9488431041
 40
0.9749149748
 40
0.9845955113
 40
0.9920111556
 40
0.9971487428
 40
1.0
 40
1.0
 40
1.0
 40
1.0
 10
100.2828036584
 20
193.4976280385
 30
0.0
 10
100.2828064311
 20
194.1276897396
 30
0.0
 10
100.2837217315
 20
195.3646556963
 30
0.0
 10
100.2878244031
 20
197.1630646696
 30
0.0
 10
100.2944788355
 20
198.8267676249
 30
0.0
 10
100.3021951568
 20
200.1006477209
 30
0.0
 10
100.3096876395
 20
201.0070647945
 30
0.0
 10
100.3154994131
 20
201.5871911379
 30
0.0
 10
100.3217033279
 20
202.0928490493
 30
0.0
 10
100.3281869312
 20
202.5193474504
 30
0.0
 10
100.3349458055
 20
202.8627907119
 30
0.0
 10
100.3409742872
 20
203.0955634703
 30
0.0
 10
100.3463238296
 20
203.2379099121
 30
0.0
 10
100.3497298624
 20
203.311244755
 30
0.0
 10
100.3534131803
 20
203.3618846846
 30
0.0
 10
100.3558259275
 20
203.3882430329
 30
0.0
 10
100.3578928973
 20
203.3974230268
 30
0.0
  0
SPLINE
  5
4A0
100
AcDbEntity
  8
0
100
AcDbSpline
 62
7
  6
CONTINUOUS
 70
0
 71
3
 72
18
 73
14
 74
0
 42
0.0000001
 43
0.0000001
 44
0.0000000001
 40
0.0
 40
0.0
 40
0.0
 40
0.0
 40
0.1988717069
 40
0.3860424329
 40
0.5558871913
 40
0.703639386
 40
0.8249795841
 40
0.8746239359
 40
0.9164125201
 40
0.9500654105
 40
0.9753182746
 40
0.9919985164
 40
1.0
 40
1.0
 40
1.0
 40
1.0
 10
88.2151077787
 20
90.112950655
 30
0.0
 10
88.2146999304
 20
89.765331874
 30
0.0
 10
88.2135296462
 20
89.0905474135
 30
0.0
 10
88.2106266869
 20
88.1188852458
 30
0.0
 10
88.2067090206
 20
87.2365811698
 30
0.0
 10
88.2018913152
 20
86.4693547413
 30
0.0
 10
88.1970594893
 20
85.9122325309
 30
0.0
 10
88.1926163914
 20
85.5403472169
 30
0.0
 10
88.1894909511
 20
85.3217102477
 30
0.0
 10
88.1860205447
 20
85.1457726426
 30
0.0
 10
88.1832230443
 20
85.0135890673
 30
0.0
 10
88.1790779458
 20
84.9265652573
 30
0.0
 10
88.177710754
 20
84.8832255348
 30
0.0
 10
88.1751015364
 20
84.8694848305
 30
0.0
  0
LINE
  5
4A1
100
AcDbEntity
  8
0
100
AcDbLine
 62
7
  6
CONTINUOUS
 10
100.333146791
 20
142.4250416915
 11
100.3331594274
 21
142.2857518454
  0
LINE
  5
4A2
100
AcDbEntity
  8
0
100
AcDbLine
 62
7
  6
CONTINUOUS
 10
100.3377300774
 20
139.8510991308
 11
100.3379108296
 21
139.803498591
  0
SPLINE
  5
4A3
100
AcDbEntity
  8
0
100
AcDbSpline
 62
7
  6
CONTINUOUS
 70
0
 71
3
 72
9
 73
5
 74
0
 42
0.0000001
 43
0.0000001
 44
0.0000000001
 40
0.0
 40
0.0
 40
0.0
 40
0.0
 40
0.281195333
 40
1.0
 40
1.0
 40
1.0
 40
1.0
 10
100.3379108296
 20
139.803498591
 30
0.0
 10
100.338638394
 20
139.6140498855
 30
0.0
 10
100.3415939622
 20
138.940325367
 30
0.0
 10
100.3458566176
 20
138.2666039674
 30
0.0
 10
100.3505635064
 20
137.7823456257
 30
0.0
  0
LINE
  5
4A4
100
AcDbEntity
  8
0
100
AcDbLine
 62
7
  6
CONTINUOUS
 10
100.3505635064
 20
137.7823456257
 11
100.3508869148
 21
137.7493732612
  0
SPLINE
  5
4A5
100
AcDbEntity
  8
0
100
AcDbSpline
 62
7
  6
CONTINUOUS
 70
0
 71
3
 72
9
 73
5
 74
0
 42
0.0000001
 43
0.0000001
 44
0.0000000001
 40
0.0
 40
0.0
 40
0.0
 40
0.0
 40
0.6127986194
 40
1.0
 40
1.0
 40
1.0
 40
1.0
 10
100.3508869148
 20
137.7493732612
 30
0.0
 10
100.3531734475
 20
137.5183667638
 30
0.0
 10
100.3577380198
 20
137.1414137789
 30
0.0
 10
100.3643546974
 20
136.7644597175
 30
0.0
 10
100.3691640112
 20
136.6185686364
 30
0.0
  0
LINE
  5
4A6
100
AcDbEntity
  8
0
100
AcDbLine
 62
7
  6
CONTINUOUS
 10
100.3691640112
 20
136.6185686364
 11
100.3694576914
 21
136.6097873289
  0
LINE
  5
4A7
100
AcDbEntity
  8
0
100
AcDbLine
 62
7
  6
CONTINUOUS
 10
100.3694576914
 20
136.6097873289
 11
100.3697239832
 21
136.6020448481
  0
SPLINE
  5
4A8
100
AcDbEntity
  8
0
100
AcDbSpline
 62
7
  6
CONTINUOUS
 70
0
 71
3
 72
9
 73
5
 74
0
 42
0.0000001
 43
0.0000001
 44
0.0000000001
 40
0.0
 40
0.0
 40
0.0
 40
0.0
 40
0.4994261707
 40
1.0
 40
1.0
 40
1.0
 40
1.0
 10
100.3697239832
 20
136.6020448481
 30
0.0
 10
100.3714234951
 20
136.5532965666
 30
0.0
 10
100.3800551272
 20
136.3587405818
 30
0.0
 10
100.3886431732
 20
136.553521596
 30
0.0
 10
100.3903443768
 20
136.602381976
 30
0.0
  0
SPLINE
  5
4A9
100
AcDbEntity
  8
0
100
AcDbSpline
 62
7
  6
CONTINUOUS
 70
0
 71
3
 72
12
 73
8
 74
0
 42
0.0000001
 43
0.0000001
 44
0.0000000001
 40
0.0
 40
0.0
 40
0.0
 40
0.0
 40
0.0521669458
 40
0.1309573579
 40
0.3591089945
 40
0.659662453
 40
1.0
 40
1.0
 40
1.0
 40
1.0
 10
100.3903443768
 20
136.602381976
 30
0.0
 10
100.3937831667
 20
136.7011476843
 30
0.0
 10
100.3990863549
 20
136.949190652
 30
0.0
 10
100.4090871221
 20
137.6294116289
 30
0.0
 10
100.4180016041
 20
138.7802377796
 30
0.0
 10
100.4250950357
 20
140.4265420958
 30
0.0
 10
100.4267741458
 20
141.6406541632
 30
0.0
 10
100.4268962224
 20
142.285392818
 30
0.0
  0
LINE
  5
4AA
100
AcDbEntity
  8
0
100
AcDbLine
 62
7
  6
CONTINUOUS
 10
100.4268962224
 20
142.285392818
 11
100.4269098993
 21
142.4251002738
  0
SPLINE
  5
4AB
100
AcDbEntity
  8
0
100
AcDbSpline
 62
7
  6
CONTINUOUS
 70
0
 71
3
 72
12
 73
8
 74
0
 42
0.0000001
 43
0.0000001
 44
0.0000000001
 40
0.0
 40
0.0
 40
0.0
 40
0.0
 40
0.3382898861
 40
0.6387398174
 40
0.8678333838
 40
0.9472356361
 40
1.0
 40
1.0
 40
1.0
 40
1.0
 10
100.4269098993
 20
142.4251002738
 30
0.0
 10
100.4269064291
 20
143.0808714935
 30
0.0
 10
100.4253935445
 20
144.3190639115
 30
0.0
 10
100.4184281178
 20
146.0013321926
 30
0.0
 10
100.4095037173
 20
147.1817481828
 30
0.0
 10
100.3994329457
 20
147.8819699746
 30
0.0
 10
100.3940680792
 20
148.1381297557
 30
0.0
 10
100.3905989989
 20
148.2403540479
 30
0.0
  0
SPLINE
  5
4AC
100
AcDbEntity
  8
0
100
AcDbSpline
 62
7
  6
CONTINUOUS
 70
0
 71
3
 72
19
 73
15
 74
0
 42
0.0000001
 43
0.0000001
 44
0.0000000001
 40
0.0
 40
0.0
 40
0.0
 40
0.0
 40
0.2236457902
 40
0.3858816922
 40
0.4438699416
 40
0.4864015542
 40
0.5134979667
 40
0.5254611835
 40
0.5318021897
 40
0.5524547455
 40
0.5884841884
 40
0.6399676249
 40
0.7892347034
 40
1.0
 40
1.0
 40
1.0
 40
1.0
 10
100.3905989989
 20
148.2403540479
 30
0.0
 10
100.3898570075
 20
148.2622185029
 30
0.0
 10
100.3884376826
 20
148.2997889519
 30
0.0
 10
100.3862634537
 20
148.3435799661
 30
0.0
 10
100.3843846343
 20
148.3686483938
 30
0.0
 10
100.3831584524
 20
148.3820492302
 30
0.0
 10
100.3820189821
 20
148.3880675577
 30
0.0
 10
100.3808829644
 20
148.3950867926
 30
0.0
 10
100.3777118562
 20
148.3911911897
 30
0.0
 10
100.3779167675
 20
148.3853179933
 30
0.0
 10
100.3759453489
 20
148.3746822408
 30
0.0
 10
100.3745374811
 20
148.3516720048
 30
0.0
 10
100.371998983
 20
148.3114116749
 30
0.0
 10
100.3707289717
 20
148.2762429952
 30
0.0
 10
100.3699906232
 20
148.2556391494
 30
0.0
  0
LINE
  5
4AD
100
AcDbEntity
  8
0
100
AcDbLine
 62
7
  6
CONTINUOUS
 10
100.3699906232
 20
148.2556391494
 11
100.3697123135
 21
148.2477594009
  0
LINE
  5
4AE
100
AcDbEntity
  8
0
100
AcDbLine
 62
7
  6
CONTINUOUS
 10
100.3697123135
 20
148.2477594009
 11
100.3694051705
 21
148.2387991594
  0
SPLINE
  5
4AF
100
AcDbEntity
  8
0
100
AcDbSpline
 62
7
  6
CONTINUOUS
 70
0
 71
3
 72
9
 73
5
 74
0
 42
0.0000001
 43
0.0000001
 44
0.0000000001
 40
0.0
 40
0.0
 40
0.0
 40
0.0
 40
0.3856344991
 40
1.0
 40
1.0
 40
1.0
 40
1.0
 10
100.3694051705
 20
148.2387991594
 30
0.0
 10
100.3645496567
 20
148.0949533326
 30
0.0
 10
100.357943101
 20
147.7217630453
 30
0.0
 10
100.3533642448
 20
147.3485761446
 30
0.0
 10
100.3510712872
 20
147.1192921347
 30
0.0
  0
LINE
  5
4B0
100
AcDbEntity
  8
0
100
AcDbLine
 62
7
  6
CONTINUOUS
 10
100.3510712872
 20
147.1192921347
 11
100.3508128729
 21
147.0932638442
  0
SPLINE
  5
4B1
100
AcDbEntity
  8
0
100
AcDbSpline
 62
7
  6
CONTINUOUS
 70
0
 71
3
 72
9
 73
5
 74
0
 42
0.0000001
 43
0.0000001
 44
0.0000000001
 40
0.0
 40
0.0
 40
0.0
 40
0.0
 40
0.2151243482
 40
1.0
 40
1.0
 40
1.0
 40
1.0
 10
100.3508128729
 20
147.0932638442
 30
0.0
 10
100.3493757101
 20
146.947455895
 30
0.0
 10
100.3434987963
 20
146.2696635062
 30
0.0
 10
100.3400176034
 20
145.5918523299
 30
0.0
 10
100.337961776
 20
145.0598539087
 30
0.0
  0
LINE
  5
4B2
100
AcDbEntity
  8
0
100
AcDbLine
 62
7
  6
CONTINUOUS
 10
100.337961776
 20
145.0598539087
 11
100.3377867707
 21
145.0140730576
  0
LINE
  5
4B3
100
AcDbEntity
  8
0
100
AcDbLine
 62
7
  6
CONTINUOUS
 10
100.6034370702
 20
187.0962813095
 11
100.6008191519
 21
187.3527103675
  0
SPLINE
  5
4B4
100
AcDbEntity
  8
0
100
AcDbSpline
 62
7
  6
CONTINUOUS
 70
0
 71
3
 72
32
 73
28
 74
0
 42
0.0000001
 43
0.0000001
 44
0.0000000001
 40
0.0
 40
0.0
 40
0.0
 40
0.0
 40
0.1144379362
 40
0.2144459837
 40
0.2996526508
 40
0.3696971455
 40
0.4242965156
 40
0.4457462707
 40
0.4632671575
 40
0.4768391209
 40
0.4864496365
 40
0.489773772
 40
0.4921186108
 40
0.4935067578
 40
0.4940862816
 40
0.4949376795
 40
0.4966966469
 40
0.4994248394
 40
0.5031359045
 40
0.5135238772
 40
0.5278725378
 40
0.5461666134
 40
0.5683854909
 40
0.6245096392
 40
0.6960564921
 40
0.7827311071
 40
1.0
 40
1.0
 40
1.0
 40
1.0
 10
100.5856497237
 20
188.5991104049
 30
0.0
 10
100.5833987247
 20
188.756907852
 30
0.0
 10
100.5788889376
 20
189.0526015219
 30
0.0
 10
100.5714777206
 20
189.4657660534
 30
0.0
 10
100.5639192477
 20
189.8176963904
 30
0.0
 10
100.556253807
 20
190.1069869025
 30
0.0
 10
100.5494183981
 20
190.3083416028
 30
0.0
 10
100.5436776755
 20
190.4372532716
 30
0.0
 10
100.5396849067
 20
190.5095988814
 30
0.0
 10
100.5358757894
 20
190.5656125333
 30
0.0
 10
100.5321858524
 20
190.6019744966
 30
0.0
 10
100.5295266862
 20
190.6228944979
 30
0.0
 10
100.5270760794
 20
190.6323524375
 30
0.0
 10
100.5262516424
 20
190.6382114516
 30
0.0
 10
100.5223473118
 20
190.6412291339
 30
0.0
 10
100.5200755145
 20
190.6356637587
 30
0.0
 10
100.5184608784
 20
190.6294851722
 30
0.0
 10
100.5164111398
 20
190.6178539867
 30
0.0
 10
100.5134985391
 20
190.5951180154
 30
0.0
 10
100.5099972557
 20
190.5558244226
 30
0.0
 10
100.5060810068
 20
190.4967118477
 30
0.0
 10
100.5021210975
 20
190.4211193166
 30
0.0
 10
100.4963791849
 20
190.2879945173
 30
0.0
 10
100.4895621174
 20
190.0813881429
 30
0.0
 10
100.4818983083
 20
189.7859023543
 30
0.0
 10
100.4709993165
 20
189.2682000297
 30
0.0
 10
100.46442681
 20
188.849102241
 30
0.0
 10
100.4602152063
 20
188.5495112277
 30
0.0
  0
SPLINE
  5
4B5
100
AcDbEntity
  8
0
100
AcDbSpline
 62
7
  6
CONTINUOUS
 70
0
 71
3
 72
9
 73
5
 74
0
 42
0.0000001
 43
0.0000001
 44
0.0000000001
 40
0.0
 40
0.0
 40
0.0
 40
0.0
 40
0.2108726807
 40
1.0
 40
1.0
 40
1.0
 40
1.0
 10
100.4430729366
 20
187.0905132475
 30
0.0
 10
100.4382270625
 20
186.6025930487
 30
0.0
 10
100.41859255
 20
184.2887459149
 30
0.0
 10
100.4083610143
 20
181.9748284987
 30
0.0
 10
100.4027747438
 20
180.1488530127
 30
0.0
  0
SPLINE
  5
4B6
100
AcDbEntity
  8
0
100
AcDbSpline
 62
7
  6
CONTINUOUS
 70
0
 71
3
 72
9
 73
5
 74
0
 42
0.0000001
 43
0.0000001
 44
0.0000000001
 40
0.0
 40
0.0
 40
0.0
 40
0.0
 40
0.2466005194
 40
1.0
 40
1.0
 40
1.0
 40
1.0
 10
100.4027747438
 20
180.1488530127
 30
0.0
 10
100.4023532988
 20
180.0110959694
 30
0.0
 10
100.4007123913
 20
179.4524714593
 30
0.0
 10
100.3993386981
 20
178.8938461687
 30
0.0
 10
100.3984446432
 20
178.4729778889
 30
0.0
  0
LINE
  5
4B7
100
AcDbEntity
  8
0
100
AcDbLine
 62
7
  6
CONTINUOUS
 10
100.4025626718
 20
168.271087835
 11
100.4028402351
 21
168.1799299669
  0
SPLINE
  5
4B8
100
AcDbEntity
  8
0
100
AcDbSpline
 62
7
  6
CONTINUOUS
 70
0
 71
3
 72
9
 73
5
 74
0
 42
0.0000001
 43
0.0000001
 44
0.0000000001
 40
0.0
 40
0.0
 40
0.0
 40
0.0
 40
0.2701622667
 40
1.0
 40
1.0
 40
1.0
 40
1.0
 10
100.4028402351
 20
168.1799299669
 30
0.0
 10
100.4042429823
 20
167.7232668951
 30
0.0
 10
100.4101336844
 20
166.0329405389
 30
0.0
 10
100.4187311166
 20
164.3426216199
 30
0.0
 10
100.4275255752
 20
163.1089813749
 30
0.0
  0
LINE
  5
4B9
100
AcDbEntity
  8
0
100
AcDbLine
 62
7
  6
CONTINUOUS
 10
100.4602235794
 20
159.8000354319
 11
100.465448641
 21
159.4481269877
  0
LINE
  5
4BA
100
AcDbEntity
  8
0
100
AcDbLine
 62
7
  6
CONTINUOUS
 10
100.465448641
 20
159.4481269877
 11
100.4659293785
 21
159.4176803242
  0
SPLINE
  5
4BB
100
AcDbEntity
  8
0
100
AcDbSpline
 62
7
  6
CONTINUOUS
 70
0
 71
3
 72
11
 73
7
 74
0
 42
0.0000001
 43
0.0000001
 44
0.0000000001
 40
0.0
 40
0.0
 40
0.0
 40
0.0
 40
0.3678715114
 40
0.6586654395
 40
0.8698971477
 40
1.0
 40
1.0
 40
1.0
 40
1.0
 10
100.4659293785
 20
159.4176803242
 30
0.0
 10
100.4691029537
 20
159.2177357118
 30
0.0
 10
100.4753878654
 20
158.8597535432
 30
0.0
 10
100.4858970618
 20
158.3869866862
 30
0.0
 10
100.4968519588
 20
158.0435736686
 30
0.0
 10
100.5050476234
 20
157.8581473061
 30
0.0
 10
100.5107176817
 20
157.7876528809
 30
0.0
  0
SPLINE
  5
4BC
100
AcDbEntity
  8
0
100
AcDbSpline
 62
7
  6
CONTINUOUS
 70
0
 71
3
 72
9
 73
5
 74
0
 42
0.0000001
 43
0.0000001
 44
0.0000000001
 40
0.0
 40
0.0
 40
0.0
 40
0.0
 40
0.4956969455
 40
1.0
 40
1.0
 40
1.0
 40
1.0
 10
100.5111849275
 20
157.7819529737
 30
0.0
 10
100.5132166082
 20
157.7576434994
 30
0.0
 10
100.5235203861
 20
157.6614971877
 30
0.0
 10
100.5334407833
 20
157.758508168
 30
0.0
 10
100.5354895909
 20
157.7832412044
 30
0.0
  0
SPLINE
  5
4BD
100
AcDbEntity
  8
0
100
AcDbSpline
 62
7
  6
CONTINUOUS
 70
0
 71
3
 72
11
 73
7
 74
0
 42
0.0000001
 43
0.0000001
 44
0.0000000001
 40
0.0
 40
0.0
 40
0.0
 40
0.0
 40
0.1241488112
 40
0.3337468879
 40
0.6267311048
 40
1.0
 40
1.0
 40
1.0
 40
1.0
 10
100.5354895909
 20
157.7832412044
 30
0.0
 10
100.5422168155
 20
157.8644517024
 30
0.0
 10
100.5511811078
 20
158.0834268916
 30
0.0
 10
100.5635886941
 20
158.4945628566
 30
0.0
 10
100.5752022436
 20
159.0693672964
 30
0.0
 10
100.5821637448
 20
159.5066189357
 30
0.0
 10
100.5856578405
 20
159.7515998242
 30
0.0
  0
LINE
  5
4BE
100
AcDbEntity
  8
0
100
AcDbLine
 62
7
  6
CONTINUOUS
 10
100.6008064799
 20
160.9962234486
 11
100.6034613629
 21
161.256306141
  0
SPLINE
  5
4BF
100
AcDbEntity
  8
0
100
AcDbSpline
 62
7
  6
CONTINUOUS
 70
0
 71
3
 72
9
 73
5
 74
0
 42
0.0000001
 43
0.0000001
 44
0.0000000001
 40
0.0
 40
0.0
 40
0.0
 40
0.0
 40
0.2274450005
 40
1.0
 40
1.0
 40
1.0
 40
1.0
 10
100.7474002632
 20
180.1346611383
 30
0.0
 10
100.7592152884
 20
180.1379033885
 30
0.0
 10
100.8118218092
 20
180.1497071849
 30
0.0
 10
100.8659516297
 20
180.1539808644
 30
0.0
 10
100.9075668465
 20
180.1540839905
 30
0.0
  0
SPLINE
  5
4C0
100
AcDbEntity
  8
0
100
AcDbSpline
 62
7
  6
CONTINUOUS
 70
0
 71
3
 72
12
 73
8
 74
0
 42
0.0000001
 43
0.0000001
 44
0.0000000001
 40
0.0
 40
0.0
 40
0.0
 40
0.0
 40
0.3513710212
 40
0.6296692889
 40
0.7501837133
 40
0.8542369786
 40
1.0
 40
1.0
 40
1.0
 40
1.0
 10
100.8396308243
 20
204.4950645752
 30
0.0
 10
100.8067221043
 20
204.4949801452
 30
0.0
 10
100.747654203
 20
204.4910419734
 30
0.0
 10
100.6786041719
 20
204.4771192178
 30
0.0
 10
100.6341673698
 20
204.4602674279
 30
0.0
 10
100.6042944587
 20
204.4442118661
 30
0.0
 10
100.5859053306
 20
204.4236658071
 30
0.0
 10
100.5856113354
 20
204.4100170498
 30
0.0
  0
SPLINE
  5
4C1
100
AcDbEntity
  8
0
100
AcDbSpline
 62
7
  6
CONTINUOUS
 70
0
 71
3
 72
11
 73
7
 74
0
 42
0.0000001
 43
0.0000001
 44
0.0000000001
 40
0.0
 40
0.0
 40
0.0
 40
0.0
 40
0.2576611466
 40
0.5105956618
 40
0.757328251
 40
1.0
 40
1.0
 40
1.0
 40
1.0
 10
99.057160065
 20
205.9129040176
 30
0.0
 10
99.2602288187
 20
205.9129365608
 30
0.0
 10
99.6671984809
 20
205.8317003425
 30
0.0
 10
100.1745012276
 20
205.4895415865
 30
0.0
 10
100.5072329118
 20
204.990803089
 30
0.0
 10
100.5850233075
 20
204.6012750446
 30
0.0
 10
100.5856114069
 20
204.4100206861
 30
0.0
  0
SPLINE
  5
4C2
100
AcDbEntity
  8
0
100
AcDbSpline
 62
7
  6
CONTINUOUS
 70
0
 71
3
 72
21
 73
17
 74
0
 42
0.0000001
 43
0.0000001
 44
0.0000000001
 40
0.0
 40
0.0
 40
0.0
 40
0.0
 40
0.1909138887
 40
0.3748126149
 40
0.5449388988
 40
0.6950414702
 40
0.7608229867
 40
0.8196055805
 40
0.8708363559
 40
0.9140556579
 40
0.9488534438
 40
0.974924878
 40
0.9846048055
 40
0.9920191758
 40
0.9971542544
 40
1.0
 40
1.0
 40
1.0
 40
1.0
 10
98.7588506312
 20
193.4974513246
 30
0.0
 10
98.7588561012
 20
194.224440232
 30
0.0
 10
98.759767285
 20
195.6517048927
 30
0.0
 10
98.7638711209
 20
197.7267969415
 30
0.0
 10
98.770524712
 20
199.6464744126
 30
0.0
 10
98.7782408584
 20
201.1163603983
 30
0.0
 10
98.7857333164
 20
202.1622483856
 30
0.0
 10
98.7915449878
 20
202.8316404133
 30
0.0
 10
98.7977488374
 20
203.4151080268
 30
0.0
 10
98.8042322049
 20
203.9072369546
 30
0.0
 10
98.8109921814
 20
204.303536828
 30
0.0
 10
98.8170193084
 20
204.5721330016
 30
0.0
 10
98.8223696574
 20
204.7364027389
 30
0.0
 10
98.8257710066
 20
204.8210154575
 30
0.0
 10
98.8294609517
 20
204.8794658953
 30
0.0
 10
98.8318625021
 20
204.9098527623
 30
0.0
 10
98.8339385135
 20
204.9204884779
 30
0.0
  0
LINE
  5
4C3
100
AcDbEntity
  8
0
100
AcDbLine
 62
7
  6
CONTINUOUS
 10
98.7983117186
 20
205.9128806875
 11
98.9644939669
 21
205.9129671622
  0
SPLINE
  5
4C4
100
AcDbEntity
  8
0
100
AcDbSpline
 62
7
  6
CONTINUOUS
 70
0
 71
3
 72
16
 73
12
 74
0
 42
0.0000001
 43
0.0000001
 44
0.0000000001
 40
0.0
 40
0.0
 40
0.0
 40
0.0
 40
0.3624989116
 40
0.5298312546
 40
0.6719348464
 40
0.7945858715
 40
0.8984894345
 40
0.9390224664
 40
0.9701375621
 40
0.990745099
 40
1.0
 40
1.0
 40
1.0
 40
1.0
 10
98.7910878515
 20
206.2517016389
 30
0.0
 10
98.790692526
 20
206.2107293856
 30
0.0
 10
98.7906046238
 20
206.1508371006
 30
0.0
 10
98.7912818983
 20
206.0748920838
 30
0.0
 10
98.7920781976
 20
206.0260516117
 30
0.0
 10
98.7931659695
 20
205.98441397
 30
0.0
 10
98.7942576815
 20
205.9541956782
 30
0.0
 10
98.7954945177
 20
205.934459732
 30
0.0
 10
98.796182005
 20
205.9239239976
 30
0.0
 10
98.7972718839
 20
205.9173586094
 30
0.0
 10
98.7975966617
 20
205.9136873815
 30
0.0
 10
98.7983116846
 20
205.9129237866
 30
0.0
  0
SPLINE
  5
4C5
100
AcDbEntity
  8
0
100
AcDbSpline
 62
7
  6
CONTINUOUS
 70
0
 71
3
 72
15
 73
11
 74
0
 42
0.0000001
 43
0.0000001
 44
0.0000000001
 40
0.0
 40
0.0
 40
0.0
 40
0.0
 40
0.1746153435
 40
0.3318945398
 40
0.4696759791
 40
0.5919077702
 40
0.7028828275
 40
0.8060923414
 40
0.904331939
 40
1.0
 40
1.0
 40
1.0
 40
1.0
 10
98.7910874078
 20
206.2516465227
 30
0.0
 10
98.2826378159
 20
206.2508799751
 30
0.0
 10
97.3121222819
 20
206.3628289481
 30
0.0
 10
96.0124441332
 20
206.8194739993
 30
0.0
 10
94.9658097835
 20
207.4525218141
 30
0.0
 10
94.1613860599
 20
208.183009913
 30
0.0
 10
93.566667913
 20
208.9682256255
 30
0.0
 10
93.1551683619
 20
209.7851623539
 30
0.0
 10
92.9096850985
 20
210.6194027553
 30
0.0
 10
92.8500253614
 20
211.1845483431
 30
0.0
 10
92.8462814348
 20
211.4630922988
 30
0.0
  0
SPLINE
  5
4C6
100
AcDbEntity
  8
0
100
AcDbSpline
 62
7
  6
CONTINUOUS
 70
0
 71
3
 72
11
 73
7
 74
0
 42
0.0000001
 43
0.0000001
 44
0.0000000001
 40
0.0
 40
0.0
 40
0.0
 40
0.0
 40
0.1070692434
 40
0.3029788918
 40
0.5997363232
 40
1.0
 40
1.0
 40
1.0
 40
1.0
 10
92.8279350483
 20
217.3642175682
 30
0.0
 10
92.8293217994
 20
217.3705238914
 30
0.0
 10
92.8455805967
 20
217.3831436409
 30
0.0
 10
92.8784166128
 20
217.3955689449
 30
0.0
 10
92.9310350788
 20
217.4096921307
 30
0.0
 10
92.9721730946
 20
217.4175531508
 30
0.0
 10
92.9959481353
 20
217.4217267667
 30
0.0
  0
SPLINE
  5
4C7
100
AcDbEntity
  8
0
100
AcDbSpline
 62
7
  6
CONTINUOUS
 70
0
 71
3
 72
14
 73
10
 74
0
 42
0.0000001
 43
0.0000001
 44
0.0000000001
 40
0.0
 40
0.0
 40
0.0
 40
0.0
 40
0.0526581199
 40
0.1307865483
 40
0.2329077357
 40
0.3568459621
 40
0.4996566077
 40
0.6575434158
 40
1.0
 40
1.0
 40
1.0
 40
1.0
 10
92.9959481353
 20
217.4217267667
 30
0.0
 10
93.098631114
 20
217.4397523642
 30
0.0
 10
93.3562737675
 20
217.4684480394
 30
0.0
 10
93.8159497812
 20
217.5038764067
 30
0.0
 10
94.4174040492
 20
217.5361833496
 30
0.0
 10
95.1471356783
 20
217.5647648116
 30
0.0
 10
95.9875273757
 20
217.5882563545
 30
0.0
 10
97.2606314879
 20
217.6123329848
 30
0.0
 10
98.2512417075
 20
217.6193858387
 30
0.0
 10
98.9292410605
 20
217.6195822265
 30
0.0
  0
LINE
  5
4C8
100
AcDbEntity
  8
0
100
AcDbLine
 62
7
  6
CONTINUOUS
 10
98.9644939697
 20
206.2518624077
 11
98.7910865518
 21
206.2517190455
  0
SPLINE
  5
4C9
100
AcDbEntity
  8
0
100
AcDbSpline
 62
7
  6
CONTINUOUS
 70
0
 71
3
 72
19
 73
15
 74
0
 42
0.0000001
 43
0.0000001
 44
0.0000000001
 40
0.0
 40
0.0
 40
0.0
 40
0.0
 40
0.0226514109
 40
0.0472568027
 40
0.0770010325
 40
0.1129749407
 40
0.1555973686
 40
0.2049332067
 40
0.260916608
 40
0.3234067441
 40
0.4667324202
 40
0.6310733963
 40
0.811387597
 40
1.0
 40
1.0
 40
1.0
 40
1.0
 10
92.8813059732
 20
217.644670114
 30
0.0
 10
92.899486799
 20
217.6874584067
 30
0.0
 10
92.9592301726
 20
217.7683363683
 30
0.0
 10
93.0954186012
 20
217.8523746387
 30
0.0
 10
93.2701547109
 20
217.9161528201
 30
0.0
 10
93.487261986
 20
217.9658392347
 30
0.0
 10
93.7469062951
 20
218.0057579846
 30
0.0
 10
94.0490044645
 20
218.0371852657
 30
0.0
 10
94.3925973587
 20
218.0615670649
 30
0.0
 10
94.9293396839
 20
218.0873112851
 30
0.0
 10
95.6889193348
 20
218.1056824923
 30
0.0
 10
96.6904271251
 20
218.1152659821
 30
0.0
 10
97.7849274236
 20
218.1189123605
 30
0.0
 10
98.5421282854
 20
218.1179290298
 30
0.0
 10
98.9292418818
 20
218.1167048443
 30
0.0
  0
SPLINE
  5
4CA
100
AcDbEntity
  8
0
100
AcDbSpline
 62
7
  6
CONTINUOUS
 70
0
 71
3
 72
9
 73
5
 74
0
 42
0.0000001
 43
0.0000001
 44
0.0000000001
 40
0.0
 40
0.0
 40
0.0
 40
0.0
 40
0.7478913092
 40
1.0
 40
1.0
 40
1.0
 40
1.0
 10
92.8812438858
 20
217.6444399307
 30
0.0
 10
92.9030219443
 20
217.7002584359
 30
0.0
 10
92.9206738788
 20
217.7800761853
 30
0.0
 10
92.9225732566
 20
217.8602093335
 30
0.0
 10
92.9220526288
 20
217.8804000429
 30
0.0
  0
SPLINE
  5
4CB
100
AcDbEntity
  8
0
100
AcDbSpline
 62
7
  6
CONTINUOUS
 70
0
 71
3
 72
18
 73
14
 74
0
 42
0.0000001
 43
0.0000001
 44
0.0000000001
 40
0.0
 40
0.0
 40
0.0
 40
0.0
 40
0.0372555435
 40
0.0726999628
 40
0.1103564325
 40
0.1522836093
 40
0.1992137423
 40
0.2513417731
 40
0.3708055386
 40
0.508914305
 40
0.662616474
 40
0.8279748688
 40
1.0
 40
1.0
 40
1.0
 40
1.0
 10
92.9220538214
 20
217.8804029251
 30
0.0
 10
92.9521315496
 20
217.9520593479
 30
0.0
 10
93.0309290042
 20
218.0850516152
 30
0.0
 10
93.2068179553
 20
218.2382416834
 30
0.0
 10
93.4217746157
 20
218.348174053
 30
0.0
 10
93.672844953
 20
218.4314373979
 30
0.0
 10
93.9604291638
 20
218.4946521664
 30
0.0
 10
94.411666576
 20
218.5609101047
 30
0.0
 10
95.0568201442
 20
218.6057045168
 30
0.0
 10
95.9144969016
 20
218.6258266335
 30
0.0
 10
96.8681823545
 20
218.627788716
 30
0.0
 10
97.8925340687
 20
218.6220170137
 30
0.0
 10
98.5962823342
 20
218.6169787702
 30
0.0
 10
98.9551052745
 20
218.6140415262
 30
0.0
  0
SPLINE
  5
4CC
100
AcDbEntity
  8
0
100
AcDbSpline
 62
7
  6
CONTINUOUS
 70
0
 71
3
 72
11
 73
7
 74
0
 42
0.0000001
 43
0.0000001
 44
0.0000000001
 40
0.0
 40
0.0
 40
0.0
 40
0.0
 40
0.357352049
 40
0.6641496508
 40
0.8830390203
 40
1.0
 40
1.0
 40
1.0
 40
1.0
 10
98.9551011583
 20
218.6140387288
 30
0.0
 10
98.9539331149
 20
218.5546962477
 30
0.0
 10
98.9510256098
 20
218.444452516
 30
0.0
 10
98.9458048245
 20
218.29776073
 30
0.0
 10
98.9383441078
 20
218.1914866874
 30
0.0
 10
98.9338432974
 20
218.1355736141
 30
0.0
 10
98.9292536836
 20
218.11669706
 30
0.0
  0
SPLINE
  5
4CD
100
AcDbEntity
  8
0
100
AcDbSpline
 62
7
  6
CONTINUOUS
 70
0
 71
3
 72
22
 73
18
 74
0
 42
0.0000001
 43
0.0000001
 44
0.0000000001
 40
0.0
 40
0.0
 40
0.0
 40
0.0
 40
0.0023463895
 40
0.0064946483
 40
0.012691205
 40
0.0209940894
 40
0.0439686107
 40
0.0754322788
 40
0.1152985344
 40
0.1633242313
 40
0.2192243443
 40
0.2827106373
 40
0.3534434587
 40
0.430883118
 40
0.6035215735
 40
0.7954897243
 40
1.0
 40
1.0
 40
1.0
 40
1.0
 10
92.7931531361
 20
225.4849495878
 30
0.0
 10
92.7943025605
 20
225.4807136626
 30
0.0
 10
92.8048350147
 20
225.4723293629
 30
0.0
 10
92.826391349
 20
225.463756077
 30
0.0
 10
92.8602922272
 20
225.4542403766
 30
0.0
 10
92.9288552957
 20
225.4402729791
 30
0.0
 10
93.0452667085
 20
225.4239474447
 30
0.0
 10
93.2206891029
 20
225.4058132249
 30
0.0
 10
93.4432845154
 20
225.3880444716
 30
0.0
 10
93.7117022426
 20
225.3707829676
 30
0.0
 10
94.0244313471
 20
225.3542508769
 30
0.0
 10
94.3797228943
 20
225.3386144487
 30
0.0
 10
94.7753821802
 20
225.3240461775
 30
0.0
 10
95.3752007855
 20
225.3055243004
 30
0.0
 10
96.2018761481
 20
225.286457499
 30
0.0
 10
97.2663423781
 20
225.2704940807
 30
0.0
 10
98.007968473
 20
225.2644757487
 30
0.0
 10
98.390516354
 20
225.2626109344
 30
0.0
  0
SPLINE
  5
4CE
100
AcDbEntity
  8
0
100
AcDbSpline
 62
7
  6
CONTINUOUS
 70
0
 71
3
 72
9
 73
5
 74
0
 42
0.0000001
 43
0.0000001
 44
0.0000000001
 40
0.0
 40
0.0
 40
0.0
 40
0.0
 40
0.2488618071
 40
1.0
 40
1.0
 40
1.0
 40
1.0
 10
98.390515326
 20
225.2626038951
 30
0.0
 10
98.4548301772
 20
225.2622890793
 30
0.0
 10
98.7131119595
 20
225.2494147114
 30
0.0
 10
98.9687952572
 20
225.1897473998
 30
0.0
 10
99.1506034103
 20
225.1217053489
 30
0.0
  0
SPLINE
  5
4CF
100
AcDbEntity
  8
0
100
AcDbSpline
 62
7
  6
CONTINUOUS
 70
0
 71
3
 72
15
 73
11
 74
0
 42
0.0000001
 43
0.0000001
 44
0.0000000001
 40
0.0
 40
0.0
 40
0.0
 40
0.0
 40
0.0116620584
 40
0.0299103986
 40
0.0931224304
 40
0.1969530167
 40
0.3364702494
 40
0.5022439292
 40
0.6781106552
 40
1.0
 40
1.0
 40
1.0
 40
1.0
 10
98.2082103596
 20
227.2918077024
 30
0.0
 10
98.2159255538
 20
227.2896775205
 30
0.0
 10
98.2326103304
 20
227.2756090802
 30
0.0
 10
98.264359805
 20
227.2201293408
 30
0.0
 10
98.2991502026
 20
227.0962221491
 30
0.0
 10
98.3351899104
 20
226.8894026417
 30
0.0
 10
98.3661915538
 20
226.6099291057
 30
0.0
 10
98.387577732
 20
226.2804052688
 30
0.0
 10
98.4025855529
 20
225.8251855608
 30
0.0
 10
98.3992959102
 20
225.4833477302
 30
0.0
 10
98.3905158636
 20
225.2626041809
 30
0.0
  0
SPLINE
  5
4D0
100
AcDbEntity
  8
0
100
AcDbSpline
 62
7
  6
CONTINUOUS
 70
0
 71
3
 72
16
 73
12
 74
0
 42
0.0000001
 43
0.0000001
 44
0.0000000001
 40
0.0
 40
0.0
 40
0.0
 40
0.0
 40
0.0104157679
 40
0.0279635944
 40
0.0906462023
 40
0.1944206546
 40
0.3340601898
 40
0.5000295457
 40
0.6762764684
 40
0.8464918925
 40
1.0
 40
1.0
 40
1.0
 40
1.0
 10
99.5953653867
 20
227.0886171298
 30
0.0
 10
99.6010512031
 20
227.0844438474
 30
0.0
 10
99.6097366764
 20
227.0660838152
 30
0.0
 10
99.617969923
 20
227.0057246849
 30
0.0
 10
99.608843382
 20
226.8799579883
 30
0.0
 10
99.5769706733
 20
226.6757483781
 30
0.0
 10
99.5202675829
 20
226.4040033513
 30
0.0
 10
99.4418299522
 20
226.0873398501
 30
0.0
 10
99.3497661596
 20
225.7527162228
 30
0.0
 10
99.2519340871
 20
225.4285836936
 30
0.0
 10
99.1840106711
 20
225.22014068
 30
0.0
 10
99.1506058583
 20
225.1217069916
 30
0.0
  0
SPLINE
  5
4D1
100
AcDbEntity
  8
0
100
AcDbSpline
 62
7
  6
CONTINUOUS
 70
0
 71
3
 72
11
 73
7
 74
0
 42
0.0000001
 43
0.0000001
 44
0.0000000001
 40
0.0
 40
0.0
 40
0.0
 40
0.0
 40
0.2531918277
 40
0.5041006497
 40
0.7527435551
 40
1.0
 40
1.0
 40
1.0
 40
1.0
 10
99.5953684739
 20
227.0886371554
 30
0.0
 10
100.0801816116
 20
226.9418933791
 30
0.0
 10
101.0054455105
 20
226.4920149978
 30
0.0
 10
102.1016345158
 20
225.4235521948
 30
0.0
 10
102.804039459
 20
224.0770948306
 30
0.0
 10
102.9663709916
 20
223.078239256
 30
0.0
 10
102.9674942207
 20
222.5835800295
 30
0.0
  0
SPLINE
  5
4D2
100
AcDbEntity
  8
0
100
AcDbSpline
 62
7
  6
CONTINUOUS
 70
0
 71
3
 72
14
 73
10
 74
0
 42
0.0000001
 43
0.0000001
 44
0.0000000001
 40
0.0
 40
0.0
 40
0.0
 40
0.0
 40
0.0605526162
 40
0.1394310005
 40
0.2445611531
 40
0.3746706902
 40
0.5243056304
 40
0.6844816099
 40
1.0
 40
1.0
 40
1.0
 40
1.0
 10
102.9674645166
 20
222.5835793951
 30
0.0
 10
102.9666258245
 20
222.5494314963
 30
0.0
 10
102.9384358977
 20
222.4714508101
 30
0.0
 10
102.8380729196
 20
222.3731988309
 30
0.0
 10
102.6833026409
 20
222.2847833948
 30
0.0
 10
102.4797904649
 20
222.2073783507
 30
0.0
 10
102.2386803735
 20
222.1468694789
 30
0.0
 10
101.8903522245
 20
222.0895878429
 30
0.0
 10
101.6215379237
 20
222.0737712385
 30
0.0
 10
101.4435522504
 20
222.0732800561
 30
0.0
  0
SPLINE
  5
4D3
100
AcDbEntity
  8
0
100
AcDbSpline
 62
7
  6
CONTINUOUS
 70
0
 71
3
 72
11
 73
7
 74
0
 42
0.0000001
 43
0.0000001
 44
0.0000000001
 40
0.0
 40
0.0
 40
0.0
 40
0.0
 40
0.2548860523
 40
0.5062513668
 40
0.7541354402
 40
1.0
 40
1.0
 40
1.0
 40
1.0
 10
99.1505828188
 20
225.1216462811
 30
0.0
 10
99.4814934213
 20
225.0218765319
 30
0.0
 10
100.1115161997
 20
224.7162538118
 30
0.0
 10
100.8571883323
 20
223.9915191296
 30
0.0
 10
101.3297888211
 20
223.0800411845
 30
0.0
 10
101.4424115203
 20
222.4066689857
 30
0.0
 10
101.4435089519
 20
222.0732800501
 30
0.0
  0
SPLINE
  5
4D4
100
AcDbEntity
  8
0
100
AcDbSpline
 62
7
  6
CONTINUOUS
 70
0
 71
3
 72
11
 73
7
 74
0
 42
0.0000001
 43
0.0000001
 44
0.0000000001
 40
0.0
 40
0.0
 40
0.0
 40
0.0
 40
0.2527773974
 40
0.5173556759
 40
0.7667509592
 40
1.0
 40
1.0
 40
1.0
 40
1.0
 10
101.4531370636
 20
218.9825430375
 30
0.0
 10
101.451752155
 20
218.9403136257
 30
0.0
 10
101.4346509022
 20
218.8541740679
 30
0.0
 10
101.379499264
 20
218.7372691763
 30
0.0
 10
101.2946559439
 20
218.6417294826
 30
0.0
 10
101.2132278885
 20
218.6130765454
 30
0.0
 10
101.1742399674
 20
218.6130765454
 30
0.0
  0
SPLINE
  5
4D5
100
AcDbEntity
  8
0
100
AcDbSpline
 62
7
  6
CONTINUOUS
 70
0
 71
3
 72
15
 73
11
 74
0
 42
0.0000001
 43
0.0000001
 44
0.0000000001
 40
0.0
 40
0.0
 40
0.0
 40
0.0
 40
0.1253562425
 40
0.2506904412
 40
0.3758983116
 40
0.5009801638
 40
0.625913017
 40
0.7506956645
 40
0.8753941224
 40
1.0
 40
1.0
 40
1.0
 40
1.0
 10
98.2466624172
 20
84.0744616254
 30
0.0
 10
98.5574312382
 20
84.0745271173
 30
0.0
 10
99.1806121443
 20
84.1357717414
 30
0.0
 10
100.077982006
 20
84.4074600925
 30
0.0
 10
100.9049552614
 20
84.8485368569
 30
0.0
 10
101.6294432183
 20
85.4414457295
 30
0.0
 10
102.2237306451
 20
86.1634406191
 30
0.0
 10
102.6654889508
 20
86.9866555547
 30
0.0
 10
102.9376430458
 20
87.879200119
 30
0.0
 10
102.9993399138
 20
88.4988922798
 30
0.0
 10
102.9996721352
 20
88.8078007105
 30
0.0
  0
SPLINE
  5
4D6
100
AcDbEntity
  8
0
100
AcDbSpline
 62
7
  6
CONTINUOUS
 70
0
 71
3
 72
18
 73
14
 74
0
 42
0.0000001
 43
0.0000001
 44
0.0000000001
 40
0.0
 40
0.0
 40
0.0
 40
0.0
 40
0.1988626657
 40
0.3860245544
 40
0.5558599273
 40
0.7036050508
 40
0.8249419715
 40
0.8745862468
 40
0.9163763292
 40
0.9500322422
 40
0.975289978
 40
0.9919789394
 40
1.0
 40
1.0
 40
1.0
 40
1.0
 10
86.6911657725
 20
90.3775904766
 30
0.0
 10
86.6907585729
 20
90.1133975313
 30
0.0
 10
86.6895878307
 20
89.6005567692
 30
0.0
 10
86.6866844875
 20
88.8620906938
 30
0.0
 10
86.6827669862
 20
88.1915398882
 30
0.0
 10
86.6779493404
 20
87.6084504028
 30
0.0
 10
86.6731168046
 20
87.1850364822
 30
0.0
 10
86.6686748598
 20
86.9024082217
 30
0.0
 10
86.6655465531
 20
86.7362336893
 30
0.0
 10
86.6620834496
 20
86.6025394014
 30
0.0
 10
86.6592680967
 20
86.5020211868
 30
0.0
 10
86.6551577285
 20
86.4359721479
 30
0.0
 10
86.6537444043
 20
86.4028943478
 30
0.0
 10
86.6511595656
 20
86.3925564509
 30
0.0
  0
SPLINE
  5
4D7
100
AcDbEntity
  8
0
100
AcDbSpline
 62
7
  6
CONTINUOUS
 70
0
 71
3
 72
12
 73
8
 74
0
 42
0.0000001
 43
0.0000001
 44
0.0000000001
 40
0.0
 40
0.0
 40
0.0
 40
0.0
 40
0.1142807364
 40
0.22872963
 40
0.4753615959
 40
0.742302279
 40
1.0
 40
1.0
 40
1.0
 40
1.0
 10
101.2173027708
 20
105.4394484875
 30
0.0
 10
101.2369954201
 20
105.4394484875
 30
0.0
 10
101.2767332959
 20
105.4326382758
 30
0.0
 10
101.3497500443
 20
105.3931790938
 30
0.0
 10
101.4212947988
 20
105.3078056444
 30
0.0
 10
101.4751279809
 20
105.185442519
 30
0.0
 10
101.4934408911
 20
105.095846757
 30
0.0
 10
101.4963288093
 20
105.0515347595
 30
0.0
  0
SPLINE
  5
4D8
100
AcDbEntity
  8
0
100
AcDbSpline
 62
7
  6
CONTINUOUS
 70
0
 71
3
 72
11
 73
7
 74
0
 42
0.0000001
 43
0.0000001
 44
0.0000000001
 40
0.0
 40
0.0
 40
0.0
 40
0.0
 40
0.2489897845
 40
0.4985532547
 40
0.7489637954
 40
1.0
 40
1.0
 40
1.0
 40
1.0
 10
101.4756877423
 20
89.0299252611
 30
0.0
 10
101.4750566519
 20
88.612955816
 30
0.0
 10
101.3065752318
 20
87.7691189366
 30
0.0
 10
100.5884887738
 20
86.7024721997
 30
0.0
 10
99.5159785499
 20
85.9870733282
 30
0.0
 10
98.6670593504
 20
85.8197971446
 30
0.0
 10
98.2466624088
 20
85.8196974758
 30
0.0
  0
SPLINE
  5
4D9
100
AcDbEntity
  8
0
100
AcDbSpline
 62
7
  6
CONTINUOUS
 70
0
 71
3
 72
11
 73
7
 74
0
 42
0.0000001
 43
0.0000001
 44
0.0000000001
 40
0.0
 40
0.0
 40
0.0
 40
0.0
 40
0.1764435105
 40
0.3908299081
 40
0.6669056281
 40
1.0
 40
1.0
 40
1.0
 40
1.0
 10
92.8870305313
 20
85.6594322878
 30
0.0
 10
92.8873301937
 20
85.6786497049
 30
0.0
 10
92.9012143399
 20
85.7213874235
 30
0.0
 10
92.9551208622
 20
85.7730354947
 30
0.0
 10
93.0382829802
 20
85.8100080126
 30
0.0
 10
93.1049921981
 20
85.8193549598
 30
0.0
 10
93.1412744548
 20
85.8196577335
 30
0.0
  0
SPLINE
  5
4DA
100
AcDbEntity
  8
0
100
AcDbSpline
 62
7
  6
CONTINUOUS
 70
0
 71
3
 72
9
 73
5
 74
0
 42
0.0000001
 43
0.0000001
 44
0.0000000001
 40
0.0
 40
0.0
 40
0.0
 40
0.0
 40
0.6102888335
 40
1.0
 40
1.0
 40
1.0
 40
1.0
 10
86.4424699725
 20
105.4764714207
 30
0.0
 10
86.4422716806
 20
105.6399191233
 30
0.0
 10
86.4410896414
 20
105.9077300626
 30
0.0
 10
86.4392742746
 20
106.1755628091
 30
0.0
 10
86.4368065479
 20
106.2799062477
 30
0.0
  0
SPLINE
  5
4DB
100
AcDbEntity
  8
0
100
AcDbSpline
 62
7
  6
CONTINUOUS
 70
0
 71
3
 72
9
 73
5
 74
0
 42
0.0000001
 43
0.0000001
 44
0.0000000001
 40
0.0
 40
0.0
 40
0.0
 40
0.0
 40
0.2441474985
 40
1.0
 40
1.0
 40
1.0
 40
1.0
 10
92.6670394881
 20
125.1146259758
 30
0.0
 10
92.6904385604
 20
124.9978269818
 30
0.0
 10
92.7843005078
 20
124.5190351662
 30
0.0
 10
92.8735672069
 20
124.0393638584
 30
0.0
 10
92.9428548197
 20
123.6771502138
 30
0.0
  0
SPLINE
  5
4DC
100
AcDbEntity
  8
0
100
AcDbSpline
 62
7
  6
CONTINUOUS
 70
0
 71
3
 72
9
 73
5
 74
0
 42
0.0000001
 43
0.0000001
 44
0.0000000001
 40
0.0
 40
0.0
 40
0.0
 40
0.0
 40
0.158627821
 40
1.0
 40
1.0
 40
1.0
 40
1.0
 10
86.4368065479
 20
106.2799062477
 30
0.0
 10
86.436311465
 20
106.3011422235
 30
0.0
 10
86.4344835264
 20
106.4350421861
 30
0.0
 10
86.4341197029
 20
106.5689535417
 30
0.0
 10
86.4339748304
 20
106.6816210377
 30
0.0
  0
SPLINE
  5
4DD
100
AcDbEntity
  8
0
100
AcDbSpline
 62
7
  6
CONTINUOUS
 70
0
 71
3
 72
9
 73
5
 74
0
 42
0.0000001
 43
0.0000001
 44
0.0000000001
 40
0.0
 40
0.0
 40
0.0
 40
0.0
 40
0.3229339457
 40
1.0
 40
1.0
 40
1.0
 40
1.0
 10
92.9210040148
 20
106.681617865
 30
0.0
 10
92.920948403
 20
106.6383744861
 30
0.0
 10
92.9204879417
 20
106.5044704503
 30
0.0
 10
92.9202858142
 20
106.3705459136
 30
0.0
 10
92.9181723049
 20
106.2799060408
 30
0.0
  0
SPLINE
  5
4DE
100
AcDbEntity
  8
0
100
AcDbSpline
 62
7
  6
CONTINUOUS
 70
0
 71
3
 72
14
 73
10
 74
0
 42
0.0000001
 43
0.0000001
 44
0.0000000001
 40
0.0
 40
0.0
 40
0.0
 40
0.0
 40
0.3500512
 40
0.6796875109
 40
0.8096997009
 40
0.9066460027
 40
0.9415286062
 40
0.9678593854
 40
1.0
 40
1.0
 40
1.0
 40
1.0
 10
101.4757301645
 20
89.0299252602
 30
0.0
 10
101.6584568518
 20
89.0296947104
 30
0.0
 10
102.0132364817
 20
89.0198536904
 30
0.0
 10
102.4349702923
 20
88.9848686913
 30
0.0
 10
102.7217280558
 20
88.9362004971
 30
0.0
 10
102.8544010021
 20
88.9034923344
 30
0.0
 10
102.9318411567
 20
88.8725446315
 30
0.0
 10
102.9734249696
 20
88.849770925
 30
0.0
 10
102.9986370433
 20
88.8245486985
 30
0.0
 10
102.9996290186
 20
88.8078006392
 30
0.0
  0
SPLINE
  5
4DF
100
AcDbEntity
  8
0
100
AcDbSpline
 62
7
  6
CONTINUOUS
 70
0
 71
3
 72
18
 73
14
 74
0
 42
0.0000001
 43
0.0000001
 44
0.0000000001
 40
0.0
 40
0.0
 40
0.0
 40
0.0
 40
0.0080212895
 40
0.024710091
 40
0.049967633
 40
0.0836234935
 40
0.1254136001
 40
0.1750578941
 40
0.2963947801
 40
0.4441399075
 40
0.6139753019
 40
0.8011372947
 40
1.0
 40
1.0
 40
1.0
 40
1.0
 10
92.7038192866
 20
86.3925564509
 30
0.0
 10
92.701234383
 20
86.4028946452
 30
0.0
 10
92.6998207649
 20
86.4359725047
 30
0.0
 10
92.6957107444
 20
86.5020214143
 30
0.0
 10
92.692895441
 20
86.6025390786
 30
0.0
 10
92.6894323693
 20
86.7362330772
 30
0.0
 10
92.6863039956
 20
86.9024075943
 30
0.0
 10
92.6818620254
 20
87.185035867
 30
0.0
 10
92.6770295345
 20
87.6084497726
 30
0.0
 10
92.6722117971
 20
88.1915392467
 30
0.0
 10
92.6682945277
 20
88.8620902275
 30
0.0
 10
92.6653908835
 20
89.6005565227
 30
0.0
 10
92.6642198355
 20
90.1133974773
 30
0.0
 10
92.6638130797
 20
90.3775904766
 30
0.0
  0
SPLINE
  5
4E0
100
AcDbEntity
  8
0
100
AcDbSpline
 62
7
  6
CONTINUOUS
 70
0
 71
3
 72
12
 73
8
 74
0
 42
0.0000001
 43
0.0000001
 44
0.0000000001
 40
0.0
 40
0.0
 40
0.0
 40
0.0
 40
0.3289167906
 40
0.629717964
 40
0.8634971427
 40
0.9453446952
 40
1.0
 40
1.0
 40
1.0
 40
1.0
 10
92.8342715743
 20
111.7297833249
 30
0.0
 10
92.8349884396
 20
112.3990826505
 30
0.0
 10
92.8344245511
 20
113.6804746907
 30
0.0
 10
92.8278876983
 20
115.4375559345
 30
0.0
 10
92.8185454192
 20
116.691883259
 30
0.0
 10
92.8075618139
 20
117.4452702471
 30
0.0
 10
92.8016174927
 20
117.7229851233
 30
0.0
 10
92.7977573005
 20
117.8341340197
 30
0.0
  0
SPLINE
  5
4E1
100
AcDbEntity
  8
0
100
AcDbSpline
 62
7
  6
CONTINUOUS
 70
0
 71
3
 72
15
 73
11
 74
0
 42
0.0000001
 43
0.0000001
 44
0.0000000001
 40
0.0
 40
0.0
 40
0.0
 40
0.0
 40
0.2611208999
 40
0.4815383215
 40
0.6610803299
 40
0.7995898712
 40
0.896950152
 40
0.9532035479
 40
0.9701783286
 40
1.0
 40
1.0
 40
1.0
 40
1.0
 10
92.7977573005
 20
117.8341340197
 30
0.0
 10
92.7972298834
 20
117.8493202647
 30
0.0
 10
92.7961708106
 20
117.8773348178
 30
0.0
 10
92.7945460576
 20
117.9157255664
 30
0.0
 10
92.7926608527
 20
117.947129984
 30
0.0
 10
92.7914722766
 20
117.9709582022
 30
0.0
 10
92.7887759973
 20
117.9885221313
 30
0.0
 10
92.7891034374
 20
117.9972755578
 30
0.0
 10
92.7848887451
 20
118.0045217315
 30
0.0
 10
92.7841627082
 20
117.9992971729
 30
0.0
 10
92.7838128764
 20
117.9975973872
 30
0.0
  0
SPLINE
  5
4E2
100
AcDbEntity
  8
0
100
AcDbSpline
 62
7
  6
CONTINUOUS
 70
0
 71
3
 72
12
 73
8
 74
0
 42
0.0000001
 43
0.0000001
 44
0.0000000001
 40
0.0
 40
0.0
 40
0.0
 40
0.0
 40
0.0344839757
 40
0.0952591154
 40
0.2952580887
 40
0.5980881291
 40
1.0
 40
1.0
 40
1.0
 40
1.0
 10
92.7838128764
 20
117.9975973872
 30
0.0
 10
92.782405642
 20
117.9907598258
 30
0.0
 10
92.7806604133
 20
117.9714969427
 30
0.0
 10
92.7765720798
 20
117.9119151248
 30
0.0
 10
92.7726122544
 20
117.7978221812
 30
0.0
 10
92.7677267644
 20
117.6147663953
 30
0.0
 10
92.7650764041
 20
117.4721123064
 30
0.0
 10
92.7636867651
 20
117.3907618975
 30
0.0
  0
LINE
  5
4E3
100
AcDbEntity
  8
0
100
AcDbLine
 62
7
  6
CONTINUOUS
 10
92.7636867651
 20
117.3907618975
 11
92.7632979878
 21
117.3677488401
  0
SPLINE
  5
4E4
100
AcDbEntity
  8
0
100
AcDbSpline
 62
7
  6
CONTINUOUS
 70
0
 71
3
 72
9
 73
5
 74
0
 42
0.0000001
 43
0.0000001
 44
0.0000000001
 40
0.0
 40
0.0
 40
0.0
 40
0.0
 40
0.1973170078
 40
1.0
 40
1.0
 40
1.0
 40
1.0
 10
92.7632979878
 20
117.3677488401
 30
0.0
 10
92.7614065974
 20
117.2545507057
 30
0.0
 10
92.7533178446
 20
116.6808393831
 30
0.0
 10
92.7489419936
 20
116.107082994
 30
0.0
 10
92.7460919202
 20
115.646539016
 30
0.0
  0
LINE
  5
4E5
100
AcDbEntity
  8
0
100
AcDbLine
 62
7
  6
CONTINUOUS
 10
92.7460919202
 20
115.646539016
 11
92.7457198689
 21
115.5855593779
  0
LINE
  5
4E6
100
AcDbEntity
  8
0
100
AcDbLine
 62
7
  6
CONTINUOUS
 10
92.7214615904
 20
93.0582858452
 11
92.7215545699
 21
93.0301192798
  0
SPLINE
  5
4E7
100
AcDbEntity
  8
0
100
AcDbSpline
 62
7
  6
CONTINUOUS
 70
0
 71
3
 72
9
 73
5
 74
0
 42
0.0000001
 43
0.0000001
 44
0.0000000001
 40
0.0
 40
0.0
 40
0.0
 40
0.0
 40
0.2789435419
 40
1.0
 40
1.0
 40
1.0
 40
1.0
 10
92.7215545699
 20
93.0301192798
 30
0.0
 10
92.7222259729
 20
92.8283804872
 30
0.0
 10
92.7250753154
 20
92.1051580079
 30
0.0
 10
92.7294898291
 20
91.3819385304
 30
0.0
 10
92.7345649081
 20
90.8604746701
 30
0.0
  0
LINE
  5
4E8
100
AcDbEntity
  8
0
100
AcDbLine
 62
7
  6
CONTINUOUS
 10
92.7345649081
 20
90.8604746701
 11
92.7347712413
 21
90.8393950949
  0
SPLINE
  5
4E9
100
AcDbEntity
  8
0
100
AcDbSpline
 62
7
  6
CONTINUOUS
 70
0
 71
3
 72
9
 73
5
 74
0
 42
0.0000001
 43
0.0000001
 44
0.0000000001
 40
0.0
 40
0.0
 40
0.0
 40
0.0
 40
0.3147576027
 40
1.0
 40
1.0
 40
1.0
 40
1.0
 10
92.7417435225
 20
90.2491439119
 30
0.0
 10
92.7427033641
 20
90.1820977604
 30
0.0
 10
92.7460674465
 20
89.9690963604
 30
0.0
 10
92.7500008286
 20
89.7560860878
 30
0.0
 10
92.7549327889
 20
89.6101917822
 30
0.0
  0
LINE
  5
4EA
100
AcDbEntity
  8
0
100
AcDbLine
 62
7
  6
CONTINUOUS
 10
92.7549327889
 20
89.6101917822
 11
92.7552365028
 21
89.6013272105
  0
LINE
  5
4EB
100
AcDbEntity
  8
0
100
AcDbLine
 62
7
  6
CONTINUOUS
 10
92.7552365028
 20
89.6013272105
 11
92.75582477
 21
89.5848351294
  0
SPLINE
  5
4EC
100
AcDbEntity
  8
0
100
AcDbSpline
 62
7
  6
CONTINUOUS
 70
0
 71
3
 72
15
 73
11
 74
0
 42
0.0000001
 43
0.0000001
 44
0.0000000001
 40
0.0
 40
0.0
 40
0.0
 40
0.0
 40
0.2601637864
 40
0.4799945487
 40
0.6593340992
 40
0.7980402205
 40
0.8960134515
 40
0.9533197146
 40
0.9717212707
 40
1.0
 40
1.0
 40
1.0
 40
1.0
 10
92.75582477
 20
89.5848351294
 30
0.0
 10
92.7563245525
 20
89.571201534
 30
0.0
 10
92.7573248285
 20
89.5460379381
 30
0.0
 10
92.758873696
 20
89.5115450526
 30
0.0
 10
92.7606268358
 20
89.4832623524
 30
0.0
 10
92.7618255981
 20
89.4618119263
 30
0.0
 10
92.7642189605
 20
89.4457816453
 30
0.0
 10
92.7641590308
 20
89.4379481953
 30
0.0
 10
92.7678109897
 20
89.4310811956
 30
0.0
 10
92.768678378
 20
89.4355946126
 30
0.0
 10
92.7690040607
 20
89.4370413176
 30
0.0
  0
SPLINE
  5
4ED
100
AcDbEntity
  8
0
100
AcDbSpline
 62
7
  6
CONTINUOUS
 70
0
 71
3
 72
13
 73
9
 74
0
 42
0.0000001
 43
0.0000001
 44
0.0000000001
 40
0.0
 40
0.0
 40
0.0
 40
0.0
 40
0.0329260483
 40
0.0925986986
 40
0.1789282005
 40
0.2917643888
 40
0.5955240114
 40
1.0
 40
1.0
 40
1.0
 40
1.0
 10
92.7690040607
 20
89.4370413176
 30
0.0
 10
92.7704949429
 20
89.4436639195
 30
0.0
 10
92.772203212
 20
89.462755515
 30
0.0
 10
92.7748391569
 20
89.499501984
 30
0.0
 10
92.7772565641
 20
89.5528396735
 30
0.0
 10
92.7810541063
 20
89.6564444316
 30
0.0
 10
92.7853006416
 20
89.8256853751
 30
0.0
 10
92.7880728888
 20
89.971671846
 30
0.0
 10
92.7894829736
 20
90.055050474
 30
0.0
  0
SPLINE
  5
4EE
100
AcDbEntity
  8
0
100
AcDbSpline
 62
7
  6
CONTINUOUS
 70
0
 71
3
 72
9
 73
5
 74
0
 42
0.0000001
 43
0.0000001
 44
0.0000000001
 40
0.0
 40
0.0
 40
0.0
 40
0.0
 40
0.4286061484
 40
1.0
 40
1.0
 40
1.0
 40
1.0
 10
92.793137498
 20
90.2946259283
 30
0.0
 10
92.801122858
 20
90.8719121241
 30
0.0
 10
92.8106779957
 20
92.2189185668
 30
0.0
 10
92.8146834793
 20
93.5659319029
 30
0.0
 10
92.8155180655
 20
94.3356108872
 30
0.0
  0
SPLINE
  5
4EF
100
AcDbEntity
  8
0
100
AcDbSpline
 62
7
  6
CONTINUOUS
 70
0
 71
3
 72
9
 73
5
 74
0
 42
0.0000001
 43
0.0000001
 44
0.0000000001
 40
0.0
 40
0.0
 40
0.0
 40
0.0
 40
0.5711588688
 40
1.0
 40
1.0
 40
1.0
 40
1.0
 10
86.539460789
 20
94.3356087229
 30
0.0
 10
86.5402942211
 20
93.5670758942
 30
0.0
 10
86.5442893931
 20
92.2215150075
 30
0.0
 10
86.5538258497
 20
90.8759612092
 30
0.0
 10
86.5617811009
 20
90.2989810079
 30
0.0
  0
SPLINE
  5
4F0
100
AcDbEntity
  8
0
100
AcDbSpline
 62
7
  6
CONTINUOUS
 70
0
 71
3
 72
11
 73
7
 74
0
 42
0.0000001
 43
0.0000001
 44
0.0000000001
 40
0.0
 40
0.0
 40
0.0
 40
0.0
 40
0.4000048979
 40
0.7022712585
 40
0.9029502593
 40
1.0
 40
1.0
 40
1.0
 40
1.0
 10
86.5652225933
 20
90.0713324129
 30
0.0
 10
86.5666279936
 20
89.9869389959
 30
0.0
 10
86.5695846476
 20
89.8388225521
 30
0.0
 10
86.5736601598
 20
89.6482020852
 30
0.0
 10
86.5796745399
 20
89.5219678642
 30
0.0
 10
86.581806559
 20
89.4588701795
 30
0.0
 10
86.5856221078
 20
89.4387502891
 30
0.0
  0
SPLINE
  5
4F1
100
AcDbEntity
  8
0
100
AcDbSpline
 62
7
  6
CONTINUOUS
 70
0
 71
3
 72
17
 73
13
 74
0
 42
0.0000001
 43
0.0000001
 44
0.0000000001
 40
0.0
 40
0.0
 40
0.0
 40
0.0
 40
0.0387568005
 40
0.0447878094
 40
0.055005814
 40
0.0751897963
 40
0.1059129574
 40
0.1993622847
 40
0.3355956924
 40
0.5145387374
 40
0.736058152
 40
1.0
 40
1.0
 40
1.0
 40
1.0
 10
86.5856221078
 20
89.4387502891
 30
0.0
 10
86.5859781594
 20
89.4368727822
 30
0.0
 10
86.5855123694
 20
89.4341724064
 30
0.0
 10
86.5883835162
 20
89.4325952338
 30
0.0
 10
86.5891694169
 20
89.434887646
 30
0.0
 10
86.5898990891
 20
89.4374204142
 30
0.0
 10
86.5911301521
 20
89.4447105354
 30
0.0
 10
86.5924899719
 20
89.457267755
 30
0.0
 10
86.5940776748
 20
89.477462233
 30
0.0
 10
86.5956588794
 20
89.5038352861
 30
0.0
 10
86.5972573398
 20
89.5365725131
 30
0.0
 10
86.5982334115
 20
89.5604848824
 30
0.0
 10
86.5987298018
 20
89.5734895115
 30
0.0
  0
LINE
  5
4F2
100
AcDbEntity
  8
0
100
AcDbLine
 62
7
  6
CONTINUOUS
 10
86.5994629468
 20
89.5933833866
 11
86.599791591
 21
89.6027496271
  0
SPLINE
  5
4F3
100
AcDbEntity
  8
0
100
AcDbSpline
 62
7
  6
CONTINUOUS
 70
0
 71
3
 72
9
 73
5
 74
0
 42
0.0000001
 43
0.0000001
 44
0.0000000001
 40
0.0
 40
0.0
 40
0.0
 40
0.0
 40
0.1821245212
 40
1.0
 40
1.0
 40
1.0
 40
1.0
 10
86.599791591
 20
89.6027496271
 30
0.0
 10
86.6011527303
 20
89.6421196752
 30
0.0
 10
86.6073305241
 20
89.858334478
 30
0.0
 10
86.6107411946
 20
90.074615811
 30
0.0
 10
86.6132689825
 20
90.2515043803
 30
0.0
  0
LINE
  5
4F4
100
AcDbEntity
  8
0
100
AcDbLine
 62
7
  6
CONTINUOUS
 10
86.6198913534
 20
90.8075514776
 11
86.620279956
 21
90.8467629218
  0
SPLINE
  5
4F5
100
AcDbEntity
  8
0
100
AcDbSpline
 62
7
  6
CONTINUOUS
 70
0
 71
3
 72
9
 73
5
 74
0
 42
0.0000001
 43
0.0000001
 44
0.0000000001
 40
0.0
 40
0.0
 40
0.0
 40
0.0
 40
0.2174028471
 40
1.0
 40
1.0
 40
1.0
 40
1.0
 10
86.620279956
 20
90.8467629218
 30
0.0
 10
86.6218027985
 20
91.0020833102
 30
0.0
 10
86.6279250733
 20
91.71652777
 30
0.0
 10
86.6313856813
 20
92.4309928384
 30
0.0
 10
86.6332896539
 20
92.9901319335
 30
0.0
  0
LINE
  5
4F6
100
AcDbEntity
  8
0
100
AcDbLine
 62
7
  6
CONTINUOUS
 10
86.6332896539
 20
92.9901319335
 11
86.6335640817
 21
93.0726504681
  0
SPLINE
  5
4F7
100
AcDbEntity
  8
0
100
AcDbSpline
 62
7
  6
CONTINUOUS
 70
0
 71
3
 72
13
 73
9
 74
0
 42
0.0000001
 43
0.0000001
 44
0.0000000001
 40
0.0
 40
0.0
 40
0.0
 40
0.0
 40
0.1245175906
 40
0.2491654469
 40
0.3739870651
 40
0.4989865064
 40
0.7492818305
 40
1.0
 40
1.0
 40
1.0
 40
1.0
 10
88.2712151667
 20
126.5752507642
 30
0.0
 10
88.272212694
 20
127.2290637179
 30
0.0
 10
88.1537452854
 20
128.5396994677
 30
0.0
 10
87.6701406017
 20
130.4494829737
 30
0.0
 10
86.9379041536
 20
132.2795447297
 30
0.0
 10
85.7014291854
 20
134.6008649675
 30
0.0
 10
83.7905861023
 20
137.2886153228
 30
0.0
 10
82.0913950698
 20
139.2965925417
 30
0.0
 10
81.2412396827
 20
140.3017365056
 30
0.0
  0
SPLINE
  5
4F8
100
AcDbEntity
  8
0
100
AcDbSpline
 62
7
  6
CONTINUOUS
 70
0
 71
3
 72
15
 73
11
 74
0
 42
0.0000001
 43
0.0000001
 44
0.0000000001
 40
0.0
 40
0.0
 40
0.0
 40
0.0
 40
0.3532927966
 40
0.52581067
 40
0.6810278059
 40
0.80874018
 40
0.9038081301
 40
0.938351779
 40
0.9649581434
 40
1.0
 40
1.0
 40
1.0
 40
1.0
 10
88.2712152259
 20
126.5752514782
 30
0.0
 10
88.085003455
 20
126.5755292979
 30
0.0
 10
87.8076994885
 20
126.584250064
 30
0.0
 10
87.4501105817
 20
126.616298764
 30
0.0
 10
87.2120833669
 20
126.6485383959
 30
0.0
 10
87.0168166311
 20
126.6889502592
 30
0.0
 10
86.8866532789
 20
126.7281423632
 30
0.0
 10
86.8120511424
 20
126.7644329118
 30
0.0
 10
86.7705620556
 20
126.7922248426
 30
0.0
 10
86.7481808506
 20
126.8214442494
 30
0.0
 10
86.7472679222
 20
126.8398913775
 30
0.0
  0
SPLINE
  5
4F9
100
AcDbEntity
  8
0
100
AcDbSpline
 62
7
  6
CONTINUOUS
 70
0
 71
3
 72
12
 73
8
 74
0
 42
0.0000001
 43
0.0000001
 44
0.0000000001
 40
0.0
 40
0.0
 40
0.0
 40
0.0
 40
0.2643207869
 40
0.5198175228
 40
0.6436521294
 40
0.7648695394
 40
1.0
 40
1.0
 40
1.0
 40
1.0
 10
81.2412344828
 20
140.3017346223
 30
0.0
 10
81.8862564056
 20
139.1791721047
 30
0.0
 10
83.1651576493
 20
136.9779377218
 30
0.0
 10
84.667508739
 20
134.2035143288
 30
0.0
 10
85.6622279507
 20
131.9595486029
 30
0.0
 10
86.4405042435
 20
129.740642978
 30
0.0
 10
86.7502717494
 20
127.9914792395
 30
0.0
 10
86.7472676018
 20
126.8397802068
 30
0.0
  0
SPLINE
  5
4FA
100
AcDbEntity
  8
0
100
AcDbSpline
 62
7
  6
CONTINUOUS
 70
0
 71
3
 72
14
 73
10
 74
0
 42
0.0000001
 43
0.0000001
 44
0.0000000001
 40
0.0
 40
0.0
 40
0.0
 40
0.0
 40
0.4003943191
 40
0.5639592451
 40
0.7024528938
 40
0.8155430426
 40
0.9029239419
 40
0.9644243357
 40
1.0
 40
1.0
 40
1.0
 40
1.0
 10
86.7472731703
 20
126.8397964906
 30
0.0
 10
86.7431510958
 20
126.6093965401
 30
0.0
 10
86.7367388382
 20
126.2848832616
 30
0.0
 10
86.7264136462
 20
125.8807382449
 30
0.0
 10
86.7191526535
 20
125.6419120235
 30
0.0
 10
86.7117685987
 20
125.4469855844
 30
0.0
 10
86.7046590473
 20
125.2963322587
 30
0.0
 10
86.6971969872
 20
125.1905181053
 30
0.0
 10
86.6919617908
 20
125.1347471279
 30
0.0
 10
86.6879393467
 20
125.114671466
 30
0.0
  0
SPLINE
  5
4FB
100
AcDbEntity
  8
0
100
AcDbSpline
 62
7
  6
CONTINUOUS
 70
0
 71
3
 72
11
 73
7
 74
0
 42
0.0000001
 43
0.0000001
 44
0.0000000001
 40
0.0
 40
0.0
 40
0.0
 40
0.0
 40
0.2348558862
 40
0.4881546576
 40
0.7479469478
 40
1.0
 40
1.0
 40
1.0
 40
1.0
 10
80.9357392489
 20
130.8634974777
 30
0.0
 10
81.5150572499
 20
130.8631519244
 30
0.0
 10
82.7265175965
 20
130.6774913887
 30
0.0
 10
84.4028000281
 20
129.8321962845
 30
0.0
 10
85.7448332414
 20
128.4560264105
 30
0.0
 10
86.2953397059
 20
127.2904803432
 30
0.0
 10
86.4657798457
 20
126.6925600676
 30
0.0
  0
SPLINE
  5
4FC
100
AcDbEntity
  8
0
100
AcDbSpline
 62
7
  6
CONTINUOUS
 70
0
 71
3
 72
9
 73
5
 74
0
 42
0.0000001
 43
0.0000001
 44
0.0000000001
 40
0.0
 40
0.0
 40
0.0
 40
0.0
 40
0.2585563467
 40
1.0
 40
1.0
 40
1.0
 40
1.0
 10
86.4657798457
 20
126.6925600676
 30
0.0
 10
86.5034991861
 20
126.5602370218
 30
0.0
 10
86.6310614594
 20
126.0434150891
 30
0.0
 10
86.6877963699
 20
125.5091049825
 30
0.0
 10
86.6879393572
 20
125.1145361826
 30
0.0
  0
SPLINE
  5
4FD
100
AcDbEntity
  8
0
100
AcDbSpline
 62
7
  6
CONTINUOUS
 70
0
 71
3
 72
12
 73
8
 74
0
 42
0.0000001
 43
0.0000001
 44
0.0000000001
 40
0.0
 40
0.0
 40
0.0
 40
0.0
 40
0.0363947945
 40
0.1017100366
 40
0.307328507
 40
0.6125630728
 40
1.0
 40
1.0
 40
1.0
 40
1.0
 10
86.4120885464
 20
123.6770670154
 30
0.0
 10
86.4118642573
 20
123.6739106189
 30
0.0
 10
86.4041580391
 20
123.6671106248
 30
0.0
 10
86.3797751466
 20
123.6582860434
 30
0.0
 10
86.3296116501
 20
123.6488681364
 30
0.0
 10
86.2521838112
 20
123.6419038585
 30
0.0
 10
86.1918196296
 20
123.6400813492
 30
0.0
 10
86.158133838
 20
123.6400476554
 30
0.0
  0
SPLINE
  5
4FE
100
AcDbEntity
  8
0
100
AcDbSpline
 62
7
  6
CONTINUOUS
 70
0
 71
3
 72
11
 73
7
 74
0
 42
0.0000001
 43
0.0000001
 44
0.0000000001
 40
0.0
 40
0.0
 40
0.0
 40
0.0
 40
0.2510393374
 40
0.5013114714
 40
0.7508524221
 40
1.0
 40
1.0
 40
1.0
 40
1.0
 10
82.3616131395
 20
129.0749594065
 30
0.0
 10
82.9126628277
 20
128.8697055928
 30
0.0
 10
83.9577283635
 20
128.2892292981
 30
0.0
 10
85.1880817363
 20
126.9960854347
 30
0.0
 10
85.9759100784
 20
125.3992286433
 30
0.0
 10
86.1573104026
 20
124.2236508432
 30
0.0
 10
86.1581444976
 20
123.6400479316
 30
0.0
  0
SPLINE
  5
4FF
100
AcDbEntity
  8
0
100
AcDbSpline
 62
7
  6
CONTINUOUS
 70
0
 71
3
 72
9
 73
5
 74
0
 42
0.0000001
 43
0.0000001
 44
0.0000000001
 40
0.0
 40
0.0
 40
0.0
 40
0.0
 40
0.1916244925
 40
1.0
 40
1.0
 40
1.0
 40
1.0
 10
76.3347080701
 20
104.8294208826
 30
0.0
 10
76.3333004755
 20
104.9311666154
 30
0.0
 10
76.327935516
 20
105.4621568507
 30
0.0
 10
76.3262584567
 20
105.9931759753
 30
0.0
 10
76.3257142471
 20
106.4224351044
 30
0.0
  0
SPLINE
  5
500
100
AcDbEntity
  8
0
100
AcDbSpline
 62
7
  6
CONTINUOUS
 70
0
 71
3
 72
15
 73
11
 74
0
 42
0.0000001
 43
0.0000001
 44
0.0000000001
 40
0.0
 40
0.0
 40
0.0
 40
0.0
 40
0.031245492
 40
0.0567507049
 40
0.0906130483
 40
0.1852629592
 40
0.313425516
 40
0.4696929077
 40
0.6436116699
 40
1.0
 40
1.0
 40
1.0
 40
1.0
 10
76.3257112945
 20
106.4224776038
 30
0.0
 10
76.3266754365
 20
106.4387616589
 30
0.0
 10
76.3506849682
 20
106.4635060668
 30
0.0
 10
76.3909307545
 20
106.4859897141
 30
0.0
 10
76.4661183833
 20
106.5166395733
 30
0.0
 10
76.5960849434
 20
106.5492823901
 30
0.0
 10
76.7912881544
 20
106.5832053814
 30
0.0
 10
77.0291252797
 20
106.6101897332
 30
0.0
 10
77.3866229161
 20
106.6370708937
 30
0.0
 10
77.6635939351
 20
106.6443682057
 30
0.0
 10
77.8496561632
 20
106.6446023258
 30
0.0
  0
SPLINE
  5
501
100
AcDbEntity
  8
0
100
AcDbSpline
 62
7
  6
CONTINUOUS
 70
0
 71
3
 72
9
 73
5
 74
0
 42
0.0000001
 43
0.0000001
 44
0.0000000001
 40
0.0
 40
0.0
 40
0.0
 40
0.0
 40
0.1923406939
 40
1.0
 40
1.0
 40
1.0
 40
1.0
 10
77.8586503888
 20
106.1135812668
 30
0.0
 10
77.8572560684
 20
106.1476042187
 30
0.0
 10
77.851923292
 20
106.3245681199
 30
0.0
 10
77.8502085545
 20
106.5016174591
 30
0.0
 10
77.8496565136
 20
106.6446023575
 30
0.0
  0
SPLINE
  5
502
100
AcDbEntity
  8
0
100
AcDbSpline
 62
7
  6
CONTINUOUS
 70
0
 71
3
 72
10
 73
6
 74
0
 42
0.0000001
 43
0.0000001
 44
0.0000000001
 40
0.0
 40
0.0
 40
0.0
 40
0.0
 40
0.5883511642
 40
0.8299522083
 40
1.0
 40
1.0
 40
1.0
 40
1.0
 10
78.1376762807
 20
106.0420250234
 30
0.0
 10
78.0793787229
 20
106.0420250876
 30
0.0
 10
77.9959754993
 20
106.0469589345
 30
0.0
 10
77.9008917127
 20
106.0708912171
 30
0.0
 10
77.8643969619
 20
106.0977422522
 30
0.0
 10
77.8586443451
 20
106.1135792365
 30
0.0
  0
SPLINE
  5
503
100
AcDbEntity
  8
0
100
AcDbSpline
 62
7
  6
CONTINUOUS
 70
0
 71
3
 72
9
 73
5
 74
0
 42
0.0000001
 43
0.0000001
 44
0.0000000001
 40
0.0
 40
0.0
 40
0.0
 40
0.0
 40
0.1586121877
 40
1.0
 40
1.0
 40
1.0
 40
1.0
 10
86.182816237
 20
106.042025296
 30
0.0
 10
86.1823211491
 20
106.0738805901
 30
0.0
 10
86.1804927295
 20
106.2747362105
 30
0.0
 10
86.1801293826
 20
106.4755994347
 30
0.0
 10
86.1799844996
 20
106.6446021049
 30
0.0
  0
SPLINE
  5
504
100
AcDbEntity
  8
0
100
AcDbSpline
 62
7
  6
CONTINUOUS
 70
0
 71
3
 72
12
 73
8
 74
0
 42
0.0000001
 43
0.0000001
 44
0.0000000001
 40
0.0
 40
0.0
 40
0.0
 40
0.0
 40
0.3701874542
 40
0.6868460157
 40
0.9034074448
 40
0.9658390257
 40
1.0
 40
1.0
 40
1.0
 40
1.0
 10
86.1799844996
 20
106.6446021052
 30
0.0
 10
86.2121824948
 20
106.6446426071
 30
0.0
 10
86.2720549629
 20
106.6463764857
 30
0.0
 10
86.3499615477
 20
106.6531779823
 30
0.0
 10
86.4018794264
 20
106.6628462344
 30
0.0
 10
86.4267300592
 20
106.6719375285
 30
0.0
 10
86.4338890723
 20
106.6786526438
 30
0.0
 10
86.4339748158
 20
106.6816226463
 30
0.0
  0
SPLINE
  5
505
100
AcDbEntity
  8
0
100
AcDbSpline
 62
7
  6
CONTINUOUS
 70
0
 71
3
 72
10
 73
6
 74
0
 42
0.0000001
 43
0.0000001
 44
0.0000000001
 40
0.0
 40
0.0
 40
0.0
 40
0.0
 40
0.4844735625
 40
0.7480222276
 40
1.0
 40
1.0
 40
1.0
 40
1.0
 10
86.4368032941
 20
106.2799055454
 30
0.0
 10
86.4366045418
 20
106.2186391376
 30
0.0
 10
86.3915127034
 20
106.1198243008
 30
0.0
 10
86.280065312
 20
106.0556480388
 30
0.0
 10
86.2146813216
 20
106.0421130274
 30
0.0
 10
86.1828162375
 20
106.0420217205
 30
0.0
  0
SPLINE
  5
506
100
AcDbEntity
  8
0
100
AcDbSpline
 62
7
  6
CONTINUOUS
 70
0
 71
3
 72
12
 73
8
 74
0
 42
0.0000001
 43
0.0000001
 44
0.0000000001
 40
0.0
 40
0.0
 40
0.0
 40
0.0
 40
0.0325891743
 40
0.0941182298
 40
0.3127074817
 40
0.6411001794
 40
1.0
 40
1.0
 40
1.0
 40
1.0
 10
86.4424729927
 20
105.4764692296
 30
0.0
 10
86.4423053748
 20
105.473642302
 30
0.0
 10
86.4351329
 20
105.4673924126
 30
0.0
 10
86.4106763216
 20
105.4578182401
 30
0.0
 10
86.3575225208
 20
105.4477277158
 30
0.0
 10
86.2795280429
 20
105.4414486294
 30
0.0
 10
86.2196668417
 20
105.4394879868
 30
0.0
 10
86.1884796468
 20
105.4394487476
 30
0.0
  0
SPLINE
  5
507
100
AcDbEntity
  8
0
100
AcDbSpline
 62
7
  6
CONTINUOUS
 70
0
 71
3
 72
9
 73
5
 74
0
 42
0.0000001
 43
0.0000001
 44
0.0000000001
 40
0.0
 40
0.0
 40
0.0
 40
0.0
 40
0.3897916853
 40
1.0
 40
1.0
 40
1.0
 40
1.0
 10
86.1828164014
 20
106.0420217419
 30
0.0
 10
86.1852519414
 20
105.9637623907
 30
0.0
 10
86.1871325725
 20
105.7628784018
 30
0.0
 10
86.1882697948
 20
105.5620207613
 30
0.0
 10
86.1884798678
 20
105.439448734
 30
0.0
  0
SPLINE
  5
508
100
AcDbEntity
  8
0
100
AcDbSpline
 62
7
  6
CONTINUOUS
 70
0
 71
3
 72
15
 73
11
 74
0
 42
0.0000001
 43
0.0000001
 44
0.0000000001
 40
0.0
 40
0.0
 40
0.0
 40
0.0
 40
0.1352114165
 40
0.2647073361
 40
0.3860306152
 40
0.5008829699
 40
0.6153458409
 40
0.7360133642
 40
0.8652445232
 40
1.0
 40
1.0
 40
1.0
 40
1.0
 10
77.8586500429
 20
105.0515347595
 30
0.0
 10
77.7780294122
 20
105.0554437035
 30
0.0
 10
77.6195397149
 20
105.0827601438
 30
0.0
 10
77.4147461002
 20
105.1994459935
 30
0.0
 10
77.2758169155
 20
105.375503088
 30
0.0
 10
77.2240710715
 20
105.5857778113
 30
0.0
 10
77.2735366244
 20
105.7966985509
 30
0.0
 10
77.4145156006
 20
105.9708349437
 30
0.0
 10
77.6202405125
 20
106.0834835434
 30
0.0
 10
77.7782637365
 20
106.1104582979
 30
0.0
 10
77.8586463597
 20
106.113578607
 30
0.0
  0
SPLINE
  5
509
100
AcDbEntity
  8
0
100
AcDbSpline
 62
7
  6
CONTINUOUS
 70
0
 71
3
 72
14
 73
10
 74
0
 42
0.0000001
 43
0.0000001
 44
0.0000000001
 40
0.0
 40
0.0
 40
0.0
 40
0.0
 40
0.3706952516
 40
0.6868367557
 40
0.8098319758
 40
0.9035008266
 40
0.9386288548
 40
0.9659105431
 40
1.0
 40
1.0
 40
1.0
 40
1.0
 10
77.858650043
 20
105.0515347596
 30
0.0
 10
77.6651572916
 20
105.0512912747
 30
0.0
 10
77.3066182849
 20
105.0409714263
 30
0.0
 10
76.8850617847
 20
105.0042190436
 30
0.0
 10
76.6105717128
 20
104.9574324536
 30
0.0
 10
76.4831122988
 20
104.9258335718
 30
0.0
 10
76.4064097962
 20
104.8959295112
 30
0.0
 10
76.3631951782
 20
104.8731312547
 30
0.0
 10
76.3357497743
 20
104.8471736248
 30
0.0
 10
76.3347080779
 20
104.8294103675
 30
0.0
  0
SPLINE
  5
50A
100
AcDbEntity
  8
0
100
AcDbSpline
 62
7
  6
CONTINUOUS
 70
0
 71
3
 72
11
 73
7
 74
0
 42
0.0000001
 43
0.0000001
 44
0.0000000001
 40
0.0
 40
0.0
 40
0.0
 40
0.0
 40
0.2207302152
 40
0.4723260466
 40
0.7413510192
 40
1.0
 40
1.0
 40
1.0
 40
1.0
 10
76.3347183202
 20
104.829375357
 30
0.0
 10
76.3355953675
 20
104.9906760225
 30
0.0
 10
76.4183329196
 20
105.3393964639
 30
0.0
 10
76.7694624794
 20
105.7734842439
 30
0.0
 10
77.2815379344
 20
106.0506221052
 30
0.0
 10
77.669634387
 20
106.1128685694
 30
0.0
 10
77.8586458552
 20
106.1136173793
 30
0.0
  0
SPLINE
  5
50B
100
AcDbEntity
  8
0
100
AcDbSpline
 62
7
  6
CONTINUOUS
 70
0
 71
3
 72
11
 73
7
 74
0
 42
0.0000001
 43
0.0000001
 44
0.0000000001
 40
0.0
 40
0.0
 40
0.0
 40
0.0
 40
0.1764332508
 40
0.3907302485
 40
0.6668864183
 40
1.0
 40
1.0
 40
1.0
 40
1.0
 10
86.4679483209
 20
85.6594322878
 30
0.0
 10
86.467652413
 20
85.6786456714
 30
0.0
 10
86.4537750539
 20
85.7213786832
 30
0.0
 10
86.3997916485
 20
85.7729295688
 30
0.0
 10
86.3167000682
 20
85.809939994
 30
0.0
 10
86.2499836797
 20
85.8194298477
 30
0.0
 10
86.2137043972
 20
85.8196577335
 30
0.0
  0
SPLINE
  5
50C
100
AcDbEntity
  8
0
100
AcDbSpline
 62
7
  6
CONTINUOUS
 70
0
 71
3
 72
9
 73
5
 74
0
 42
0.0000001
 43
0.0000001
 44
0.0000000001
 40
0.0
 40
0.0
 40
0.0
 40
0.0
 40
0.6034552073
 40
1.0
 40
1.0
 40
1.0
 40
1.0
 10
77.8903211514
 20
217.619580641
 30
0.0
 10
77.8911711024
 20
217.7109981105
 30
0.0
 10
77.8936978493
 20
217.8624540752
 30
0.0
 10
77.8978379911
 20
218.0139548121
 30
0.0
 10
77.9018404448
 20
218.0738965273
 30
0.0
  0
SPLINE
  5
50D
100
AcDbEntity
  8
0
100
AcDbSpline
 62
7
  6
CONTINUOUS
 70
0
 71
3
 72
11
 73
7
 74
0
 42
0.0000001
 43
0.0000001
 44
0.0000000001
 40
0.0
 40
0.0
 40
0.0
 40
0.0
 40
0.1366743682
 40
0.3800501763
 40
0.6872827744
 40
1.0
 40
1.0
 40
1.0
 40
1.0
 10
77.9018349429
 20
218.0739041188
 30
0.0
 10
77.9050711286
 20
218.0866071372
 30
0.0
 10
77.9461519783
 20
218.103252177
 30
0.0
 10
78.0072493577
 20
218.1110810616
 30
0.0
 10
78.0916911271
 20
218.1160047908
 30
0.0
 10
78.1507455563
 20
218.1163295177
 30
0.0
 10
78.1807389993
 20
218.1163295375
 30
0.0
  0
SPLINE
  5
50E
100
AcDbEntity
  8
0
100
AcDbSpline
 62
7
  6
CONTINUOUS
 70
0
 71
3
 72
14
 73
10
 74
0
 42
0.0000001
 43
0.0000001
 44
0.0000000001
 40
0.0
 40
0.0
 40
0.0
 40
0.0
 40
0.3303981777
 40
0.4933538256
 40
0.6421965782
 40
0.7684629919
 40
0.8685364403
 40
0.9428858563
 40
1.0
 40
1.0
 40
1.0
 40
1.0
 10
77.8903225523
 20
217.6195805832
 30
0.0
 10
77.7039232483
 20
217.6200938493
 30
0.0
 10
77.4250239093
 20
217.637142205
 30
0.0
 10
77.0677270385
 20
217.6988714954
 30
0.0
 10
76.8282672133
 20
217.7618208784
 30
0.0
 10
76.6310243949
 20
217.8404257727
 30
0.0
 10
76.4846787792
 20
217.9282955252
 30
0.0
 10
76.3921384016
 20
218.0239212815
 30
0.0
 10
76.3671954443
 20
218.0976697975
 30
0.0
 10
76.3664053598
 20
218.12988207
 30
0.0
  0
SPLINE
  5
50F
100
AcDbEntity
  8
0
100
AcDbSpline
 62
7
  6
CONTINUOUS
 70
0
 71
3
 72
9
 73
5
 74
0
 42
0.0000001
 43
0.0000001
 44
0.0000000001
 40
0.0
 40
0.0
 40
0.0
 40
0.0
 40
0.605221861
 40
1.0
 40
1.0
 40
1.0
 40
1.0
 10
76.3663803527
 20
218.129808249
 30
0.0
 10
76.3671985284
 20
218.4047924688
 30
0.0
 10
76.369697138
 20
218.859134155
 30
0.0
 10
76.373909669
 20
219.3134893194
 30
0.0
 10
76.3778997707
 20
219.4928142626
 30
0.0
  0
SPLINE
  5
510
100
AcDbEntity
  8
0
100
AcDbSpline
 62
7
  6
CONTINUOUS
 70
0
 71
3
 72
11
 73
7
 74
0
 42
0.0000001
 43
0.0000001
 44
0.0000000001
 40
0.0
 40
0.0
 40
0.0
 40
0.0
 40
0.2479266862
 40
0.5116103464
 40
0.7679649786
 40
1.0
 40
1.0
 40
1.0
 40
1.0
 10
77.9021165142
 20
218.0738713817
 30
0.0
 10
77.7124221243
 20
218.0744009308
 30
0.0
 10
77.3178325656
 20
218.1444574275
 30
0.0
 10
76.802573954
 20
218.4568953047
 30
0.0
 10
76.4574128151
 20
218.93800034
 30
0.0
 10
76.3784822475
 20
219.3153895731
 30
0.0
 10
76.3778988958
 20
219.4929246194
 30
0.0
  0
SPLINE
  5
511
100
AcDbEntity
  8
0
100
AcDbSpline
 62
7
  6
CONTINUOUS
 70
0
 71
3
 72
14
 73
10
 74
0
 42
0.0000001
 43
0.0000001
 44
0.0000000001
 40
0.0
 40
0.0
 40
0.0
 40
0.0
 40
0.0613524301
 40
0.138096529
 40
0.2365457931
 40
0.3575138874
 40
0.498695467
 40
0.6562574199
 40
1.0
 40
1.0
 40
1.0
 40
1.0
 10
76.3778998178
 20
219.4928428903
 30
0.0
 10
76.3787411257
 20
219.4582416871
 30
0.0
 10
76.4068570044
 20
219.3809563452
 30
0.0
 10
76.5037392168
 20
219.2859942454
 30
0.0
 10
76.6483598404
 20
219.2005091874
 30
0.0
 10
76.8382972494
 20
219.1259795085
 30
0.0
 10
77.0672922097
 20
219.0643450207
 30
0.0
 10
77.4245202934
 20
219.0012281336
 30
0.0
 10
77.7079231937
 20
218.9830769814
 30
0.0
 10
77.9018417886
 20
218.9825430375
 30
0.0
  0
SPLINE
  5
512
100
AcDbEntity
  8
0
100
AcDbSpline
 62
7
  6
CONTINUOUS
 70
0
 71
3
 72
15
 73
11
 74
0
 42
0.0000001
 43
0.0000001
 44
0.0000000001
 40
0.0
 40
0.0
 40
0.0
 40
0.0
 40
0.143053375
 40
0.2753047851
 40
0.3929425316
 40
0.4987210344
 40
0.6047874521
 40
0.7230896092
 40
0.8567749719
 40
1.0
 40
1.0
 40
1.0
 40
1.0
 10
77.9021168124
 20
218.0738923015
 30
0.0
 10
77.8220838486
 20
218.0737250437
 30
0.0
 10
77.6669220809
 20
218.0960289246
 30
0.0
 10
77.4653675879
 20
218.1918792174
 30
0.0
 10
77.3213969064
 20
218.3374869747
 30
0.0
 10
77.2665467897
 20
218.5235162508
 30
0.0
 10
77.3216691683
 20
218.7084474558
 30
0.0
 10
77.460588478
 20
218.8616251782
 30
0.0
 10
77.6687019077
 20
218.949490805
 30
0.0
 10
77.8220731868
 20
218.9749499876
 30
0.0
 10
77.9018417886
 20
218.9825430375
 30
0.0
  0
SPLINE
  5
513
100
AcDbEntity
  8
0
100
AcDbSpline
 62
7
  6
CONTINUOUS
 70
0
 71
3
 72
11
 73
7
 74
0
 42
0.0000001
 43
0.0000001
 44
0.0000000001
 40
0.0
 40
0.0
 40
0.0
 40
0.0
 40
0.2458692538
 40
0.4937503584
 40
0.7451153338
 40
1.0
 40
1.0
 40
1.0
 40
1.0
 10
77.9114739235
 20
222.0732800386
 30
0.0
 10
77.9125696541
 20
222.4066752075
 30
0.0
 10
78.0251900993
 20
223.0800511742
 30
0.0
 10
78.4977995256
 20
223.9915258771
 30
0.0
 10
79.2434690783
 20
224.7162539718
 30
0.0
 10
79.8734887476
 20
225.0218721517
 30
0.0
 10
80.2043949856
 20
225.1216493719
 30
0.0
  0
SPLINE
  5
514
100
AcDbEntity
  8
0
100
AcDbSpline
 62
7
  6
CONTINUOUS
 70
0
 71
3
 72
11
 73
7
 74
0
 42
0.0000001
 43
0.0000001
 44
0.0000000001
 40
0.0
 40
0.0
 40
0.0
 40
0.0
 40
0.2323868539
 40
0.4807043637
 40
0.74581171
 40
1.0
 40
1.0
 40
1.0
 40
1.0
 10
78.1807389993
 20
218.6130765454
 30
0.0
 10
78.1420034854
 20
218.6130765454
 30
0.0
 10
78.0610323724
 20
218.6416952488
 30
0.0
 10
77.9776042659
 20
218.7377551079
 30
0.0
 10
77.9231063098
 20
218.8545858375
 30
0.0
 10
77.9047604501
 20
218.9402741878
 30
0.0
 10
77.9018417886
 20
218.9825430375
 30
0.0
  0
SPLINE
  5
515
100
AcDbEntity
  8
0
100
AcDbSpline
 62
7
  6
CONTINUOUS
 70
0
 71
3
 72
22
 73
18
 74
0
 42
0.0000001
 43
0.0000001
 44
0.0000000001
 40
0.0
 40
0.0
 40
0.0
 40
0.0
 40
0.2045314794
 40
0.3965131222
 40
0.5691549853
 40
0.6465928596
 40
0.7173219
 40
0.7808027662
 40
0.8366965672
 40
0.8847159299
 40
0.9245766913
 40
0.9560363673
 40
0.979008268
 40
0.9873102544
 40
0.9935061353
 40
0.9976539066
 40
1.0
 40
1.0
 40
1.0
 40
1.0
 10
80.9644623564
 20
225.262605558
 30
0.0
 10
81.347050128
 20
225.2644705602
 30
0.0
 10
82.0887415629
 20
225.2704897459
 30
0.0
 10
83.1532796795
 20
225.2864553389
 30
0.0
 10
83.9799837701
 20
225.3055242058
 30
0.0
 10
84.5797986533
 20
225.3240474072
 30
0.0
 10
84.975437585
 20
225.3386160455
 30
0.0
 10
85.330700289
 20
225.3542523962
 30
0.0
 10
85.6433957504
 20
225.3707840256
 30
0.0
 10
85.9117796858
 20
225.3880447597
 30
0.0
 10
86.134345615
 20
225.4058125789
 30
0.0
 10
86.3097454824
 20
225.4239455082
 30
0.0
 10
86.4261429365
 20
225.4402698406
 30
0.0
 10
86.4946982592
 20
225.4542361761
 30
0.0
 10
86.5285952983
 20
225.4637513796
 30
0.0
 10
86.550148986
 20
225.4723239167
 30
0.0
 10
86.5606797863
 20
225.4807082286
 30
0.0
 10
86.5618284296
 20
225.4849437944
 30
0.0
  0
SPLINE
  5
516
100
AcDbEntity
  8
0
100
AcDbSpline
 62
7
  6
CONTINUOUS
 70
0
 71
3
 72
9
 73
5
 74
0
 42
0.0000001
 43
0.0000001
 44
0.0000000001
 40
0.0
 40
0.0
 40
0.0
 40
0.0
 40
0.2526055966
 40
1.0
 40
1.0
 40
1.0
 40
1.0
 10
80.2043720842
 20
225.1217148745
 30
0.0
 10
80.2655104912
 20
225.1446006784
 30
0.0
 10
80.5113113848
 20
225.2247557853
 30
0.0
 10
80.7713150518
 20
225.2616483365
 30
0.0
 10
80.964463472
 20
225.2626077862
 30
0.0
  0
SPLINE
  5
517
100
AcDbEntity
  8
0
100
AcDbSpline
 62
7
  6
CONTINUOUS
 70
0
 71
3
 72
15
 73
11
 74
0
 42
0.0000001
 43
0.0000001
 44
0.0000000001
 40
0.0
 40
0.0
 40
0.0
 40
0.0
 40
0.3218895023
 40
0.4977563974
 40
0.6635302188
 40
0.8030474894
 40
0.9068779852
 40
0.970089806
 40
0.9883380265
 40
1.0
 40
1.0
 40
1.0
 40
1.0
 10
80.9644626611
 20
225.2626031801
 30
0.0
 10
80.9556825886
 20
225.4833468116
 30
0.0
 10
80.9523929352
 20
225.8251848287
 30
0.0
 10
80.9674007906
 20
226.2804048062
 30
0.0
 10
80.9887870201
 20
226.6099288415
 30
0.0
 10
81.019788742
 20
226.8894024025
 30
0.0
 10
81.0558285165
 20
227.096221685
 30
0.0
 10
81.090618977
 20
227.2201285583
 30
0.0
 10
81.1223685115
 20
227.2756079423
 30
0.0
 10
81.1390533579
 20
227.2896761231
 30
0.0
 10
81.1467685304
 20
227.2918061614
 30
0.0
  0
SPLINE
  5
518
100
AcDbEntity
  8
0
100
AcDbSpline
 62
7
  6
CONTINUOUS
 70
0
 71
3
 72
14
 73
10
 74
0
 42
0.0000001
 43
0.0000001
 44
0.0000000001
 40
0.0
 40
0.0
 40
0.0
 40
0.0
 40
0.181394867
 40
0.356697556
 40
0.5192213551
 40
0.6637243857
 40
0.7857202406
 40
0.8821093641
 40
1.0
 40
1.0
 40
1.0
 40
1.0
 10
88.2312535217
 20
221.8802359408
 30
0.0
 10
88.1327171691
 20
221.8800209624
 30
0.0
 10
87.9389121831
 20
221.8747188372
 30
0.0
 10
87.6576702853
 20
221.8526743404
 30
0.0
 10
87.3976778674
 20
221.8169910821
 30
0.0
 10
87.1699707416
 20
221.770167636
 30
0.0
 10
86.9789027398
 20
221.7113376867
 30
0.0
 10
86.8179930837
 20
221.6408703052
 30
0.0
 10
86.7093959963
 20
221.5498018295
 30
0.0
 10
86.70731155
 20
221.4857956867
 30
0.0
  0
SPLINE
  5
519
100
AcDbEntity
  8
0
100
AcDbSpline
 62
7
  6
CONTINUOUS
 70
0
 71
3
 72
18
 73
14
 74
0
 42
0.0000001
 43
0.0000001
 44
0.0000000001
 40
0.0
 40
0.0
 40
0.0
 40
0.0
 40
0.2023644947
 40
0.3908688052
 40
0.5605460007
 40
0.7072268053
 40
0.8271532138
 40
0.8761124338
 40
0.9172991065
 40
0.9504716987
 40
0.9754022238
 40
0.9919418237
 40
1.0
 40
1.0
 40
1.0
 40
1.0
 10
88.2312535906
 20
221.8802359402
 30
0.0
 10
88.2306892993
 20
222.1974778634
 30
0.0
 10
88.2292656298
 20
222.8102329578
 30
0.0
 10
88.2261277354
 20
223.6889832302
 30
0.0
 10
88.2221372617
 20
224.4804357531
 30
0.0
 10
88.2173960825
 20
225.1643718344
 30
0.0
 10
88.2127346945
 20
225.659061112
 30
0.0
 10
88.2085075952
 20
225.9883546095
 30
0.0
 10
88.205539126
 20
226.1816678603
 30
0.0
 10
88.202293763
 20
226.3372574181
 30
0.0
 10
88.1996010506
 20
226.4543190563
 30
0.0
 10
88.1958265398
 20
226.5317367679
 30
0.0
 10
88.1943995554
 20
226.5704559642
 30
0.0
 10
88.1920425435
 20
226.5828667574
 30
0.0
  0
SPLINE
  5
51A
100
AcDbEntity
  8
0
100
AcDbSpline
 62
7
  6
CONTINUOUS
 70
0
 71
3
 72
14
 73
10
 74
0
 42
0.0000001
 43
0.0000001
 44
0.0000000001
 40
0.0
 40
0.0
 40
0.0
 40
0.0
 40
0.1178355203
 40
0.2141558897
 40
0.3361120488
 40
0.4806013775
 40
0.6431862354
 40
0.8185781425
 40
1.0
 40
1.0
 40
1.0
 40
1.0
 10
92.6476673012
 20
221.485795715
 30
0.0
 10
92.6455838038
 20
221.5497721595
 30
0.0
 10
92.5370802447
 20
221.6408095976
 30
0.0
 10
92.376253295
 20
221.7112702981
 30
0.0
 10
92.1852579195
 20
221.7701053961
 30
0.0
 10
91.9575494337
 20
221.8169502498
 30
0.0
 10
91.6974843303
 20
221.8526589676
 30
0.0
 10
91.4161452643
 20
221.8747101045
 30
0.0
 10
91.2222766947
 20
221.8800209285
 30
0.0
 10
91.1237253321
 20
221.8802359397
 30
0.0
  0
SPLINE
  5
51B
100
AcDbEntity
  8
0
100
AcDbSpline
 62
7
  6
CONTINUOUS
 70
0
 71
3
 72
18
 73
14
 74
0
 42
0.0000001
 43
0.0000001
 44
0.0000000001
 40
0.0
 40
0.0
 40
0.0
 40
0.0
 40
0.2023653489
 40
0.3908707017
 40
0.5605475424
 40
0.7072277461
 40
0.8271536325
 40
0.8761126441
 40
0.9172991624
 40
0.9504716724
 40
0.975402239
 40
0.9919419194
 40
1.0
 40
1.0
 40
1.0
 40
1.0
 10
91.1237252828
 20
221.8802359402
 30
0.0
 10
91.1242905033
 20
222.1974792015
 30
0.0
 10
91.1257138269
 20
222.8102372701
 30
0.0
 10
91.128851264
 20
223.6889899639
 30
0.0
 10
91.1328420074
 20
224.4804426222
 30
0.0
 10
91.1375825436
 20
225.1643763935
 30
0.0
 10
91.1422437555
 20
225.6590635843
 30
0.0
 10
91.1464705207
 20
225.988355703
 30
0.0
 10
91.1494387214
 20
226.1816682529
 30
0.0
 10
91.1526839459
 20
226.3372575294
 30
0.0
 10
91.1553773326
 20
226.4543191649
 30
0.0
 10
91.1591523281
 20
226.5317369982
 30
0.0
 10
91.1605798668
 20
226.5704560088
 30
0.0
 10
91.1629363087
 20
226.5828667574
 30
0.0
  0
SPLINE
  5
51C
100
AcDbEntity
  8
0
100
AcDbSpline
 62
7
  6
CONTINUOUS
 70
0
 71
3
 72
16
 73
12
 74
0
 42
0.0000001
 43
0.0000001
 44
0.0000000001
 40
0.0
 40
0.0
 40
0.0
 40
0.0
 40
0.1535075236
 40
0.3237225302
 40
0.4999692845
 40
0.6659387157
 40
0.805578525
 40
0.9093533331
 40
0.9720362518
 40
0.9895841865
 40
1.0
 40
1.0
 40
1.0
 40
1.0
 10
80.2043739592
 20
225.1217090726
 30
0.0
 10
80.1709691255
 20
225.220142931
 30
0.0
 10
80.1030456108
 20
225.4285864479
 30
0.0
 10
80.0052132937
 20
225.7527199912
 30
0.0
 10
79.9131490957
 20
226.0873450975
 30
0.0
 10
79.8347109514
 20
226.4040104178
 30
0.0
 10
79.7780073141
 20
226.6757573524
 30
0.0
 10
79.7461341279
 20
226.8799686635
 30
0.0
 10
79.7370072291
 20
227.0057365412
 30
0.0
 10
79.7452402843
 20
227.066096329
 30
0.0
 10
79.7539256302
 20
227.0844566413
 30
0.0
 10
79.7596114436
 20
227.0886300444
 30
0.0
  0
SPLINE
  5
51D
100
AcDbEntity
  8
0
100
AcDbSpline
 62
7
  6
CONTINUOUS
 70
0
 71
3
 72
19
 73
15
 74
0
 42
0.0000001
 43
0.0000001
 44
0.0000000001
 40
0.0
 40
0.0
 40
0.0
 40
0.0
 40
0.1885348324
 40
0.3687917849
 40
0.5331314205
 40
0.6764938357
 40
0.7390070016
 40
0.7950101462
 40
0.8443577821
 40
0.8869894447
 40
0.9229808099
 40
0.9527293514
 40
0.9772919578
 40
1.0
 40
1.0
 40
1.0
 40
1.0
 10
80.425736217
 20
218.1167142985
 30
0.0
 10
80.8126880863
 20
218.1179367459
 30
0.0
 10
81.5696073166
 20
218.1189113863
 30
0.0
 10
82.663820998
 20
218.1152685427
 30
0.0
 10
83.6652776986
 20
218.1057454002
 30
0.0
 10
84.4249736415
 20
218.0873912523
 30
0.0
 10
84.961872465
 20
218.0615659279
 30
0.0
 10
85.3055737009
 20
218.0371883253
 30
0.0
 10
85.6077730833
 20
218.0059493344
 30
0.0
 10
85.8675092731
 20
217.9661111855
 30
0.0
 10
86.0846166253
 20
217.9160001492
 30
0.0
 10
86.2591765581
 20
217.8521502634
 30
0.0
 10
86.395958894
 20
217.7688841278
 30
0.0
 10
86.4554686855
 20
217.6877009173
 30
0.0
 10
86.4736459725
 20
217.6447851942
 30
0.0
  0
SPLINE
  5
51E
100
AcDbEntity
  8
0
100
AcDbSpline
 62
7
  6
CONTINUOUS
 70
0
 71
3
 72
11
 73
7
 74
0
 42
0.0000001
 43
0.0000001
 44
0.0000000001
 40
0.0
 40
0.0
 40
0.0
 40
0.0
 40
0.1070505919
 40
0.3029515816
 40
0.5997153885
 40
1.0
 40
1.0
 40
1.0
 40
1.0
 10
86.5270437796
 20
217.3642097347
 30
0.0
 10
86.5256571554
 20
217.3705168517
 30
0.0
 10
86.5093909403
 20
217.3831364101
 30
0.0
 10
86.4765441479
 20
217.3955554348
 30
0.0
 10
86.4239063009
 20
217.409673276
 30
0.0
 10
86.3827539139
 20
217.4175314403
 30
0.0
 10
86.3589703263
 20
217.421704172
 30
0.0
  0
SPLINE
  5
51F
100
AcDbEntity
  8
0
100
AcDbSpline
 62
7
  6
CONTINUOUS
 70
0
 71
3
 72
14
 73
10
 74
0
 42
0.0000001
 43
0.0000001
 44
0.0000000001
 40
0.0
 40
0.0
 40
0.0
 40
0.0
 40
0.0526630521
 40
0.1307950169
 40
0.2329182536
 40
0.3568568865
 40
0.4996662282
 40
0.6575504818
 40
1.0
 40
1.0
 40
1.0
 40
1.0
 10
86.3589703263
 20
217.421704172
 30
0.0
 10
86.2562770087
 20
217.4397212881
 30
0.0
 10
85.9986214244
 20
217.4684210106
 30
0.0
 10
85.5389292364
 20
217.503856592
 30
0.0
 10
84.9374699
 20
217.5361736046
 30
0.0
 10
84.2077436275
 20
217.564765342
 30
0.0
 10
83.3673672352
 20
217.5882571997
 30
0.0
 10
82.0942976229
 20
217.612338589
 30
0.0
 10
81.1037163447
 20
217.6193846098
 30
0.0
 10
80.4257377928
 20
217.6195822259
 30
0.0
  0
SPLINE
  5
520
100
AcDbEntity
  8
0
100
AcDbSpline
 62
7
  6
CONTINUOUS
 70
0
 71
3
 72
18
 73
14
 74
0
 42
0.0000001
 43
0.0000001
 44
0.0000000001
 40
0.0
 40
0.0
 40
0.0
 40
0.0
 40
0.1720141486
 40
0.3373858625
 40
0.4910983793
 40
0.6291996075
 40
0.7486579024
 40
0.8007796063
 40
0.847724397
 40
0.8896629915
 40
0.9272957745
 40
0.962804263
 40
1.0
 40
1.0
 40
1.0
 40
1.0
 10
80.3998735619
 20
218.6140441694
 30
0.0
 10
80.7586770802
 20
218.6156348945
 30
0.0
 10
81.4624101016
 20
218.6222480789
 30
0.0
 10
82.4867772505
 20
218.6278742092
 30
0.0
 10
83.4404778243
 20
218.6258427948
 30
0.0
 10
84.2981510217
 20
218.6057927106
 30
0.0
 10
84.9432165089
 20
218.5607412301
 30
0.0
 10
85.3945192951
 20
218.4949228791
 30
0.0
 10
85.6820864799
 20
218.4313365601
 30
0.0
 10
85.933031743
 20
218.3478787083
 30
0.0
 10
86.1484464179
 20
218.2385095295
 30
0.0
 10
86.3237886148
 20
218.0846350464
 30
0.0
 10
86.4025133206
 20
217.9517790895
 30
0.0
 10
86.4329253899
 20
217.8804006872
 30
0.0
  0
SPLINE
  5
521
100
AcDbEntity
  8
0
100
AcDbSpline
 62
7
  6
CONTINUOUS
 70
0
 71
3
 72
9
 73
5
 74
0
 42
0.0000001
 43
0.0000001
 44
0.0000000001
 40
0.0
 40
0.0
 40
0.0
 40
0.0
 40
0.2521087544
 40
1.0
 40
1.0
 40
1.0
 40
1.0
 10
86.4329278972
 20
217.8803947787
 30
0.0
 10
86.4324073107
 20
217.8602042583
 30
0.0
 10
86.4343067803
 20
217.7800718875
 30
0.0
 10
86.4519585124
 20
217.7002549345
 30
0.0
 10
86.4737362505
 20
217.6444369313
 30
0.0
  0
SPLINE
  5
522
100
AcDbEntity
  8
0
100
AcDbSpline
 62
7
  6
CONTINUOUS
 70
0
 71
3
 72
11
 73
7
 74
0
 42
0.0000001
 43
0.0000001
 44
0.0000000001
 40
0.0
 40
0.0
 40
0.0
 40
0.0
 40
0.3567831194
 40
0.6635267019
 40
0.8827352272
 40
1.0
 40
1.0
 40
1.0
 40
1.0
 10
80.3998699658
 20
218.6140441256
 30
0.0
 10
80.4010392169
 20
218.5547966136
 30
0.0
 10
80.4039488492
 20
218.4446572757
 30
0.0
 10
80.4091709836
 20
218.2980168707
 30
0.0
 10
80.4166436893
 20
218.1916505934
 30
0.0
 10
80.4211456504
 20
218.1356326374
 30
0.0
 10
80.4257498612
 20
218.1167078502
 30
0.0
  0
SPLINE
  5
523
100
AcDbEntity
  8
0
100
AcDbSpline
 62
7
  6
CONTINUOUS
 70
0
 71
3
 72
15
 73
11
 74
0
 42
0.0000001
 43
0.0000001
 44
0.0000000001
 40
0.0
 40
0.0
 40
0.0
 40
0.0
 40
0.0956522999
 40
0.1938496139
 40
0.2969952211
 40
0.4078958544
 40
0.5300365225
 40
0.6677390158
 40
0.8251061966
 40
1.0
 40
1.0
 40
1.0
 40
1.0
 10
86.5086952643
 20
211.4629838086
 30
0.0
 10
86.5048239208
 20
211.1844928623
 30
0.0
 10
86.4453242416
 20
210.6195303792
 30
0.0
 10
86.1999316099
 20
209.7856380134
 30
0.0
 10
85.7887927869
 20
208.9691458928
 30
0.0
 10
85.1946756501
 20
208.184347652
 30
0.0
 10
84.3910755523
 20
207.4540636616
 30
0.0
 10
83.3449703883
 20
206.8206656824
 30
0.0
 10
82.0447232396
 20
206.363152162
 30
0.0
 10
81.0731335502
 20
206.2508863674
 30
0.0
 10
80.5638830071
 20
206.251691911
 30
0.0
  0
LINE
  5
524
100
AcDbEntity
  8
0
100
AcDbLine
 62
7
  6
CONTINUOUS
 10
80.3904848837
 20
206.2518624077
 11
80.5638846134
 21
206.2517215611
  0
SPLINE
  5
525
100
AcDbEntity
  8
0
100
AcDbSpline
 62
7
  6
CONTINUOUS
 70
0
 71
3
 72
16
 73
12
 74
0
 42
0.0000001
 43
0.0000001
 44
0.0000000001
 40
0.0
 40
0.0
 40
0.0
 40
0.0
 40
0.0092604324
 40
0.029872351
 40
0.060990685
 40
0.1015259027
 40
0.2054317718
 40
0.3280836769
 40
0.4701845442
 40
0.6375108573
 40
1.0
 40
1.0
 40
1.0
 40
1.0
 10
80.5566603721
 20
205.9129461216
 30
0.0
 10
80.5573749368
 20
205.9137109003
 30
0.0
 10
80.5577004048
 20
205.9173818532
 30
0.0
 10
80.5587896038
 20
205.9239492576
 30
0.0
 10
80.5594773184
 20
205.9344848574
 30
0.0
 10
80.5607137465
 20
205.9542205727
 30
0.0
 10
80.5618052921
 20
205.9844371719
 30
0.0
 10
80.5628926176
 20
206.0260720151
 30
0.0
 10
80.5636884846
 20
206.0749081401
 30
0.0
 10
80.5643650948
 20
206.1508457318
 30
0.0
 10
80.564276727
 20
206.2107320089
 30
0.0
 10
80.5638811345
 20
206.2517002703
 30
0.0
  0
SPLINE
  5
526
100
AcDbEntity
  8
0
100
AcDbSpline
 62
7
  6
CONTINUOUS
 70
0
 71
3
 72
14
 73
10
 74
0
 42
0.0000001
 43
0.0000001
 44
0.0000000001
 40
0.0
 40
0.0
 40
0.0
 40
0.0
 40
0.1216274867
 40
0.2436670613
 40
0.3667860567
 40
0.4911130102
 40
0.7428918675
 40
0.8711535847
 40
1.0
 40
1.0
 40
1.0
 40
1.0
 10
78.5153480302
 20
204.4950668689
 30
0.0
 10
78.5179943595
 20
204.6073571999
 30
0.0
 10
78.5392673239
 20
204.8326337501
 30
0.0
 10
78.6362216321
 20
205.1596197312
 30
0.0
 10
78.7987995842
 20
205.4622120963
 30
0.0
 10
79.0902048876
 20
205.822357863
 30
0.0
 10
79.4894120818
 20
206.0892806902
 30
0.0
 10
79.9405226295
 20
206.2285312186
 30
0.0
 10
80.1788307247
 20
206.2519993892
 30
0.0
 10
80.2978187484
 20
206.2518624031
 30
0.0
  0
SPLINE
  5
527
100
AcDbEntity
  8
0
100
AcDbSpline
 62
7
  6
CONTINUOUS
 70
0
 71
3
 72
12
 73
8
 74
0
 42
0.0000001
 43
0.0000001
 44
0.0000000001
 40
0.0
 40
0.0
 40
0.0
 40
0.0
 40
0.1457639878
 40
0.2498187421
 40
0.3703344146
 40
0.6486309963
 40
1.0
 40
1.0
 40
1.0
 40
1.0
 10
78.7693749756
 20
204.410017288
 30
0.0
 10
78.7690809646
 20
204.4236664748
 30
0.0
 10
78.7506905429
 20
204.4442129257
 30
0.0
 10
78.7208163735
 20
204.4602684623
 30
0.0
 10
78.6763780936
 20
204.4771200327
 30
0.0
 10
78.6073264496
 20
204.4910423005
 30
0.0
 10
78.5482573769
 20
204.494979939
 30
0.0
 10
78.5153480274
 20
204.4950640006
 30
0.0
  0
SPLINE
  5
528
100
AcDbEntity
  8
0
100
AcDbSpline
 62
7
  6
CONTINUOUS
 70
0
 71
3
 72
9
 73
5
 74
0
 42
0.0000001
 43
0.0000001
 44
0.0000000001
 40
0.0
 40
0.0
 40
0.0
 40
0.0
 40
0.2654991009
 40
1.0
 40
1.0
 40
1.0
 40
1.0
 10
78.4474120055
 20
180.1540839905
 30
0.0
 10
78.4617412086
 20
180.1540484815
 30
0.0
 10
78.5156558045
 20
180.152269943
 30
0.0
 10
78.5696903138
 20
180.1450931979
 30
0.0
 10
78.6079095884
 20
180.1345692175
 30
0.0
  0
SPLINE
  5
529
100
AcDbEntity
  8
0
100
AcDbSpline
 62
7
  6
CONTINUOUS
 70
0
 71
3
 72
9
 73
5
 74
0
 42
0.0000001
 43
0.0000001
 44
0.0000000001
 40
0.0
 40
0.0
 40
0.0
 40
0.0
 40
0.2465216058
 40
1.0
 40
1.0
 40
1.0
 40
1.0
 10
78.4474120055
 20
180.1540839917
 30
0.0
 10
78.4469407368
 20
179.9827906447
 30
0.0
 10
78.4451218631
 20
179.2879492784
 30
0.0
 10
78.4436656406
 20
178.5931069694
 30
0.0
 10
78.4427596531
 20
178.0695580056
 30
0.0
  0
SPLINE
  5
52A
100
AcDbEntity
  8
0
100
AcDbSpline
 62
7
  6
CONTINUOUS
 70
0
 71
3
 72
11
 73
7
 74
0
 42
0.0000001
 43
0.0000001
 44
0.0000000001
 40
0.0
 40
0.0
 40
0.0
 40
0.0
 40
0.2512429743
 40
0.501721402
 40
0.7511919088
 40
1.0
 40
1.0
 40
1.0
 40
1.0
 10
80.267222199
 20
129.4441157227
 30
0.0
 10
80.0353256482
 20
129.444021004
 30
0.0
 10
79.5672353436
 20
129.5367579323
 30
0.0
 10
78.9759494651
 20
129.9310929114
 30
0.0
 10
78.5808460798
 20
130.5191985521
 30
0.0
 10
78.4878744545
 20
130.9839593618
 30
0.0
 10
78.4876072317
 20
131.2136083862
 30
0.0
  0
SPLINE
  5
52B
100
AcDbEntity
  8
0
100
AcDbSpline
 62
7
  6
CONTINUOUS
 70
0
 71
3
 72
12
 73
8
 74
0
 42
0.0000001
 43
0.0000001
 44
0.0000000001
 40
0.0
 40
0.0
 40
0.0
 40
0.0
 40
0.382975182
 40
0.6815799134
 40
0.8963148525
 40
0.9634486781
 40
1.0
 40
1.0
 40
1.0
 40
1.0
 10
78.487607231
 20
131.213609035
 30
0.0
 10
78.5209188006
 20
131.2136462709
 30
0.0
 10
78.5803519274
 20
131.2154058405
 30
0.0
 10
78.6576149368
 20
131.2222118455
 30
0.0
 10
78.7083004275
 20
131.2315762269
 30
0.0
 10
78.7335321472
 20
131.2404740925
 30
0.0
 10
78.7415203478
 20
131.2474515673
 30
0.0
 10
78.7416365842
 20
131.2506287148
 30
0.0
  0
SPLINE
  5
52C
100
AcDbEntity
  8
0
100
AcDbSpline
 62
7
  6
CONTINUOUS
 70
0
 71
3
 72
11
 73
7
 74
0
 42
0.0000001
 43
0.0000001
 44
0.0000000001
 40
0.0
 40
0.0
 40
0.0
 40
0.0
 40
0.2513637314
 40
0.5018999355
 40
0.7513094318
 40
1.0
 40
1.0
 40
1.0
 40
1.0
 10
80.267222211
 20
129.7349883047
 30
0.0
 10
80.0684094044
 20
129.734898917
 30
0.0
 10
79.6670979733
 20
129.8141832401
 30
0.0
 10
79.1603600403
 20
130.1521524443
 30
0.0
 10
78.821407939
 20
130.6557460745
 30
0.0
 10
78.741870899
 20
131.053929335
 30
0.0
 10
78.7416365374
 20
131.2506277189
 30
0.0
  0
SPLINE
  5
52D
100
AcDbEntity
  8
0
100
AcDbSpline
 62
7
  6
CONTINUOUS
 70
0
 71
3
 72
21
 73
17
 74
0
 42
0.0000001
 43
0.0000001
 44
0.0000000001
 40
0.0
 40
0.0
 40
0.0
 40
0.0
 40
0.1909140451
 40
0.3748129202
 40
0.5449392296
 40
0.6950417808
 40
0.7608232635
 40
0.8196058168
 40
0.8708365464
 40
0.914055801
 40
0.9488535462
 40
0.9749249355
 40
0.9846048492
 40
0.9920192058
 40
0.9971542737
 40
1.0
 40
1.0
 40
1.0
 40
1.0
 10
80.5961281969
 20
142.2865347087
 30
0.0
 10
80.5961277608
 20
141.5595452189
 30
0.0
 10
80.5952092676
 20
140.1322794215
 30
0.0
 10
80.5911082234
 20
138.0571861507
 30
0.0
 10
80.5844539845
 20
136.1375081267
 30
0.0
 10
80.5767379244
 20
134.6676222764
 30
0.0
 10
80.5692456172
 20
133.6217346658
 30
0.0
 10
80.5634339265
 20
132.9523431084
 30
0.0
 10
80.5572297785
 20
132.3688760157
 30
0.0
 10
80.5507463977
 20
131.876747614
 30
0.0
 10
80.5439874986
 20
131.4804482217
 30
0.0
 10
80.5379605158
 20
131.2118524579
 30
0.0
 10
80.5326079782
 20
131.0475830068
 30
0.0
 10
80.5292048485
 20
130.9629706174
 30
0.0
 10
80.5255149955
 20
130.9045201246
 30
0.0
 10
80.5231139384
 20
130.8741336666
 30
0.0
 10
80.5210403387
 20
130.8634975557
 30
0.0
  0
SPLINE
  5
52E
100
AcDbEntity
  8
0
100
AcDbSpline
 62
7
  6
CONTINUOUS
 70
0
 71
3
 72
22
 73
18
 74
0
 42
0.0000001
 43
0.0000001
 44
0.0000000001
 40
0.0
 40
0.0
 40
0.0
 40
0.0
 40
0.1993551204
 40
0.3866638757
 40
0.5564738065
 40
0.6333186496
 40
0.7040259875
 40
0.7680562093
 40
0.825002234
 40
0.8744908625
 40
0.9161505386
 40
0.9496528464
 40
0.9748360108
 40
0.984276064
 40
0.9916043683
 40
0.9968274424
 40
1.0
 40
1.0
 40
1.0
 40
1.0
 10
81.2412392482
 20
140.301736708
 30
0.0
 10
81.2332547432
 20
139.6738465625
 30
0.0
 10
81.2165100323
 20
138.4560227802
 30
0.0
 10
81.1875369697
 20
136.7034446333
 30
0.0
 10
81.1597116868
 20
135.3367972903
 30
0.0
 10
81.1351368889
 20
134.3374514711
 30
0.0
 10
81.1164827126
 20
133.6712556426
 30
0.0
 10
81.0969906218
 20
133.0677919878
 30
0.0
 10
81.0767239443
 20
132.53122872
 30
0.0
 10
81.0557272591
 20
132.0652248482
 30
0.0
 10
81.0341482718
 20
131.6731618944
 30
0.0
 10
81.0119187733
 20
131.3578925473
 30
0.0
 10
80.9919161311
 20
131.1441269837
 30
0.0
 10
80.9744702449
 20
131.0132033465
 30
0.0
 10
80.9627800118
 20
130.9447496753
 30
0.0
 10
80.9510236774
 20
130.8969087054
 30
0.0
 10
80.9417688574
 20
130.8715034336
 30
0.0
 10
80.9357881989
 20
130.8634975557
 30
0.0
  0
SPLINE
  5
52F
100
AcDbEntity
  8
0
100
AcDbSpline
 62
7
  6
CONTINUOUS
 70
0
 71
3
 72
22
 73
18
 74
0
 42
0.0000001
 43
0.0000001
 44
0.0000000001
 40
0.0
 40
0.0
 40
0.0
 40
0.0
 40
0.0031726848
 40
0.0083957605
 40
0.0157240371
 40
0.0251640633
 40
0.0503472178
 40
0.0838495928
 40
0.1255094037
 40
0.1749981954
 40
0.2319443766
 40
0.2959747198
 40
0.366682124
 40
0.4435269767
 40
0.6133367667
 40
0.8006452097
 40
1.0
 40
1.0
 40
1.0
 40
1.0
 10
98.4191906584
 20
130.8634975558
 30
0.0
 10
98.4132083722
 20
130.8715027078
 30
0.0
 10
98.4039521903
 20
130.8969085246
 30
0.0
 10
98.392197884
 20
130.9447500635
 30
0.0
 10
98.3805123395
 20
131.0132044462
 30
0.0
 10
98.3630769368
 20
131.1441291161
 30
0.0
 10
98.3430910867
 20
131.3578961958
 30
0.0
 10
98.3208805501
 20
131.6731671744
 30
0.0
 10
98.2993158508
 20
132.0652317393
 30
0.0
 10
98.2783305214
 20
132.5312371839
 30
0.0
 10
98.2580734716
 20
133.0678017865
 30
0.0
 10
98.2385907827
 20
133.6712663625
 30
0.0
 10
98.2199471513
 20
134.3374625928
 30
0.0
 10
98.1953874135
 20
135.3368078044
 30
0.0
 10
98.1675795952
 20
136.7034530416
 30
0.0
 10
98.1386192638
 20
138.4560275617
 30
0.0
 10
98.1218658867
 20
139.6738482379
 30
0.0
 10
98.1138698949
 20
140.3017367123
 30
0.0
  0
SPLINE
  5
530
100
AcDbEntity
  8
0
100
AcDbSpline
 62
7
  6
CONTINUOUS
 70
0
 71
3
 72
21
 73
17
 74
0
 42
0.0000001
 43
0.0000001
 44
0.0000000001
 40
0.0
 40
0.0
 40
0.0
 40
0.0
 40
0.0028457263
 40
0.0079807944
 40
0.0153951512
 40
0.025075065
 40
0.0511464549
 40
0.0859442006
 40
0.1291634557
 40
0.1803941857
 40
0.2391767394
 40
0.3049582224
 40
0.4550607737
 40
0.6251870826
 40
0.8090859563
 40
1.0
 40
1.0
 40
1.0
 40
1.0
 10
98.8339385034
 20
130.8634975558
 30
0.0
 10
98.8318649037
 20
130.8741336671
 30
0.0
 10
98.8294638468
 20
130.904520126
 30
0.0
 10
98.8257739941
 20
130.9629706202
 30
0.0
 10
98.8223708649
 20
131.0475830114
 30
0.0
 10
98.8170183279
 20
131.2118524656
 30
0.0
 10
98.8109913459
 20
131.4804482338
 30
0.0
 10
98.8042324476
 20
131.876747632
 30
0.0
 10
98.7977490679
 20
132.3688760395
 30
0.0
 10
98.791544921
 20
132.9523431374
 30
0.0
 10
98.7857332315
 20
133.6217346991
 30
0.0
 10
98.7782409259
 20
134.6676223123
 30
0.0
 10
98.7705248677
 20
136.137508162
 30
0.0
 10
98.7638706316
 20
138.0571861789
 30
0.0
 10
98.7597695887
 20
140.1322794372
 30
0.0
 10
98.758851099
 20
141.559545224
 30
0.0
 10
98.7588506622
 20
142.2865347087
 30
0.0
  0
SPLINE
  5
531
100
AcDbEntity
  8
0
100
AcDbSpline
 62
7
  6
CONTINUOUS
 70
0
 71
3
 72
11
 73
7
 74
0
 42
0.0000001
 43
0.0000001
 44
0.0000000001
 40
0.0
 40
0.0
 40
0.0
 40
0.0
 40
0.2487034835
 40
0.498074352
 40
0.7485703573
 40
1.0
 40
1.0
 40
1.0
 40
1.0
 10
100.6133054243
 20
131.2506278355
 30
0.0
 10
100.6130616851
 20
131.0539201855
 30
0.0
 10
100.5335779602
 20
130.6557476247
 30
0.0
 10
100.1946651526
 20
130.1522140006
 30
0.0
 10
99.6879761097
 20
129.8141257986
 30
0.0
 10
99.2866206316
 20
129.7350569593
 30
0.0
 10
99.0877566213
 20
129.7350583273
 30
0.0
  0
SPLINE
  5
532
100
AcDbEntity
  8
0
100
AcDbSpline
 62
7
  6
CONTINUOUS
 70
0
 71
3
 72
12
 73
8
 74
0
 42
0.0000001
 43
0.0000001
 44
0.0000000001
 40
0.0
 40
0.0
 40
0.0
 40
0.0
 40
0.0365509889
 40
0.1036885518
 40
0.3184334501
 40
0.6170346028
 40
1.0
 40
1.0
 40
1.0
 40
1.0
 10
100.6133053804
 20
131.2506284181
 30
0.0
 10
100.613421611
 20
131.2474508561
 30
0.0
 10
100.6214120915
 20
131.2404727755
 30
0.0
 10
100.6466484165
 20
131.2315747762
 30
0.0
 10
100.6973424398
 20
131.2222103633
 30
0.0
 10
100.7746159261
 20
131.215405274
 30
0.0
 10
100.834056254
 20
131.2136467552
 30
0.0
 10
100.8673716155
 20
131.2136103329
 30
0.0
  0
SPLINE
  5
533
100
AcDbEntity
  8
0
100
AcDbSpline
 62
7
  6
CONTINUOUS
 70
0
 71
3
 72
11
 73
7
 74
0
 42
0.0000001
 43
0.0000001
 44
0.0000000001
 40
0.0
 40
0.0
 40
0.0
 40
0.0
 40
0.2491045397
 40
0.4986257692
 40
0.7489331311
 40
1.0
 40
1.0
 40
1.0
 40
1.0
 10
93.196868824
 20
123.6401370236
 30
0.0
 10
93.1977825927
 20
124.2450078447
 30
0.0
 10
93.3927652588
 20
125.4640677029
 30
0.0
 10
94.2381040816
 20
127.1071864276
 30
0.0
 10
95.5517426023
 20
128.4132894721
 30
0.0
 10
96.6592978424
 20
128.9731904801
 30
0.0
 10
97.2394681987
 20
129.1604307158
 30
0.0
  0
SPLINE
  5
534
100
AcDbEntity
  8
0
100
AcDbSpline
 62
7
  6
CONTINUOUS
 70
0
 71
3
 72
9
 73
5
 74
0
 42
0.0000001
 43
0.0000001
 44
0.0000000001
 40
0.0
 40
0.0
 40
0.0
 40
0.0
 40
0.2502302855
 40
1.0
 40
1.0
 40
1.0
 40
1.0
 10
97.2394681987
 20
129.1604307158
 30
0.0
 10
97.3846667943
 20
129.2072911232
 30
0.0
 10
97.9719770936
 20
129.372039509
 30
0.0
 10
98.5851416241
 20
129.4439931845
 30
0.0
 10
99.0422990584
 20
129.4440974395
 30
0.0
  0
SPLINE
  5
535
100
AcDbEntity
  8
0
100
AcDbSpline
 62
7
  6
CONTINUOUS
 70
0
 71
3
 72
11
 73
7
 74
0
 42
0.0000001
 43
0.0000001
 44
0.0000000001
 40
0.0
 40
0.0
 40
0.0
 40
0.0
 40
0.2512581735
 40
0.5017205848
 40
0.7511760825
 40
1.0
 40
1.0
 40
1.0
 40
1.0
 10
99.0877566527
 20
129.4441157267
 30
0.0
 10
99.3196673705
 20
129.4441200374
 30
0.0
 10
99.787874074
 20
129.5364834248
 30
0.0
 10
100.3787229955
 20
129.9314109741
 30
0.0
 10
100.7744087451
 20
130.519053634
 30
0.0
 10
100.8670932423
 20
130.9839446498
 30
0.0
 10
100.8673716181
 20
131.2136083862
 30
0.0
  0
SPLINE
  5
536
100
AcDbEntity
  8
0
100
AcDbSpline
 62
7
  6
CONTINUOUS
 70
0
 71
3
 72
11
 73
7
 74
0
 42
0.0000001
 43
0.0000001
 44
0.0000000001
 40
0.0
 40
0.0
 40
0.0
 40
0.0
 40
0.2434921703
 40
0.4905517623
 40
0.7431603479
 40
1.0
 40
1.0
 40
1.0
 40
1.0
 10
100.8396308222
 20
204.4950668689
 30
0.0
 10
100.8389814678
 20
204.7191249581
 30
0.0
 10
100.7481824754
 20
205.1750459991
 30
0.0
 10
100.3592584343
 20
205.7580852211
 30
0.0
 10
99.7675105395
 20
206.1569287212
 30
0.0
 10
99.2935013487
 20
206.2518868881
 30
0.0
 10
99.0571601022
 20
206.2518624053
 30
0.0
  0
SPLINE
  5
537
100
AcDbEntity
  8
0
100
AcDbSpline
 62
7
  6
CONTINUOUS
 70
0
 71
3
 72
9
 73
5
 74
0
 42
0.0000001
 43
0.0000001
 44
0.0000000001
 40
0.0
 40
0.0
 40
0.0
 40
0.0
 40
0.2532738784
 40
1.0
 40
1.0
 40
1.0
 40
1.0
 10
100.9122039949
 20
178.0778627533
 30
0.0
 10
100.911899869
 20
178.2531471327
 30
0.0
 10
100.9106142384
 20
178.945221429
 30
0.0
 10
100.9089882188
 20
179.6372951008
 30
0.0
 10
100.9075668467
 20
180.1540839918
 30
0.0
  0
SPLINE
  5
538
100
AcDbEntity
  8
0
100
AcDbSpline
 62
7
  6
CONTINUOUS
 70
0
 71
3
 72
9
 73
5
 74
0
 42
0.0000001
 43
0.0000001
 44
0.0000000001
 40
0.0
 40
0.0
 40
0.0
 40
0.0
 40
0.3965435054
 40
1.0
 40
1.0
 40
1.0
 40
1.0
 10
101.4531383438
 20
218.0738960656
 30
0.0
 10
101.4571408574
 20
218.0139545682
 30
0.0
 10
101.46128093
 20
217.8624538711
 30
0.0
 10
101.463807679
 20
217.7109979548
 30
0.0
 10
101.4646576216
 20
217.619580318
 30
0.0
  0
SPLINE
  5
539
100
AcDbEntity
  8
0
100
AcDbSpline
 62
7
  6
CONTINUOUS
 70
0
 71
3
 72
11
 73
7
 74
0
 42
0.0000001
 43
0.0000001
 44
0.0000000001
 40
0.0
 40
0.0
 40
0.0
 40
0.0
 40
0.3083438665
 40
0.6076616857
 40
0.8500589476
 40
1.0
 40
1.0
 40
1.0
 40
1.0
 10
101.1742399674
 20
218.1163295275
 30
0.0
 10
101.203722067
 20
218.1163295102
 30
0.0
 10
101.2616056321
 20
218.1158496462
 30
0.0
 10
101.3437327536
 20
218.1111641646
 30
0.0
 10
101.4068822352
 20
218.1018094382
 30
0.0
 10
101.446305141
 20
218.0865048163
 30
0.0
 10
101.4531434216
 20
218.0739042753
 30
0.0
  0
SPLINE
  5
53A
100
AcDbEntity
  8
0
100
AcDbSpline
 62
7
  6
CONTINUOUS
 70
0
 71
3
 72
9
 73
5
 74
0
 42
0.0000001
 43
0.0000001
 44
0.0000000001
 40
0.0
 40
0.0
 40
0.0
 40
0.0
 40
0.394777417
 40
1.0
 40
1.0
 40
1.0
 40
1.0
 10
102.9770790827
 20
219.4928130547
 30
0.0
 10
102.9810671053
 20
219.3134875491
 30
0.0
 10
102.9852837068
 20
218.8591303325
 30
0.0
 10
102.987780157
 20
218.4047864693
 30
0.0
 10
102.9885985231
 20
218.1298006279
 30
0.0
  0
SPLINE
  5
53B
100
AcDbEntity
  8
0
100
AcDbSpline
 62
7
  6
CONTINUOUS
 70
0
 71
3
 72
14
 73
10
 74
0
 42
0.0000001
 43
0.0000001
 44
0.0000000001
 40
0.0
 40
0.0
 40
0.0
 40
0.0
 40
0.0571141231
 40
0.1314634351
 40
0.2315367781
 40
0.3578031366
 40
0.5066459026
 40
0.6696016211
 40
1.0
 40
1.0
 40
1.0
 40
1.0
 10
102.9885699131
 20
218.1298820726
 30
0.0
 10
102.9877800156
 20
218.0976698597
 30
0.0
 10
102.962837539
 20
218.0239213724
 30
0.0
 10
102.8702977065
 20
217.9282955241
 30
0.0
 10
102.7239526165
 20
217.8404257118
 30
0.0
 10
102.5267102856
 20
217.7618207384
 30
0.0
 10
102.2872508767
 20
217.6988712821
 30
0.0
 10
101.9299544553
 20
217.6371419052
 30
0.0
 10
101.6510554137
 20
217.6200935287
 30
0.0
 10
101.4646562999
 20
217.6195802625
 30
0.0
  0
SPLINE
  5
53C
100
AcDbEntity
  8
0
100
AcDbSpline
 62
7
  6
CONTINUOUS
 70
0
 71
3
 72
14
 73
10
 74
0
 42
0.0000001
 43
0.0000001
 44
0.0000000001
 40
0.0
 40
0.0
 40
0.0
 40
0.0
 40
0.3437310997
 40
0.5012937298
 40
0.6424788037
 40
0.7634497557
 40
0.8619017096
 40
0.9386474279
 40
1.0
 40
1.0
 40
1.0
 40
1.0
 10
101.4531370636
 20
218.9825430375
 30
0.0
 10
101.6470490889
 20
218.9830769633
 30
0.0
 10
101.9304456188
 20
219.0012277427
 30
0.0
 10
102.2876699143
 20
219.0643413008
 30
0.0
 10
102.5166689657
 20
219.125975417
 30
0.0
 10
102.7066116458
 20
219.2005054158
 30
0.0
 10
102.8512361247
 20
219.2859918436
 30
0.0
 10
102.9481209727
 20
219.380954528
 30
0.0
 10
102.9762381575
 20
219.4582408144
 30
0.0
 10
102.9770790147
 20
219.4928420921
 30
0.0
  0
SPLINE
  5
53D
100
AcDbEntity
  8
0
100
AcDbSpline
 62
7
  6
CONTINUOUS
 70
0
 71
3
 72
11
 73
7
 74
0
 42
0.0000001
 43
0.0000001
 44
0.0000000001
 40
0.0
 40
0.0
 40
0.0
 40
0.0
 40
0.2320307808
 40
0.4883801584
 40
0.7520634116
 40
1.0
 40
1.0
 40
1.0
 40
1.0
 10
102.9770763643
 20
219.4929415511
 30
0.0
 10
102.9764957131
 20
219.3154295104
 30
0.0
 10
102.8975917488
 20
218.938089348
 30
0.0
 10
102.5525202983
 20
218.4570155127
 30
0.0
 10
102.0373591938
 20
218.1445444868
 30
0.0
 10
101.642818312
 20
218.0744336612
 30
0.0
 10
101.4531375647
 20
218.0738714482
 30
0.0
  0
SPLINE
  5
53E
100
AcDbEntity
  8
0
100
AcDbSpline
 62
7
  6
CONTINUOUS
 70
0
 71
3
 72
15
 73
11
 74
0
 42
0.0000001
 43
0.0000001
 44
0.0000000001
 40
0.0
 40
0.0
 40
0.0
 40
0.0
 40
0.1435861025
 40
0.2770479641
 40
0.3952553483
 40
0.5011021604
 40
0.606375396
 40
0.7237849724
 40
0.8569937463
 40
1.0
 40
1.0
 40
1.0
 40
1.0
 10
101.4531370636
 20
218.9825430375
 30
0.0
 10
101.5333755531
 20
218.9787831902
 30
0.0
 10
101.6886586375
 20
218.9559171245
 30
0.0
 10
101.891545921
 20
218.8582236639
 30
0.0
 10
102.0328661085
 20
218.7088722987
 30
0.0
 10
102.0880553094
 20
218.52401075
 30
0.0
 10
102.0351524348
 20
218.3383475583
 30
0.0
 10
101.8915127181
 20
218.1916290141
 30
0.0
 10
101.6881063273
 20
218.0981859694
 30
0.0
 10
101.5331114842
 20
218.0760043805
 30
0.0
 10
101.4531375674
 20
218.0738792978
 30
0.0
  0
SPLINE
  5
53F
100
AcDbEntity
  8
0
100
AcDbSpline
 62
7
  6
CONTINUOUS
 70
0
 71
3
 72
15
 73
11
 74
0
 42
0.0000001
 43
0.0000001
 44
0.0000000001
 40
0.0
 40
0.0
 40
0.0
 40
0.0
 40
0.3563891183
 40
0.5303081712
 40
0.6865756841
 40
0.814738134
 40
0.909387736
 40
0.9432498686
 40
0.9687548534
 40
1.0
 40
1.0
 40
1.0
 40
1.0
 10
101.505322689
 20
106.6446025695
 30
0.0
 10
101.691385281
 20
106.6443684557
 30
0.0
 10
101.9683567937
 20
106.6370711386
 30
0.0
 10
102.3258549607
 20
106.610189908
 30
0.0
 10
102.5636921816
 20
106.5832055119
 30
0.0
 10
102.7588951716
 20
106.5492824541
 30
0.0
 10
102.8888613652
 20
106.5166396326
 30
0.0
 10
102.9640485281
 20
106.4859896981
 30
0.0
 10
103.004293866
 20
106.463506127
 30
0.0
 10
103.0283028834
 20
106.4387615031
 30
0.0
 10
103.0292666244
 20
106.4224776091
 30
0.0
  0
SPLINE
  5
540
100
AcDbEntity
  8
0
100
AcDbSpline
 62
7
  6
CONTINUOUS
 70
0
 71
3
 72
9
 73
5
 74
0
 42
0.0000001
 43
0.0000001
 44
0.0000000001
 40
0.0
 40
0.0
 40
0.0
 40
0.0
 40
0.2965610311
 40
1.0
 40
1.0
 40
1.0
 40
1.0
 10
103.0292645942
 20
106.4224266389
 30
0.0
 10
103.02906314
 20
106.26495023
 30
0.0
 10
103.0277518981
 20
105.7339453548
 30
0.0
 10
103.0254443386
 20
105.2029257759
 30
0.0
 10
103.0202707843
 20
104.8294292741
 30
0.0
  0
SPLINE
  5
541
100
AcDbEntity
  8
0
100
AcDbSpline
 62
7
  6
CONTINUOUS
 70
0
 71
3
 72
9
 73
5
 74
0
 42
0.0000001
 43
0.0000001
 44
0.0000000001
 40
0.0
 40
0.0
 40
0.0
 40
0.0
 40
0.2960789019
 40
1.0
 40
1.0
 40
1.0
 40
1.0
 10
101.5053214829
 20
106.6446026137
 30
0.0
 10
101.5051190641
 20
106.5921863619
 30
0.0
 10
101.5037864951
 20
106.4151619524
 30
0.0
 10
101.5014307738
 20
106.2380967788
 30
0.0
 10
101.4963275891
 20
106.1135818921
 30
0.0
  0
SPLINE
  5
542
100
AcDbEntity
  8
0
100
AcDbSpline
 62
7
  6
CONTINUOUS
 70
0
 71
3
 72
11
 73
7
 74
0
 42
0.0000001
 43
0.0000001
 44
0.0000000001
 40
0.0
 40
0.0
 40
0.0
 40
0.0
 40
0.159206792
 40
0.2706810101
 40
0.4015634206
 40
1.0
 40
1.0
 40
1.0
 40
1.0
 10
101.4963354369
 20
106.1135783393
 30
0.0
 10
101.4937008777
 20
106.0979295786
 30
0.0
 10
101.468956534
 20
106.0777888988
 30
0.0
 10
101.4322161715
 20
106.0644946254
 30
0.0
 10
101.3500632783
 20
106.0447864821
 30
0.0
 10
101.2769520754
 20
106.0420250467
 30
0.0
 10
101.2173027372
 20
106.0420249631
 30
0.0
  0
SPLINE
  5
543
100
AcDbEntity
  8
0
100
AcDbSpline
 62
7
  6
CONTINUOUS
 70
0
 71
3
 72
9
 73
5
 74
0
 42
0.0000001
 43
0.0000001
 44
0.0000000001
 40
0.0
 40
0.0
 40
0.0
 40
0.0
 40
0.1586094555
 40
1.0
 40
1.0
 40
1.0
 40
1.0
 10
93.1721626521
 20
106.0420252947
 30
0.0
 10
93.1726577949
 20
106.0738800391
 30
0.0
 10
93.1744851243
 20
106.274735672
 30
0.0
 10
93.1748494973
 20
106.475598886
 30
0.0
 10
93.1749943567
 20
106.6446021048
 30
0.0
  0
SPLINE
  5
544
100
AcDbEntity
  8
0
100
AcDbSpline
 62
7
  6
CONTINUOUS
 70
0
 71
3
 72
15
 73
11
 74
0
 42
0.0000001
 43
0.0000001
 44
0.0000000001
 40
0.0
 40
0.0
 40
0.0
 40
0.0
 40
0.1347037364
 40
0.2632971599
 40
0.3841361384
 40
0.4990245199
 40
0.6141123549
 40
0.7355992423
 40
0.8650509826
 40
1.0
 40
1.0
 40
1.0
 40
1.0
 10
101.4960496138
 20
106.1135959423
 30
0.0
 10
101.5764658489
 20
106.1138756891
 30
0.0
 10
101.7351244223
 20
106.0862822686
 30
0.0
 10
101.9381487976
 20
105.9704834959
 30
0.0
 10
102.0799290703
 20
105.7976721291
 30
0.0
 10
102.1313029432
 20
105.5862385991
 30
0.0
 10
102.0794723702
 20
105.3760319377
 30
0.0
 10
101.9434492045
 20
105.1961292751
 30
0.0
 10
101.7326943992
 20
105.0891791111
 30
0.0
 10
101.5764968277
 20
105.0595040916
 30
0.0
 10
101.4963288092
 20
105.0515347595
 30
0.0
  0
SPLINE
  5
545
100
AcDbEntity
  8
0
100
AcDbSpline
 62
7
  6
CONTINUOUS
 70
0
 71
3
 72
9
 73
5
 74
0
 42
0.0000001
 43
0.0000001
 44
0.0000000001
 40
0.0
 40
0.0
 40
0.0
 40
0.0
 40
0.6102041717
 40
1.0
 40
1.0
 40
1.0
 40
1.0
 10
93.1664990738
 20
105.4394485848
 30
0.0
 10
93.1667095081
 20
105.5620164865
 30
0.0
 10
93.1678482754
 20
105.7628686602
 30
0.0
 10
93.1697239727
 20
105.9637474171
 30
0.0
 10
93.1721625994
 20
106.0420054002
 30
0.0
  0
SPLINE
  5
546
100
AcDbEntity
  8
0
100
AcDbSpline
 62
7
  6
CONTINUOUS
 70
0
 71
3
 72
9
 73
5
 74
0
 42
0.0000001
 43
0.0000001
 44
0.0000000001
 40
0.0
 40
0.0
 40
0.0
 40
0.0
 40
0.6102745231
 40
1.0
 40
1.0
 40
1.0
 40
1.0
 10
92.9125089016
 20
105.4764884715
 30
0.0
 10
92.9127138836
 20
105.6399301263
 30
0.0
 10
92.9139081612
 20
105.9077369885
 30
0.0
 10
92.915679792
 20
106.175567183
 30
0.0
 10
92.9181722839
 20
106.279912457
 30
0.0
  0
SPLINE
  5
547
100
AcDbEntity
  8
0
100
AcDbSpline
 62
7
  6
CONTINUOUS
 70
0
 71
3
 72
12
 73
8
 74
0
 42
0.0000001
 43
0.0000001
 44
0.0000000001
 40
0.0
 40
0.0
 40
0.0
 40
0.0
 40
0.3588974312
 40
0.6872908572
 40
0.9058820464
 40
0.9674113993
 40
1.0
 40
1.0
 40
1.0
 40
1.0
 10
93.1664992052
 20
105.4394486348
 30
0.0
 10
93.1353109145
 20
105.4394878592
 30
0.0
 10
93.0754473427
 20
105.4414484591
 30
0.0
 10
92.9974496058
 20
105.4477273933
 30
0.0
 10
92.9442931495
 20
105.4578180024
 30
0.0
 10
92.9198353904
 20
105.4673921307
 30
0.0
 10
92.9126624199
 20
105.473642212
 30
0.0
 10
92.912494875
 20
105.4764692126
 30
0.0
  0
SPLINE
  5
548
100
AcDbEntity
  8
0
100
AcDbSpline
 62
7
  6
CONTINUOUS
 70
0
 71
3
 72
12
 73
8
 74
0
 42
0.0000001
 43
0.0000001
 44
0.0000000001
 40
0.0
 40
0.0
 40
0.0
 40
0.0
 40
0.0324963927
 40
0.0938340403
 40
0.3120519202
 40
0.6405280666
 40
1.0
 40
1.0
 40
1.0
 40
1.0
 10
92.9210040242
 20
106.6816228523
 30
0.0
 10
92.9211709823
 20
106.6788039613
 30
0.0
 10
92.9283078644
 20
106.6725632412
 30
0.0
 10
92.9527135412
 20
106.6629891821
 30
0.0
 10
93.0058193584
 20
106.6528997048
 30
0.0
 10
93.0838395266
 20
106.6466085509
 30
0.0
 10
93.1437574338
 20
106.644641432
 30
0.0
 10
93.1749943526
 20
106.6446021245
 30
0.0
  0
SPLINE
  5
549
100
AcDbEntity
  8
0
100
AcDbSpline
 62
7
  6
CONTINUOUS
 70
0
 71
3
 72
10
 73
6
 74
0
 42
0.0000001
 43
0.0000001
 44
0.0000000001
 40
0.0
 40
0.0
 40
0.0
 40
0.0
 40
0.2519787161
 40
0.5155275912
 40
1.0
 40
1.0
 40
1.0
 40
1.0
 10
93.1721626511
 20
106.0420264608
 30
0.0
 10
93.1402975984
 20
106.0421177601
 30
0.0
 10
93.0749137431
 20
106.0556523114
 30
0.0
 10
92.9634662714
 20
106.1198269149
 30
0.0
 10
92.9183724212
 20
106.2186398277
 30
0.0
 10
92.9181723045
 20
106.2799057954
 30
0.0
  0
LINE
  5
54A
100
AcDbEntity
  8
0
100
AcDbLine
 62
7
  6
CONTINUOUS
 10
86.6092436506
 20
115.5881086023
 11
86.6090580314
 21
115.6187119517
  0
SPLINE
  5
54B
100
AcDbEntity
  8
0
100
AcDbSpline
 62
7
  6
CONTINUOUS
 70
0
 71
3
 72
9
 73
5
 74
0
 42
0.0000001
 43
0.0000001
 44
0.0000000001
 40
0.0
 40
0.0
 40
0.0
 40
0.0
 40
0.2985125925
 40
1.0
 40
1.0
 40
1.0
 40
1.0
 10
86.6090580314
 20
115.6187119517
 30
0.0
 10
86.6080046519
 20
115.7911494805
 30
0.0
 10
86.6039802844
 20
116.3688005333
 30
0.0
 10
86.5986171999
 20
116.9464530247
 30
0.0
 10
86.5919483319
 20
117.3516239723
 30
0.0
  0
LINE
  5
54C
100
AcDbEntity
  8
0
100
AcDbLine
 62
7
  6
CONTINUOUS
 10
86.5919483319
 20
117.3516239723
 11
86.591531979
 21
117.3766246015
  0
SPLINE
  5
54D
100
AcDbEntity
  8
0
100
AcDbSpline
 62
7
  6
CONTINUOUS
 70
0
 71
3
 72
11
 73
7
 74
0
 42
0.0000001
 43
0.0000001
 44
0.0000000001
 40
0.0
 40
0.0
 40
0.0
 40
0.0
 40
0.4004105112
 40
0.7027760915
 40
0.9032986298
 40
1.0
 40
1.0
 40
1.0
 40
1.0
 10
86.591531979
 20
117.3766246015
 30
0.0
 10
86.5901359293
 20
117.4594682288
 30
0.0
 10
86.5871957986
 20
117.6048194078
 30
0.0
 10
86.5831684524
 20
117.7918286717
 30
0.0
 10
86.5771756367
 20
117.9155195484
 30
0.0
 10
86.575099723
 20
117.9773072107
 30
0.0
 10
86.571295549
 20
117.9969523092
 30
0.0
  0
SPLINE
  5
54E
100
AcDbEntity
  8
0
100
AcDbSpline
 62
7
  6
CONTINUOUS
 70
0
 71
3
 72
16
 73
12
 74
0
 42
0.0000001
 43
0.0000001
 44
0.0000000001
 40
0.0
 40
0.0
 40
0.0
 40
0.0
 40
0.0340175366
 40
0.0486048312
 40
0.0703197769
 40
0.1024422373
 40
0.1981623726
 40
0.3358988074
 40
0.5155512395
 40
0.7369728432
 40
1.0
 40
1.0
 40
1.0
 40
1.0
 10
86.571295549
 20
117.9969523092
 30
0.0
 10
86.5709351977
 20
117.9988131962
 30
0.0
 10
86.5707542088
 20
118.0041874619
 30
0.0
 10
86.5671724278
 20
118.0002392749
 30
0.0
 10
86.5670030755
 20
117.9965977946
 30
0.0
 10
86.5653015367
 20
117.9883065805
 30
0.0
 10
86.5641811481
 20
117.9736141187
 30
0.0
 10
86.5623504038
 20
117.9506361826
 30
0.0
 10
86.5607475282
 20
117.9206665444
 30
0.0
 10
86.559043188
 20
117.8836978727
 30
0.0
 10
86.5580226368
 20
117.8567244839
 30
0.0
 10
86.5575009523
 20
117.842077907
 30
0.0
  0
SPLINE
  5
54F
100
AcDbEntity
  8
0
100
AcDbSpline
 62
7
  6
CONTINUOUS
 70
0
 71
3
 72
12
 73
8
 74
0
 42
0.0000001
 43
0.0000001
 44
0.0000000001
 40
0.0
 40
0.0
 40
0.0
 40
0.0
 40
0.0539373985
 40
0.1353158901
 40
0.3688703807
 40
0.6701985884
 40
1.0
 40
1.0
 40
1.0
 40
1.0
 10
86.5575009523
 20
117.842077907
 30
0.0
 10
86.5535890653
 20
117.7322495491
 30
0.0
 10
86.5476224843
 20
117.4565912452
 30
0.0
 10
86.5365446945
 20
116.705101685
 30
0.0
 10
86.5271562392
 20
115.4494797328
 30
0.0
 10
86.5205585453
 20
113.6876924215
 30
0.0
 10
86.5199874349
 20
112.4017552045
 30
0.0
 10
86.5207072795
 20
111.7297818288
 30
0.0
  0
SPLINE
  5
550
100
AcDbEntity
  8
0
100
AcDbSpline
 62
7
  6
CONTINUOUS
 70
0
 71
3
 72
12
 73
8
 74
0
 42
0.0000001
 43
0.0000001
 44
0.0000000001
 40
0.0
 40
0.0
 40
0.0
 40
0.0
 40
0.3874448566
 40
0.6926734342
 40
0.8982909054
 40
0.96360508
 40
1.0
 40
1.0
 40
1.0
 40
1.0
 10
93.1968451306
 20
123.6401370355
 30
0.0
 10
93.1631624727
 20
123.6401712497
 30
0.0
 10
93.1028050135
 20
123.6419942887
 30
0.0
 10
93.0253859009
 20
123.6489587528
 30
0.0
 10
92.9752290422
 20
123.6583761996
 30
0.0
 10
92.9508491209
 20
123.6672003467
 30
0.0
 10
92.9431443279
 20
123.6740000163
 30
0.0
 10
92.9429202098
 20
123.6771560759
 30
0.0
  0
SPLINE
  5
551
100
AcDbEntity
  8
0
100
AcDbSpline
 62
7
  6
CONTINUOUS
 70
0
 71
3
 72
12
 73
8
 74
0
 42
0.0000001
 43
0.0000001
 44
0.0000000001
 40
0.0
 40
0.0
 40
0.0
 40
0.0
 40
0.2351497729
 40
0.3563719133
 40
0.4802062457
 40
0.735695333
 40
1.0
 40
1.0
 40
1.0
 40
1.0
 10
92.6077145025
 20
126.8397030611
 30
0.0
 10
92.6047254758
 20
127.9915062525
 30
0.0
 10
92.9145321156
 20
129.7408009812
 30
0.0
 10
93.6929040134
 20
131.9598183661
 30
0.0
 10
94.687701693
 20
134.2037538517
 30
0.0
 10
96.1900135881
 20
136.9780908108
 30
0.0
 10
97.468845273
 20
139.1792561643
 30
0.0
 10
98.1138779591
 20
140.3017337789
 30
0.0
  0
SPLINE
  5
552
100
AcDbEntity
  8
0
100
AcDbSpline
 62
7
  6
CONTINUOUS
 70
0
 71
3
 72
11
 73
7
 74
0
 42
0.0000001
 43
0.0000001
 44
0.0000000001
 40
0.0
 40
0.0
 40
0.0
 40
0.0
 40
0.2348641959
 40
0.4881750941
 40
0.7479688889
 40
1.0
 40
1.0
 40
1.0
 40
1.0
 10
98.4191906795
 20
130.8634975275
 30
0.0
 10
97.8395915657
 20
130.8631465815
 30
0.0
 10
96.6275291443
 20
130.6772948196
 30
0.0
 10
94.9506187684
 20
129.8311747254
 30
0.0
 10
93.6085162554
 20
128.4538466228
 30
0.0
 10
93.0584094411
 20
127.2875067305
 30
0.0
 10
92.888261935
 20
126.6892686214
 30
0.0
  0
SPLINE
  5
553
100
AcDbEntity
  8
0
100
AcDbSpline
 62
7
  6
CONTINUOUS
 70
0
 71
3
 72
9
 73
5
 74
0
 42
0.0000001
 43
0.0000001
 44
0.0000000001
 40
0.0
 40
0.0
 40
0.0
 40
0.0
 40
0.2585413029
 40
1.0
 40
1.0
 40
1.0
 40
1.0
 10
92.888261935
 20
126.6892686214
 30
0.0
 10
92.8507077699
 20
126.5572282922
 30
0.0
 10
92.7236936051
 20
126.0415040571
 30
0.0
 10
92.667194934
 20
125.5084057183
 30
0.0
 10
92.6670395332
 20
125.1147154758
 30
0.0
  0
SPLINE
  5
554
100
AcDbEntity
  8
0
100
AcDbSpline
 62
7
  6
CONTINUOUS
 70
0
 71
3
 72
14
 73
10
 74
0
 42
0.0000001
 43
0.0000001
 44
0.0000000001
 40
0.0
 40
0.0
 40
0.0
 40
0.0
 40
0.0355771611
 40
0.0970757928
 40
0.1844548466
 40
0.2975446555
 40
0.4360385557
 40
0.5996033365
 40
1.0
 40
1.0
 40
1.0
 40
1.0
 10
92.6670395062
 20
125.1146734663
 30
0.0
 10
92.6630176462
 20
125.134749195
 30
0.0
 10
92.6577817711
 20
125.1905173422
 30
0.0
 10
92.6503199597
 20
125.2963256525
 30
0.0
 10
92.6432102346
 20
125.4469699383
 30
0.0
 10
92.6358263282
 20
125.6418866031
 30
0.0
 10
92.6285653454
 20
125.8807020507
 30
0.0
 10
92.6182401012
 20
126.2848304905
 30
0.0
 10
92.611827827
 20
126.6093305929
 30
0.0
 10
92.6077057966
 20
126.8397216415
 30
0.0
  0
SPLINE
  5
555
100
AcDbEntity
  8
0
100
AcDbSpline
 62
7
  6
CONTINUOUS
 70
0
 71
3
 72
15
 73
11
 74
0
 42
0.0000001
 43
0.0000001
 44
0.0000000001
 40
0.0
 40
0.0
 40
0.0
 40
0.0
 40
0.0350418156
 40
0.061648177
 40
0.0961918392
 40
0.1912598468
 40
0.3189723003
 40
0.4741895162
 40
0.6467074184
 40
1.0
 40
1.0
 40
1.0
 40
1.0
 10
92.6077141466
 20
126.8398199062
 30
0.0
 10
92.6068012093
 20
126.8213727638
 30
0.0
 10
92.584419933
 20
126.7921533449
 30
0.0
 10
92.5429307546
 20
126.7643614109
 30
0.0
 10
92.4683284076
 20
126.7280708371
 30
0.0
 10
92.3381647084
 20
126.6888786976
 30
0.0
 10
92.1428974625
 20
126.6484667968
 30
0.0
 10
91.9048696747
 20
126.6162271444
 30
0.0
 10
91.5472801158
 20
126.5841784433
 30
0.0
 10
91.2699757018
 20
126.5754576934
 30
0.0
 10
91.0837636781
 20
126.5751798988
 30
0.0
  0
SPLINE
  5
556
100
AcDbEntity
  8
0
100
AcDbSpline
 62
7
  6
CONTINUOUS
 70
0
 71
3
 72
13
 73
9
 74
0
 42
0.0000001
 43
0.0000001
 44
0.0000000001
 40
0.0
 40
0.0
 40
0.0
 40
0.0
 40
0.1245178444
 40
0.2491658443
 40
0.3739874338
 40
0.4989867128
 40
0.7492819011
 40
1.0
 40
1.0
 40
1.0
 40
1.0
 10
91.0837637977
 20
126.5751789932
 30
0.0
 10
91.0827769225
 20
127.2289985609
 30
0.0
 10
91.2012167432
 20
128.5396496032
 30
0.0
 10
91.6848778184
 20
130.4494395102
 30
0.0
 10
92.4171144715
 20
132.2795156244
 30
0.0
 10
93.6536156967
 20
134.6008458949
 30
0.0
 10
95.5645025381
 20
137.2885931771
 30
0.0
 10
97.2636925217
 20
139.2965974375
 30
0.0
 10
98.1138691006
 20
140.3017368767
 30
0.0
  0
SPLINE
  5
557
100
AcDbEntity
  8
0
100
AcDbSpline
 62
7
  6
CONTINUOUS
 70
0
 71
3
 72
9
 73
5
 74
0
 42
0.0000001
 43
0.0000001
 44
0.0000000001
 40
0.0
 40
0.0
 40
0.0
 40
0.0
 40
0.2512451157
 40
1.0
 40
1.0
 40
1.0
 40
1.0
 10
99.0423130196
 20
129.7349817531
 30
0.0
 10
98.989975605
 20
129.8293999809
 30
0.0
 10
98.7781219199
 20
130.2031533818
 30
0.0
 10
98.5624889097
 20
130.5753368498
 30
0.0
 10
98.419422994
 20
130.8634976916
 30
0.0
  0
SPLINE
  5
558
100
AcDbEntity
  8
0
100
AcDbSpline
 62
7
  6
CONTINUOUS
 70
0
 71
3
 72
11
 73
7
 74
0
 42
0.0000001
 43
0.0000001
 44
0.0000000001
 40
0.0
 40
0.0
 40
0.0
 40
0.0
 40
0.2586382874
 40
0.5276652782
 40
0.7792670019
 40
1.0
 40
1.0
 40
1.0
 40
1.0
 10
101.4960498909
 20
106.1136196645
 30
0.0
 10
101.6850774148
 20
106.1129011192
 30
0.0
 10
102.0732261393
 20
106.0507021874
 30
0.0
 10
102.585398729
 20
105.7735905562
 30
0.0
 10
102.9366164946
 20
105.3394686068
 30
0.0
 10
103.0193765955
 20
104.9906967904
 30
0.0
 10
103.0202529762
 20
104.8293738159
 30
0.0
  0
SPLINE
  5
559
100
AcDbEntity
  8
0
100
AcDbSpline
 62
7
  6
CONTINUOUS
 70
0
 71
3
 72
14
 73
10
 74
0
 42
0.0000001
 43
0.0000001
 44
0.0000000001
 40
0.0
 40
0.0
 40
0.0
 40
0.0
 40
0.0340893178
 40
0.0613705731
 40
0.0964977038
 40
0.190163805
 40
0.3131558575
 40
0.6292925613
 40
1.0
 40
1.0
 40
1.0
 40
1.0
 10
103.02027078
 20
104.8294102718
 30
0.0
 10
103.0192289985
 20
104.8471734529
 30
0.0
 10
102.9917841434
 20
104.8731309708
 30
0.0
 10
102.9485701822
 20
104.8959290348
 30
0.0
 10
102.8718698234
 20
104.9258325919
 30
0.0
 10
102.7444139074
 20
104.9574309798
 30
0.0
 10
102.4699295107
 20
105.0042175604
 30
0.0
 10
102.0483708447
 20
105.0409712305
 30
0.0
 10
101.6898279388
 20
105.0512912667
 30
0.0
 10
101.4963288092
 20
105.0515347596
 30
0.0
  0
SPLINE
  5
55A
100
AcDbEntity
  8
0
100
AcDbSpline
 62
7
  6
CONTINUOUS
 70
0
 71
3
 72
10
 73
6
 74
0
 42
0.0000001
 43
0.0000001
 44
0.0000000001
 40
0.0
 40
0.0
 40
0.0
 40
0.0
 40
0.096308613
 40
0.283516981
 40
1.0
 40
1.0
 40
1.0
 40
1.0
 10
92.8342647
 20
111.7294588176
 30
0.0
 10
92.8340470612
 20
111.7326056003
 30
0.0
 10
92.8261838764
 20
111.7398716811
 30
0.0
 10
92.7962350372
 20
111.7508586293
 30
0.0
 10
92.7663248266
 20
111.7560982067
 30
0.0
 10
92.7431027151
 20
111.7594743874
 30
0.0
  0
SPLINE
  5
55B
100
AcDbEntity
  8
0
100
AcDbSpline
 62
7
  6
CONTINUOUS
 70
0
 71
3
 72
10
 73
6
 74
0
 42
0.0000001
 43
0.0000001
 44
0.0000000001
 40
0.0
 40
0.0
 40
0.0
 40
0.0
 40
0.7142333994
 40
0.9015034956
 40
1.0
 40
1.0
 40
1.0
 40
1.0
 10
92.7317898111
 20
94.364594445
 30
0.0
 10
92.7531449356
 20
94.3612911278
 30
0.0
 10
92.7806170492
 20
94.35624775
 30
0.0
 10
92.808220205
 20
94.3455857056
 30
0.0
 10
92.8153079307
 20
94.3386697413
 30
0.0
 10
92.8155149821
 20
94.3356969354
 30
0.0
  0
SPLINE
  5
55C
100
AcDbEntity
  8
0
100
AcDbSpline
 62
7
  6
CONTINUOUS
 70
0
 71
3
 72
20
 73
16
 74
0
 42
0.0000001
 43
0.0000001
 44
0.0000000001
 40
0.0
 40
0.0
 40
0.0
 40
0.0
 40
0.0023393621
 40
0.0066683323
 40
0.0220400846
 40
0.0464956961
 40
0.0799222042
 40
0.1220185727
 40
0.1724105467
 40
0.2307076168
 40
0.2963682519
 40
0.4471451179
 40
0.6191527685
 40
0.8060161265
 40
1.0
 40
1.0
 40
1.0
 40
1.0
 10
87.9918902917
 20
84.1363606674
 30
0.0
 10
87.9915586007
 20
84.1350111079
 30
0.0
 10
87.9879419658
 20
84.1323950471
 30
0.0
 10
87.9759748333
 20
84.1280655527
 30
0.0
 10
87.9497534667
 20
84.1230488673
 30
0.0
 10
87.9068195131
 20
84.1175231036
 30
0.0
 10
87.8475691472
 20
84.1120338772
 30
0.0
 10
87.7729950106
 20
84.1066942151
 30
0.0
 10
87.6835487347
 20
84.1015901532
 30
0.0
 10
87.5800887348
 20
84.0967927022
 30
0.0
 10
87.4169946132
 20
84.0905833892
 30
0.0
 10
87.1863190447
 20
84.084172543
 30
0.0
 10
86.8836040762
 20
84.0786487625
 30
0.0
 10
86.5551897209
 20
84.0752325314
 30
0.0
 10
86.3289425747
 20
84.0744565346
 30
0.0
 10
86.2137043942
 20
84.0744616254
 30
0.0
  0
SPLINE
  5
55D
100
AcDbEntity
  8
0
100
AcDbSpline
 62
7
  6
CONTINUOUS
 70
0
 71
3
 72
10
 73
6
 74
0
 42
0.0000001
 43
0.0000001
 44
0.0000000001
 40
0.0
 40
0.0
 40
0.0
 40
0.0
 40
0.0970290065
 40
0.2842514544
 40
1.0
 40
1.0
 40
1.0
 40
1.0
 10
86.5394639103
 20
94.3356969029
 30
0.0
 10
86.5396789442
 20
94.3387849818
 30
0.0
 10
86.5472778876
 20
94.3459326338
 30
0.0
 10
86.5764315702
 20
94.3568121823
 30
0.0
 10
86.6055116396
 20
94.361985565
 30
0.0
 10
86.6280989601
 20
94.3653384842
 30
0.0
  0
SPLINE
  5
55E
100
AcDbEntity
  8
0
100
AcDbSpline
 62
7
  6
CONTINUOUS
 70
0
 71
3
 72
11
 73
7
 74
0
 42
0.0000001
 43
0.0000001
 44
0.0000000001
 40
0.0
 40
0.0
 40
0.0
 40
0.0
 40
0.2510399549
 40
0.5014503619
 40
0.7510108721
 40
1.0
 40
1.0
 40
1.0
 40
1.0
 10
81.1083164461
 20
85.8197167069
 30
0.0
 10
80.6879135631
 20
85.8198027091
 30
0.0
 10
79.8389826334
 20
85.9870748029
 30
0.0
 10
78.7664814437
 20
86.7024860512
 30
0.0
 10
78.0484005285
 20
87.7691272274
 30
0.0
 10
77.8799266624
 20
88.612957262
 30
0.0
 10
77.8792906557
 20
89.0299252609
 30
0.0
  0
SPLINE
  5
55F
100
AcDbEntity
  8
0
100
AcDbSpline
 62
7
  6
CONTINUOUS
 70
0
 71
3
 72
10
 73
6
 74
0
 42
0.0000001
 43
0.0000001
 44
0.0000000001
 40
0.0
 40
0.0
 40
0.0
 40
0.0
 40
0.714992441
 40
0.9022196142
 40
1.0
 40
1.0
 40
1.0
 40
1.0
 10
86.6067294526
 20
111.7587098588
 30
0.0
 10
86.58479793
 20
111.7553823916
 30
0.0
 10
86.5565753634
 20
111.7502769135
 30
0.0
 10
86.5282468554
 20
111.7395120828
 30
0.0
 10
86.5209234317
 20
111.7324851828
 30
0.0
 10
86.5207140356
 20
111.7294587997
 30
0.0
  0
SPLINE
  5
560
100
AcDbEntity
  8
0
100
AcDbSpline
 62
7
  6
CONTINUOUS
 70
0
 71
3
 72
11
 73
7
 74
0
 42
0.0000001
 43
0.0000001
 44
0.0000000001
 40
0.0
 40
0.0
 40
0.0
 40
0.0
 40
0.2570905151
 40
0.5242547852
 40
0.7725880985
 40
1.0
 40
1.0
 40
1.0
 40
1.0
 10
77.858650043
 20
105.0515347595
 30
0.0
 10
77.8599997398
 20
105.095810844
 30
0.0
 10
77.8769476423
 20
105.1858571388
 30
0.0
 10
77.931900584
 20
105.3082390867
 30
0.0
 10
78.0159835749
 20
105.40851247
 30
0.0
 10
78.098493246
 20
105.4394484875
 30
0.0
 10
78.1376762775
 20
105.4394484875
 30
0.0
  0
SPLINE
  5
561
100
AcDbEntity
  8
0
100
AcDbSpline
 62
7
  6
CONTINUOUS
 70
0
 71
3
 72
14
 73
10
 74
0
 42
0.0000001
 43
0.0000001
 44
0.0000000001
 40
0.0
 40
0.0
 40
0.0
 40
0.0
 40
0.2353986508
 40
0.3613888237
 40
0.4906874904
 40
0.6212020439
 40
0.7509302385
 40
0.8778060589
 40
1.0
 40
1.0
 40
1.0
 40
1.0
 10
98.3550018818
 20
204.920488561
 30
0.0
 10
97.7425958456
 20
204.9207940511
 30
0.0
 10
96.7936664155
 20
205.0770478655
 30
0.0
 10
95.6193626309
 20
205.5892155254
 30
0.0
 10
94.7786069608
 20
206.1477286694
 30
0.0
 10
94.0434659357
 20
206.8530248982
 30
0.0
 10
93.4491270978
 20
207.6727489759
 30
0.0
 10
93.0170892802
 20
208.5638845627
 30
0.0
 10
92.8381886935
 20
209.1904019334
 30
0.0
 10
92.7763813063
 20
209.5022316731
 30
0.0
  0
SPLINE
  5
562
100
AcDbEntity
  8
0
100
AcDbSpline
 62
7
  6
CONTINUOUS
 70
0
 71
3
 72
9
 73
5
 74
0
 42
0.0000001
 43
0.0000001
 44
0.0000000001
 40
0.0
 40
0.0
 40
0.0
 40
0.0
 40
0.2565118176
 40
1.0
 40
1.0
 40
1.0
 40
1.0
 10
92.7763813063
 20
209.5022316731
 30
0.0
 10
92.7579387941
 20
209.59527757
 30
0.0
 10
92.6950027226
 20
209.959727239
 30
0.0
 10
92.6671496328
 20
210.3302700398
 30
0.0
 10
92.6670541727
 20
210.605206021
 30
0.0
  0
SPLINE
  5
563
100
AcDbEntity
  8
0
100
AcDbSpline
 62
7
  6
CONTINUOUS
 70
0
 71
3
 72
13
 73
9
 74
0
 42
0.0000001
 43
0.0000001
 44
0.0000000001
 40
0.0
 40
0.0
 40
0.0
 40
0.0
 40
0.2660504311
 40
0.521700713
 40
0.6451910962
 40
0.7657775621
 40
0.8839206208
 40
1.0
 40
1.0
 40
1.0
 40
1.0
 10
98.1168970883
 20
196.4557799564
 30
0.0
 10
97.4738091376
 20
197.5491079135
 30
0.0
 10
96.1998604066
 20
199.6847476798
 30
0.0
 10
94.6963693419
 20
202.3715711501
 30
0.0
 10
93.7026047894
 20
204.5388914432
 30
0.0
 10
93.1128280161
 20
206.1649126851
 30
0.0
 10
92.7167610032
 20
207.8138414369
 30
0.0
 10
92.6177680427
 20
208.9323157342
 30
0.0
 10
92.6196328483
 20
209.4857384321
 30
0.0
  0
SPLINE
  5
564
100
AcDbEntity
  8
0
100
AcDbSpline
 62
7
  6
CONTINUOUS
 70
0
 71
3
 72
15
 73
11
 74
0
 42
0.0000001
 43
0.0000001
 44
0.0000000001
 40
0.0
 40
0.0
 40
0.0
 40
0.0
 40
0.1253563536
 40
0.2506908806
 40
0.3758989772
 40
0.5009811121
 40
0.6259140837
 40
0.7506967843
 40
0.8753946896
 40
1.0
 40
1.0
 40
1.0
 40
1.0
 10
81.1083164355
 20
84.0744616254
 30
0.0
 10
80.7975473387
 20
84.0745233003
 30
0.0
 10
80.1743651936
 20
84.1357727176
 30
0.0
 10
79.2769942014
 20
84.4074610496
 30
0.0
 10
78.4500192226
 20
84.8485395442
 30
0.0
 10
77.725531102
 20
85.4414506006
 30
0.0
 10
77.1312437499
 20
86.1634470989
 30
0.0
 10
76.6894877859
 20
86.9866620897
 30
0.0
 10
76.4173343921
 20
87.8792042882
 30
0.0
 10
76.3556404415
 20
88.498893688
 30
0.0
 10
76.355306717
 20
88.8078007104
 30
0.0
  0
SPLINE
  5
565
100
AcDbEntity
  8
0
100
AcDbSpline
 62
7
  6
CONTINUOUS
 70
0
 71
3
 72
14
 73
10
 74
0
 42
0.0000001
 43
0.0000001
 44
0.0000000001
 40
0.0
 40
0.0
 40
0.0
 40
0.0
 40
0.0321406249
 40
0.0584714108
 40
0.0933540179
 40
0.1903003126
 40
0.3203124851
 40
0.6499487785
 40
1.0
 40
1.0
 40
1.0
 40
1.0
 10
76.3553487484
 20
88.8078007134
 30
0.0
 10
76.3563407764
 20
88.8245487857
 30
0.0
 10
76.3815529063
 20
88.849770973
 30
0.0
 10
76.4231367684
 20
88.8725446804
 30
0.0
 10
76.5005769866
 20
88.9034923672
 30
0.0
 10
76.6332500104
 20
88.9362005296
 30
0.0
 10
76.9200079409
 20
88.9848687182
 30
0.0
 10
77.3417420138
 20
89.0198537205
 30
0.0
 10
77.6965218727
 20
89.0296947327
 30
0.0
 10
77.8792486877
 20
89.0299252751
 30
0.0
  0
SPLINE
  5
566
100
AcDbEntity
  8
0
100
AcDbSpline
 62
7
  6
CONTINUOUS
 70
0
 71
3
 72
20
 73
16
 74
0
 42
0.0000001
 43
0.0000001
 44
0.0000000001
 40
0.0
 40
0.0
 40
0.0
 40
0.0
 40
0.002345524
 40
0.006682059
 40
0.0220668537
 40
0.0465260793
 40
0.0799448943
 40
0.1220317427
 40
0.1724139664
 40
0.2307044293
 40
0.2963679273
 40
0.4471439066
 40
0.6191241329
 40
0.8059985582
 40
1.0
 40
1.0
 40
1.0
 40
1.0
 10
91.3630885605
 20
84.1363606674
 30
0.0
 10
91.3634260274
 20
84.1350087704
 30
0.0
 10
91.3670514777
 20
84.1323944975
 30
0.0
 10
91.3790357957
 20
84.1280613352
 30
0.0
 10
91.4052706799
 20
84.1230479149
 30
0.0
 10
91.4482106908
 20
84.1175209127
 30
0.0
 10
91.5074522798
 20
84.1120307986
 30
0.0
 10
91.5820103533
 20
84.1066907419
 30
0.0
 10
91.6714409685
 20
84.1015863627
 30
0.0
 10
91.7748927665
 20
84.0967891948
 30
0.0
 10
91.9379838916
 20
84.0905825137
 30
0.0
 10
92.1686439231
 20
84.0841743636
 30
0.0
 10
92.4713479939
 20
84.0786496114
 30
0.0
 10
92.7997623821
 20
84.0752328392
 30
0.0
 10
93.0260260711
 20
84.0744557936
 30
0.0
 10
93.141274449
 20
84.0744616254
 30
0.0
  0
SPLINE
  5
567
100
AcDbEntity
  8
0
100
AcDbSpline
 62
7
  6
CONTINUOUS
 70
0
 71
3
 72
14
 73
10
 74
0
 42
0.0000001
 43
0.0000001
 44
0.0000000001
 40
0.0
 40
0.0
 40
0.0
 40
0.0
 40
0.3155185522
 40
0.4756945844
 40
0.6253295355
 40
0.755439038
 40
0.8605691104
 40
0.9394474077
 40
1.0
 40
1.0
 40
1.0
 40
1.0
 10
77.9114266019
 20
222.0732800782
 30
0.0
 10
77.7334408951
 20
222.0737712992
 30
0.0
 10
77.4646265626
 20
222.0895879705
 30
0.0
 10
77.1162984208
 20
222.1468697324
 30
0.0
 10
76.8751884212
 20
222.2073787117
 30
0.0
 10
76.6716764228
 20
222.2847838679
 30
0.0
 10
76.5169063968
 20
222.3731994102
 30
0.0
 10
76.4165437416
 20
222.4714515381
 30
0.0
 10
76.3883541771
 20
222.5494322833
 30
0.0
 10
76.3875156515
 20
222.5835801615
 30
0.0
  0
SPLINE
  5
568
100
AcDbEntity
  8
0
100
AcDbSpline
 62
7
  6
CONTINUOUS
 70
0
 71
3
 72
11
 73
7
 74
0
 42
0.0000001
 43
0.0000001
 44
0.0000000001
 40
0.0
 40
0.0
 40
0.0
 40
0.0
 40
0.2531907173
 40
0.5040992158
 40
0.7527421401
 40
1.0
 40
1.0
 40
1.0
 40
1.0
 10
79.7596103788
 20
227.0886371555
 30
0.0
 10
79.2748010137
 20
226.9418885418
 30
0.0
 10
78.3495373291
 20
226.4920198626
 30
0.0
 10
77.2533493641
 20
225.4235580002
 30
0.0
 10
76.5509402973
 20
224.0771010395
 30
0.0
 10
76.3886070431
 20
223.0782421002
 30
0.0
 10
76.3874846315
 20
222.5835800295
 30
0.0
  0
SPLINE
  5
569
100
AcDbEntity
  8
0
100
AcDbSpline
 62
7
  6
CONTINUOUS
 70
0
 71
3
 72
22
 73
18
 74
0
 42
0.0000001
 43
0.0000001
 44
0.0000000001
 40
0.0
 40
0.0
 40
0.0
 40
0.0
 40
0.0024042818
 40
0.0065851296
 40
0.0128115931
 40
0.0211515006
 40
0.0442355669
 40
0.0758337109
 40
0.1158064093
 40
0.163941557
 40
0.21997528
 40
0.2835709881
 40
0.3543212366
 40
0.4317512619
 40
0.6043326041
 40
0.7959302321
 40
1.0
 40
1.0
 40
1.0
 40
1.0
 10
88.0857948869
 20
227.0080192878
 30
0.0
 10
88.0844267049
 20
227.0134254284
 30
0.0
 10
88.0715804674
 20
227.0243769155
 30
0.0
 10
88.0446879812
 20
227.035562624
 30
0.0
 10
88.0026082212
 20
227.0479260266
 30
0.0
 10
87.9173129545
 20
227.066039065
 30
0.0
 10
87.772440457
 20
227.0871512078
 30
0.0
 10
87.5541956859
 20
227.1105578986
 30
0.0
 10
87.2774438341
 20
227.1334716289
 30
0.0
 10
86.9438545212
 20
227.1556635579
 30
0.0
 10
86.5553012187
 20
227.1768465906
 30
0.0
 10
86.1141756111
 20
227.1968204724
 30
0.0
 10
85.6233212288
 20
227.215388853
 30
0.0
 10
84.8797015064
 20
227.2388714506
 30
0.0
 10
83.8556787367
 20
227.2628054959
 30
0.0
 10
82.5377985217
 20
227.2826183889
 30
0.0
 10
81.6200908468
 20
227.2897242781
 30
0.0
 10
81.1467682559
 20
227.291813924
 30
0.0
  0
SPLINE
  5
56A
100
AcDbEntity
  8
0
100
AcDbSpline
 62
7
  6
CONTINUOUS
 70
0
 71
3
 72
22
 73
18
 74
0
 42
0.0000001
 43
0.0000001
 44
0.0000000001
 40
0.0
 40
0.0
 40
0.0
 40
0.0
 40
0.2040560279
 40
0.3956667912
 40
0.5682112299
 40
0.645612572
 40
0.7163667003
 40
0.7799898866
 40
0.8360339918
 40
0.8841559586
 40
0.9241223359
 40
0.955735006
 40
0.9788429228
 40
0.9871873224
 40
0.9934153823
 40
0.9975966047
 40
1.0
 40
1.0
 40
1.0
 40
1.0
 10
98.2082105964
 20
227.291813924
 30
0.0
 10
97.7349203498
 20
227.2897244768
 30
0.0
 10
96.8172149295
 20
227.2826230331
 30
0.0
 10
95.4994232829
 20
227.262798447
 30
0.0
 10
94.475522794
 20
227.2388812139
 30
0.0
 10
93.7320473497
 20
227.2153876886
 30
0.0
 10
93.2411872103
 20
227.196821567
 30
0.0
 10
92.7999646249
 20
227.176859575
 30
0.0
 10
92.4113539953
 20
227.1556819709
 30
0.0
 10
92.0777868689
 20
227.1334806997
 30
0.0
 10
91.8010471258
 20
227.1105622629
 30
0.0
 10
91.5827283908
 20
227.0871575379
 30
0.0
 10
91.4377529818
 20
227.0660555273
 30
0.0
 10
91.3523914727
 20
227.0479226072
 30
0.0
 10
91.3102972605
 20
227.0355521532
 30
0.0
 10
91.2834036752
 20
227.0243680403
 30
0.0
 10
91.2705523889
 20
227.0134232403
 30
0.0
 10
91.2691839653
 20
227.0080192878
 30
0.0
  0
SPLINE
  5
56B
100
AcDbEntity
  8
0
100
AcDbSpline
 62
7
  6
CONTINUOUS
 70
0
 71
3
 72
18
 73
14
 74
0
 42
0.0000001
 43
0.0000001
 44
0.0000000001
 40
0.0
 40
0.0
 40
0.0
 40
0.0
 40
0.2023535808
 40
0.3908476409
 40
0.5605149878
 40
0.7071885367
 40
0.8271116399
 40
0.8760708686
 40
0.9172590807
 40
0.9504349665
 40
0.9753711544
 40
0.9919205899
 40
1.0
 40
1.0
 40
1.0
 40
1.0
 10
92.6476673012
 20
221.4857957175
 30
0.0
 10
92.6482318097
 20
221.7269014257
 30
0.0
 10
92.6496555944
 20
222.1925984981
 30
0.0
 10
92.6527935195
 20
222.860450599
 30
0.0
 10
92.6567841085
 20
223.4619545578
 30
0.0
 10
92.6615247231
 20
223.9817446083
 30
0.0
 10
92.666186469
 20
224.357709686
 30
0.0
 10
92.6704122112
 20
224.6079686478
 30
0.0
 10
92.6733828677
 20
224.7548953887
 30
0.0
 10
92.6766219175
 20
224.8731286996
 30
0.0
 10
92.6793304404
 20
224.9621456668
 30
0.0
 10
92.6830757984
 20
225.020911175
 30
0.0
 10
92.684543362
 20
225.0504558911
 30
0.0
 10
92.6868782795
 20
225.059795137
 30
0.0
  0
SPLINE
  5
56C
100
AcDbEntity
  8
0
100
AcDbSpline
 62
7
  6
CONTINUOUS
 70
0
 71
3
 72
13
 73
9
 74
0
 42
0.0000001
 43
0.0000001
 44
0.0000000001
 40
0.0
 40
0.0
 40
0.0
 40
0.0
 40
0.2515535344
 40
0.502280714
 40
0.6272399193
 40
0.7518202301
 40
0.876037342
 40
1.0
 40
1.0
 40
1.0
 40
1.0
 10
98.11684771
 20
196.4557481913
 30
0.0
 10
97.2672726671
 20
197.4375378872
 30
0.0
 10
95.5715213332
 20
199.3980614141
 30
0.0
 10
93.6625075311
 20
202.0259911287
 30
0.0
 10
92.4266318907
 20
204.2977203065
 30
0.0
 10
91.6950415171
 20
206.0879972072
 30
0.0
 10
91.2120198542
 20
207.9569851667
 30
0.0
 10
91.0942422657
 20
209.2403687967
 30
0.0
 10
91.0956649038
 20
209.880174457
 30
0.0
  0
SPLINE
  5
56D
100
AcDbEntity
  8
0
100
AcDbSpline
 62
7
  6
CONTINUOUS
 70
0
 71
3
 72
14
 73
10
 74
0
 42
0.0000001
 43
0.0000001
 44
0.0000000001
 40
0.0
 40
0.0
 40
0.0
 40
0.0
 40
0.3429572612
 40
0.5111484715
 40
0.6634967188
 40
0.7906351889
 40
0.8433327871
 40
0.8883409808
 40
1.0
 40
1.0
 40
1.0
 40
1.0
 10
91.0956649029
 20
209.8801740389
 30
0.0
 10
91.2820292392
 20
209.8797678284
 30
0.0
 10
91.5601493379
 20
209.8666367555
 30
0.0
 10
91.917657193
 20
209.8189786179
 30
0.0
 10
92.1564400872
 20
209.7703412967
 30
0.0
 10
92.3291034187
 20
209.7177504899
 30
0.0
 10
92.442088446
 20
209.6686599813
 30
0.0
 10
92.5395670945
 20
209.6159637209
 30
0.0
 10
92.6176575077
 20
209.5463750344
 30
0.0
 10
92.6196323634
 20
209.4857310831
 30
0.0
  0
SPLINE
  5
56E
100
AcDbEntity
  8
0
100
AcDbSpline
 62
7
  6
CONTINUOUS
 70
0
 71
3
 72
13
 73
9
 74
0
 42
0.0000001
 43
0.0000001
 44
0.0000000001
 40
0.0
 40
0.0
 40
0.0
 40
0.0
 40
0.2515534671
 40
0.5022813454
 40
0.627240937
 40
0.751821239
 40
0.8760380256
 40
1.0
 40
1.0
 40
1.0
 40
1.0
 10
81.2381822864
 20
196.4557524524
 30
0.0
 10
82.0878424146
 20
197.4374644416
 30
0.0
 10
83.7834252884
 20
199.3981313427
 30
0.0
 10
85.6924763395
 20
202.0260211271
 30
0.0
 10
86.9283640245
 20
204.297747385
 30
0.0
 10
87.6599292367
 20
206.0880296294
 30
0.0
 10
88.1429625144
 20
207.9570044195
 30
0.0
 10
88.260734915
 20
209.2403809594
 30
0.0
 10
88.2593139314
 20
209.8801817488
 30
0.0
  0
SPLINE
  5
56F
100
AcDbEntity
  8
0
100
AcDbSpline
 62
7
  6
CONTINUOUS
 70
0
 71
3
 72
21
 73
17
 74
0
 42
0.0000001
 43
0.0000001
 44
0.0000000001
 40
0.0
 40
0.0
 40
0.0
 40
0.0
 40
0.0031566913
 40
0.0083522202
 40
0.0156235268
 40
0.0249726091
 40
0.0498695188
 40
0.0829507877
 40
0.1240705659
 40
0.1729406515
 40
0.2292361639
 40
0.2926310004
 40
0.4391796687
 40
0.6088120073
 40
0.7973575174
 40
1.0
 40
1.0
 40
1.0
 40
1.0
 10
80.9999964725
 20
204.9204884779
 30
0.0
 10
81.0046851202
 20
204.9129060367
 30
0.0
 10
81.0117893421
 20
204.8900005349
 30
0.0
 10
81.0209744798
 20
204.8470268997
 30
0.0
 10
81.0300639756
 20
204.7859701947
 30
0.0
 10
81.04367547
 20
204.6695533875
 30
0.0
 10
81.0593096261
 20
204.4799778742
 30
0.0
 10
81.0767330947
 20
204.200667315
 30
0.0
 10
81.0936816926
 20
203.8534926141
 30
0.0
 10
81.1101943048
 20
203.4406903381
 30
0.0
 10
81.1261468266
 20
202.9649136609
 30
0.0
 10
81.1476479449
 20
202.2133197371
 30
0.0
 10
81.171934615
 20
201.1416062667
 30
0.0
 10
81.1972648934
 20
199.7164035554
 30
0.0
 10
81.2196419563
 20
198.1327165982
 30
0.0
 10
81.2322552201
 20
197.0280128805
 30
0.0
 10
81.2381816877
 20
196.4557502715
 30
0.0
  0
SPLINE
  5
570
100
AcDbEntity
  8
0
100
AcDbSpline
 62
7
  6
CONTINUOUS
 70
0
 71
3
 72
21
 73
17
 74
0
 42
0.0000001
 43
0.0000001
 44
0.0000000001
 40
0.0
 40
0.0
 40
0.0
 40
0.0
 40
0.2026422081
 40
0.3911876163
 40
0.5608200446
 40
0.7073689004
 40
0.7707638336
 40
0.8270594383
 40
0.8759296123
 40
0.9170494793
 40
0.9501308442
 40
0.9750278408
 40
0.9843769439
 40
0.9916482315
 40
0.9968436522
 40
1.0
 40
1.0
 40
1.0
 40
1.0
 10
98.1168456406
 20
196.4557502977
 30
0.0
 10
98.1227703661
 20
197.0280119336
 30
0.0
 10
98.1353752395
 20
198.1327142594
 30
0.0
 10
98.1577321516
 20
199.7164000913
 30
0.0
 10
98.183043982
 20
201.1416030885
 30
0.0
 10
98.2073192795
 20
202.2133174808
 30
0.0
 10
98.2288164168
 20
202.9649123035
 30
0.0
 10
98.2447688055
 20
203.4406895935
 30
0.0
 10
98.2612842915
 20
203.8534923725
 30
0.0
 10
98.2782389218
 20
204.200667425
 30
0.0
 10
98.2956720945
 20
204.4799781055
 30
0.0
 10
98.311314203
 20
204.6695533804
 30
0.0
 10
98.3249283912
 20
204.7859701517
 30
0.0
 10
98.3340172427
 20
204.8470264153
 30
0.0
 10
98.3431991857
 20
204.8899996685
 30
0.0
 10
98.3502977711
 20
204.9129046894
 30
0.0
 10
98.354982387
 20
204.9204884779
 30
0.0
  0
SPLINE
  5
571
100
AcDbEntity
  8
0
100
AcDbSpline
 62
7
  6
CONTINUOUS
 70
0
 71
3
 72
13
 73
9
 74
0
 42
0.0000001
 43
0.0000001
 44
0.0000000001
 40
0.0
 40
0.0
 40
0.0
 40
0.0
 40
0.1160761552
 40
0.2342173387
 40
0.3547975815
 40
0.4782868046
 40
0.7339572417
 40
1.0
 40
1.0
 40
1.0
 40
1.0
 10
86.7353468017
 20
209.4857648215
 30
0.0
 10
86.7372110841
 20
208.932357341
 30
0.0
 10
86.6382223055
 20
207.8139069101
 30
0.0
 10
86.2421687095
 20
206.1650306845
 30
0.0
 10
85.6524347482
 20
204.5390408957
 30
0.0
 10
84.6586567476
 20
202.3716581483
 30
0.0
 10
83.1551788546
 20
199.6847690497
 30
0.0
 10
81.8814347893
 20
197.5489373133
 30
0.0
 10
81.2381112121
 20
196.4557900257
 30
0.0
  0
SPLINE
  5
572
100
AcDbEntity
  8
0
100
AcDbSpline
 62
7
  6
CONTINUOUS
 70
0
 71
3
 72
14
 73
10
 74
0
 42
0.0000001
 43
0.0000001
 44
0.0000000001
 40
0.0
 40
0.0
 40
0.0
 40
0.0
 40
0.2353996751
 40
0.3613905822
 40
0.490689829
 40
0.6212046425
 40
0.7509326128
 40
0.8778075305
 40
1.0
 40
1.0
 40
1.0
 40
1.0
 10
80.9999962917
 20
204.9204888771
 30
0.0
 10
81.6124279116
 20
204.920796867
 30
0.0
 10
82.5613976117
 20
205.0770675057
 30
0.0
 10
83.7357403465
 20
205.5892821093
 30
0.0
 10
84.5765154487
 20
206.1478425384
 30
0.0
 10
85.311660255
 20
206.8531928313
 30
0.0
 10
85.905985705
 20
207.6729710931
 30
0.0
 10
86.3379938499
 20
208.5641550637
 30
0.0
 10
86.5168662769
 20
209.1906995218
 30
0.0
 10
86.5786583038
 20
209.5025405315
 30
0.0
  0
SPLINE
  5
573
100
AcDbEntity
  8
0
100
AcDbSpline
 62
7
  6
CONTINUOUS
 70
0
 71
3
 72
9
 73
5
 74
0
 42
0.0000001
 43
0.0000001
 44
0.0000000001
 40
0.0
 40
0.0
 40
0.0
 40
0.0
 40
0.2565100901
 40
1.0
 40
1.0
 40
1.0
 40
1.0
 10
86.5786583038
 20
209.5025405315
 30
0.0
 10
86.5970898017
 20
209.5955573364
 30
0.0
 10
86.6599890743
 20
209.9598944665
 30
0.0
 10
86.6878271701
 20
210.3303192658
 30
0.0
 10
86.6879245516
 20
210.6051688165
 30
0.0
  0
SPLINE
  5
574
100
AcDbEntity
  8
0
100
AcDbSpline
 62
7
  6
CONTINUOUS
 70
0
 71
3
 72
13
 73
9
 74
0
 42
0.0000001
 43
0.0000001
 44
0.0000000001
 40
0.0
 40
0.0
 40
0.0
 40
0.0
 40
0.0382123702
 40
0.1014212302
 40
0.1896321523
 40
0.3027476416
 40
0.6029376619
 40
1.0
 40
1.0
 40
1.0
 40
1.0
 10
86.6879246891
 20
210.605159206
 30
0.0
 10
86.6909235357
 20
210.5912022615
 30
0.0
 10
86.6952190392
 20
210.5534633888
 30
0.0
 10
86.701056681
 20
210.4829063404
 30
0.0
 10
86.7067717964
 20
210.3842164425
 30
0.0
 10
86.7154273989
 20
210.1970693626
 30
0.0
 10
86.7254165205
 20
209.8944756317
 30
0.0
 10
86.731991893
 20
209.6340801964
 30
0.0
 10
86.7353718646
 20
209.4857830756
 30
0.0
  0
SPLINE
  5
575
100
AcDbEntity
  8
0
100
AcDbSpline
 62
7
  6
CONTINUOUS
 70
0
 71
3
 72
14
 73
10
 74
0
 42
0.0000001
 43
0.0000001
 44
0.0000000001
 40
0.0
 40
0.0
 40
0.0
 40
0.0
 40
0.1116589143
 40
0.1566670626
 40
0.2093646136
 40
0.3365030023
 40
0.4888512137
 40
0.6570424548
 40
1.0
 40
1.0
 40
1.0
 40
1.0
 10
86.7353475527
 20
209.4857386329
 30
0.0
 10
86.7373223776
 20
209.5463824881
 30
0.0
 10
86.8154125981
 20
209.6159711236
 30
0.0
 10
86.9128910716
 20
209.6686673416
 30
0.0
 10
87.0258759177
 20
209.7177578222
 30
0.0
 10
87.1985390378
 20
209.7703486124
 30
0.0
 10
87.4373217185
 20
209.8189859393
 30
0.0
 10
87.7948294808
 20
209.8666441216
 30
0.0
 10
88.0729495662
 20
209.8797752239
 30
0.0
 10
88.2593139338
 20
209.8801814573
 30
0.0
  0
SPLINE
  5
576
100
AcDbEntity
  8
0
100
AcDbSpline
 62
7
  6
CONTINUOUS
 70
0
 71
3
 72
18
 73
14
 74
0
 42
0.0000001
 43
0.0000001
 44
0.0000000001
 40
0.0
 40
0.0
 40
0.0
 40
0.0
 40
0.0080796614
 40
0.0246289071
 40
0.049564868
 40
0.0827406932
 40
0.1239289339
 40
0.1728881837
 40
0.2928112545
 40
0.4394848192
 40
0.6091521856
 40
0.7976463894
 40
1.0
 40
1.0
 40
1.0
 40
1.0
 10
86.6681005727
 20
225.059795137
 30
0.0
 10
86.6704355452
 20
225.0504555961
 30
0.0
 10
86.671903403
 20
225.0209108426
 30
0.0
 10
86.6756484252
 20
224.9621454931
 30
0.0
 10
86.6783568993
 20
224.8731291062
 30
0.0
 10
86.6815959179
 20
224.7548960979
 30
0.0
 10
86.6845666394
 20
224.6079693727
 30
0.0
 10
86.6887924062
 20
224.357710389
 30
0.0
 10
86.6934541084
 20
223.9817453048
 30
0.0
 10
86.698194816
 20
223.4619552497
 30
0.0
 10
86.7021851648
 20
222.8604510742
 30
0.0
 10
86.705323405
 20
222.1925987433
 30
0.0
 10
86.706747499
 20
221.726901463
 30
0.0
 10
86.707311551
 20
221.4857957175
 30
0.0
  0
SPLINE
  5
577
100
AcDbEntity
  8
0
100
AcDbSpline
 62
7
  6
CONTINUOUS
 70
0
 71
3
 72
14
 73
10
 74
0
 42
0.0000001
 43
0.0000001
 44
0.0000000001
 40
0.0
 40
0.0
 40
0.0
 40
0.0
 40
0.0861350414
 40
0.169673494
 40
0.3236070973
 40
0.4600004955
 40
0.5825528775
 40
0.8000297739
 40
1.0
 40
1.0
 40
1.0
 40
1.0
 10
80.5566597748
 20
205.9128811759
 30
0.0
 10
80.8147197207
 20
205.9132903734
 30
0.0
 10
81.3237316098
 20
205.9438914342
 30
0.0
 10
82.2785890825
 20
206.1227022724
 30
0.0
 10
83.3378244053
 20
206.517556377
 30
0.0
 10
84.3855015412
 20
207.1913197581
 30
0.0
 10
85.4183097807
 20
208.1868795166
 30
0.0
 10
86.2648656644
 20
209.6069161473
 30
0.0
 10
86.5010753643
 20
210.8638941304
 30
0.0
 10
86.5087304985
 20
211.4629552907
 30
0.0
  0
LINE
  5
578
100
AcDbEntity
  8
0
100
AcDbLine
 62
7
  6
CONTINUOUS
 10
80.3904848853
 20
205.9129671622
 11
80.5566597748
 21
205.9128806332
  0
SPLINE
  5
579
100
AcDbEntity
  8
0
100
AcDbSpline
 62
7
  6
CONTINUOUS
 70
0
 71
3
 72
11
 73
7
 74
0
 42
0.0000001
 43
0.0000001
 44
0.0000000001
 40
0.0
 40
0.0
 40
0.0
 40
0.0
 40
0.2426099529
 40
0.489234537
 40
0.7421644074
 40
1.0
 40
1.0
 40
1.0
 40
1.0
 10
78.7693749791
 20
204.4100166536
 30
0.0
 10
78.7699702565
 20
204.6012222226
 30
0.0
 10
78.8476916347
 20
204.9906125839
 30
0.0
 10
79.1802433011
 20
205.489299404
 30
0.0
 10
79.6874943577
 20
205.8315867832
 30
0.0
 10
80.0946125947
 20
205.9129836997
 30
0.0
 10
80.2978187402
 20
205.9128774821
 30
0.0
  0
SPLINE
  5
57A
100
AcDbEntity
  8
0
100
AcDbSpline
 62
7
  6
CONTINUOUS
 70
0
 71
3
 72
21
 73
17
 74
0
 42
0.0000001
 43
0.0000001
 44
0.0000000001
 40
0.0
 40
0.0
 40
0.0
 40
0.0
 40
0.0028457456
 40
0.0079808243
 40
0.0153951948
 40
0.0250751224
 40
0.0511465571
 40
0.0859443434
 40
0.129163646
 40
0.1803944219
 40
0.2391770161
 40
0.304958533
 40
0.4550611045
 40
0.6251873881
 40
0.8090861129
 40
1.0
 40
1.0
 40
1.0
 40
1.0
 10
80.5210403249
 20
204.9204884779
 30
0.0
 10
80.523116336
 20
204.9098527622
 30
0.0
 10
80.5255178854
 20
204.8794658946
 30
0.0
 10
80.5292078293
 20
204.8210154558
 30
0.0
 10
80.532609177
 20
204.7364027356
 30
0.0
 10
80.5379595237
 20
204.5721329953
 30
0.0
 10
80.5439866486
 20
204.3035368175
 30
0.0
 10
80.5507466232
 20
203.9072369386
 30
0.0
 10
80.5572299886
 20
203.4151080052
 30
0.0
 10
80.5634338363
 20
202.8316403863
 30
0.0
 10
80.5692455062
 20
202.1622483538
 30
0.0
 10
80.5767379623
 20
201.1163603628
 30
0.0
 10
80.584454107
 20
199.6464743761
 30
0.0
 10
80.591107699
 20
197.7267969112
 30
0.0
 10
80.5952115291
 20
195.6517048753
 30
0.0
 10
80.5961227311
 20
194.2244402264
 30
0.0
 10
80.59612819
 20
193.4974513251
 30
0.0
  0
SPLINE
  5
57B
100
AcDbEntity
  8
0
100
AcDbSpline
 62
7
  6
CONTINUOUS
 70
0
 71
3
 72
21
 73
17
 74
0
 42
0.0000001
 43
0.0000001
 44
0.0000000001
 40
0.0
 40
0.0
 40
0.0
 40
0.0
 40
0.0028512577
 40
0.0079888461
 40
0.0154044919
 40
0.0250850298
 40
0.0511569054
 40
0.0859545696
 40
0.1291733949
 40
0.1804034655
 40
0.2391850573
 40
0.304965393
 40
0.4550651335
 40
0.6251885369
 40
0.8090857837
 40
1.0
 40
1.0
 40
1.0
 40
1.0
 10
78.9970859548
 20
203.3974230275
 30
0.0
 10
78.9991529248
 20
203.388243032
 30
0.0
 10
79.0015656715
 20
203.361884678
 30
0.0
 10
79.0052489899
 20
203.3112447377
 30
0.0
 10
79.0086550231
 20
203.2379098813
 30
0.0
 10
79.014004567
 20
203.0955634142
 30
0.0
 10
79.0200330486
 20
202.8627906195
 30
0.0
 10
79.0267919234
 20
202.5193473085
 30
0.0
 10
79.0332755267
 20
202.0928488578
 30
0.0
 10
79.0394794417
 20
201.5871908983
 30
0.0
 10
79.0452912153
 20
201.0070645124
 30
0.0
 10
79.0527836976
 20
200.1006474064
 30
0.0
 10
79.0605000183
 20
198.8267673022
 30
0.0
 10
79.0671544503
 20
197.1630644061
 30
0.0
 10
79.0712571187
 20
195.3646555564
 30
0.0
 10
79.0721724265
 20
194.1276897133
 30
0.0
 10
79.0721751938
 20
193.4976280703
 30
0.0
  0
SPLINE
  5
57C
100
AcDbEntity
  8
0
100
AcDbSpline
 62
7
  6
CONTINUOUS
 70
0
 71
3
 72
9
 73
5
 74
0
 42
0.0000001
 43
0.0000001
 44
0.0000000001
 40
0.0
 40
0.0
 40
0.0
 40
0.0
 40
0.2664467597
 40
1.0
 40
1.0
 40
1.0
 40
1.0
 10
79.0721751938
 20
142.2863709527
 30
0.0
 10
79.0721749873
 20
141.7648984045
 30
0.0
 10
79.070918782
 20
139.8077632457
 30
0.0
 10
79.0653336108
 20
137.8506259904
 30
0.0
 10
79.0570345769
 20
136.4149865152
 30
0.0
  0
SPLINE
  5
57D
100
AcDbEntity
  8
0
100
AcDbSpline
 62
7
  6
CONTINUOUS
 70
0
 71
3
 72
18
 73
14
 74
0
 42
0.0000001
 43
0.0000001
 44
0.0000000001
 40
0.0
 40
0.0
 40
0.0
 40
0.0
 40
0.2134155739
 40
0.4056333791
 40
0.5742387995
 40
0.717068275
 40
0.8323292789
 40
0.8791448472
 40
0.9185586932
 40
0.9504338241
 40
0.9746677931
 40
0.9912032056
 40
1.0
 40
1.0
 40
1.0
 40
1.0
 10
79.0570345769
 20
136.4149865152
 30
0.0
 10
79.0553776273
 20
136.1283528744
 30
0.0
 10
79.0518788658
 20
135.5835576976
 30
0.0
 10
79.0456765988
 20
134.8123223549
 30
0.0
 10
79.0388753628
 20
134.1358995626
 30
0.0
 10
79.0315551362
 20
133.5628516253
 30
0.0
 10
79.0247993277
 20
133.1533832926
 30
0.0
 10
79.0189523736
 20
132.8828282861
 30
0.0
 10
79.0148662689
 20
132.7242448936
 30
0.0
 10
79.0106331588
 20
132.5960409974
 30
0.0
 10
79.0067403103
 20
132.4984888891
 30
0.0
 10
79.0022985523
 20
132.4321722647
 30
0.0
 10
78.9996797642
 20
132.3980902227
 30
0.0
 10
78.9970860566
 20
132.3865634592
 30
0.0
  0
SPLINE
  5
57E
100
AcDbEntity
  8
0
100
AcDbSpline
 62
7
  6
CONTINUOUS
 70
0
 71
3
 72
15
 73
11
 74
0
 42
0.0000001
 43
0.0000001
 44
0.0000000001
 40
0.0
 40
0.0
 40
0.0
 40
0.0
 40
0.3672230005
 40
0.5338514279
 40
0.6810049449
 40
0.8036078871
 40
0.8977256636
 40
0.9335196104
 40
0.9618929656
 40
1.0
 40
1.0
 40
1.0
 40
1.0
 10
91.1398711089
 20
90.1129506547
 30
0.0
 10
91.3333979891
 20
90.1132394708
 30
0.0
 10
91.6149060251
 20
90.1225080635
 30
0.0
 10
91.9723856541
 20
90.1552305885
 30
0.0
 10
92.2002859039
 20
90.1868301569
 30
0.0
 10
92.3883808867
 20
90.2251394274
 30
0.0
 10
92.5161460491
 20
90.2630030956
 30
0.0
 10
92.5923855544
 20
90.298466887
 30
0.0
 10
92.6371223471
 20
90.3266786559
 30
0.0
 10
92.6628204245
 20
90.3575325305
 30
0.0
 10
92.6638130783
 20
90.3775904493
 30
0.0
  0
SPLINE
  5
57F
100
AcDbEntity
  8
0
100
AcDbSpline
 62
7
  6
CONTINUOUS
 70
0
 71
3
 72
18
 73
14
 74
0
 42
0.0000001
 43
0.0000001
 44
0.0000000001
 40
0.0
 40
0.0
 40
0.0
 40
0.0
 40
0.198871641
 40
0.3860421355
 40
0.5558866984
 40
0.7036388081
 40
0.8249790561
 40
0.8746234521
 40
0.9164121762
 40
0.9500651961
 40
0.9753180664
 40
0.9919983581
 40
1.0
 40
1.0
 40
1.0
 40
1.0
 10
91.1398710445
 20
90.112950655
 30
0.0
 10
91.1402779956
 20
89.7653319891
 30
0.0
 10
91.1414486367
 20
89.0905480499
 30
0.0
 10
91.1443519445
 20
88.1188867484
 30
0.0
 10
91.1482692744
 20
87.2365835673
 30
0.0
 10
91.1530875779
 20
86.4693575484
 30
0.0
 10
91.1579196946
 20
85.9122353232
 30
0.0
 10
91.1623632467
 20
85.5403496105
 30
0.0
 10
91.1654890056
 20
85.3217120892
 30
0.0
 10
91.168959586
 20
85.145774031
 30
0.0
 10
91.1717563608
 20
85.013590058
 30
0.0
 10
91.1759009875
 20
84.9265659716
 30
0.0
 10
91.1772674691
 20
84.8832256971
 30
0.0
 10
91.1798773158
 20
84.8694848305
 30
0.0
  0
LINE
  5
580
100
AcDbEntity
  8
0
100
AcDbLine
 62
7
  6
CONTINUOUS
 10
78.9280689544
 20
142.4251044762
 11
78.9280826467
 21
142.2853988781
  0
SPLINE
  5
581
100
AcDbEntity
  8
0
100
AcDbSpline
 62
7
  6
CONTINUOUS
 70
0
 71
3
 72
12
 73
8
 74
0
 42
0.0000001
 43
0.0000001
 44
0.0000000001
 40
0.0
 40
0.0
 40
0.0
 40
0.0
 40
0.3394062757
 40
0.6394533843
 40
0.8678568609
 40
0.947119835
 40
1.0
 40
1.0
 40
1.0
 40
1.0
 10
78.9280826467
 20
142.2853988781
 30
0.0
 10
78.9282042813
 20
141.6432621164
 30
0.0
 10
78.9298739904
 20
140.4334518576
 30
0.0
 10
78.9369107237
 20
138.7915352303
 30
0.0
 10
78.9457847189
 20
137.6417965508
 30
0.0
 10
78.9557030056
 20
136.9597398839
 30
0.0
 10
78.9609867031
 20
136.7097768025
 30
0.0
 10
78.964379914
 20
136.6097881902
 30
0.0
  0
SPLINE
  5
582
100
AcDbEntity
  8
0
100
AcDbSpline
 62
7
  6
CONTINUOUS
 70
0
 71
3
 72
19
 73
15
 74
0
 42
0.0000001
 43
0.0000001
 44
0.0000000001
 40
0.0
 40
0.0
 40
0.0
 40
0.0
 40
0.2236419659
 40
0.3858739936
 40
0.4438602862
 40
0.48638993
 40
0.5134843699
 40
0.5254456994
 40
0.5317881049
 40
0.5524426219
 40
0.5884740673
 40
0.6399595195
 40
0.7892306466
 40
1.0
 40
1.0
 40
1.0
 40
1.0
 10
78.964379914
 20
136.6097881902
 30
0.0
 10
78.9651219155
 20
136.587923443
 30
0.0
 10
78.9665412193
 20
136.5503525952
 30
0.0
 10
78.9687155873
 20
136.5065612128
 30
0.0
 10
78.9705942941
 20
136.4814927488
 30
0.0
 10
78.9718207398
 20
136.4680921648
 30
0.0
 10
78.972959729
 20
136.4620739939
 30
0.0
 10
78.9740964983
 20
136.4550551684
 30
0.0
 10
78.9772670356
 20
136.4589521628
 30
0.0
 10
78.9770624892
 20
136.4648252961
 30
0.0
 10
78.9790337015
 20
136.4754624164
 30
0.0
 10
78.9804417553
 20
136.498473863
 30
0.0
 10
78.9829801613
 20
136.5387366313
 30
0.0
 10
78.9842502459
 20
136.5739070974
 30
0.0
 10
78.9849886066
 20
136.5945119683
 30
0.0
  0
LINE
  5
583
100
AcDbEntity
  8
0
100
AcDbLine
 62
7
  6
CONTINUOUS
 10
78.9849886066
 20
136.5945119683
 11
78.9852665982
 21
136.6023828356
  0
LINE
  5
584
100
AcDbEntity
  8
0
100
AcDbLine
 62
7
  6
CONTINUOUS
 10
78.9852665982
 20
136.6023828356
 11
78.9855736141
 21
136.6113393134
  0
SPLINE
  5
585
100
AcDbEntity
  8
0
100
AcDbSpline
 62
7
  6
CONTINUOUS
 70
0
 71
3
 72
9
 73
5
 74
0
 42
0.0000001
 43
0.0000001
 44
0.0000000001
 40
0.0
 40
0.0
 40
0.0
 40
0.0
 40
0.3856334196
 40
1.0
 40
1.0
 40
1.0
 40
1.0
 10
78.9855736141
 20
136.6113393134
 30
0.0
 10
78.9904291835
 20
136.755184938
 30
0.0
 10
78.9970357554
 20
137.1283757519
 30
0.0
 10
79.0016146331
 20
137.5015631774
 30
0.0
 10
79.0039076036
 20
137.730847913
 30
0.0
  0
LINE
  5
586
100
AcDbEntity
  8
0
100
AcDbLine
 62
7
  6
CONTINUOUS
 10
79.0039076036
 20
137.730847913
 11
79.0041660679
 21
137.7568812084
  0
SPLINE
  5
587
100
AcDbEntity
  8
0
100
AcDbSpline
 62
7
  6
CONTINUOUS
 70
0
 71
3
 72
9
 73
5
 74
0
 42
0.0000001
 43
0.0000001
 44
0.0000000001
 40
0.0
 40
0.0
 40
0.0
 40
0.0
 40
0.2151254553
 40
1.0
 40
1.0
 40
1.0
 40
1.0
 10
79.0041660679
 20
137.7568812084
 30
0.0
 10
79.0056031567
 20
137.9026816756
 30
0.0
 10
79.0114797928
 20
138.5804357956
 30
0.0
 10
79.0149608227
 20
139.2582087022
 30
0.0
 10
79.0170167017
 20
139.7901763356
 30
0.0
  0
LINE
  5
588
100
AcDbEntity
  8
0
100
AcDbLine
 62
7
  6
CONTINUOUS
 10
79.0170167017
 20
139.7901763356
 11
79.0171924463
 21
139.8361487412
  0
LINE
  5
589
100
AcDbEntity
  8
0
100
AcDbLine
 62
7
  6
CONTINUOUS
 10
79.0218194246
 20
142.2857479971
 11
79.0218320667
 21
142.425035872
  0
LINE
  5
58A
100
AcDbEntity
  8
0
100
AcDbLine
 62
7
  6
CONTINUOUS
 10
79.0172486033
 20
144.9990732561
 11
79.0170682122
 21
145.0465806417
  0
SPLINE
  5
58B
100
AcDbEntity
  8
0
100
AcDbSpline
 62
7
  6
CONTINUOUS
 70
0
 71
3
 72
9
 73
5
 74
0
 42
0.0000001
 43
0.0000001
 44
0.0000000001
 40
0.0
 40
0.0
 40
0.0
 40
0.0
 40
0.2811952033
 40
1.0
 40
1.0
 40
1.0
 40
1.0
 10
79.0170682122
 20
145.0465806417
 30
0.0
 10
79.0163406765
 20
145.2360332184
 30
0.0
 10
79.013385123
 20
145.9097718144
 30
0.0
 10
79.0091224159
 20
146.5835072912
 30
0.0
 10
79.0044154854
 20
147.0677758392
 30
0.0
  0
LINE
  5
58C
100
AcDbEntity
  8
0
100
AcDbLine
 62
7
  6
CONTINUOUS
 10
79.0044154854
 20
147.0677758392
 11
79.0040917926
 21
147.1007773425
  0
SPLINE
  5
58D
100
AcDbEntity
  8
0
100
AcDbSpline
 62
7
  6
CONTINUOUS
 70
0
 71
3
 72
9
 73
5
 74
0
 42
0.0000001
 43
0.0000001
 44
0.0000000001
 40
0.0
 40
0.0
 40
0.0
 40
0.0
 40
0.6128006355
 40
1.0
 40
1.0
 40
1.0
 40
1.0
 10
79.0040917926
 20
147.1007773425
 30
0.0
 10
79.0018052462
 20
147.3317843079
 30
0.0
 10
78.9972406311
 20
147.7087368151
 30
0.0
 10
78.9906239318
 20
148.0856904017
 30
0.0
 10
78.9858145271
 20
148.2315805347
 30
0.0
  0
LINE
  5
58E
100
AcDbEntity
  8
0
100
AcDbLine
 62
7
  6
CONTINUOUS
 10
78.9858145271
 20
148.2315805347
 11
78.9855211077
 21
148.2403539295
  0
LINE
  5
58F
100
AcDbEntity
  8
0
100
AcDbLine
 62
7
  6
CONTINUOUS
 10
78.9855211077
 20
148.2403539295
 11
78.9852552347
 21
148.2480843974
  0
SPLINE
  5
590
100
AcDbEntity
  8
0
100
AcDbSpline
 62
7
  6
CONTINUOUS
 70
0
 71
3
 72
9
 73
5
 74
0
 42
0.0000001
 43
0.0000001
 44
0.0000000001
 40
0.0
 40
0.0
 40
0.0
 40
0.0
 40
0.4994466419
 40
1.0
 40
1.0
 40
1.0
 40
1.0
 10
78.9852552347
 20
148.2480843974
 30
0.0
 10
78.9835556563
 20
148.2968366774
 30
0.0
 10
78.9749246296
 20
148.4914046768
 30
0.0
 10
78.966335626
 20
148.296619667
 30
0.0
 10
78.9646344223
 20
148.247759283
 30
0.0
  0
SPLINE
  5
591
100
AcDbEntity
  8
0
100
AcDbSpline
 62
7
  6
CONTINUOUS
 70
0
 71
3
 72
12
 73
8
 74
0
 42
0.0000001
 43
0.0000001
 44
0.0000000001
 40
0.0
 40
0.0
 40
0.0
 40
0.0
 40
0.0520548447
 40
0.1309879061
 40
0.3598353984
 40
0.6607918023
 40
1.0
 40
1.0
 40
1.0
 40
1.0
 10
78.9646344223
 20
148.247759283
 30
0.0
 10
78.9611187084
 20
148.1467842346
 30
0.0
 10
78.9557351881
 20
147.892585878
 30
0.0
 10
78.9455806378
 20
147.1942399632
 30
0.0
 10
78.9366164156
 20
146.0127254071
 30
0.0
 10
78.9295940907
 20
144.3260277872
 30
0.0
 10
78.9280723675
 20
143.0834931266
 30
0.0
 10
78.9280689544
 20
142.4251044762
 30
0.0
  0
LINE
  5
592
100
AcDbEntity
  8
0
100
AcDbLine
 62
7
  6
CONTINUOUS
 10
78.952490312
 20
180.0787432092
 11
78.9523506681
 21
180.1248300698
  0
LINE
  5
593
100
AcDbEntity
  8
0
100
AcDbLine
 62
7
  6
CONTINUOUS
 10
78.9523506681
 20
180.1248300698
 11
78.9522032742
 21
180.1730332331
  0
SPLINE
  5
594
100
AcDbEntity
  8
0
100
AcDbSpline
 62
7
  6
CONTINUOUS
 70
0
 71
3
 72
9
 73
5
 74
0
 42
0.0000001
 43
0.0000001
 44
0.0000000001
 40
0.0
 40
0.0
 40
0.0
 40
0.0
 40
0.2701568406
 40
1.0
 40
1.0
 40
1.0
 40
1.0
 10
78.9522032742
 20
180.1730332331
 30
0.0
 10
78.9508002009
 20
180.6297654644
 30
0.0
 10
78.9449082312
 20
182.3203817684
 30
0.0
 10
78.9363095732
 20
184.0109906336
 30
0.0
 10
78.9275146147
 20
185.2448516706
 30
0.0
  0
LINE
  5
595
100
AcDbEntity
  8
0
100
AcDbLine
 62
7
  6
CONTINUOUS
 10
78.8948630418
 20
188.5512504308
 11
78.889526054
 21
188.9107772208
  0
LINE
  5
596
100
AcDbEntity
  8
0
100
AcDbLine
 62
7
  6
CONTINUOUS
 10
78.889526054
 20
188.9107772208
 11
78.8891187806
 21
188.9365665464
  0
SPLINE
  5
597
100
AcDbEntity
  8
0
100
AcDbSpline
 62
7
  6
CONTINUOUS
 70
0
 71
3
 72
11
 73
7
 74
0
 42
0.0000001
 43
0.0000001
 44
0.0000000001
 40
0.0
 40
0.0
 40
0.0
 40
0.0
 40
0.3679116409
 40
0.6587212032
 40
0.8699404222
 40
1.0
 40
1.0
 40
1.0
 40
1.0
 10
78.8891187806
 20
188.9365665464
 30
0.0
 10
78.8859419666
 20
189.1368398279
 30
0.0
 10
78.8796504403
 20
189.4954016838
 30
0.0
 10
78.8691303123
 20
189.9689176731
 30
0.0
 10
78.8581625309
 20
190.3128358024
 30
0.0
 10
78.8499587983
 20
190.4985166003
 30
0.0
 10
78.8442802638
 20
190.5690955739
 30
0.0
  0
SPLINE
  5
598
100
AcDbEntity
  8
0
100
AcDbSpline
 62
7
  6
CONTINUOUS
 70
0
 71
3
 72
9
 73
5
 74
0
 42
0.0000001
 43
0.0000001
 44
0.0000000001
 40
0.0
 40
0.0
 40
0.0
 40
0.0
 40
0.4956922614
 40
1.0
 40
1.0
 40
1.0
 40
1.0
 10
78.8438202061
 20
190.5747078041
 30
0.0
 10
78.8417871056
 20
190.5990418062
 30
0.0
 10
78.8314757693
 20
190.6952864937
 30
0.0
 10
78.8215485053
 20
190.5981753276
 30
0.0
 10
78.819498247
 20
190.5734168714
 30
0.0
  0
SPLINE
  5
599
100
AcDbEntity
  8
0
100
AcDbSpline
 62
7
  6
CONTINUOUS
 70
0
 71
3
 72
11
 73
7
 74
0
 42
0.0000001
 43
0.0000001
 44
0.0000000001
 40
0.0
 40
0.0
 40
0.0
 40
0.0
 40
0.1241089823
 40
0.3336984873
 40
0.626698552
 40
1.0
 40
1.0
 40
1.0
 40
1.0
 10
78.819498247
 20
190.5734168714
 30
0.0
 10
78.8127562976
 20
190.4920026128
 30
0.0
 10
78.8037783871
 20
190.2724393886
 30
0.0
 10
78.7913482687
 20
189.8601616235
 30
0.0
 10
78.7797165321
 20
189.2837047526
 30
0.0
 10
78.7727442165
 20
188.8451843196
 30
0.0
 10
78.7692449608
 20
188.5994889853
 30
0.0
  0
LINE
  5
59A
100
AcDbEntity
  8
0
100
AcDbLine
 62
7
  6
CONTINUOUS
 10
78.7541721023
 20
187.3604379571
 11
78.7514502235
 21
187.0936828533
  0
LINE
  5
59B
100
AcDbEntity
  8
0
100
AcDbLine
 62
7
  6
CONTINUOUS
 10
78.7514745713
 20
161.254004795
 11
78.7541594282
 21
160.9909114075
  0
SPLINE
  5
59C
100
AcDbEntity
  8
0
100
AcDbSpline
 62
7
  6
CONTINUOUS
 70
0
 71
3
 72
32
 73
28
 74
0
 42
0.0000001
 43
0.0000001
 44
0.0000000001
 40
0.0
 40
0.0
 40
0.0
 40
0.0
 40
0.1144383419
 40
0.214449422
 40
0.2996609707
 40
0.369711668
 40
0.4243174844
 40
0.4457704135
 40
0.4632943994
 40
0.4768693507
 40
0.4864826549
 40
0.4898080727
 40
0.4921540926
 40
0.4935432344
 40
0.4941229269
 40
0.4949730541
 40
0.4967307958
 40
0.4994578426
 40
0.5031678324
 40
0.5135538433
 40
0.5279007272
 40
0.546193153
 40
0.5684104742
 40
0.6245316662
 40
0.6960753691
 40
0.7827456525
 40
1.0
 40
1.0
 40
1.0
 40
1.0
 10
78.7692532257
 20
159.7500728994
 30
0.0
 10
78.7715070367
 20
159.5918516921
 30
0.0
 10
78.7760226151
 20
159.2953602324
 30
0.0
 10
78.7834438263
 20
158.8810760724
 30
0.0
 10
78.7910129967
 20
158.5281822515
 30
0.0
 10
78.7986896222
 20
158.2380915145
 30
0.0
 10
78.8055353006
 20
158.0361746177
 30
0.0
 10
78.8112847403
 20
157.9068994884
 30
0.0
 10
78.8152837095
 20
157.8343465349
 30
0.0
 10
78.8190987056
 20
157.7781707815
 30
0.0
 10
78.8227945582
 20
157.7416997042
 30
0.0
 10
78.8254576331
 20
157.7207177588
 30
0.0
 10
78.827912552
 20
157.7112260483
 30
0.0
 10
78.8287372857
 20
157.7053529477
 30
0.0
 10
78.8326456273
 20
157.7023152851
 30
0.0
 10
78.83492601
 20
157.7078924114
 30
0.0
 10
78.8365398965
 20
157.7140828816
 30
0.0
 10
78.8385943168
 20
157.7257410281
 30
0.0
 10
78.8415105984
 20
157.7485323622
 30
0.0
 10
78.8450179523
 20
157.7879251382
 30
0.0
 10
78.8489399292
 20
157.8471889747
 30
0.0
 10
78.8529060461
 20
157.9229775839
 30
0.0
 10
78.8586567207
 20
158.0564511098
 30
0.0
 10
78.8654840718
 20
158.2636011909
 30
0.0
 10
78.8731590716
 20
158.5598651587
 30
0.0
 10
78.8840734705
 20
159.0789255908
 30
0.0
 10
78.890654612
 20
159.4991212707
 30
0.0
 10
78.8948715359
 20
159.7994956432
 30
0.0
  0
SPLINE
  5
59D
100
AcDbEntity
  8
0
100
AcDbSpline
 62
7
  6
CONTINUOUS
 70
0
 71
3
 72
9
 73
5
 74
0
 42
0.0000001
 43
0.0000001
 44
0.0000000001
 40
0.0
 40
0.0
 40
0.0
 40
0.0
 40
0.4470872449
 40
1.0
 40
1.0
 40
1.0
 40
1.0
 10
78.9120086172
 20
161.2597823255
 30
0.0
 10
78.9247406416
 20
162.5431160192
 30
0.0
 10
78.9435464019
 20
165.4136409515
 30
0.0
 10
78.9532181888
 20
168.2842003362
 30
0.0
 10
78.9565932722
 20
169.8713735148
 30
0.0
  0
ELLIPSE
  5
59E
100
AcDbEntity
  8
0
100
AcDbEllipse
 62
7
  6
CONTINUOUS
 10
75.3899894261
 20
31.4826657712
 30
0.0
 11
-0.0191013775
 21
1.7779992265
 31
0.0
 40
0.0868265907
 41
-1.6775894404
 42
-0.1231058416
  0
ELLIPSE
  5
59F
100
AcDbEntity
  8
0
100
AcDbEllipse
 62
7
  6
CONTINUOUS
 10
103.9649894261
 20
31.4826657712
 30
0.0
 11
0.0191013775
 21
1.7779992265
 31
0.0
 40
0.0868265907
 41
0.1231058416
 42
1.4665554665
  0
ELLIPSE
  5
5A0
100
AcDbEntity
  8
0
100
AcDbEllipse
 62
7
  6
CONTINUOUS
 10
75.3899894261
 20
31.4826657712
 30
0.0
 11
0.0191013775
 21
1.7779992265
 31
0.0
 40
0.0868265907
 41
-3.018486812
 42
0.0009325225
  0
ELLIPSE
  5
5A1
100
AcDbEntity
  8
0
100
AcDbEllipse
 62
7
  6
CONTINUOUS
 10
103.9649894261
 20
31.4826657712
 30
0.0
 11
-0.0191013775
 21
1.7779992265
 31
0.0
 40
0.0868265907
 41
6.282252519
 42
9.3016721191
  0
ELLIPSE
  5
5A2
100
AcDbEntity
  8
0
100
AcDbEllipse
 62
7
  6
CONTINUOUS
 10
80.1579328905
 20
39.3555979603
 30
0.0
 11
4.4049946264
 21
-1.8441975676
 31
0.0
 40
0.9893944992
 41
2.3527516991
 42
3.5342976283
  0
ELLIPSE
  5
5A3
100
AcDbEntity
  8
0
100
AcDbEllipse
 62
7
  6
CONTINUOUS
 10
99.1970459617
 20
39.3555979603
 30
0.0
 11
4.4049946264
 21
1.8441975676
 31
0.0
 40
0.9893944992
 41
-0.3927049747
 42
0.7885288012
  0
ELLIPSE
  5
5A4
100
AcDbEntity
  8
0
100
AcDbEllipse
 62
7
  6
CONTINUOUS
 10
80.6168793202
 20
18.4977250515
 30
0.0
 11
0.353341815
 21
0.1479302862
 31
0.0
 40
0.9893944992
 41
2.7488876789
 42
4.3120878091
  0
ELLIPSE
  5
5A5
100
AcDbEntity
  8
0
100
AcDbEllipse
 62
7
  6
CONTINUOUS
 10
98.738099532
 20
18.4977250515
 30
0.0
 11
0.353341815
 21
-0.1479302862
 31
0.0
 40
0.9893944992
 41
5.1126901516
 42
6.6758902819
  0
ELLIPSE
  5
5A6
100
AcDbEntity
  8
0
100
AcDbEllipse
 62
7
  6
CONTINUOUS
 10
99.5030102482
 20
18.5045937383
 30
0.0
 11
0.353341815
 21
-0.1479302862
 31
0.0
 40
0.9893944992
 41
2.0229422389
 42
3.5342976283
  0
ELLIPSE
  5
5A7
100
AcDbEntity
  8
0
100
AcDbEllipse
 62
7
  6
CONTINUOUS
 10
99.1970459617
 20
23.6097335822
 30
0.0
 11
4.4049946264
 21
-1.8441975676
 31
0.0
 40
0.9893944992
 41
5.1645348925
 42
6.6758902819
  0
ELLIPSE
  5
5A8
100
AcDbEntity
  8
0
100
AcDbEllipse
 62
7
  6
CONTINUOUS
 10
80.1579328905
 20
23.6097335822
 30
0.0
 11
4.4049946264
 21
1.8441975676
 31
0.0
 40
0.9893944992
 41
2.7488876789
 42
4.2602430683
  0
ELLIPSE
  5
5A9
100
AcDbEntity
  8
0
100
AcDbEllipse
 62
7
  6
CONTINUOUS
 10
79.851968604
 20
18.5045937383
 30
0.0
 11
0.353341815
 21
0.1479302862
 31
0.0
 40
0.9893944992
 41
-0.3927049747
 42
1.1186504147
  0
ELLIPSE
  5
5AA
100
AcDbEntity
  8
0
100
AcDbEllipse
 62
7
  6
CONTINUOUS
 10
100.3708894261
 20
126.4007343918
 30
0.0
 11
0.762
 21
0.0
 31
0.0
 40
0.9958020687
 41
-1.308996939
 42
0.0
  0
ELLIPSE
  5
5AB
100
AcDbEntity
  8
0
100
AcDbEllipse
 62
7
  6
CONTINUOUS
 10
100.3708894261
 20
122.5678163986
 30
0.0
 11
3.175
 21
0.0
 31
0.0
 40
0.9892902345
 41
-1.308996939
 42
0.0
  0
ELLIPSE
  5
5AC
100
AcDbEntity
  8
0
100
AcDbEllipse
 62
7
  6
CONTINUOUS
 10
98.4658894261
 20
116.7298897941
 30
0.0
 11
2.032
 21
-0.0
 31
0.0
 40
0.9892902345
 41
1.8325957146
 42
1.9660470182
  0
ELLIPSE
  5
5AD
100
AcDbEntity
  8
0
100
AcDbEllipse
 62
7
  6
CONTINUOUS
 10
100.3708894261
 20
126.4007343918
 30
0.0
 11
3.175
 21
-0.0
 31
0.0
 40
0.9958020687
 41
-1.308996939
 42
0.0
  0
ELLIPSE
  5
5AE
100
AcDbEntity
  8
0
100
AcDbEllipse
 62
7
  6
CONTINUOUS
 10
98.4658894261
 20
120.5243806313
 30
0.0
 11
2.032
 21
0.0
 31
0.0
 40
0.9958020687
 41
1.8325957146
 42
3.1415926536
  0
ELLIPSE
  5
5AF
100
AcDbEntity
  8
0
100
AcDbEllipse
 62
7
  6
CONTINUOUS
 10
78.9840894261
 20
126.4007343918
 30
0.0
 11
0.762
 21
-0.0
 31
0.0
 40
0.9958020687
 41
3.1415926536
 42
4.4505895926
  0
ELLIPSE
  5
5B0
100
AcDbEntity
  8
0
100
AcDbEllipse
 62
7
  6
CONTINUOUS
 10
78.9840894261
 20
122.5678163986
 30
0.0
 11
3.175
 21
0.0
 31
0.0
 40
0.9892902345
 41
3.1415926536
 42
4.4505895926
  0
ELLIPSE
  5
5B1
100
AcDbEntity
  8
0
100
AcDbEllipse
 62
7
  6
CONTINUOUS
 10
80.8890894261
 20
116.7298897941
 30
0.0
 11
2.032
 21
0.0
 31
0.0
 40
0.9892902345
 41
1.1755307168
 42
1.308996939
  0
ELLIPSE
  5
5B2
100
AcDbEntity
  8
0
100
AcDbEllipse
 62
7
  6
CONTINUOUS
 10
80.8890894261
 20
120.5243806313
 30
0.0
 11
2.032
 21
-0.0
 31
0.0
 40
0.9958020687
 41
0.0
 42
1.308996939
  0
ELLIPSE
  5
5B3
100
AcDbEntity
  8
0
100
AcDbEllipse
 62
7
  6
CONTINUOUS
 10
78.9840894261
 20
126.4007343918
 30
0.0
 11
3.175
 21
0.0
 31
0.0
 40
0.9958020687
 41
3.1415926536
 42
4.4505895926
  0
ENDSEC
  0
SECTION
  2
OBJECTS
  0
DICTIONARY
  5
C
100
AcDbDictionary
280
0
281
1
  3
ACAD_GROUP
350
D
  3
ACAD_MLINESTYLE
350
17
  3
ACAD_LAYOUT
350
1A
  3
ACAD_PLOTSETTINGS
350
19
  3
ACAD_PLOTSTYLENAME
350
E
  0
DICTIONARY
  5
D
102
{ACAD_REACTORS
330
C
102
}
100
AcDbDictionary
280
0
281
1
  0
ACDBDICTIONARYWDFLT
  5
E
102
{ACAD_REACTORS
330
C
102
}
100
AcDbDictionary
281
1
  3
Normal
350
F
100
AcDbDictionaryWithDefault
340
F
  0
DICTIONARY
  5
17
102
{ACAD_REACTORS
330
C
102
}
100
AcDbDictionary
280
0
281
1
  3
Standard
350
18
  0
DICTIONARY
  5
19
102
{ACAD_REACTORS
330
C
102
}
100
AcDbDictionary
281
1
  0
DICTIONARY
  5
1A
102
{ACAD_REACTORS
330
C
102
}
100
AcDbDictionary
281
1
  3
Model
350
5B4
  3
Layout1
350
5B5
  0
ACDBPLACEHOLDER
  5
F
102
{ACAD_REACTORS
330
E
102
}
  0
MLINESTYLE
  5
18
102
{ACAD_REACTORS
330
17
102
}
100
AcDbMlineStyle
  2
STANDARD
 70
0
  3

 62
256
 51
90.0
 52
90.0
 71
2
 49
0.5
 62
256
  6
BYLAYER
 49
-0.5
 62
256
  6
BYLAYER
  0
LAYOUT
  5
5B4
102
{ACAD_REACTORS
330
1A
102
}
100
AcDbPlotSettings
  1

  2
none_device
  4

  6

 40
0.0
 41
0.0
 42
0.0
 43
0.0
 44
210.0
 45
297.0
 46
0.0
 47
0.0
 48
0.0
 49
0.0
140
0.0
141
0.0
142
1.0
143
1.0
 70
1024
 72
1
 73
0
 74
0
  7

 75
0
147
1.0
148
0.0
149
0.0
100
AcDbLayout
  1
Model
 70
0
 71
0
 10
0.0
 20
0.0
 11
210.0
 21
297.0
 12
0.0
 22
0.0
 32
0.0
 14
0.0
 24
0.0
 34
0.0
 15
0.0
 25
0.0
 35
0.0
146
0.0
 13
0.0
 23
0.0
 33
0.0
 16
1.0
 26
0.0
 36
0.0
 17
0.0
 27
1.0
 37
0.0
 76
0
330
210
345
0
346
0
  0
LAYOUT
  5
5B5
102
{ACAD_REACTORS
330
1A
102
}
100
AcDbPlotSettings
  1

  2
none_device
  4

  6

 40
0.0
 41
0.0
 42
0.0
 43
0.0
 44
210.0
 45
297.0
 46
0.0
 47
0.0
 48
0.0
 49
0.0
140
0.0
141
0.0
142
1.0
143
1.0
 70
0
 72
1
 73
0
 74
0
  7

 75
0
147
1.0
148
0.0
149
0.0
100
AcDbLayout
  1
Layout1
 70
0
 71
1
 10
0.0
 20
0.0
 11
210.0
 21
297.0
 12
0.0
 22
0.0
 32
0.0
 14
0.0
 24
0.0
 34
0.0
 15
0.0
 25
0.0
 35
0.0
146
0.0
 13
0.0
 23
0.0
 33
0.0
 16
1.0
 26
0.0
 36
0.0
 17
0.0
 27
1.0
 37
0.0
 76
0
330
211
345
0
346
0
  0
ENDSEC
  0
EOF
