999
DXF file: C:\Users\sesa63760\Dev\_Creo\CAD\MCADID0001560_3D-CAD\drw0001_1.dxf
999
Pro/ENGINEER 2019471 by Parametric Technology Corporation
  0
SECTION
  2
HEADER
  9
$ACADVER
  1
AC1024
  9
$DWGCODEPAGE
  3
ANSI_1252
  9
$EXTMAX
 10
368.3114786625
 20
520.8976626798
 30
0.0
  9
$EXTMIN
 10
-0.0
 20
0.0
 30
0.0
  9
$LIMMIN
 10
-0.0
 20
0.0
  9
$LIMMAX
 10
368.3114786625
 20
520.8976626798
  9
$VIEWCTR
 10
184.1557393313
 20
260.4488313399
  9
$VIEWSIZE
 40
520.8976626798
  9
$CLAYER
  8
0
  9
$LTSCALE
 40
33.9548106043
  9
$CELTYPE
  6
BYLAYER
  9
$DIMSCALE
 40
1.0
  9
$DIMASZ
 40
4.3846604603
  9
$DIMEXO
 40
1.0
  9
$DIMDLI
 40
23.4596873266
  9
$DIMEXE
 40
1.0
  9
$DIMCEN
 40
5.5562417353
  9
$DIMLFAC
 40
1.0
  9
$DIMBLK
  1
_FILLED
  9
$DIMALT
 70
0
  9
$DIMALTF
 40
0.0393700787
  9
$DIMTXT
 40
6.1385246444
  9
$DIMTOL
 70
1
  9
$DIMLIM
 70
0
  9
$DIMTFAC
 40
1.0
  9
$DIMTP
 40
0.01
  9
$DIMTM
 40
0.01
  9
$DIMGAP
 40
0.625
  9
$DIMDSEP
 70
46
  9
$AUNITS
 70
0
  9
$PDMODE
 70
3
  9
$PDSIZE
 40
0.3125
  9
$HANDSEED
  5
3E2
  9
$TILEMODE
 70
1
  9
$MEASUREMENT
 70
1
  9
$INSUNITS
 70
4
  0
ENDSEC
  0
SECTION
  2
CLASSES
  0
CLASS
  1
ACDBDICTIONARYWDFLT
  2
AcDbDictionaryWithDefault
  3
AutoCAD 2000
 90
0
 91
1
280
0
281
0
  0
CLASS
  1
ACDBPLACEHOLDER
  2
AcDbPlaceHolder
  3
AutoCAD 2000
 90
0
 91
1
280
0
281
0
  0
CLASS
  1
LAYOUT
  2
AcDbLayout
  3
AutoCAD 2000
 90
0
 91
0
280
0
281
0
  0
ENDSEC
  0
SECTION
  2
TABLES
  0
TABLE
  2
VPORT
  5
8
100
AcDbSymbolTable
 70
2
  0
VPORT
  5
1F4
100
AcDbSymbolTableRecord
100
AcDbViewportTableRecord
  2
*ACTIVE
 70
0
 10
0.0
 20
0.0
 11
1.0
 21
1.0
 12
184.1557393313
 22
260.4488313399
 13
0.0
 23
0.0
 14
1.0
 24
1.0
 15
0.0
 25
0.0
 16
0.0
 26
0.0
 36
1.0
 17
0.0
 27
0.0
 37
0.0
 40
520.8976626798
 41
0.7070707071
 42
50.0
 43
0.0
 44
0.0
 50
0.0
 51
0.0
 71
0
 72
100
 73
1
 74
1
 75
0
 76
0
 77
0
 78
0
  0
ENDTAB
  0
TABLE
  2
LTYPE
  5
5
100
AcDbSymbolTable
 70
6
  0
LTYPE
  5
14
100
AcDbSymbolTableRecord
100
AcDbLinetypeTableRecord
  2
BYBLOCK
 70
0
  3

 72
65
 73
0
 40
0.0
  0
LTYPE
  5
15
100
AcDbSymbolTableRecord
100
AcDbLinetypeTableRecord
  2
BYLAYER
 70
0
  3

 72
65
 73
0
 40
0.0
  0
LTYPE
  5
16
100
AcDbSymbolTableRecord
100
AcDbLinetypeTableRecord
  2
CONTINUOUS
 70
64
  3
Solid line
 72
65
 73
0
 40
0.0
  0
LTYPE
  5
1F5
100
AcDbSymbolTableRecord
100
AcDbLinetypeTableRecord
  2
CENTER
 70
64
  3
____ _ ____ _ ____ _ ____ _ ____ _ ____ _ ____
 72
65
 73
4
 40
0.6
 49
0.375
 74
0
 49
-0.075
 74
0
 49
0.075
 74
0
 49
-0.075
 74
0
  0
LTYPE
  5
1F6
100
AcDbSymbolTableRecord
100
AcDbLinetypeTableRecord
  2
HIDDEN
 70
64
  3
- - - - - - - - - - - - - - - - - - - -
 72
65
 73
2
 40
0.2
 49
0.1
 74
0
 49
-0.1
 74
0
  0
LTYPE
  5
1F7
100
AcDbSymbolTableRecord
100
AcDbLinetypeTableRecord
  2
PHANTOM
 70
64
  3
_____ _ _ _____ _ _ _____ _ _ _____
 72
65
 73
6
 40
0.8
 49
0.45
 74
0
 49
-0.05
 74
0
 49
0.1
 74
0
 49
-0.05
 74
0
 49
0.1
 74
0
 49
-0.05
 74
0
  0
LTYPE
  5
1F8
100
AcDbSymbolTableRecord
100
AcDbLinetypeTableRecord
  2
DOT
 70
64
  3
. . . . . . . . . . . . . . . . . . . .
 72
65
 73
2
 40
0.2
 49
0.1
 74
0
 49
-0.1
 74
0
  0
LTYPE
  5
1F9
100
AcDbSymbolTableRecord
100
AcDbLinetypeTableRecord
  2
DASHED
 70
64
  3
- - - - - - - - - - - - - - - - - - - -
 72
65
 73
2
 40
0.2
 49
0.1
 74
0
 49
-0.1
 74
0
  0
ENDTAB
  0
TABLE
  2
LAYER
  5
2
100
AcDbSymbolTable
 70
36
  0
LAYER
  5
10
100
AcDbSymbolTableRecord
100
AcDbLayerTableRecord
  2
0
 70
0
 62
7
  6
CONTINUOUS
370
-3
390
F
  0
LAYER
  5
1FA
100
AcDbSymbolTableRecord
100
AcDbLayerTableRecord
  2
DEFAULT_1
 70
0
 62
7
  6
CENTER
370
-3
390
F
  0
LAYER
  5
1FB
100
AcDbSymbolTableRecord
100
AcDbLayerTableRecord
  2
DEFAULT_2
 70
0
 62
8
  6
HIDDEN
370
-3
390
F
  0
LAYER
  5
1FC
100
AcDbSymbolTableRecord
100
AcDbLayerTableRecord
  2
DEFAULT_3
 70
0
 62
7
  6
PHANTOM
370
-3
390
F
  0
LAYER
  5
1FD
100
AcDbSymbolTableRecord
100
AcDbLayerTableRecord
  2
00_COMPONENTS
 70
0
 62
7
  6
CONTINUOUS
370
-3
390
F
  0
LAYER
  5
1FE
100
AcDbSymbolTableRecord
100
AcDbLayerTableRecord
  2
01_1_DEFAULT_DATUMS
 70
0
 62
7
  6
CONTINUOUS
370
-3
390
F
  0
LAYER
  5
1FF
100
AcDbSymbolTableRecord
100
AcDbLayerTableRecord
  2
01_PLANES
 70
0
 62
7
  6
CONTINUOUS
370
-3
390
F
  0
LAYER
  5
200
100
AcDbSymbolTableRecord
100
AcDbLayerTableRecord
  2
02_COORD_SYS
 70
0
 62
7
  6
CONTINUOUS
370
-3
390
F
  0
LAYER
  5
201
100
AcDbSymbolTableRecord
100
AcDbLayerTableRecord
  2
03_AXES
 70
0
 62
7
  6
CONTINUOUS
370
-3
390
F
  0
LAYER
  5
202
100
AcDbSymbolTableRecord
100
AcDbLayerTableRecord
  2
04_POINTS
 70
0
 62
7
  6
CONTINUOUS
370
-3
390
F
  0
LAYER
  5
203
100
AcDbSymbolTableRecord
100
AcDbLayerTableRecord
  2
05_CURVES
 70
0
 62
7
  6
CONTINUOUS
370
-3
390
F
  0
LAYER
  5
204
100
AcDbSymbolTableRecord
100
AcDbLayerTableRecord
  2
06_SURFS
 70
0
 62
7
  6
CONTINUOUS
370
-3
390
F
  0
LAYER
  5
205
100
AcDbSymbolTableRecord
100
AcDbLayerTableRecord
  2
07_COSMETICS
 70
0
 62
7
  6
CONTINUOUS
370
-3
390
F
  0
LAYER
  5
206
100
AcDbSymbolTableRecord
100
AcDbLayerTableRecord
  2
10_NOTES
 70
0
 62
7
  6
CONTINUOUS
370
-3
390
F
  0
LAYER
  5
207
100
AcDbSymbolTableRecord
100
AcDbLayerTableRecord
  2
11_NOTES_PUB
 70
0
 62
7
  6
CONTINUOUS
370
-3
390
F
  0
LAYER
  5
208
100
AcDbSymbolTableRecord
100
AcDbLayerTableRecord
  2
13_REF_GTOL
 70
0
 62
7
  6
CONTINUOUS
370
-3
390
F
  0
LAYER
  5
209
100
AcDbSymbolTableRecord
100
AcDbLayerTableRecord
  2
16_MISC
 70
0
 62
7
  6
CONTINUOUS
370
-3
390
F
  0
LAYER
  5
20A
100
AcDbSymbolTableRecord
100
AcDbLayerTableRecord
  2
17_NO_PRINT
 70
0
 62
7
  6
CONTINUOUS
370
-3
390
F
  0
LAYER
  5
20B
100
AcDbSymbolTableRecord
100
AcDbLayerTableRecord
  2
18_DATUM_CAMS_JOINTS
 70
0
 62
7
  6
CONTINUOUS
370
-3
390
F
  0
LAYER
  5
20C
100
AcDbSymbolTableRecord
100
AcDbLayerTableRecord
  2
19_DATUM_FUNCTIONAL
 70
0
 62
7
  6
CONTINUOUS
370
-3
390
F
  0
LAYER
  5
20D
100
AcDbSymbolTableRecord
100
AcDbLayerTableRecord
  2
20_DATUM_KINEMATIC_SCHEME
 70
0
 62
7
  6
CONTINUOUS
370
-3
390
F
  0
LAYER
  5
20E
100
AcDbSymbolTableRecord
100
AcDbLayerTableRecord
  2
_1
 70
0
 62
7
  6
CONTINUOUS
370
-3
390
F
  0
ENDTAB
  0
TABLE
  2
STYLE
  5
3
100
AcDbSymbolTable
 70
1
  0
STYLE
  5
11
100
AcDbSymbolTableRecord
100
AcDbTextStyleTableRecord
  2
STANDARD
 70
0
 40
0.0
 41
0.8
 50
0.0
 71
0
 42
0.2
  3
txt
  4

  0
STYLE
  5
20F
100
AcDbSymbolTableRecord
100
AcDbTextStyleTableRecord
  2
TEXTSTYLE_1
 70
0
 40
0.0
 41
0.8
 50
0.0
 71
0
 42
0.2
  3
gdt
  4

  0
ENDTAB
  0
TABLE
  2
VIEW
  5
6
100
AcDbSymbolTable
 70
0
  0
ENDTAB
  0
TABLE
  2
UCS
  5
7
100
AcDbSymbolTable
 70
0
  0
ENDTAB
  0
TABLE
  2
APPID
  5
9
100
AcDbSymbolTable
 70
1
  0
APPID
  5
210
100
AcDbSymbolTableRecord
100
AcDbRegAppTableRecord
  2
ACAD
 70
0
  0
ENDTAB
  0
TABLE
  2
BLOCK_RECORD
  5
1
100
AcDbSymbolTable
 70
0
  0
BLOCK_RECORD
  5
211
100
AcDbSymbolTableRecord
100
AcDbBlockTableRecord
  2
*Model_Space
  0
BLOCK_RECORD
  5
212
100
AcDbSymbolTableRecord
100
AcDbBlockTableRecord
  2
*Paper_Space
  0
BLOCK_RECORD
  5
213
100
AcDbSymbolTableRecord
100
AcDbBlockTableRecord
  2
_FILLED
  0
ENDTAB
  0
TABLE
  2
DIMSTYLE
  5
A
100
AcDbSymbolTable
 70
1
100
AcDbDimStyleTable
 71
0
  0
DIMSTYLE
105
214
100
AcDbSymbolTableRecord
100
AcDbDimStyleTableRecord
  2
STANDARD
 70
0
  3

  4

 40
1.0
 41
4.3846604603
 42
1.0
 43
0.38
 44
1.0
 45
0.0
 46
0.0
 47
0.01
 48
0.01
140
6.1385246444
141
0.09
142
0.0
143
25.4
144
1.0
145
0.0
146
1.0
147
0.625
 71
1
 72
0
 73
0
 74
0
 75
0
 76
0
 77
1
 78
8
 79
2
170
0
171
1
172
0
173
0
174
0
175
0
176
0
177
0
178
0
270
2
179
2
271
2
272
2
273
2
274
2
275
0
280
0
281
0
282
0
283
1
284
8
285
0
286
0
287
3
288
0
340
11
278
46
341
213
342
213
343
213
344
213
  0
ENDTAB
  0
ENDSEC
  0
SECTION
  2
BLOCKS
  0
BLOCK
  5
20
100
AcDbEntity
  8
0
100
AcDbBlockBegin
  2
*Model_Space
 70
0
 10
0.0
 20
0.0
 30
0.0
  3
*Model_Space
  1

  0
ENDBLK
  5
21
100
AcDbEntity
  8
0
100
AcDbBlockEnd
  0
BLOCK
  5
1C
100
AcDbEntity
  8
0
100
AcDbBlockBegin
  2
*Paper_Space
 70
0
 10
0.0
 20
0.0
 30
0.0
  3
*Paper_Space
  1

  0
ENDBLK
  5
1D
100
AcDbEntity
  8
0
100
AcDbBlockEnd
  0
BLOCK
  5
215
100
AcDbEntity
  8
0
100
AcDbBlockBegin
  2
_FILLED
 70
64
 10
0.0
 20
0.0
  3
_FILLED
  1

  0
SOLID
  5
216
100
AcDbEntity
  8
0
  6
BYBLOCK
 62
0
100
AcDbTrace
 10
0.0
 20
0.0
 11
-1.0
 21
0.25
 12
-1.0
 22
-0.25
 13
-1.0
 23
-0.25
  0
ENDBLK
  5
217
100
AcDbEntity
  8
0
  6
BYBLOCK
 62
0
100
AcDbBlockEnd
  0
ENDSEC
  0
SECTION
  2
ENTITIES
  0
LINE
  5
218
100
AcDbEntity
  8
_1
100
AcDbLine
 62
7
  6
CONTINUOUS
 10
133.5811470794
 20
124.0519313126
 11
50.8709525392
 21
171.8036041079
  0
LWPOLYLINE
  5
219
100
AcDbEntity
  8
_1
100
AcDbPolyline
 62
7
  6
CONTINUOUS
 90
7
 70
0
 10
64.1339506712
 20
175.0076669407
 10
70.6556443027
 20
166.4032410194
 10
83.2086459229
 20
154.8991500315
 10
96.2869363939
 20
147.3474393536
 10
108.8275830272
 20
144.3550695619
 10
119.8197000872
 20
146.1545264986
 10
122.2507274637
 20
147.3628900002
  0
LINE
  5
21A
100
AcDbEntity
  8
_1
100
AcDbLine
 62
7
  6
CONTINUOUS
 10
42.7283690491
 20
233.6597897257
 11
43.0930417329
 21
185.1972303953
  0
LINE
  5
21B
100
AcDbEntity
  8
_1
100
AcDbLine
 62
7
  6
CONTINUOUS
 10
43.0930417329
 20
281.7012708378
 11
42.7283690491
 21
233.6597897257
  0
LINE
  5
21C
100
AcDbEntity
  8
_1
100
AcDbLine
 62
7
  6
CONTINUOUS
 10
94.3577439373
 20
271.9952288641
 11
94.3577439373
 21
273.3016327315
  0
LINE
  5
21D
100
AcDbEntity
  8
_1
100
AcDbLine
 62
7
  6
CONTINUOUS
 10
94.4577439373
 20
273.3016327315
 11
94.4577439373
 21
274.6080365989
  0
LINE
  5
21E
100
AcDbEntity
  8
_1
100
AcDbLine
 62
7
  6
CONTINUOUS
 10
94.7809623578
 20
268.7754211904
 11
94.7809623578
 21
270.8322010087
  0
LINE
  5
21F
100
AcDbEntity
  8
_1
100
AcDbLine
 62
7
  6
CONTINUOUS
 10
94.7809623578
 20
275.4707410109
 11
94.7809623578
 21
279.5532530965
  0
LINE
  5
220
100
AcDbEntity
  8
_1
100
AcDbLine
 62
7
  6
CONTINUOUS
 10
94.8577439373
 20
267.9127167785
 11
94.8577439373
 21
267.3411650865
  0
LINE
  5
221
100
AcDbEntity
  8
_1
100
AcDbLine
 62
7
  6
CONTINUOUS
 10
94.9350820465
 20
268.4433496917
 11
94.8577627786
 21
267.9127167807
  0
LINE
  5
222
100
AcDbEntity
  8
_1
100
AcDbLine
 62
7
  6
CONTINUOUS
 10
237.7608090448
 20
398.6513216688
 11
228.3531491424
 21
393.2198391132
  0
LINE
  5
223
100
AcDbEntity
  8
_1
100
AcDbLine
 62
7
  6
CONTINUOUS
 10
45.3709771621
 20
286.6587095752
 11
53.8562232087
 21
291.5576394217
  0
LINE
  5
224
100
AcDbEntity
  8
_1
100
AcDbLine
 62
7
  6
CONTINUOUS
 10
225.5736087847
 20
392.8806048079
 11
201.2778593468
 21
381.3079933446
  0
LINE
  5
225
100
AcDbEntity
  8
_1
100
AcDbLine
 62
7
  6
CONTINUOUS
 10
96.2752780297
 20
265.5557180571
 11
96.2752780297
 21
269.4786611778
  0
LINE
  5
226
100
AcDbEntity
  8
_1
100
AcDbLine
 62
7
  6
CONTINUOUS
 10
96.2752780297
 20
272.2510378776
 11
96.2752780297
 21
276.3335499632
  0
LINE
  5
227
100
AcDbEntity
  8
_1
100
AcDbLine
 62
7
  6
CONTINUOUS
 10
97.3577439373
 20
278.6905486846
 11
97.3577439373
 21
283.1813119788
  0
LINE
  5
228
100
AcDbEntity
  8
_1
100
AcDbLine
 62
7
  6
CONTINUOUS
 10
101.8520596092
 20
264.6930136452
 11
101.8520596092
 21
268.678048609
  0
LINE
  5
229
100
AcDbEntity
  8
_1
100
AcDbLine
 62
7
  6
CONTINUOUS
 10
101.8520596092
 20
271.3883334657
 11
101.8520596092
 21
275.4708455513
  0
LINE
  5
22A
100
AcDbEntity
  8
_1
100
AcDbLine
 62
7
  6
CONTINUOUS
 10
103.3577439373
 20
278.6905486846
 11
103.3577439373
 21
283.1813119788
  0
LINE
  5
22B
100
AcDbEntity
  8
_1
100
AcDbLine
 62
7
  6
CONTINUOUS
 10
104.9539600947
 20
263.8711065193
 11
104.9539600947
 21
264.2793577279
  0
LINE
  5
22C
100
AcDbEntity
  8
_1
100
AcDbLine
 62
7
  6
CONTINUOUS
 10
105.9345255168
 20
267.0500123665
 11
105.9345255168
 21
270.8342028797
  0
LINE
  5
22D
100
AcDbEntity
  8
_1
100
AcDbLine
 62
7
  6
CONTINUOUS
 10
105.9345255168
 20
273.745332187
 11
105.9345255168
 21
277.8278442726
  0
LINE
  5
22E
100
AcDbEntity
  8
_1
100
AcDbLine
 62
7
  6
CONTINUOUS
 10
106.2577439373
 20
273.3016327315
 11
106.2577439373
 21
274.6080365989
  0
LINE
  5
22F
100
AcDbEntity
  8
_1
100
AcDbLine
 62
7
  6
CONTINUOUS
 10
106.3577439373
 20
271.9952288641
 11
106.3577439373
 21
273.3016327315
  0
LINE
  5
230
100
AcDbEntity
  8
_1
100
AcDbLine
 62
7
  6
CONTINUOUS
 10
50.8709525392
 20
286.113942506
 11
59.3561985858
 21
291.0128723525
  0
LINE
  5
231
100
AcDbEntity
  8
_1
100
AcDbLine
 62
7
  6
CONTINUOUS
 10
201.2619850061
 20
361.8057238035
 11
69.0003983758
 21
285.4449169716
  0
LINE
  5
232
100
AcDbEntity
  8
_1
100
AcDbLine
 62
7
  6
CONTINUOUS
 10
69.5861800945
 20
285.1067233896
 11
201.2619850061
 21
361.1293310073
  0
LINE
  5
233
100
AcDbEntity
  8
_1
100
AcDbLine
 62
7
  6
CONTINUOUS
 10
96.2752780297
 20
265.5557180571
 11
94.7809623578
 21
268.7754211904
  0
LINE
  5
234
100
AcDbEntity
  8
_1
100
AcDbLine
 62
7
  6
CONTINUOUS
 10
118.7424849204
 20
272.2401187284
 11
118.7424849204
 21
271.8318675198
  0
LINE
  5
235
100
AcDbEntity
  8
_1
100
AcDbLine
 62
7
  6
CONTINUOUS
 10
119.0353751952
 20
272.2401082743
 11
119.0353751952
 21
272.6483594829
  0
LINE
  5
236
100
AcDbEntity
  8
_1
100
AcDbLine
 62
7
  6
CONTINUOUS
 10
257.4734952963
 20
384.0186887015
 11
257.9128190229
 21
384.2723308592
  0
LINE
  5
237
100
AcDbEntity
  8
_1
100
AcDbLine
 62
7
  6
CONTINUOUS
 10
249.2607575607
 20
378.7327076574
 11
241.539385674
 21
374.2747981303
  0
LINE
  5
238
100
AcDbEntity
  8
_1
100
AcDbLine
 62
7
  6
CONTINUOUS
 10
258.059277015
 20
383.6804951194
 11
258.9187797067
 21
384.1767262677
  0
LINE
  5
239
100
AcDbEntity
  8
_1
100
AcDbLine
 62
7
  6
CONTINUOUS
 10
282.849284556
 20
389.7576810129
 11
259.9677427925
 21
378.8586884469
  0
LINE
  5
23A
100
AcDbEntity
  8
_1
100
AcDbLine
 62
7
  6
CONTINUOUS
 10
96.2752780297
 20
272.2510378776
 11
94.7809623578
 21
275.4707410109
  0
LINE
  5
23B
100
AcDbEntity
  8
_1
100
AcDbLine
 62
7
  6
CONTINUOUS
 10
94.7809623578
 20
279.5532530965
 11
96.2752780297
 21
276.3335499632
  0
LINE
  5
23C
100
AcDbEntity
  8
_1
100
AcDbLine
 62
7
  6
CONTINUOUS
 10
105.9345255168
 20
277.8278442726
 11
104.4402098449
 21
281.0475474059
  0
LINE
  5
23D
100
AcDbEntity
  8
_1
100
AcDbLine
 62
7
  6
CONTINUOUS
 10
201.277921372
 20
381.3057994607
 11
201.2619850623
 21
381.2807911273
  0
LINE
  5
23E
100
AcDbEntity
  8
_1
100
AcDbLine
 62
7
  6
CONTINUOUS
 10
118.7424849204
 20
272.2401187284
 11
119.0353535023
 21
272.6483594829
  0
LINE
  5
23F
100
AcDbEntity
  8
_1
100
AcDbLine
 62
7
  6
CONTINUOUS
 10
119.0353535023
 20
272.2401082744
 11
118.7424849204
 21
271.8318675198
  0
LINE
  5
240
100
AcDbEntity
  8
_1
100
AcDbLine
 62
7
  6
CONTINUOUS
 10
238.1273305666
 20
360.650953046
 11
225.1615211581
 21
352.623448578
  0
LINE
  5
241
100
AcDbEntity
  8
_1
100
AcDbLine
 62
7
  6
CONTINUOUS
 10
57.2513318777
 20
259.9458176202
 11
59.7261953079
 21
261.3746721587
  0
LINE
  5
242
100
AcDbEntity
  8
_1
100
AcDbLine
 62
7
  6
CONTINUOUS
 10
294.3293809789
 20
394.9772843094
 11
285.871687357
 21
390.0942617678
  0
LINE
  5
243
100
AcDbEntity
  8
_1
100
AcDbLine
 62
7
  6
CONTINUOUS
 10
94.7809623578
 20
279.5532530965
 11
97.3577439373
 21
281.0409497547
  0
LINE
  5
244
100
AcDbEntity
  8
_1
100
AcDbLine
 62
7
  6
CONTINUOUS
 10
231.5254498051
 20
354.1747221696
 11
217.3833730608
 21
346.0098390922
  0
LINE
  5
245
100
AcDbEntity
  8
_1
100
AcDbLine
 62
7
  6
CONTINUOUS
 10
231.5254498051
 20
350.4188110508
 11
217.3833730608
 21
342.2539279734
  0
LINE
  5
246
100
AcDbEntity
  8
_1
100
AcDbLine
 62
7
  6
CONTINUOUS
 10
105.9345255168
 20
277.8278442726
 11
101.8520596092
 21
275.4708455513
  0
LINE
  5
247
100
AcDbEntity
  8
_1
100
AcDbLine
 62
7
  6
CONTINUOUS
 10
105.9345255168
 20
276.2763203678
 11
108.8429487683
 21
277.9554892917
  0
LINE
  5
248
100
AcDbEntity
  8
_1
100
AcDbLine
 62
7
  6
CONTINUOUS
 10
105.9345255168
 20
273.745332187
 11
101.8520596092
 21
271.3883334657
  0
LINE
  5
249
100
AcDbEntity
  8
_1
100
AcDbLine
 62
7
  6
CONTINUOUS
 10
141.7237305696
 20
176.5060840929
 11
141.3590578858
 21
224.9686434233
  0
LINE
  5
24A
100
AcDbEntity
  8
_1
100
AcDbLine
 62
7
  6
CONTINUOUS
 10
148.0997578
 20
255.3052709718
 11
148.1499862274
 21
248.6302490975
  0
LINE
  5
24B
100
AcDbEntity
  8
_1
100
AcDbLine
 62
7
  6
CONTINUOUS
 10
141.3590578858
 20
128.4646029808
 11
141.7237305696
 21
176.5060840929
  0
LINE
  5
24C
100
AcDbEntity
  8
_1
100
AcDbLine
 62
7
  6
CONTINUOUS
 10
72.9258852342
 20
249.9429407494
 11
68.6832622109
 21
247.4934758262
  0
LINE
  5
24D
100
AcDbEntity
  8
_1
100
AcDbLine
 62
7
  6
CONTINUOUS
 10
105.9345255168
 20
267.0500123665
 11
101.8520596092
 21
264.6930136452
  0
LINE
  5
24E
100
AcDbEntity
  8
_1
100
AcDbLine
 62
7
  6
CONTINUOUS
 10
118.7424849204
 20
272.2401187284
 11
104.9539600947
 21
264.2793577279
  0
LINE
  5
24F
100
AcDbEntity
  8
_1
100
AcDbLine
 62
7
  6
CONTINUOUS
 10
118.7424849204
 20
271.8318675198
 11
104.9539600947
 21
263.8711065193
  0
LINE
  5
250
100
AcDbEntity
  8
_1
100
AcDbLine
 62
7
  6
CONTINUOUS
 10
256.2741930344
 20
350.0106368396
 11
256.8097328282
 21
350.3198290381
  0
LINE
  5
251
100
AcDbEntity
  8
_1
100
AcDbLine
 62
7
  6
CONTINUOUS
 10
305.8293294948
 20
375.0586702981
 11
298.8644470768
 21
371.0375175622
  0
LINE
  5
252
100
AcDbEntity
  8
_1
100
AcDbLine
 62
7
  6
CONTINUOUS
 10
50.8709525392
 20
286.113942506
 11
133.5811470794
 21
238.3622697107
  0
LINE
  5
253
100
AcDbEntity
  8
_1
100
AcDbLine
 62
7
  6
CONTINUOUS
 10
161.331336363
 20
229.6888846943
 11
158.0491454354
 21
231.5838156408
  0
LINE
  5
254
100
AcDbEntity
  8
_1
100
AcDbLine
 62
7
  6
CONTINUOUS
 10
119.0353535023
 20
272.6483594829
 11
118.7424790325
 21
273.0566036368
  0
LINE
  5
255
100
AcDbEntity
  8
_1
100
AcDbLine
 62
7
  6
CONTINUOUS
 10
149.8443039323
 20
229.8675732698
 11
150.0741960299
 21
199.316451914
  0
LINE
  5
256
100
AcDbEntity
  8
_1
100
AcDbLine
 62
7
  6
CONTINUOUS
 10
150.0741960299
 20
163.6492036595
 11
149.8443039323
 21
133.3635328273
  0
LINE
  5
257
100
AcDbEntity
  8
_1
100
AcDbLine
 62
7
  6
CONTINUOUS
 10
290.2153332508
 20
351.7254172719
 11
276.0732565066
 21
343.5605341944
  0
LINE
  5
258
100
AcDbEntity
  8
_1
100
AcDbLine
 62
7
  6
CONTINUOUS
 10
303.4315666931
 20
358.4778381053
 11
302.5720640015
 21
357.981606957
  0
LINE
  5
259
100
AcDbEntity
  8
_1
100
AcDbLine
 62
7
  6
CONTINUOUS
 10
59.3561985858
 20
291.0128723525
 11
69.5861800945
 21
285.1067233896
  0
LINE
  5
25A
100
AcDbEntity
  8
_1
100
AcDbLine
 62
7
  6
CONTINUOUS
 10
131.8364116174
 20
249.1673485201
 11
142.066393126
 21
243.2611995572
  0
LINE
  5
25B
100
AcDbEntity
  8
_1
100
AcDbLine
 62
7
  6
CONTINUOUS
 10
164.9233766114
 20
207.8895791453
 11
165.0581571977
 21
189.9781411707
  0
LINE
  5
25C
100
AcDbEntity
  8
_1
100
AcDbLine
 62
7
  6
CONTINUOUS
 10
165.0581571977
 20
189.9781411707
 11
164.9233766114
 21
172.2223308908
  0
LINE
  5
25D
100
AcDbEntity
  8
_1
100
AcDbLine
 62
7
  6
CONTINUOUS
 10
295.4523919693
 20
357.356647678
 11
283.8514046039
 21
350.1741436803
  0
LINE
  5
25E
100
AcDbEntity
  8
_1
100
AcDbLine
 62
7
  6
CONTINUOUS
 10
290.2153332508
 20
347.9695061531
 11
276.0732565066
 21
339.8046230756
  0
LINE
  5
25F
100
AcDbEntity
  8
_1
100
AcDbLine
 62
7
  6
CONTINUOUS
 10
291.6295438692
 20
348.3777520066
 11
275.3661556133
 21
338.9881364676
  0
LINE
  5
260
100
AcDbEntity
  8
_1
100
AcDbLine
 62
7
  6
CONTINUOUS
 10
291.6295438692
 20
347.969500798
 11
275.3661556133
 21
338.579885259
  0
LINE
  5
261
100
AcDbEntity
  8
_1
100
AcDbLine
 62
7
  6
CONTINUOUS
 10
311.4407862697
 20
352.8613636034
 11
131.8364116174
 21
249.1673485201
  0
LINE
  5
262
100
AcDbEntity
  8
_1
100
AcDbLine
 62
7
  6
CONTINUOUS
 10
134.6524796578
 20
247.5415276599
 11
312.8549518708
 21
350.4261588239
  0
LINE
  5
263
100
AcDbEntity
  8
_1
100
AcDbLine
 62
7
  6
CONTINUOUS
 10
110.2571623307
 20
277.955492691
 11
118.7424790325
 21
273.0566036368
  0
LINE
  5
264
100
AcDbEntity
  8
_1
100
AcDbLine
 62
7
  6
CONTINUOUS
 10
146.6855921988
 20
257.7404757514
 11
103.3577439373
 21
282.7552546987
  0
LINE
  5
265
100
AcDbEntity
  8
_1
100
AcDbLine
 62
7
  6
CONTINUOUS
 10
99.7298992622
 20
284.8497444147
 11
84.435360676
 21
293.6798506209
  0
LINE
  5
266
100
AcDbEntity
  8
_1
100
AcDbLine
 62
7
  6
CONTINUOUS
 10
259.9678052914
 20
378.8564777729
 11
259.9518685078
 21
378.8314907301
  0
LINE
  5
267
100
AcDbEntity
  8
_1
100
AcDbLine
 62
7
  6
CONTINUOUS
 10
86.9331805078
 20
215.8835014169
 11
50.8708848099
 21
195.0630495695
  0
LINE
  5
268
100
AcDbEntity
  8
_1
100
AcDbLine
 62
7
  6
CONTINUOUS
 10
312.9051802982
 20
343.7511369496
 11
140.4584152362
 21
244.1895450227
  0
LINE
  5
269
100
AcDbEntity
  8
_1
100
AcDbLine
 62
7
  6
CONTINUOUS
 10
142.066393126
 20
243.2611995572
 11
133.5811470794
 21
238.3622697107
  0
LINE
  5
26A
100
AcDbEntity
  8
_1
100
AcDbLine
 62
7
  6
CONTINUOUS
 10
101.8520596092
 20
264.6930136452
 11
96.2752780297
 21
265.5557180571
  0
LINE
  5
26B
100
AcDbEntity
  8
_1
100
AcDbLine
 62
7
  6
CONTINUOUS
 10
101.8520596092
 20
271.3883334657
 11
96.2752780297
 21
272.2510378776
  0
LINE
  5
26C
100
AcDbEntity
  8
_1
100
AcDbLine
 62
7
  6
CONTINUOUS
 10
96.2752780297
 20
276.3335499632
 11
101.8520596092
 21
275.4708455513
  0
LINE
  5
26D
100
AcDbEntity
  8
_1
100
AcDbLine
 62
7
  6
CONTINUOUS
 10
198.1198493824
 20
351.6434653273
 11
198.1198493824
 21
355.3993764461
  0
LINE
  5
26E
100
AcDbEntity
  8
_1
100
AcDbLine
 62
7
  6
CONTINUOUS
 10
198.3698493824
 20
355.3993764461
 11
198.3698493824
 21
357.0323812804
  0
LINE
  5
26F
100
AcDbEntity
  8
_1
100
AcDbLine
 62
7
  6
CONTINUOUS
 10
198.9985378708
 20
350.4187328657
 11
198.9985378708
 21
354.1746439845
  0
LINE
  5
270
100
AcDbEntity
  8
_1
100
AcDbLine
 62
7
  6
CONTINUOUS
 10
201.2619850061
 20
358.3388191413
 11
201.2619850061
 21
381.2828488647
  0
LINE
  5
271
100
AcDbEntity
  8
_1
100
AcDbLine
 62
7
  6
CONTINUOUS
 10
141.3590578858
 20
224.9686434233
 11
149.8443039323
 21
229.8675732698
  0
LINE
  5
272
100
AcDbEntity
  8
_1
100
AcDbLine
 62
7
  6
CONTINUOUS
 10
149.8669365987
 20
226.8598433647
 11
322.8043395063
 21
326.7047034929
  0
LINE
  5
273
100
AcDbEntity
  8
_1
100
AcDbLine
 62
7
  6
CONTINUOUS
 10
98.9331267853
 20
195.0988607095
 11
62.8708310874
 21
174.278408862
  0
LINE
  5
274
100
AcDbEntity
  8
_1
100
AcDbLine
 62
7
  6
CONTINUOUS
 10
326.6812987522
 20
325.1531601454
 11
149.8953315553
 21
223.086343652
  0
LINE
  5
275
100
AcDbEntity
  8
_1
100
AcDbLine
 62
7
  6
CONTINUOUS
 10
104.4402098449
 20
281.0475474059
 11
103.3577439373
 21
281.2150002819
  0
LINE
  5
276
100
AcDbEntity
  8
_1
100
AcDbLine
 62
7
  6
CONTINUOUS
 10
212.5120438854
 20
347.2345613557
 11
212.5120438854
 21
348.86756619
  0
LINE
  5
277
100
AcDbEntity
  8
_1
100
AcDbLine
 62
7
  6
CONTINUOUS
 10
213.1407323737
 20
346.0098288941
 11
213.1407323737
 21
342.2539177753
  0
LINE
  5
278
100
AcDbEntity
  8
_1
100
AcDbLine
 62
7
  6
CONTINUOUS
 10
213.3336282399
 20
350.3570293649
 11
213.3336282399
 21
350.1394019774
  0
LINE
  5
279
100
AcDbEntity
  8
_1
100
AcDbLine
 62
7
  6
CONTINUOUS
 10
149.916849533
 20
220.2267484039
 11
327.9883704186
 21
323.0357752351
  0
LINE
  5
27A
100
AcDbEntity
  8
_1
100
AcDbLine
 62
7
  6
CONTINUOUS
 10
217.190440395
 20
350.102150224
 11
217.190440395
 21
350.3567788325
  0
LINE
  5
27B
100
AcDbEntity
  8
_1
100
AcDbLine
 62
7
  6
CONTINUOUS
 10
217.3833730608
 20
342.2539279734
 11
217.3833730608
 21
346.0098390922
  0
LINE
  5
27C
100
AcDbEntity
  8
_1
100
AcDbLine
 62
7
  6
CONTINUOUS
 10
218.0120438854
 20
347.2345613557
 11
218.0120438854
 21
348.86756619
  0
LINE
  5
27D
100
AcDbEntity
  8
_1
100
AcDbLine
 62
7
  6
CONTINUOUS
 10
225.1615211581
 20
352.623448578
 11
225.1615211581
 21
366.74651038
  0
LINE
  5
27E
100
AcDbEntity
  8
_1
100
AcDbLine
 62
7
  6
CONTINUOUS
 10
162.7117485434
 20
155.0517776874
 11
162.3311707175
 21
154.4718924835
  0
LINE
  5
27F
100
AcDbEntity
  8
_1
100
AcDbLine
 62
7
  6
CONTINUOUS
 10
150.0741960299
 20
199.316451914
 11
330.8822763606
 21
303.7054226464
  0
LINE
  5
280
100
AcDbEntity
  8
_1
100
AcDbLine
 62
7
  6
CONTINUOUS
 10
231.5254498051
 20
354.1747221696
 11
231.5254498051
 21
350.4188110508
  0
LINE
  5
281
100
AcDbEntity
  8
_1
100
AcDbLine
 62
7
  6
CONTINUOUS
 10
232.1541206297
 20
355.3994444331
 11
232.1541206297
 21
356.9527674607
  0
LINE
  5
282
100
AcDbEntity
  8
_1
100
AcDbLine
 62
7
  6
CONTINUOUS
 10
232.4041206297
 20
351.6435333144
 11
232.4041206297
 21
355.3994444331
  0
LINE
  5
283
100
AcDbEntity
  8
_1
100
AcDbLine
 62
7
  6
CONTINUOUS
 10
241.539385674
 20
379.0826602389
 11
241.539385674
 21
366.8459663074
  0
LINE
  5
284
100
AcDbEntity
  8
_1
100
AcDbLine
 62
7
  6
CONTINUOUS
 10
121.4256681055
 20
165.9383512234
 11
117.1830450822
 21
163.4888863002
  0
LINE
  5
285
100
AcDbEntity
  8
_1
100
AcDbLine
 62
7
  6
CONTINUOUS
 10
141.7237305696
 20
176.5060840929
 11
331.3037672878
 21
285.9595159762
  0
LINE
  5
286
100
AcDbEntity
  8
_1
100
AcDbLine
 62
7
  6
CONTINUOUS
 10
330.8822763606
 20
268.0381743919
 11
150.0741960299
 21
163.6492036595
  0
LINE
  5
287
100
AcDbEntity
  8
_1
100
AcDbLine
 62
7
  6
CONTINUOUS
 10
122.2510408805
 20
147.3623471214
 11
124.7259043108
 21
148.7912016599
  0
LINE
  5
288
100
AcDbEntity
  8
_1
100
AcDbLine
 62
7
  6
CONTINUOUS
 10
276.7294592955
 20
346.2730996279
 11
276.7019273311
 21
346.2678778012
  0
LINE
  5
289
100
AcDbEntity
  8
_1
100
AcDbLine
 62
7
  6
CONTINUOUS
 10
255.6884124846
 20
348.785904122
 11
255.6884124846
 21
349.1941553306
  0
LINE
  5
28A
100
AcDbEntity
  8
_1
100
AcDbLine
 62
7
  6
CONTINUOUS
 10
256.2742048102
 20
347.9694158143
 11
256.2742048102
 21
348.3776670228
  0
LINE
  5
28B
100
AcDbEntity
  8
_1
100
AcDbLine
 62
7
  6
CONTINUOUS
 10
256.8097328282
 20
349.1941604296
 11
256.8097328282
 21
352.9500715484
  0
LINE
  5
28C
100
AcDbEntity
  8
_1
100
AcDbLine
 62
7
  6
CONTINUOUS
 10
257.0597328282
 20
352.9500715484
 11
257.0597328282
 21
354.5830763827
  0
LINE
  5
28D
100
AcDbEntity
  8
_1
100
AcDbLine
 62
7
  6
CONTINUOUS
 10
257.6884213165
 20
347.969427968
 11
257.6884213165
 21
351.7253390868
  0
LINE
  5
28E
100
AcDbEntity
  8
_1
100
AcDbLine
 62
7
  6
CONTINUOUS
 10
259.9518684518
 20
355.8895142436
 11
259.9518684518
 21
378.833543967
  0
LINE
  5
28F
100
AcDbEntity
  8
_1
100
AcDbLine
 62
7
  6
CONTINUOUS
 10
329.9768803526
 20
260.1430595342
 11
329.032066866
 21
259.5975744695
  0
LINE
  5
290
100
AcDbEntity
  8
_1
100
AcDbLine
 62
7
  6
CONTINUOUS
 10
328.9620287743
 20
259.0748992323
 11
329.5760597305
 21
259.429408054
  0
LINE
  5
291
100
AcDbEntity
  8
_1
100
AcDbLine
 62
7
  6
CONTINUOUS
 10
327.4669426143
 20
250.1726655394
 11
149.9530194454
 21
147.6855659785
  0
LINE
  5
292
100
AcDbEntity
  8
_1
100
AcDbLine
 62
7
  6
CONTINUOUS
 10
149.9502706802
 20
147.3234474091
 11
327.0865259569
 21
249.5925016124
  0
LINE
  5
293
100
AcDbEntity
  8
_1
100
AcDbLine
 62
7
  6
CONTINUOUS
 10
149.9488413038
 20
147.1351433147
 11
312.952492464
 21
241.2447834321
  0
LINE
  5
294
100
AcDbEntity
  8
_1
100
AcDbLine
 62
7
  6
CONTINUOUS
 10
218.0395758498
 20
348.7224045256
 11
218.0120438854
 21
348.7171826989
  0
LINE
  5
295
100
AcDbEntity
  8
_1
100
AcDbLine
 62
7
  6
CONTINUOUS
 10
276.7542174251
 20
346.2135886662
 11
276.7258808725
 21
346.2096801537
  0
LINE
  5
296
100
AcDbEntity
  8
_1
100
AcDbLine
 62
7
  6
CONTINUOUS
 10
277.8533119287
 20
330.2180732073
 11
277.9035403561
 21
323.543051333
  0
LINE
  5
297
100
AcDbEntity
  8
_1
100
AcDbLine
 62
7
  6
CONTINUOUS
 10
271.2019273311
 20
344.785256458
 11
271.2019273311
 21
346.4182612922
  0
LINE
  5
298
100
AcDbEntity
  8
_1
100
AcDbLine
 62
7
  6
CONTINUOUS
 10
271.8306158195
 20
343.5605239964
 11
271.8306158195
 21
339.8046128776
  0
LINE
  5
299
100
AcDbEntity
  8
_1
100
AcDbLine
 62
7
  6
CONTINUOUS
 10
272.0235116857
 20
347.907831466
 11
272.0235116857
 21
347.6900970797
  0
LINE
  5
29A
100
AcDbEntity
  8
_1
100
AcDbLine
 62
7
  6
CONTINUOUS
 10
272.5377284886
 20
338.9881296689
 11
272.5377284886
 21
338.5798784603
  0
LINE
  5
29B
100
AcDbEntity
  8
_1
100
AcDbLine
 62
7
  6
CONTINUOUS
 10
275.3661556133
 20
338.579885259
 11
275.3661556133
 21
338.9881364676
  0
LINE
  5
29C
100
AcDbEntity
  8
_1
100
AcDbLine
 62
7
  6
CONTINUOUS
 10
275.8803238408
 20
347.6528453263
 11
275.8803238408
 21
347.907454233
  0
LINE
  5
29D
100
AcDbEntity
  8
_1
100
AcDbLine
 62
7
  6
CONTINUOUS
 10
276.0732565066
 20
339.8046230756
 11
276.0732565066
 21
343.5605341944
  0
LINE
  5
29E
100
AcDbEntity
  8
_1
100
AcDbLine
 62
7
  6
CONTINUOUS
 10
276.7019273311
 20
344.785256458
 11
276.7019273311
 21
346.4182612922
  0
LINE
  5
29F
100
AcDbEntity
  8
_1
100
AcDbLine
 62
7
  6
CONTINUOUS
 10
149.8443039323
 20
133.3635328273
 11
141.3590578858
 21
128.4646029808
  0
LINE
  5
2A0
100
AcDbEntity
  8
_1
100
AcDbLine
 62
7
  6
CONTINUOUS
 10
218.0643339794
 20
348.6628935639
 11
218.0359974267
 21
348.6589850514
  0
LINE
  5
2A1
100
AcDbEntity
  8
_1
100
AcDbLine
 62
7
  6
CONTINUOUS
 10
212.4880696906
 20
348.6589726678
 11
212.4597307873
 21
348.6628813856
  0
LINE
  5
2A2
100
AcDbEntity
  8
_1
100
AcDbLine
 62
7
  6
CONTINUOUS
 10
212.5120438854
 20
348.7172222792
 11
212.4845105413
 21
348.7224461264
  0
LINE
  5
2A3
100
AcDbEntity
  8
_1
100
AcDbLine
 62
7
  6
CONTINUOUS
 10
213.1407323737
 20
342.2539177753
 11
198.9985378708
 21
350.4187328657
  0
LINE
  5
2A4
100
AcDbEntity
  8
_1
100
AcDbLine
 62
7
  6
CONTINUOUS
 10
213.1407323737
 20
346.0098288941
 11
198.9985378708
 21
354.1746439845
  0
LINE
  5
2A5
100
AcDbEntity
  8
_1
100
AcDbLine
 62
7
  6
CONTINUOUS
 10
287.8026995642
 20
306.4966178762
 11
291.0848904917
 21
304.6016869298
  0
LINE
  5
2A6
100
AcDbEntity
  8
_1
100
AcDbLine
 62
7
  6
CONTINUOUS
 10
294.6769307402
 20
282.8023813807
 11
294.8117113264
 21
264.8909434061
  0
LINE
  5
2A7
100
AcDbEntity
  8
_1
100
AcDbLine
 62
7
  6
CONTINUOUS
 10
283.8514046039
 20
350.1741436803
 11
283.8514046039
 21
364.2972054822
  0
LINE
  5
2A8
100
AcDbEntity
  8
_1
100
AcDbLine
 62
7
  6
CONTINUOUS
 10
290.2153332508
 20
351.7254172719
 11
290.2153332508
 21
347.9695061531
  0
LINE
  5
2A9
100
AcDbEntity
  8
_1
100
AcDbLine
 62
7
  6
CONTINUOUS
 10
290.8440040754
 20
352.9501395354
 11
290.8440040754
 21
354.5034625629
  0
LINE
  5
2AA
100
AcDbEntity
  8
_1
100
AcDbLine
 62
7
  6
CONTINUOUS
 10
291.0940040754
 20
349.1942284166
 11
291.0940040754
 21
352.9501395354
  0
LINE
  5
2AB
100
AcDbEntity
  8
_1
100
AcDbLine
 62
7
  6
CONTINUOUS
 10
291.6295438692
 20
348.3777520066
 11
291.6295438692
 21
347.969500798
  0
LINE
  5
2AC
100
AcDbEntity
  8
_1
100
AcDbLine
 62
7
  6
CONTINUOUS
 10
292.2153244189
 20
348.7859823071
 11
292.2153244189
 21
349.1942335156
  0
LINE
  5
2AD
100
AcDbEntity
  8
_1
100
AcDbLine
 62
7
  6
CONTINUOUS
 10
294.8117113264
 20
264.8909434061
 11
294.6769307402
 21
247.1351331262
  0
LINE
  5
2AE
100
AcDbEntity
  8
_1
100
AcDbLine
 62
7
  6
CONTINUOUS
 10
292.4653026722
 20
229.9645799228
 11
292.0847248463
 21
229.3846947189
  0
LINE
  5
2AF
100
AcDbEntity
  8
_1
100
AcDbLine
 62
7
  6
CONTINUOUS
 10
139.0811224566
 20
123.5071642434
 11
147.5663685032
 21
128.4060940899
  0
LINE
  5
2B0
100
AcDbEntity
  8
_1
100
AcDbLine
 62
7
  6
CONTINUOUS
 10
271.1779531363
 20
346.20966777
 11
271.149614233
 21
346.2135764879
  0
LINE
  5
2B1
100
AcDbEntity
  8
_1
100
AcDbLine
 62
7
  6
CONTINUOUS
 10
271.2019273311
 20
346.2679173815
 11
271.1743939871
 21
346.2731412287
  0
LINE
  5
2B2
100
AcDbEntity
  8
_1
100
AcDbLine
 62
7
  6
CONTINUOUS
 10
233.213827918
 20
357.6088626356
 11
276.4391463276
 21
332.6532779868
  0
LINE
  5
2B3
100
AcDbEntity
  8
_1
100
AcDbLine
 62
7
  6
CONTINUOUS
 10
298.8644470768
 20
375.7695502141
 11
298.8644470768
 21
363.5516609394
  0
LINE
  5
2B4
100
AcDbEntity
  8
_1
100
AcDbLine
 62
7
  6
CONTINUOUS
 10
323.5778715096
 20
247.9273226931
 11
323.1972439743
 21
247.3475231255
  0
LINE
  5
2B5
100
AcDbEntity
  8
_1
100
AcDbLine
 62
7
  6
CONTINUOUS
 10
272.5377284886
 20
338.5798784603
 11
256.2742048102
 21
347.9694158143
  0
LINE
  5
2B6
100
AcDbEntity
  8
_1
100
AcDbLine
 62
7
  6
CONTINUOUS
 10
272.5377284886
 20
338.9881296689
 11
256.2742048102
 21
348.3776670228
  0
LINE
  5
2B7
100
AcDbEntity
  8
_1
100
AcDbLine
 62
7
  6
CONTINUOUS
 10
271.8306158195
 20
339.8046128776
 11
257.6884213165
 21
347.969427968
  0
LINE
  5
2B8
100
AcDbEntity
  8
_1
100
AcDbLine
 62
7
  6
CONTINUOUS
 10
271.8306158195
 20
343.5605239964
 11
257.6884213165
 21
351.7253390868
  0
LINE
  5
2B9
100
AcDbEntity
  8
_1
100
AcDbLine
 62
7
  6
CONTINUOUS
 10
318.9152684016
 20
324.4593606466
 11
322.1974593291
 21
322.5644297001
  0
LINE
  5
2BA
100
AcDbEntity
  8
_1
100
AcDbLine
 62
7
  6
CONTINUOUS
 10
308.9658807661
 20
348.1808159776
 11
309.0161091935
 21
341.5057941033
  0
LINE
  5
2BB
100
AcDbEntity
  8
_1
100
AcDbLine
 62
7
  6
CONTINUOUS
 10
309.9911813301
 20
348.7727700007
 11
310.0414097575
 21
342.0977481264
  0
LINE
  5
2BC
100
AcDbEntity
  8
_1
100
AcDbLine
 62
7
  6
CONTINUOUS
 10
312.8549518708
 20
350.4261588239
 11
312.9051802982
 21
343.7511369496
  0
LINE
  5
2BD
100
AcDbEntity
  8
_1
100
AcDbLine
 62
7
  6
CONTINUOUS
 10
319.9405689655
 20
325.0513146697
 11
323.2227598931
 21
323.1563837232
  0
LINE
  5
2BE
100
AcDbEntity
  8
_1
100
AcDbLine
 62
7
  6
CONTINUOUS
 10
291.0940040754
 20
350.3199020741
 11
291.6295320934
 21
350.0107218234
  0
LINE
  5
2BF
100
AcDbEntity
  8
_1
100
AcDbLine
 62
7
  6
CONTINUOUS
 10
325.7894995776
 20
300.7651241511
 11
325.9242801638
 21
282.8536861764
  0
LINE
  5
2C0
100
AcDbEntity
  8
_1
100
AcDbLine
 62
7
  6
CONTINUOUS
 10
326.8148001415
 20
301.3570781742
 11
326.9495807278
 21
283.4456401995
  0
LINE
  5
2C1
100
AcDbEntity
  8
_1
100
AcDbLine
 62
7
  6
CONTINUOUS
 10
325.9242801638
 20
282.8536861764
 11
325.7894995776
 21
265.0978758965
  0
LINE
  5
2C2
100
AcDbEntity
  8
_1
100
AcDbLine
 62
7
  6
CONTINUOUS
 10
326.9495807278
 20
283.4456401995
 11
326.8148001415
 21
265.6898299196
  0
LINE
  5
2C3
100
AcDbEntity
  8
_1
100
AcDbLine
 62
7
  6
CONTINUOUS
 10
251.5635198355
 20
382.9400891339
 11
259.9518684518
 21
378.0971833634
  0
LINE
  5
2C4
100
AcDbEntity
  8
_1
100
AcDbLine
 62
7
  6
CONTINUOUS
 10
295.6230136579
 20
357.5029039812
 11
307.551715165
 21
350.6160207571
  0
LINE
  5
2C5
100
AcDbEntity
  8
_1
100
AcDbLine
 62
7
  6
CONTINUOUS
 10
251.6366960781
 20
384.0817399544
 11
260.3599265919
 21
379.0454944042
  0
LINE
  5
2C6
100
AcDbEntity
  8
_1
100
AcDbLine
 62
7
  6
CONTINUOUS
 10
296.448298024
 20
358.2103347976
 11
308.577015729
 21
351.2079747802
  0
LINE
  5
2C7
100
AcDbEntity
  8
_1
100
AcDbLine
 62
7
  6
CONTINUOUS
 10
250.9830785648
 20
387.7658477765
 11
258.059277015
 21
383.6804951194
  0
LINE
  5
2C8
100
AcDbEntity
  8
_1
100
AcDbLine
 62
7
  6
CONTINUOUS
 10
302.5720640015
 20
357.981606957
 11
311.4407862697
 21
352.8613636034
  0
ARC
  5
2C9
100
AcDbEntity
  8
_1
100
AcDbCircle
 62
7
  6
CONTINUOUS
 10
0.3963133064
 20
-117.4925518673
 40
564.3632963422
100
AcDbArc
 50
62.0699404451
 51
62.7368398328
  0
ARC
  5
2CA
100
AcDbEntity
  8
_1
100
AcDbCircle
 62
7
  6
CONTINUOUS
 10
39.5333654253
 20
-49.5567014314
 40
485.9366688029
100
AcDbArc
 50
57.1070467164
 51
57.7933975999
  0
ARC
  5
2CB
100
AcDbEntity
  8
_1
100
AcDbCircle
 62
7
  6
CONTINUOUS
 10
62.1133253821
 20
-37.3717666914
 40
448.7989918785
100
AcDbArc
 50
53.8783123563
 51
55.2840519765
  0
ARC
  5
2CC
100
AcDbEntity
  8
_1
100
AcDbCircle
 62
7
  6
CONTINUOUS
 10
222.5506918256
 20
272.2122953119
 40
107.2259969057
100
AcDbArc
 50
352.833940458
 51
353.2437280276
  0
ARC
  5
2CD
100
AcDbEntity
  8
_1
100
AcDbCircle
 62
7
  6
CONTINUOUS
 10
225.8809110166
 20
271.7841135475
 40
103.8683774921
100
AcDbArc
 50
350.6805264556
 51
352.8391296753
  0
ARC
  5
2CE
100
AcDbEntity
  8
_1
100
AcDbCircle
 62
7
  6
CONTINUOUS
 10
232.8441123987
 20
270.6540333358
 40
96.8140817486
100
AcDbArc
 50
347.7865871117
 51
350.6731575438
  0
ARC
  5
2CF
100
AcDbEntity
  8
_1
100
AcDbCircle
 62
7
  6
CONTINUOUS
 10
172.0773833589
 20
251.1141283236
 40
24.2813982966
100
AcDbArc
 50
209.101740667
 51
211.1875857401
  0
ARC
  5
2D0
100
AcDbEntity
  8
_1
100
AcDbCircle
 62
7
  6
CONTINUOUS
 10
301.7618169372
 20
325.9867913147
 40
24.2015003253
100
AcDbArc
 50
209.0979032283
 51
211.1906797076
  0
ARC
  5
2D1
100
AcDbEntity
  8
_1
100
AcDbCircle
 62
7
  6
CONTINUOUS
 10
332.7112864389
 20
343.8583145213
 40
24.0146509337
100
AcDbArc
 50
202.730377198
 51
210.15173765
  0
ARC
  5
2D2
100
AcDbEntity
  8
_1
100
AcDbCircle
 62
7
  6
CONTINUOUS
 10
333.7365869864
 20
344.4502685354
 40
24.014650915
100
AcDbArc
 50
202.7303769355
 51
210.151737651
  0
ARC
  5
2D3
100
AcDbEntity
  8
_1
100
AcDbCircle
 62
7
  6
CONTINUOUS
 10
301.540029543
 20
325.8674319433
 40
23.9496601098
100
AcDbArc
 50
202.7582027981
 51
209.106422208
  0
ARC
  5
2D4
100
AcDbEntity
  8
_1
100
AcDbCircle
 62
7
  6
CONTINUOUS
 10
171.7452068841
 20
250.9341438248
 40
23.9036194063
100
AcDbArc
 50
202.7507380368
 51
209.1120360312
  0
ARC
  5
2D5
100
AcDbEntity
  8
_1
100
AcDbCircle
 62
7
  6
CONTINUOUS
 10
333.5239614429
 20
344.3027790944
 40
23.7567203058
100
AcDbArc
 50
210.1017324646
 51
217.5988934769
  0
ARC
  5
2D6
100
AcDbEntity
  8
_1
100
AcDbCircle
 62
7
  6
CONTINUOUS
 10
332.4986608591
 20
343.7108250583
 40
23.7567202822
100
AcDbArc
 50
210.1017324614
 51
217.5988936496
  0
ARC
  5
2D7
100
AcDbEntity
  8
_1
100
AcDbCircle
 62
7
  6
CONTINUOUS
 10
301.3265647221
 20
325.7045414285
 40
23.6829961047
100
AcDbArc
 50
211.1518783183
 51
217.5678107939
  0
ARC
  5
2D8
100
AcDbEntity
  8
_1
100
AcDbCircle
 62
7
  6
CONTINUOUS
 10
171.5687698225
 20
250.789288756
 40
23.6780803622
100
AcDbArc
 50
211.1524714926
 51
217.568757627
  0
ARC
  5
2D9
100
AcDbEntity
  8
_1
100
AcDbCircle
 62
7
  6
CONTINUOUS
 10
321.2282530347
 20
320.3713736965
 40
3.4579986115
100
AcDbArc
 50
29.1688153902
 51
33.6323137376
  0
ARC
  5
2DA
100
AcDbEntity
  8
_1
100
AcDbCircle
 62
7
  6
CONTINUOUS
 10
305.56818382
 20
347.8368917473
 40
3.4455032242
100
AcDbArc
 50
24.9931210675
 51
30.1587656738
  0
ARC
  5
2DB
100
AcDbEntity
  8
_1
100
AcDbCircle
 62
7
  6
CONTINUOUS
 10
306.5934843845
 20
348.4288457707
 40
3.4455032235
100
AcDbArc
 50
24.9931210672
 51
30.1587655973
  0
ARC
  5
2DC
100
AcDbEntity
  8
_1
100
AcDbCircle
 62
7
  6
CONTINUOUS
 10
274.455614983
 20
329.8741489771
 40
3.4455032237
100
AcDbArc
 50
24.9931210672
 51
30.158765624
  0
ARC
  5
2DD
100
AcDbEntity
  8
_1
100
AcDbCircle
 62
7
  6
CONTINUOUS
 10
144.7020608542
 20
254.9613467417
 40
3.4455032238
100
AcDbArc
 50
24.9931210673
 51
30.1587656316
  0
ARC
  5
2DE
100
AcDbEntity
  8
_1
100
AcDbCircle
 62
7
  6
CONTINUOUS
 10
306.5966196791
 20
348.4327335165
 40
3.4408396017
100
AcDbArc
 50
30.1290203213
 51
35.2993312603
  0
ARC
  5
2DF
100
AcDbEntity
  8
_1
100
AcDbCircle
 62
7
  6
CONTINUOUS
 10
305.5713191157
 20
347.8407794938
 40
3.4408396011
100
AcDbArc
 50
30.1290203979
 51
35.2993312606
  0
ARC
  5
2E0
100
AcDbEntity
  8
_1
100
AcDbCircle
 62
7
  6
CONTINUOUS
 10
274.458750278
 20
329.8780367232
 40
3.4408396015
100
AcDbArc
 50
30.129020348
 51
35.2993312604
  0
ARC
  5
2E1
100
AcDbEntity
  8
_1
100
AcDbCircle
 62
7
  6
CONTINUOUS
 10
144.7051961493
 20
254.9652344878
 40
3.4408396015
100
AcDbArc
 50
30.1290203557
 51
35.2993312604
  0
ARC
  5
2E2
100
AcDbEntity
  8
_1
100
AcDbCircle
 62
7
  6
CONTINUOUS
 10
320.2202810742
 20
319.7907909786
 40
3.4372725845
100
AcDbArc
 50
32.7677029466
 51
34.4984621049
  0
ARC
  5
2E3
100
AcDbEntity
  8
_1
100
AcDbCircle
 62
7
  6
CONTINUOUS
 10
321.3113217118
 20
320.4280153869
 40
3.3574634452
100
AcDbArc
 50
33.6126569618
 51
38.1649320577
  0
ARC
  5
2E4
100
AcDbEntity
  8
_1
100
AcDbCircle
 62
7
  6
CONTINUOUS
 10
96.8967667374
 20
274.4492123774
 40
2.4680085561
100
AcDbArc
 50
151.2713643988
 51
154.8154537186
  0
ARC
  5
2E5
100
AcDbEntity
  8
_1
100
AcDbCircle
 62
7
  6
CONTINUOUS
 10
201.849508153
 20
356.3845921595
 40
2.4329228734
100
AcDbArc
 50
299.9573572996
 51
303.5437153027
  0
ARC
  5
2E6
100
AcDbEntity
  8
_1
100
AcDbCircle
 62
7
  6
CONTINUOUS
 10
260.5394228507
 20
353.9352382954
 40
2.4328648432
100
AcDbArc
 50
299.9572954797
 51
303.5458790014
  0
ARC
  5
2E7
100
AcDbEntity
  8
_1
100
AcDbCircle
 62
7
  6
CONTINUOUS
 10
199.8303360427
 20
356.9569876621
 40
1.4748641171
100
AcDbArc
 50
147.156330448
 51
155.4509629643
  0
ARC
  5
2E8
100
AcDbEntity
  8
_1
100
AcDbCircle
 62
7
  6
CONTINUOUS
 10
309.2584553114
 20
239.8911902973
 40
0.6747252076
100
AcDbArc
 50
300.0211313299
 51
310.3729715359
  0
ARC
  5
2E9
100
AcDbEntity
  8
_1
100
AcDbCircle
 62
7
  6
CONTINUOUS
 10
308.2339332481
 20
239.2981021633
 40
0.6733537574
100
AcDbArc
 50
300.0120573078
 51
309.2938660703
  0
ARC
  5
2EA
100
AcDbEntity
  8
_1
100
AcDbCircle
 62
7
  6
CONTINUOUS
 10
323.8906564694
 20
248.5149187544
 40
0.6646913826
100
AcDbArc
 50
299.9744123107
 51
302.4927401399
  0
SPLINE
  5
2EB
100
AcDbEntity
  8
_1
100
AcDbSpline
 62
7
  6
CONTINUOUS
 70
0
 71
3
 72
17
 73
13
 74
0
 42
0.0000001
 43
0.0000001
 44
0.0000000001
 40
0.0
 40
0.0
 40
0.0
 40
0.0
 40
0.1286846125
 40
0.2702739987
 40
0.4174290358
 40
0.5617773219
 40
0.695449554
 40
0.8127136541
 40
0.8646778225
 40
0.9125114386
 40
0.957140578
 40
1.0
 40
1.0
 40
1.0
 40
1.0
 10
102.4790554489
 20
284.4060444404
 30
0.0
 10
102.2569902517
 20
284.5342509414
 30
0.0
 10
101.7541900521
 20
284.741696235
 30
0.0
 10
100.9347329334
 20
284.9056717362
 30
0.0
 10
100.0679795549
 20
284.9296546034
 30
0.0
 10
99.2246983946
 20
284.811163272
 30
0.0
 10
98.4732405293
 20
284.5601768063
 30
0.0
 10
97.9506325693
 20
284.2420299936
 30
0.0
 10
97.6439089348
 20
283.9342314547
 30
0.0
 10
97.4809927279
 20
283.6945698398
 30
0.0
 10
97.3805731635
 20
283.4417885658
 30
0.0
 10
97.3577602024
 20
283.2667137687
 30
0.0
 10
97.3577522747
 20
283.1813119536
 30
0.0
  0
SPLINE
  5
2EC
100
AcDbEntity
  8
_1
100
AcDbSpline
 62
7
  6
CONTINUOUS
 70
0
 71
3
 72
9
 73
5
 74
0
 42
0.0000001
 43
0.0000001
 44
0.0000000001
 40
0.0
 40
0.0
 40
0.0
 40
0.0
 40
0.5082778116
 40
1.0
 40
1.0
 40
1.0
 40
1.0
 10
94.6633624841
 20
275.4994369603
 30
0.0
 10
94.5970670811
 20
275.3582875475
 30
0.0
 10
94.4936635975
 20
275.0666774914
 30
0.0
 10
94.457744652
 20
274.7589003466
 30
0.0
 10
94.4577544765
 20
274.6080366661
 30
0.0
  0
SPLINE
  5
2ED
100
AcDbEntity
  8
_1
100
AcDbSpline
 62
7
  6
CONTINUOUS
 70
0
 71
3
 72
9
 73
5
 74
0
 42
0.0000001
 43
0.0000001
 44
0.0000000001
 40
0.0
 40
0.0
 40
0.0
 40
0.0
 40
0.2534296746
 40
1.0
 40
1.0
 40
1.0
 40
1.0
 10
94.4450391656
 20
273.890371271
 30
0.0
 10
94.4306179666
 20
273.8421018151
 30
0.0
 10
94.3803179791
 20
273.6497363504
 30
0.0
 10
94.3577465847
 20
273.450038739
 30
0.0
 10
94.3577465723
 20
273.3016327315
 30
0.0
  0
SPLINE
  5
2EE
100
AcDbEntity
  8
_1
100
AcDbSpline
 62
7
  6
CONTINUOUS
 70
0
 71
3
 72
12
 73
8
 74
0
 42
0.0000001
 43
0.0000001
 44
0.0000000001
 40
0.0
 40
0.0
 40
0.0
 40
0.0
 40
0.289590259
 40
0.5486315512
 40
0.7816353698
 40
0.8918360408
 40
1.0
 40
1.0
 40
1.0
 40
1.0
 10
96.115120914
 20
269.5457639409
 30
0.0
 10
95.8517451668
 20
269.6978205595
 30
0.0
 10
95.3740197845
 20
270.0268221446
 30
0.0
 10
94.8033280016
 20
270.6263018351
 30
0.0
 10
94.496857986
 20
271.1911485847
 30
0.0
 10
94.3775183962
 20
271.6518457821
 30
0.0
 10
94.3577466487
 20
271.8816385449
 30
0.0
 10
94.3577466185
 20
271.9952288639
 30
0.0
  0
SPLINE
  5
2EF
100
AcDbEntity
  8
_1
100
AcDbSpline
 62
7
  6
CONTINUOUS
 70
0
 71
3
 72
18
 73
14
 74
0
 42
0.0000001
 43
0.0000001
 44
0.0000000001
 40
0.0
 40
0.0
 40
0.0
 40
0.0
 40
0.0434167239
 40
0.0895820918
 40
0.139418781
 40
0.1934109464
 40
0.2516539896
 40
0.3139286406
 40
0.4483884745
 40
0.5913386389
 40
0.7356534066
 40
0.8739887491
 40
1.0
 40
1.0
 40
1.0
 40
1.0
 10
105.8144910973
 20
266.9437831054
 30
0.0
 10
105.7818557975
 20
266.7944084784
 30
0.0
 10
105.6769727088
 20
266.4934991539
 30
0.0
 10
105.418991533
 20
266.0721919497
 30
0.0
 10
105.0637057497
 20
265.6778240917
 30
0.0
 10
104.6187620874
 20
265.317244459
 30
0.0
 10
104.092764338
 20
264.9963480627
 30
0.0
 10
103.2759042297
 20
264.6196116365
 30
0.0
 10
102.1177305355
 20
264.29059677
 30
0.0
 10
100.6352671713
 20
264.129752667
 30
0.0
 10
99.1316901225
 20
264.2047266461
 30
0.0
 10
97.7187875769
 20
264.5095437109
 30
0.0
 10
96.8529880403
 20
264.8739427712
 30
0.0
 10
96.4686728326
 20
265.0958222402
 30
0.0
  0
SPLINE
  5
2F0
100
AcDbEntity
  8
_1
100
AcDbSpline
 62
7
  6
CONTINUOUS
 70
0
 71
3
 72
9
 73
5
 74
0
 42
0.0000001
 43
0.0000001
 44
0.0000000001
 40
0.0
 40
0.0
 40
0.0
 40
0.0
 40
0.2480919409
 40
1.0
 40
1.0
 40
1.0
 40
1.0
 10
106.3577413023
 20
273.3016327316
 30
0.0
 10
106.3577413064
 20
273.3510767996
 30
0.0
 10
106.3503738467
 20
273.5503290811
 30
0.0
 10
106.3130082995
 20
273.7482863063
 30
0.0
 10
106.2700118458
 20
273.8918387812
 30
0.0
  0
SPLINE
  5
2F1
100
AcDbEntity
  8
_1
100
AcDbSpline
 62
7
  6
CONTINUOUS
 70
0
 71
3
 72
9
 73
5
 74
0
 42
0.0000001
 43
0.0000001
 44
0.0000000001
 40
0.0
 40
0.0
 40
0.0
 40
0.0
 40
0.4863860487
 40
1.0
 40
1.0
 40
1.0
 40
1.0
 10
106.3577412561
 20
271.9952288643
 30
0.0
 10
106.3577413095
 20
271.7941827105
 30
0.0
 10
106.2935822276
 20
271.378737238
 30
0.0
 10
106.1144545167
 20
271.0002170643
 30
0.0
 10
106.0019808532
 20
270.820157986
 30
0.0
  0
SPLINE
  5
2F2
100
AcDbEntity
  8
_1
100
AcDbSpline
 62
7
  6
CONTINUOUS
 70
0
 71
3
 72
16
 73
12
 74
0
 42
0.0000001
 43
0.0000001
 44
0.0000000001
 40
0.0
 40
0.0
 40
0.0
 40
0.0
 40
0.0962745488
 40
0.1499844641
 40
0.2073787468
 40
0.3320312695
 40
0.4668497634
 40
0.6067191094
 40
0.7458488196
 40
0.878544876
 40
1.0
 40
1.0
 40
1.0
 40
1.0
 10
106.0019808532
 20
270.820157986
 30
0.0
 10
105.819749539
 20
270.5284238907
 30
0.0
 10
105.4490675242
 20
270.1263056989
 30
0.0
 10
104.8520932528
 20
269.686664094
 30
0.0
 10
104.1193777669
 20
269.2672933535
 30
0.0
 10
103.055173213
 20
268.8611895561
 30
0.0
 10
101.6517131117
 20
268.5762336843
 30
0.0
 10
100.1701796936
 20
268.4972066669
 30
0.0
 10
98.6998491983
 20
268.629042323
 30
0.0
 10
97.3296455855
 20
268.9634044672
 30
0.0
 10
96.4909246342
 20
269.3287984703
 30
0.0
 10
96.115120914
 20
269.5457639409
 30
0.0
  0
SPLINE
  5
2F3
100
AcDbEntity
  8
_1
100
AcDbSpline
 62
7
  6
CONTINUOUS
 70
0
 71
3
 72
9
 73
5
 74
0
 42
0.0000001
 43
0.0000001
 44
0.0000000001
 40
0.0
 40
0.0
 40
0.0
 40
0.0
 40
0.4882893328
 40
1.0
 40
1.0
 40
1.0
 40
1.0
 10
106.2577333981
 20
274.6080365317
 30
0.0
 10
106.2577215504
 20
274.7899687327
 30
0.0
 10
106.2047619811
 20
275.1642070332
 30
0.0
 10
106.0551078021
 20
275.5101069888
 30
0.0
 10
105.9604741586
 20
275.6756220746
 30
0.0
  0
SPLINE
  5
2F4
100
AcDbEntity
  8
_1
100
AcDbSpline
 62
7
  6
CONTINUOUS
 70
0
 71
3
 72
11
 73
7
 74
0
 42
0.0000001
 43
0.0000001
 44
0.0000000001
 40
0.0
 40
0.0
 40
0.0
 40
0.0
 40
0.2177654791
 40
0.4509464802
 40
0.7101902456
 40
1.0
 40
1.0
 40
1.0
 40
1.0
 10
103.3577355999
 20
283.181312004
 30
0.0
 10
103.3577462062
 20
283.2955705764
 30
0.0
 10
103.315564508
 20
283.5337764965
 30
0.0
 10
103.134944673
 20
283.8655246338
 30
0.0
 10
102.8496129874
 20
284.1655964672
 30
0.0
 10
102.6107433414
 20
284.3300161202
 30
0.0
 10
102.4790554489
 20
284.4060444404
 30
0.0
  0
SPLINE
  5
2F5
100
AcDbEntity
  8
_1
100
AcDbSpline
 62
7
  6
CONTINUOUS
 70
0
 71
3
 72
12
 73
8
 74
0
 42
0.0000001
 43
0.0000001
 44
0.0000000001
 40
0.0
 40
0.0
 40
0.0
 40
0.0
 40
0.2895906063
 40
0.5486312377
 40
0.7816356752
 40
0.8918361253
 40
1.0
 40
1.0
 40
1.0
 40
1.0
 10
96.4686728326
 20
265.0958222402
 30
0.0
 10
96.2272448801
 20
265.2352075803
 30
0.0
 10
95.7893310996
 20
265.5367910834
 30
0.0
 10
95.2661921479
 20
266.086315182
 30
0.0
 10
94.9852824193
 20
266.6040954995
 30
0.0
 10
94.8758545395
 20
267.0263955531
 30
0.0
 10
94.85776071
 20
267.2370408087
 30
0.0
 10
94.8577538973
 20
267.3411651407
 30
0.0
  0
SPLINE
  5
2F6
100
AcDbEntity
  8
_1
100
AcDbSpline
 62
7
  6
CONTINUOUS
 70
0
 71
3
 72
11
 73
7
 74
0
 42
0.0000001
 43
0.0000001
 44
0.0000000001
 40
0.0
 40
0.0
 40
0.0
 40
0.0
 40
0.289808241
 40
0.5490507111
 40
0.7822324379
 40
1.0
 40
1.0
 40
1.0
 40
1.0
 10
98.2364324257
 20
277.465816223
 30
0.0
 10
98.1047452219
 20
277.5418441455
 30
0.0
 10
97.8658765432
 20
277.7062626226
 30
0.0
 10
97.5805455543
 20
278.0063334382
 30
0.0
 10
97.3999238308
 20
278.3380814877
 30
0.0
 10
97.3577418462
 20
278.5762889891
 30
0.0
 10
97.357752363
 20
278.6905486537
 30
0.0
  0
SPLINE
  5
2F7
100
AcDbEntity
  8
_1
100
AcDbSpline
 62
7
  6
CONTINUOUS
 70
0
 71
3
 72
20
 73
16
 74
0
 42
0.0000001
 43
0.0000001
 44
0.0000000001
 40
0.0
 40
0.0
 40
0.0
 40
0.0
 40
0.0624187056
 40
0.1287979984
 40
0.2702992225
 40
0.4173621509
 40
0.5616175391
 40
0.6302553517
 40
0.6953811874
 40
0.7563644488
 40
0.81283467
 40
0.8647654077
 40
0.9125679112
 40
0.9571680853
 40
1.0
 40
1.0
 40
1.0
 40
1.0
 10
96.115120914
 20
270.8521678083
 30
0.0
 10
96.330685997
 20
270.7277140651
 30
0.0
 10
96.7926718776
 20
270.499914728
 30
0.0
 10
97.8076549347
 20
270.1323025213
 30
0.0
 10
99.2043932546
 20
269.8527723945
 30
0.0
 10
100.936909664
 20
269.8050336534
 30
0.0
 10
102.3666869653
 20
270.0055512112
 30
0.0
 10
103.4335194789
 20
270.3128939056
 30
0.0
 10
104.1553016945
 20
270.6036950205
 30
0.0
 10
104.7965114519
 20
270.9524417983
 30
0.0
 10
105.3437695568
 20
271.3523319702
 30
0.0
 10
105.7854138574
 20
271.7958316713
 30
0.0
 10
106.1112616452
 20
272.2751094601
 30
0.0
 10
106.3120743833
 20
272.7806843896
 30
0.0
 10
106.3577412881
 20
273.1308287234
 30
0.0
 10
106.3577413023
 20
273.3016327316
 30
0.0
  0
SPLINE
  5
2F8
100
AcDbEntity
  8
_1
100
AcDbSpline
 62
7
  6
CONTINUOUS
 70
0
 71
3
 72
20
 73
16
 74
0
 42
0.0000001
 43
0.0000001
 44
0.0000000001
 40
0.0
 40
0.0
 40
0.0
 40
0.0
 40
0.0428326514
 40
0.0874334678
 40
0.1352365764
 40
0.1871677615
 40
0.2436382418
 40
0.3046215683
 40
0.3697472449
 40
0.4383845665
 40
0.5826379647
 40
0.7296989527
 40
0.8711991451
 40
0.9375817074
 40
1.0
 40
1.0
 40
1.0
 40
1.0
 10
106.2577331426
 20
273.3016326574
 30
0.0
 10
106.2577442062
 20
273.1336725967
 30
0.0
 10
106.2128176843
 20
272.7893589491
 30
0.0
 10
106.0153521525
 20
272.2922051434
 30
0.0
 10
105.6949282469
 20
271.8209110531
 30
0.0
 10
105.2606409944
 20
271.3848005672
 30
0.0
 10
104.7225011292
 20
270.9915742795
 30
0.0
 10
104.0919774067
 20
270.6486409789
 30
0.0
 10
103.3822263465
 20
270.362690117
 30
0.0
 10
102.3331832462
 20
270.0604788758
 30
0.0
 10
100.9272527898
 20
269.8633121037
 30
0.0
 10
99.2236335639
 20
269.9102583984
 30
0.0
 10
97.8501706968
 20
270.1851168346
 30
0.0
 10
96.8521004173
 20
270.5466112713
 30
0.0
 10
96.3978020975
 20
270.7706135939
 30
0.0
 10
96.1858312977
 20
270.8929922237
 30
0.0
  0
SPLINE
  5
2F9
100
AcDbEntity
  8
_1
100
AcDbSpline
 62
7
  6
CONTINUOUS
 70
0
 71
3
 72
12
 73
8
 74
0
 42
0.0000001
 43
0.0000001
 44
0.0000000001
 40
0.0
 40
0.0
 40
0.0
 40
0.0
 40
0.289590773
 40
0.548631305
 40
0.7816354388
 40
0.8918359095
 40
1.0
 40
1.0
 40
1.0
 40
1.0
 10
96.1858312977
 20
270.8929922237
 30
0.0
 10
95.9268447973
 20
271.0425147668
 30
0.0
 10
95.4570826722
 20
271.3660316766
 30
0.0
 10
94.8958975494
 20
271.9555210757
 30
0.0
 10
94.5945579662
 20
272.5109576576
 30
0.0
 10
94.4771717944
 20
272.9639704184
 30
0.0
 10
94.4577620896
 20
273.189935571
 30
0.0
 10
94.457754732
 20
273.3016328057
 30
0.0
  0
SPLINE
  5
2FA
100
AcDbEntity
  8
_1
100
AcDbSpline
 62
7
  6
CONTINUOUS
 70
0
 71
3
 72
12
 73
8
 74
0
 42
0.0000001
 43
0.0000001
 44
0.0000000001
 40
0.0
 40
0.0
 40
0.0
 40
0.0
 40
0.1081626038
 40
0.2183618467
 40
0.4513645038
 40
0.7104054719
 40
1.0
 40
1.0
 40
1.0
 40
1.0
 10
94.4577544765
 20
274.6080366661
 30
0.0
 10
94.4577617503
 20
274.4963409675
 30
0.0
 10
94.4771712245
 20
274.2703786426
 30
0.0
 10
94.594555024
 20
273.8173698304
 30
0.0
 10
94.8958909129
 20
273.2619340311
 30
0.0
 10
95.45707589
 20
272.6724404123
 30
0.0
 10
95.9268414408
 20
272.348920572
 30
0.0
 10
96.1858312977
 20
272.1993960911
 30
0.0
  0
SPLINE
  5
2FB
100
AcDbEntity
  8
_1
100
AcDbSpline
 62
7
  6
CONTINUOUS
 70
0
 71
3
 72
11
 73
7
 74
0
 42
0.0000001
 43
0.0000001
 44
0.0000000001
 40
0.0
 40
0.0
 40
0.0
 40
0.0
 40
0.2177654791
 40
0.4509464802
 40
0.7101902456
 40
1.0
 40
1.0
 40
1.0
 40
1.0
 10
97.3577522747
 20
283.1813119536
 30
0.0
 10
97.3577416684
 20
283.0670533811
 30
0.0
 10
97.3999233666
 20
282.828847461
 30
0.0
 10
97.5805432016
 20
282.4970993238
 30
0.0
 10
97.8658748872
 20
282.1970274904
 30
0.0
 10
98.1047445332
 20
282.0326078373
 30
0.0
 10
98.2364324257
 20
281.9565795172
 30
0.0
  0
SPLINE
  5
2FC
100
AcDbEntity
  8
_1
100
AcDbSpline
 62
7
  6
CONTINUOUS
 70
0
 71
3
 72
17
 73
13
 74
0
 42
0.0000001
 43
0.0000001
 44
0.0000000001
 40
0.0
 40
0.0
 40
0.0
 40
0.0
 40
0.0428596906
 40
0.0874893401
 40
0.1353235906
 40
0.1872882848
 40
0.304552593
 40
0.4382233774
 40
0.5825693514
 40
0.7297234769
 40
0.8713136326
 40
1.0
 40
1.0
 40
1.0
 40
1.0
 10
103.3577355116
 20
278.6905487155
 30
0.0
 10
103.3577276509
 20
278.605146365
 30
0.0
 10
103.3349144922
 20
278.4300699892
 30
0.0
 10
103.2344932913
 20
278.1772862135
 30
0.0
 10
103.071573617
 20
277.9376228621
 30
0.0
 10
102.7648465117
 20
277.629823962
 30
0.0
 10
102.2422384157
 20
277.3116802981
 30
0.0
 10
101.4907870509
 20
277.0606972371
 30
0.0
 10
100.6475152509
 20
276.9422075639
 30
0.0
 10
99.7807667762
 20
276.9661875182
 30
0.0
 10
98.9613060949
 20
277.130161777
 30
0.0
 10
98.4585006517
 20
277.3376079733
 30
0.0
 10
98.2364324257
 20
277.465816223
 30
0.0
  0
SPLINE
  5
2FD
100
AcDbEntity
  8
_1
100
AcDbSpline
 62
7
  6
CONTINUOUS
 70
0
 71
3
 72
20
 73
16
 74
0
 42
0.0000001
 43
0.0000001
 44
0.0000000001
 40
0.0
 40
0.0
 40
0.0
 40
0.0
 40
0.0624175207
 40
0.1287992732
 40
0.2702999463
 40
0.4173629182
 40
0.5616185052
 40
0.6302564504
 40
0.6953822749
 40
0.7563653601
 40
0.8128353094
 40
0.864765761
 40
0.912568044
 40
0.9571680584
 40
1.0
 40
1.0
 40
1.0
 40
1.0
 10
96.1858312977
 20
272.1993960911
 30
0.0
 10
96.3977994796
 20
272.0770189727
 30
0.0
 10
96.8520916492
 20
271.8530182727
 30
0.0
 10
97.8501576065
 20
271.4915245049
 30
0.0
 10
99.2236263417
 20
271.2166619435
 30
0.0
 10
100.9272641546
 20
271.1697156518
 30
0.0
 10
102.3332132585
 20
271.3668876816
 30
0.0
 10
103.3822661129
 20
271.6691074275
 30
0.0
 10
104.0920171494
 20
271.9550640496
 30
0.0
 10
104.7225361155
 20
272.2980010177
 30
0.0
 10
105.2606679951
 20
272.6912282184
 30
0.0
 10
105.6949459152
 20
273.1273363897
 30
0.0
 10
106.0153609532
 20
273.5986251671
 30
0.0
 10
106.2128201518
 20
274.0957715329
 30
0.0
 10
106.2577443357
 20
274.4400792516
 30
0.0
 10
106.2577333981
 20
274.6080365317
 30
0.0
  0
SPLINE
  5
2FE
100
AcDbEntity
  8
_1
100
AcDbSpline
 62
7
  6
CONTINUOUS
 70
0
 71
3
 72
17
 73
13
 74
0
 42
0.0000001
 43
0.0000001
 44
0.0000000001
 40
0.0
 40
0.0
 40
0.0
 40
0.0
 40
0.1286846125
 40
0.2702739987
 40
0.4174290358
 40
0.5617773219
 40
0.695449554
 40
0.8127136541
 40
0.8646778225
 40
0.9125114386
 40
0.957140578
 40
1.0
 40
1.0
 40
1.0
 40
1.0
 10
98.2364324257
 20
281.9565795172
 30
0.0
 10
98.458497623
 20
281.8283730162
 30
0.0
 10
98.9612978225
 20
281.6209277226
 30
0.0
 10
99.7807549412
 20
281.4569522214
 30
0.0
 10
100.6475083197
 20
281.4329693542
 30
0.0
 10
101.49078948
 20
281.5514606856
 30
0.0
 10
102.2422473453
 20
281.8024471512
 30
0.0
 10
102.7648553053
 20
282.120593964
 30
0.0
 10
103.0715789398
 20
282.4283925029
 30
0.0
 10
103.2344951467
 20
282.6680541178
 30
0.0
 10
103.3349147112
 20
282.9208353917
 30
0.0
 10
103.3577276722
 20
283.0959101889
 30
0.0
 10
103.3577355999
 20
283.181312004
 30
0.0
  0
SPLINE
  5
2FF
100
AcDbEntity
  8
_1
100
AcDbSpline
 62
7
  6
CONTINUOUS
 70
0
 71
3
 72
11
 73
7
 74
0
 42
0.0000001
 43
0.0000001
 44
0.0000000001
 40
0.0
 40
0.0
 40
0.0
 40
0.0
 40
0.2230323624
 40
0.4585397742
 40
0.7158527423
 40
1.0
 40
1.0
 40
1.0
 40
1.0
 10
94.8577432519
 20
267.9127167807
 30
0.0
 10
94.8577444156
 20
267.7286101649
 30
0.0
 10
94.9165375923
 20
267.3479926491
 30
0.0
 10
95.1719268602
 20
266.8076899648
 30
0.0
 10
95.5809100017
 20
266.3070200151
 30
0.0
 10
95.9287672541
 20
266.0219603043
 30
0.0
 10
96.121158341
 20
265.8877895559
 30
0.0
  0
SPLINE
  5
300
100
AcDbEntity
  8
_1
100
AcDbSpline
 62
7
  6
CONTINUOUS
 70
0
 71
3
 72
11
 73
7
 74
0
 42
0.0000001
 43
0.0000001
 44
0.0000000001
 40
0.0
 40
0.0
 40
0.0
 40
0.0
 40
0.2869683971
 40
0.5516758507
 40
0.7895207465
 40
1.0
 40
1.0
 40
1.0
 40
1.0
 10
102.2731141339
 20
264.9361081373
 30
0.0
 10
102.631028303
 20
265.0128754268
 30
0.0
 10
103.3107265288
 20
265.2053144473
 30
0.0
 10
104.2313531194
 20
265.6247805641
 30
0.0
 10
104.9818312172
 20
266.1485445337
 30
0.0
 10
105.3681895336
 20
266.5811353722
 30
0.0
 10
105.5134709922
 20
266.8069178744
 30
0.0
  0
SPLINE
  5
301
100
AcDbEntity
  8
_1
100
AcDbSpline
 62
7
  6
CONTINUOUS
 70
0
 71
3
 72
11
 73
7
 74
0
 42
0.0000001
 43
0.0000001
 44
0.0000000001
 40
0.0
 40
0.0
 40
0.0
 40
0.0
 40
0.2325716902
 40
0.481460478
 40
0.7398523319
 40
1.0
 40
1.0
 40
1.0
 40
1.0
 10
96.8504522431
 20
265.4667410505
 30
0.0
 10
97.1671766514
 20
265.3153613628
 30
0.0
 10
97.8510323713
 20
265.0593130506
 30
0.0
 10
98.9447709567
 20
264.8190869012
 30
0.0
 10
100.1015202817
 20
264.7167121908
 30
0.0
 10
100.8860877154
 20
264.7437473322
 30
0.0
 10
101.2768853958
 20
264.7819906518
 30
0.0
  0
SPLINE
  5
302
100
AcDbEntity
  8
_1
100
AcDbSpline
 62
7
  6
CONTINUOUS
 70
0
 71
3
 72
12
 73
8
 74
0
 42
0.0000001
 43
0.0000001
 44
0.0000000001
 40
0.0
 40
0.0
 40
0.0
 40
0.0
 40
0.1081626199
 40
0.2183621762
 40
0.4513646619
 40
0.7104061986
 40
1.0
 40
1.0
 40
1.0
 40
1.0
 10
94.3577465723
 20
273.3016327315
 30
0.0
 10
94.3577465628
 20
273.1880438222
 30
0.0
 10
94.3775175607
 20
272.9582536103
 30
0.0
 10
94.4968557025
 20
272.4975601917
 30
0.0
 10
94.8033219472
 20
271.9327143178
 30
0.0
 10
95.3740133715
 20
271.3332304711
 30
0.0
 10
95.8517419526
 20
271.0042262825
 30
0.0
 10
96.115120914
 20
270.8521678083
 30
0.0
  0
SPLINE
  5
303
100
AcDbEntity
  8
_1
100
AcDbSpline
 62
7
  6
CONTINUOUS
 70
0
 71
3
 72
15
 73
11
 74
0
 42
0.0000001
 43
0.0000001
 44
0.0000000001
 40
0.0
 40
0.0
 40
0.0
 40
0.0
 40
0.1178063471
 40
0.2458658714
 40
0.3805046476
 40
0.5172926292
 40
0.6515693495
 40
0.7789445567
 40
0.8958174322
 40
1.0
 40
1.0
 40
1.0
 40
1.0
 10
283.8514046039
 20
350.1741436803
 30
0.0
 10
283.063159013
 20
349.7190525928
 30
0.0
 10
281.3193003204
 20
348.9363182087
 30
0.0
 10
278.4718565367
 20
348.1677330309
 30
0.0
 10
275.4001104701
 20
347.781599314
 30
0.0
 10
272.256928189
 20
347.7976108259
 30
0.0
 10
269.1976928853
 20
348.2146089357
 30
0.0
 10
266.3726259523
 20
349.0129588682
 30
0.0
 10
263.9205757191
 20
350.153165243
 30
0.0
 10
262.5280698792
 20
351.1720121995
 30
0.0
 10
261.9479641026
 20
351.7300311852
 30
0.0
  0
SPLINE
  5
304
100
AcDbEntity
  8
_1
100
AcDbSpline
 62
7
  6
CONTINUOUS
 70
0
 71
3
 72
11
 73
7
 74
0
 42
0.0000001
 43
0.0000001
 44
0.0000000001
 40
0.0
 40
0.0
 40
0.0
 40
0.0
 40
0.274201297
 40
0.5287762501
 40
0.7684440553
 40
1.0
 40
1.0
 40
1.0
 40
1.0
 10
261.9479641026
 20
351.7300311852
 30
0.0
 10
261.6360570876
 20
352.0300627367
 30
0.0
 10
261.07548261
 20
352.6542525293
 30
0.0
 10
260.4342069457
 20
353.6923693795
 30
0.0
 10
260.0408892872
 20
354.77756817
 30
0.0
 10
259.9518742945
 20
355.5240364276
 30
0.0
 10
259.9518745923
 20
355.8895142432
 30
0.0
  0
SPLINE
  5
305
100
AcDbEntity
  8
_1
100
AcDbSpline
 62
7
  6
CONTINUOUS
 70
0
 71
3
 72
9
 73
5
 74
0
 42
0.0000001
 43
0.0000001
 44
0.0000000001
 40
0.0
 40
0.0
 40
0.0
 40
0.0
 40
0.5137302264
 40
1.0
 40
1.0
 40
1.0
 40
1.0
 10
256.9894267011
 20
353.5405007823
 30
0.0
 10
256.9326534209
 20
353.4500968821
 30
0.0
 10
256.8421982713
 20
353.2599772661
 30
0.0
 10
256.8097548793
 20
353.0511176865
 30
0.0
 10
256.8097548805
 20
352.9500715484
 30
0.0
  0
SPLINE
  5
306
100
AcDbEntity
  8
_1
100
AcDbSpline
 62
7
  6
CONTINUOUS
 70
0
 71
3
 72
11
 73
7
 74
0
 42
0.0000001
 43
0.0000001
 44
0.0000000001
 40
0.0
 40
0.0
 40
0.0
 40
0.0
 40
0.2897781767
 40
0.5490726313
 40
0.7822276909
 40
1.0
 40
1.0
 40
1.0
 40
1.0
 10
257.6884213165
 20
347.969427968
 30
0.0
 10
257.5567489556
 20
348.0454473212
 30
0.0
 10
257.3178934389
 20
348.2098924211
 30
0.0
 10
257.0325220807
 20
348.5099239999
 30
0.0
 10
256.8519525668
 20
348.8417151928
 30
0.0
 10
256.809754882
 20
349.0798992994
 30
0.0
 10
256.8097548805
 20
349.1941604296
 30
0.0
  0
SPLINE
  5
307
100
AcDbEntity
  8
_1
100
AcDbSpline
 62
7
  6
CONTINUOUS
 70
0
 71
3
 72
11
 73
7
 74
0
 42
0.0000001
 43
0.0000001
 44
0.0000000001
 40
0.0
 40
0.0
 40
0.0
 40
0.0
 40
0.2372279391
 40
0.4999994739
 40
0.762771295
 40
1.0
 40
1.0
 40
1.0
 40
1.0
 10
276.0732565066
 20
339.8046230756
 30
0.0
 10
275.7721042213
 20
339.6307537605
 30
0.0
 10
275.0717490165
 20
339.377009148
 30
0.0
 10
273.9519394982
 20
339.2554595845
 30
0.0
 10
272.8321282903
 20
339.3770040378
 30
0.0
 10
272.1317703309
 20
339.6307451728
 30
0.0
 10
271.8306158195
 20
339.8046128776
 30
0.0
  0
SPLINE
  5
308
100
AcDbEntity
  8
_1
100
AcDbSpline
 62
7
  6
CONTINUOUS
 70
0
 71
3
 72
20
 73
16
 74
0
 42
0.0000001
 43
0.0000001
 44
0.0000000001
 40
0.0
 40
0.0
 40
0.0
 40
0.0
 40
0.042833478
 40
0.0874350403
 40
0.1352387022
 40
0.1871702181
 40
0.2436408057
 40
0.3046240478
 40
0.369749495
 40
0.4383864994
 40
0.5826391623
 40
0.7296993274
 40
0.8711991797
 40
0.9375816579
 40
1.0
 40
1.0
 40
1.0
 40
1.0
 10
294.3293915393
 20
394.9772662669
 30
0.0
 10
294.6129069691
 20
395.1409777948
 30
0.0
 10
295.2379109963
 20
395.400707083
 30
0.0
 10
296.2695781815
 20
395.5519072599
 30
0.0
 10
297.3774249095
 20
395.4703493733
 30
0.0
 10
298.5368476329
 20
395.1622992842
 30
0.0
 10
299.7250909892
 20
394.6371499998
 30
0.0
 10
300.9184716055
 20
393.9070405285
 30
0.0
 10
302.0928757366
 20
392.9876594504
 30
0.0
 10
303.6253931594
 20
391.5113965485
 30
0.0
 10
305.3284041091
 20
389.3303251891
 30
0.0
 10
306.9094600101
 20
386.408835523
 30
0.0
 10
307.7840254755
 20
383.8225322128
 30
0.0
 10
308.1464973251
 20
381.7854622442
 30
0.0
 10
308.211117076
 20
380.8002881278
 30
0.0
 10
308.211117076
 20
380.3232086268
 30
0.0
  0
SPLINE
  5
309
100
AcDbEntity
  8
_1
100
AcDbSpline
 62
7
  6
CONTINUOUS
 70
0
 71
3
 72
11
 73
7
 74
0
 42
0.0000001
 43
0.0000001
 44
0.0000000001
 40
0.0
 40
0.0
 40
0.0
 40
0.0
 40
0.2355178527
 40
0.4761203092
 40
0.7289002047
 40
1.0
 40
1.0
 40
1.0
 40
1.0
 10
276.7019273311
 20
346.4182612922
 30
0.0
 10
276.7019273311
 20
346.5794645475
 30
0.0
 10
276.6361180864
 20
346.9083191717
 30
0.0
 10
276.3657241751
 20
347.337873978
 30
0.0
 10
275.9664983475
 20
347.6848927252
 30
0.0
 10
275.6473335957
 20
347.8543660096
 30
0.0
 10
275.4764345376
 20
347.9266515619
 30
0.0
  0
SPLINE
  5
30A
100
AcDbEntity
  8
_1
100
AcDbSpline
 62
7
  6
CONTINUOUS
 70
0
 71
3
 72
9
 73
5
 74
0
 42
0.0000001
 43
0.0000001
 44
0.0000000001
 40
0.0
 40
0.0
 40
0.0
 40
0.0
 40
0.2552683965
 40
1.0
 40
1.0
 40
1.0
 40
1.0
 10
272.4728539881
 20
347.9454220855
 30
0.0
 10
272.441112133
 20
347.932571431
 30
0.0
 10
272.3175884582
 20
347.8802372288
 30
0.0
 10
272.1974531883
 20
347.8197693201
 30
0.0
 10
272.1109315688
 20
347.769816338
 30
0.0
  0
SPLINE
  5
30B
100
AcDbEntity
  8
_1
100
AcDbSpline
 62
7
  6
CONTINUOUS
 70
0
 71
3
 72
11
 73
7
 74
0
 42
0.0000001
 43
0.0000001
 44
0.0000000001
 40
0.0
 40
0.0
 40
0.0
 40
0.0
 40
0.2652883108
 40
0.5168487599
 40
0.7600871689
 40
1.0
 40
1.0
 40
1.0
 40
1.0
 10
272.1109315688
 20
347.769816338
 30
0.0
 10
271.9805476181
 20
347.6945395783
 30
0.0
 10
271.7382168058
 20
347.5255488276
 30
0.0
 10
271.4428503631
 20
347.2055736789
 30
0.0
 10
271.2481041745
 20
346.8305059173
 30
0.0
 10
271.2019273311
 20
346.5544146066
 30
0.0
 10
271.2019273311
 20
346.4182612922
 30
0.0
  0
SPLINE
  5
30C
100
AcDbEntity
  8
_1
100
AcDbSpline
 62
7
  6
CONTINUOUS
 70
0
 71
3
 72
12
 73
8
 74
0
 42
0.0000001
 43
0.0000001
 44
0.0000000001
 40
0.0
 40
0.0
 40
0.0
 40
0.0
 40
0.2895886909
 40
0.5486287819
 40
0.7816339383
 40
0.8918351647
 40
1.0
 40
1.0
 40
1.0
 40
1.0
 10
308.211117076
 20
380.3232086268
 30
0.0
 10
308.211117076
 20
379.7403050154
 30
0.0
 10
308.1228205255
 20
378.6320277228
 30
0.0
 10
307.674642407
 20
377.1102094446
 30
0.0
 10
307.0307067523
 20
376.0602096596
 30
0.0
 10
306.3803926826
 20
375.4205511196
 30
0.0
 10
306.0178643922
 20
375.1675609511
 30
0.0
 10
305.8293189344
 20
375.0586883406
 30
0.0
  0
SPLINE
  5
30D
100
AcDbEntity
  8
_1
100
AcDbSpline
 62
7
  6
CONTINUOUS
 70
0
 71
3
 72
9
 73
5
 74
0
 42
0.0000001
 43
0.0000001
 44
0.0000000001
 40
0.0
 40
0.0
 40
0.0
 40
0.0
 40
0.5186694468
 40
1.0
 40
1.0
 40
1.0
 40
1.0
 10
259.9549942825
 20
356.3796893486
 30
0.0
 10
259.6000297245
 20
356.3914412383
 30
0.0
 10
258.9108321432
 20
356.3329573791
 30
0.0
 10
258.2541718644
 20
356.0994263025
 30
0.0
 10
257.9687370658
 20
355.9346314284
 30
0.0
  0
SPLINE
  5
30E
100
AcDbEntity
  8
_1
100
AcDbSpline
 62
7
  6
CONTINUOUS
 70
0
 71
3
 72
11
 73
7
 74
0
 42
0.0000001
 43
0.0000001
 44
0.0000000001
 40
0.0
 40
0.0
 40
0.0
 40
0.0
 40
0.2652883108
 40
0.5168487599
 40
0.7600871689
 40
1.0
 40
1.0
 40
1.0
 40
1.0
 10
257.9687370658
 20
355.9346314284
 30
0.0
 10
257.8383531152
 20
355.8593546687
 30
0.0
 10
257.5960223028
 20
355.690363918
 30
0.0
 10
257.3006558602
 20
355.3703887693
 30
0.0
 10
257.1059096716
 20
354.9953210077
 30
0.0
 10
257.0597328282
 20
354.719229697
 30
0.0
 10
257.0597328282
 20
354.5830763827
 30
0.0
  0
SPLINE
  5
30F
100
AcDbEntity
  8
_1
100
AcDbSpline
 62
7
  6
CONTINUOUS
 70
0
 71
3
 72
9
 73
5
 74
0
 42
0.0000001
 43
0.0000001
 44
0.0000000001
 40
0.0
 40
0.0
 40
0.0
 40
0.0
 40
0.48626979
 40
1.0
 40
1.0
 40
1.0
 40
1.0
 10
291.093982023
 20
352.9501395354
 30
0.0
 10
291.0939820218
 20
353.0511855885
 30
0.0
 10
291.0615386979
 20
353.2600449861
 30
0.0
 10
290.9710836843
 20
353.4501644596
 30
0.0
 10
290.9143104947
 20
353.5405683025
 30
0.0
  0
SPLINE
  5
310
100
AcDbEntity
  8
_1
100
AcDbSpline
 62
7
  6
CONTINUOUS
 70
0
 71
3
 72
11
 73
7
 74
0
 42
0.0000001
 43
0.0000001
 44
0.0000000001
 40
0.0
 40
0.0
 40
0.0
 40
0.0
 40
0.2177727701
 40
0.4509280213
 40
0.7102223029
 40
1.0
 40
1.0
 40
1.0
 40
1.0
 10
291.093982023
 20
349.1942284166
 30
0.0
 10
291.0939820245
 20
349.0799685165
 30
0.0
 10
291.0517853033
 20
348.841787158
 30
0.0
 10
290.8712196956
 20
348.5099991776
 30
0.0
 10
290.5858541333
 20
348.2099698228
 30
0.0
 10
290.3470031495
 20
348.0455253507
 30
0.0
 10
290.2153332508
 20
347.9695061531
 30
0.0
  0
SPLINE
  5
311
100
AcDbEntity
  8
_1
100
AcDbSpline
 62
7
  6
CONTINUOUS
 70
0
 71
3
 72
9
 73
5
 74
0
 42
0.0000001
 43
0.0000001
 44
0.0000000001
 40
0.0
 40
0.0
 40
0.0
 40
0.0
 40
0.2547179658
 40
1.0
 40
1.0
 40
1.0
 40
1.0
 10
258.2187359466
 20
355.9098692889
 30
0.0
 10
258.2054675699
 20
355.9022088338
 30
0.0
 10
258.1537085104
 20
355.8715659401
 30
0.0
 10
258.1033027802
 20
355.8386234314
 30
0.0
 10
258.0667079579
 20
355.8127322721
 30
0.0
  0
SPLINE
  5
312
100
AcDbEntity
  8
_1
100
AcDbSpline
 62
7
  6
CONTINUOUS
 70
0
 71
3
 72
19
 73
15
 74
0
 42
0.0000001
 43
0.0000001
 44
0.0000000001
 40
0.0
 40
0.0
 40
0.0
 40
0.0
 40
0.0587602322
 40
0.1122165376
 40
0.161297994
 40
0.2076810979
 40
0.2536092251
 40
0.3014523915
 40
0.3531299491
 40
0.4098236905
 40
0.5390553386
 40
0.686597076
 40
0.8438688494
 40
1.0
 40
1.0
 40
1.0
 40
1.0
 10
258.0667079579
 20
355.8127322721
 30
0.0
 10
257.9926651487
 20
355.760346332
 30
0.0
 10
257.8582687846
 20
355.6495315069
 30
0.0
 10
257.6981470949
 20
355.4566240506
 30
0.0
 10
257.5939935595
 20
355.2490573701
 30
0.0
 10
257.550429077
 20
355.032260495
 30
0.0
 10
257.570383875
 20
354.8138339806
 30
0.0
 10
257.6524545653
 20
354.6020992284
 30
0.0
 10
257.7922434021
 20
354.4031876746
 30
0.0
 10
258.0606770974
 20
354.1503658263
 30
0.0
 10
258.5193622429
 20
353.8999999302
 30
0.0
 10
259.1699512917
 20
353.7228122577
 30
0.0
 10
259.8835566115
 20
353.6706790323
 30
0.0
 10
260.3678596583
 20
353.7245456181
 30
0.0
 10
260.6033468279
 20
353.7757974664
 30
0.0
  0
SPLINE
  5
313
100
AcDbEntity
  8
_1
100
AcDbSpline
 62
7
  6
CONTINUOUS
 70
0
 71
3
 72
9
 73
5
 74
0
 42
0.0000001
 43
0.0000001
 44
0.0000000001
 40
0.0
 40
0.0
 40
0.0
 40
0.0
 40
0.525391409
 40
1.0
 40
1.0
 40
1.0
 40
1.0
 10
259.955089229
 20
356.2876199319
 30
0.0
 10
259.641241492
 20
356.2993526703
 30
0.0
 10
259.0395916714
 20
356.2510485998
 30
0.0
 10
258.4644365184
 20
356.0517237334
 30
0.0
 10
258.2187359466
 20
355.9098692889
 30
0.0
  0
SPLINE
  5
314
100
AcDbEntity
  8
_1
100
AcDbSpline
 62
7
  6
CONTINUOUS
 70
0
 71
3
 72
11
 73
7
 74
0
 42
0.0000001
 43
0.0000001
 44
0.0000000001
 40
0.0
 40
0.0
 40
0.0
 40
0.0
 40
0.2177718384
 40
0.4509299156
 40
0.7102268825
 40
1.0
 40
1.0
 40
1.0
 40
1.0
 10
276.7019071219
 20
344.7852564579
 30
0.0
 10
276.701909753
 20
344.6805185914
 30
0.0
 10
276.6632273405
 20
344.462184386
 30
0.0
 10
276.4977090341
 20
344.1580428664
 30
0.0
 10
276.236120905
 20
343.8830173124
 30
0.0
 10
276.0171746588
 20
343.7322775947
 30
0.0
 10
275.8964790753
 20
343.6625943831
 30
0.0
  0
SPLINE
  5
315
100
AcDbEntity
  8
_1
100
AcDbSpline
 62
7
  6
CONTINUOUS
 70
0
 71
3
 72
17
 73
13
 74
0
 42
0.0000001
 43
0.0000001
 44
0.0000000001
 40
0.0
 40
0.0
 40
0.0
 40
0.0
 40
0.1286914424
 40
0.270275894
 40
0.4174292768
 40
0.5617752962
 40
0.6954478949
 40
0.8127150858
 40
0.8646785489
 40
0.9125125227
 40
0.9571418263
 40
1.0
 40
1.0
 40
1.0
 40
1.0
 10
275.8964790753
 20
343.6625943831
 30
0.0
 10
275.6929091964
 20
343.5450639603
 30
0.0
 10
275.2320069517
 20
343.3548953578
 30
0.0
 10
274.4808308325
 20
343.2046191309
 30
0.0
 10
273.6863259285
 20
343.1826015084
 30
0.0
 10
272.9133195849
 20
343.291222286
 30
0.0
 10
272.2244948278
 20
343.521315295
 30
0.0
 10
271.7454040247
 20
343.8129152395
 30
0.0
 10
271.4642604706
 20
344.0950910095
 30
0.0
 10
271.3149113817
 20
344.3147734009
 30
0.0
 10
271.2228631337
 20
344.5464899081
 30
0.0
 10
271.2019495068
 20
344.7069736798
 30
0.0
 10
271.2019475403
 20
344.7852564581
 30
0.0
  0
SPLINE
  5
316
100
AcDbEntity
  8
_1
100
AcDbSpline
 62
7
  6
CONTINUOUS
 70
0
 71
3
 72
11
 73
7
 74
0
 42
0.0000001
 43
0.0000001
 44
0.0000000001
 40
0.0
 40
0.0
 40
0.0
 40
0.0
 40
0.2344594735
 40
0.4940332579
 40
0.756825234
 40
1.0
 40
1.0
 40
1.0
 40
1.0
 10
290.0385558196
 20
351.8274774605
 30
0.0
 10
289.7812047724
 20
351.678896651
 30
0.0
 10
289.1863259554
 20
351.4558923688
 30
0.0
 10
288.2288866523
 20
351.3304210306
 30
0.0
 10
287.2548459382
 20
351.4023415686
 30
0.0
 10
286.6329779041
 20
351.589122551
 30
0.0
 10
286.354215402
 20
351.7205922563
 30
0.0
  0
SPLINE
  5
317
100
AcDbEntity
  8
_1
100
AcDbSpline
 62
7
  6
CONTINUOUS
 70
0
 71
3
 72
11
 73
7
 74
0
 42
0.0000001
 43
0.0000001
 44
0.0000000001
 40
0.0
 40
0.0
 40
0.0
 40
0.0
 40
0.2897730581
 40
0.5490651526
 40
0.7822233799
 40
1.0
 40
1.0
 40
1.0
 40
1.0
 10
275.8964790753
 20
345.2955992173
 30
0.0
 10
276.0171749287
 20
345.3652825848
 30
0.0
 10
276.2361214703
 20
345.516019534
 30
0.0
 10
276.4977063155
 20
345.7910448047
 30
0.0
 10
276.663235176
 20
346.0951826144
 30
0.0
 10
276.7019124732
 20
346.3135208702
 30
0.0
 10
276.7019117134
 20
346.4182612922
 30
0.0
  0
SPLINE
  5
318
100
AcDbEntity
  8
_1
100
AcDbSpline
 62
7
  6
CONTINUOUS
 70
0
 71
3
 72
9
 73
5
 74
0
 42
0.0000001
 43
0.0000001
 44
0.0000000001
 40
0.0
 40
0.0
 40
0.0
 40
0.0
 40
0.2547179658
 40
1.0
 40
1.0
 40
1.0
 40
1.0
 10
272.3609304495
 20
347.7450541985
 30
0.0
 10
272.3476620729
 20
347.7373937434
 30
0.0
 10
272.2959030133
 20
347.7067508497
 30
0.0
 10
272.2454972831
 20
347.673808341
 30
0.0
 10
272.2089024609
 20
347.6479171817
 30
0.0
  0
SPLINE
  5
319
100
AcDbEntity
  8
_1
100
AcDbSpline
 62
7
  6
CONTINUOUS
 70
0
 71
3
 72
19
 73
15
 74
0
 42
0.0000001
 43
0.0000001
 44
0.0000000001
 40
0.0
 40
0.0
 40
0.0
 40
0.0
 40
0.0572555741
 40
0.1085821267
 40
0.1554623587
 40
0.2004568864
 40
0.2467134333
 40
0.2969836742
 40
0.3529421453
 40
0.4151202124
 40
0.5556505822
 40
0.709360443
 40
0.8620921779
 40
1.0
 40
1.0
 40
1.0
 40
1.0
 10
272.2089024609
 20
347.6479171817
 30
0.0
 10
272.1235198218
 20
347.587508212
 30
0.0
 10
271.9706998817
 20
347.4586479089
 30
0.0
 10
271.7982629882
 20
347.2293435274
 30
0.0
 10
271.70362469
 20
346.9810157463
 30
0.0
 10
271.6946858092
 20
346.7240212332
 30
0.0
 10
271.7724311442
 20
346.4728993109
 30
0.0
 10
271.9297862579
 20
346.2391778596
 30
0.0
 10
272.1580488687
 20
346.0295677533
 30
0.0
 10
272.561711823
 20
345.7798219601
 30
0.0
 10
273.1883121091
 20
345.5731141499
 30
0.0
 10
274.0072944196
 20
345.4982877
 30
0.0
 10
274.8188733442
 20
345.5955671965
 30
0.0
 10
275.3247517546
 20
345.7820096276
 30
0.0
 10
275.5429242127
 20
345.9079708031
 30
0.0
  0
SPLINE
  5
31A
100
AcDbEntity
  8
_1
100
AcDbSpline
 62
7
  6
CONTINUOUS
 70
0
 71
3
 72
16
 73
12
 74
0
 42
0.0000001
 43
0.0000001
 44
0.0000000001
 40
0.0
 40
0.0
 40
0.0
 40
0.0
 40
0.138664611
 40
0.2606529084
 40
0.369626694
 40
0.473657907
 40
0.5828701485
 40
0.7052235704
 40
0.772726479
 40
0.8445133344
 40
1.0
 40
1.0
 40
1.0
 40
1.0
 10
275.5429242127
 20
345.9079708031
 30
0.0
 10
275.6552360159
 20
345.9728136659
 30
0.0
 10
275.8563456794
 20
346.1143885602
 30
0.0
 10
276.0852295298
 20
346.37928874
 30
0.0
 10
276.2070966382
 20
346.675446216
 30
0.0
 10
276.2055531899
 20
346.9850333816
 30
0.0
 10
276.0808891417
 20
347.280504255
 30
0.0
 10
275.8941112668
 20
347.4937431007
 30
0.0
 10
275.7027437511
 20
347.6467704499
 30
0.0
 10
275.4695909075
 20
347.7947603725
 30
0.0
 10
275.2740425123
 20
347.8816968488
 30
0.0
 10
275.1371224956
 20
347.9306829815
 30
0.0
  0
SPLINE
  5
31B
100
AcDbEntity
  8
_1
100
AcDbSpline
 62
7
  6
CONTINUOUS
 70
0
 71
3
 72
9
 73
5
 74
0
 42
0.0000001
 43
0.0000001
 44
0.0000000001
 40
0.0
 40
0.0
 40
0.0
 40
0.0
 40
0.2600606229
 40
1.0
 40
1.0
 40
1.0
 40
1.0
 10
272.7949642492
 20
347.9406382424
 30
0.0
 10
272.7559352168
 20
347.9271244464
 30
0.0
 10
272.6070128589
 20
347.871954951
 30
0.0
 10
272.462702397
 20
347.803811909
 30
0.0
 10
272.3609304495
 20
347.7450541985
 30
0.0
  0
SPLINE
  5
31C
100
AcDbEntity
  8
_1
100
AcDbSpline
 62
7
  6
CONTINUOUS
 70
0
 71
3
 72
12
 73
8
 74
0
 42
0.0000001
 43
0.0000001
 44
0.0000000001
 40
0.0
 40
0.0
 40
0.0
 40
0.0
 40
0.2105930593
 40
0.3261888478
 40
0.4487372438
 40
0.7132822001
 40
1.0
 40
1.0
 40
1.0
 40
1.0
 10
260.8387084912
 20
378.533350487
 30
0.0
 10
261.2087311429
 20
377.9620611481
 30
0.0
 10
261.9229506334
 20
377.1649914739
 30
0.0
 10
263.0593601239
 20
376.262296776
 30
0.0
 10
264.4311044834
 20
375.3861310553
 30
0.0
 10
266.422583498
 20
374.4782817294
 30
0.0
 10
268.1425787575
 20
373.9891442003
 30
0.0
 10
269.0484038593
 20
373.793587884
 30
0.0
  0
SPLINE
  5
31D
100
AcDbEntity
  8
_1
100
AcDbSpline
 62
7
  6
CONTINUOUS
 70
0
 71
3
 72
17
 73
13
 74
0
 42
0.0000001
 43
0.0000001
 44
0.0000000001
 40
0.0
 40
0.0
 40
0.0
 40
0.0
 40
0.1286914424
 40
0.270275894
 40
0.4174292768
 40
0.5617752962
 40
0.6954478949
 40
0.8127150858
 40
0.8646785489
 40
0.9125125227
 40
0.9571418263
 40
1.0
 40
1.0
 40
1.0
 40
1.0
 10
261.7542845723
 20
351.8274094735
 30
0.0
 10
261.5507146935
 20
351.7098790507
 30
0.0
 10
261.0898124488
 20
351.5197104483
 30
0.0
 10
260.3386363295
 20
351.3694342214
 30
0.0
 10
259.5441314255
 20
351.3474165988
 30
0.0
 10
258.7711250819
 20
351.4560373764
 30
0.0
 10
258.0823003248
 20
351.6861303854
 30
0.0
 10
257.6032095217
 20
351.9777303299
 30
0.0
 10
257.3220659677
 20
352.2599060999
 30
0.0
 10
257.1727168788
 20
352.4795884913
 30
0.0
 10
257.0806686307
 20
352.7113049985
 30
0.0
 10
257.0597550039
 20
352.8717887702
 30
0.0
 10
257.0597530374
 20
352.9500715485
 30
0.0
  0
SPLINE
  5
31E
100
AcDbEntity
  8
_1
100
AcDbSpline
 62
7
  6
CONTINUOUS
 70
0
 71
3
 72
9
 73
5
 74
0
 42
0.0000001
 43
0.0000001
 44
0.0000000001
 40
0.0
 40
0.0
 40
0.0
 40
0.0
 40
0.4768196011
 40
1.0
 40
1.0
 40
1.0
 40
1.0
 10
282.4371851536
 20
348.0512164877
 30
0.0
 10
281.6113609915
 20
347.5744295314
 30
0.0
 10
279.7537586878
 20
346.7884240277
 30
0.0
 10
277.7905940698
 20
346.3573045626
 30
0.0
 10
276.7542174251
 20
346.2135886662
 30
0.0
  0
SPLINE
  5
31F
100
AcDbEntity
  8
_1
100
AcDbSpline
 62
7
  6
CONTINUOUS
 70
0
 71
3
 72
10
 73
6
 74
0
 42
0.0000001
 43
0.0000001
 44
0.0000000001
 40
0.0
 40
0.0
 40
0.0
 40
0.0
 40
0.4628426792
 40
0.7218681998
 40
1.0
 40
1.0
 40
1.0
 40
1.0
 10
285.5200284613
 20
351.1083175134
 30
0.0
 10
285.2278293099
 20
350.4964697272
 30
0.0
 10
284.5690371001
 20
349.6348410206
 30
0.0
 10
283.4516235894
 20
348.6861422964
 30
0.0
 10
282.790046231
 20
348.2549397096
 30
0.0
 10
282.4371851536
 20
348.0512164877
 30
0.0
  0
SPLINE
  5
320
100
AcDbEntity
  8
_1
100
AcDbSpline
 62
7
  6
CONTINUOUS
 70
0
 71
3
 72
11
 73
7
 74
0
 42
0.0000001
 43
0.0000001
 44
0.0000000001
 40
0.0
 40
0.0
 40
0.0
 40
0.0
 40
0.2976699746
 40
0.5686197247
 40
0.8038536187
 40
1.0
 40
1.0
 40
1.0
 40
1.0
 10
269.0484038593
 20
373.793587884
 30
0.0
 10
270.5380649123
 20
372.8843721578
 30
0.0
 10
273.3713394321
 20
371.1273083498
 30
0.0
 10
277.3484686941
 20
368.5984994584
 30
0.0
 10
280.7991447436
 20
366.351538588
 30
0.0
 10
282.9016880739
 20
364.9456737757
 30
0.0
 10
283.8514046039
 20
364.2972054822
 30
0.0
  0
SPLINE
  5
321
100
AcDbEntity
  8
_1
100
AcDbSpline
 62
7
  6
CONTINUOUS
 70
0
 71
3
 72
13
 73
9
 74
0
 42
0.0000001
 43
0.0000001
 44
0.0000000001
 40
0.0
 40
0.0
 40
0.0
 40
0.0
 40
0.4174324388
 40
0.7161244361
 40
0.8238467821
 40
0.9056202523
 40
0.9632768198
 40
1.0
 40
1.0
 40
1.0
 40
1.0
 10
260.8387084912
 20
378.533350487
 30
0.0
 10
260.7214843872
 20
378.5906791685
 30
0.0
 10
260.5191342951
 20
378.6864026075
 30
0.0
 10
260.2818095834
 20
378.787142249
 30
0.0
 10
260.1377088059
 20
378.8372687062
 30
0.0
 10
260.0628741935
 20
378.8576240116
 30
0.0
 10
260.0087025083
 20
378.8659162831
 30
0.0
 10
259.97804925
 20
378.8635150613
 30
0.0
 10
259.9677145366
 20
378.8585169619
 30
0.0
  0
SPLINE
  5
322
100
AcDbEntity
  8
_1
100
AcDbSpline
 62
7
  6
CONTINUOUS
 70
0
 71
3
 72
16
 73
12
 74
0
 42
0.0000001
 43
0.0000001
 44
0.0000000001
 40
0.0
 40
0.0
 40
0.0
 40
0.0
 40
0.0431158799
 40
0.0875378877
 40
0.1841206038
 40
0.295464219
 40
0.4220826351
 40
0.5611494716
 40
0.7078007606
 40
0.8561300753
 40
1.0
 40
1.0
 40
1.0
 40
1.0
 10
257.0597484459
 20
354.5830763827
 30
0.0
 10
257.0597489282
 20
354.5165882744
 30
0.0
 10
257.0746581002
 20
354.3811619905
 30
0.0
 10
257.1652522404
 20
354.1101333928
 30
0.0
 10
257.396911245
 20
353.7867566726
 30
0.0
 10
257.8101143302
 20
353.4696399068
 30
0.0
 10
258.3401665639
 20
353.2218817089
 30
0.0
 10
258.9569960717
 20
353.0566007725
 30
0.0
 10
259.624674409
 20
352.9827261003
 30
0.0
 10
260.3031989625
 20
353.0046735465
 30
0.0
 10
260.7487951929
 20
353.0846076209
 30
0.0
 10
260.9631584944
 20
353.1417890888
 30
0.0
  0
SPLINE
  5
323
100
AcDbEntity
  8
_1
100
AcDbSpline
 62
7
  6
CONTINUOUS
 70
0
 71
3
 72
11
 73
7
 74
0
 42
0.0000001
 43
0.0000001
 44
0.0000000001
 40
0.0
 40
0.0
 40
0.0
 40
0.0
 40
0.237228705
 40
0.5000005261
 40
0.7627720609
 40
1.0
 40
1.0
 40
1.0
 40
1.0
 10
271.8306158195
 20
343.5605239964
 30
0.0
 10
272.1317703309
 20
343.3866562916
 30
0.0
 10
272.8321282903
 20
343.1329151566
 30
0.0
 10
273.9519394982
 20
343.0113707033
 30
0.0
 10
275.0717490165
 20
343.1329202668
 30
0.0
 10
275.7721042213
 20
343.3866648793
 30
0.0
 10
276.0732565066
 20
343.5605341944
 30
0.0
  0
SPLINE
  5
324
100
AcDbEntity
  8
_1
100
AcDbSpline
 62
7
  6
CONTINUOUS
 70
0
 71
3
 72
9
 73
5
 74
0
 42
0.0000001
 43
0.0000001
 44
0.0000000001
 40
0.0
 40
0.0
 40
0.0
 40
0.0
 40
0.5245221438
 40
1.0
 40
1.0
 40
1.0
 40
1.0
 10
288.5094842531
 20
353.0136844061
 30
0.0
 10
288.7885084049
 20
353.0383253554
 30
0.0
 10
289.3175189499
 20
353.1325532106
 30
0.0
 10
289.8186551879
 20
353.3335233637
 30
0.0
 10
290.0385558196
 20
353.4604822947
 30
0.0
  0
SPLINE
  5
325
100
AcDbEntity
  8
_1
100
AcDbSpline
 62
7
  6
CONTINUOUS
 70
0
 71
3
 72
11
 73
7
 74
0
 42
0.0000001
 43
0.0000001
 44
0.0000000001
 40
0.0
 40
0.0
 40
0.0
 40
0.0
 40
0.2177718384
 40
0.4509299156
 40
0.7102268825
 40
1.0
 40
1.0
 40
1.0
 40
1.0
 10
290.8439838662
 20
352.9501395353
 30
0.0
 10
290.8439864973
 20
352.8454016688
 30
0.0
 10
290.8053040847
 20
352.6270674634
 30
0.0
 10
290.6397857784
 20
352.3229259438
 30
0.0
 10
290.3781976493
 20
352.0479003898
 30
0.0
 10
290.1592514031
 20
351.8971606722
 30
0.0
 10
290.0385558196
 20
351.8274774605
 30
0.0
  0
SPLINE
  5
326
100
AcDbEntity
  8
_1
100
AcDbSpline
 62
7
  6
CONTINUOUS
 70
0
 71
3
 72
14
 73
10
 74
0
 42
0.0000001
 43
0.0000001
 44
0.0000000001
 40
0.0
 40
0.0
 40
0.0
 40
0.0
 40
0.2970904155
 40
0.4361007306
 40
0.5667845442
 40
0.6883070779
 40
0.8004582187
 40
0.9038293495
 40
1.0
 40
1.0
 40
1.0
 40
1.0
 10
271.149614233
 20
346.2135764879
 30
0.0
 10
270.0750961478
 20
346.3625770109
 30
0.0
 10
268.509168744
 20
346.7109957454
 30
0.0
 10
266.5752359979
 20
347.455999103
 30
0.0
 10
265.3033261931
 20
348.1136491072
 30
0.0
 10
264.2037706945
 20
348.8696506062
 30
0.0
 10
263.2982236231
 20
349.710826013
 30
0.0
 10
262.605828399
 20
350.621919391
 30
0.0
 10
262.2886597719
 20
351.2855266526
 30
0.0
 10
262.1757776303
 20
351.6180474232
 30
0.0
  0
SPLINE
  5
327
100
AcDbEntity
  8
_1
100
AcDbSpline
 62
7
  6
CONTINUOUS
 70
0
 71
3
 72
11
 73
7
 74
0
 42
0.0000001
 43
0.0000001
 44
0.0000000001
 40
0.0
 40
0.0
 40
0.0
 40
0.0
 40
0.2177723091
 40
0.4509273687
 40
0.7102218233
 40
1.0
 40
1.0
 40
1.0
 40
1.0
 10
256.8097548805
 20
352.9500715484
 30
0.0
 10
256.809754882
 20
352.8358104182
 30
0.0
 10
256.8519525668
 20
352.5976263116
 30
0.0
 10
257.0325220807
 20
352.2658351187
 30
0.0
 10
257.3178934389
 20
351.9658035399
 30
0.0
 10
257.5567489556
 20
351.80135844
 30
0.0
 10
257.6884213165
 20
351.7253390868
 30
0.0
  0
SPLINE
  5
328
100
AcDbEntity
  8
_1
100
AcDbSpline
 62
7
  6
CONTINUOUS
 70
0
 71
3
 72
17
 73
13
 74
0
 42
0.0000001
 43
0.0000001
 44
0.0000000001
 40
0.0
 40
0.0
 40
0.0
 40
0.0
 40
0.0428588705
 40
0.0874882997
 40
0.1353223328
 40
0.1872856408
 40
0.3045518466
 40
0.4382226938
 40
0.5825694618
 40
0.7297273024
 40
0.8713109533
 40
1.0
 40
1.0
 40
1.0
 40
1.0
 10
271.2019429489
 20
346.4182612923
 30
0.0
 10
271.2019435167
 20
346.3399771007
 30
0.0
 10
271.2228581981
 20
346.1794915199
 30
0.0
 10
271.3149045668
 20
345.9477720965
 30
0.0
 10
271.4642565223
 20
345.728090718
 30
0.0
 10
271.7453989046
 20
345.4459159574
 30
0.0
 10
272.2244862219
 20
345.1543184968
 30
0.0
 10
272.9133080413
 20
344.9242243249
 30
0.0
 10
273.6863222312
 20
344.8156035517
 30
0.0
 10
274.4808369234
 20
344.8376208137
 30
0.0
 10
275.2320156375
 20
344.987903294
 30
0.0
 10
275.6929126208
 20
345.1780707716
 30
0.0
 10
275.8964790753
 20
345.2955992173
 30
0.0
  0
SPLINE
  5
329
100
AcDbEntity
  8
_1
100
AcDbSpline
 62
7
  6
CONTINUOUS
 70
0
 71
3
 72
11
 73
7
 74
0
 42
0.0000001
 43
0.0000001
 44
0.0000000001
 40
0.0
 40
0.0
 40
0.0
 40
0.0
 40
0.2875022507
 40
0.5471892705
 40
0.7819963901
 40
1.0
 40
1.0
 40
1.0
 40
1.0
 10
290.0385558196
 20
353.4604822947
 30
0.0
 10
290.1502195715
 20
353.5249510072
 30
0.0
 10
290.3542578514
 20
353.6637237877
 30
0.0
 10
290.6040617771
 20
353.9134621097
 30
0.0
 10
290.7735672941
 20
354.1883041537
 30
0.0
 10
290.828296681
 20
354.3876615126
 30
0.0
 10
290.8387247917
 20
354.484873285
 30
0.0
  0
SPLINE
  5
32A
100
AcDbEntity
  8
_1
100
AcDbSpline
 62
7
  6
CONTINUOUS
 70
0
 71
3
 72
11
 73
7
 74
0
 42
0.0000001
 43
0.0000001
 44
0.0000000001
 40
0.0
 40
0.0
 40
0.0
 40
0.0
 40
0.2897776971
 40
0.5490719787
 40
0.7822272299
 40
1.0
 40
1.0
 40
1.0
 40
1.0
 10
290.2153332508
 20
351.7254172719
 30
0.0
 10
290.3470031495
 20
351.8014364695
 30
0.0
 10
290.5858541333
 20
351.9658809416
 30
0.0
 10
290.8712196956
 20
352.2659102964
 30
0.0
 10
291.0517853033
 20
352.5976982768
 30
0.0
 10
291.0939820245
 20
352.8358796353
 30
0.0
 10
291.093982023
 20
352.9501395354
 30
0.0
  0
SPLINE
  5
32B
100
AcDbEntity
  8
_1
100
AcDbSpline
 62
7
  6
CONTINUOUS
 70
0
 71
3
 72
15
 73
11
 74
0
 42
0.0000001
 43
0.0000001
 44
0.0000000001
 40
0.0
 40
0.0
 40
0.0
 40
0.0
 40
0.1178062384
 40
0.2458656735
 40
0.3805043342
 40
0.517292189
 40
0.6515689257
 40
0.7789442112
 40
0.8958172264
 40
1.0
 40
1.0
 40
1.0
 40
1.0
 10
225.1615211581
 20
352.623448578
 30
0.0
 10
224.3732778938
 20
352.1683588337
 30
0.0
 10
222.629424429
 20
351.3856261779
 30
0.0
 10
219.7819892747
 20
350.6170414474
 30
0.0
 10
216.7102523857
 20
350.2309060046
 30
0.0
 10
213.5670782594
 20
350.2469137225
 30
0.0
 10
210.5078488067
 20
350.6639060847
 30
0.0
 10
207.6827842335
 20
351.4622487864
 30
0.0
 10
205.2307327876
 20
352.6024470541
 30
0.0
 10
203.8382235253
 20
353.6212874987
 30
0.0
 10
203.2581147459
 20
354.1793033001
 30
0.0
  0
SPLINE
  5
32C
100
AcDbEntity
  8
_1
100
AcDbSpline
 62
7
  6
CONTINUOUS
 70
0
 71
3
 72
11
 73
7
 74
0
 42
0.0000001
 43
0.0000001
 44
0.0000000001
 40
0.0
 40
0.0
 40
0.0
 40
0.0
 40
0.2742015802
 40
0.5287766079
 40
0.7684443046
 40
1.0
 40
1.0
 40
1.0
 40
1.0
 10
203.2581147459
 20
354.1793033001
 30
0.0
 10
202.946202676
 20
354.4793364488
 30
0.0
 10
202.3856190774
 20
355.1035300713
 30
0.0
 10
201.7443322174
 20
356.1416548172
 30
0.0
 10
201.351007517
 20
357.226862939
 30
0.0
 10
201.2619909202
 20
357.9733380848
 30
0.0
 10
201.2619911517
 20
358.338819141
 30
0.0
  0
SPLINE
  5
32D
100
AcDbEntity
  8
_1
100
AcDbSpline
 62
7
  6
CONTINUOUS
 70
0
 71
3
 72
9
 73
5
 74
0
 42
0.0000001
 43
0.0000001
 44
0.0000000001
 40
0.0
 40
0.0
 40
0.0
 40
0.0
 40
0.5137302264
 40
1.0
 40
1.0
 40
1.0
 40
1.0
 10
198.2995432554
 20
355.98980568
 30
0.0
 10
198.2427699752
 20
355.8994017798
 30
0.0
 10
198.1523148256
 20
355.7092821638
 30
0.0
 10
198.1198714335
 20
355.5004225842
 30
0.0
 10
198.1198714348
 20
355.3993764461
 30
0.0
  0
SPLINE
  5
32E
100
AcDbEntity
  8
_1
100
AcDbSpline
 62
7
  6
CONTINUOUS
 70
0
 71
3
 72
19
 73
15
 74
0
 42
0.0000001
 43
0.0000001
 44
0.0000000001
 40
0.0
 40
0.0
 40
0.0
 40
0.0
 40
0.0428420401
 40
0.0874525354
 40
0.1352657609
 40
0.1872076562
 40
0.243689519
 40
0.3046849337
 40
0.3698233863
 40
0.4384741158
 40
0.5827556868
 40
0.7298452613
 40
0.8713735531
 40
1.0
 40
1.0
 40
1.0
 40
1.0
 10
237.7608195446
 20
398.651303705
 30
0.0
 10
238.0443349382
 20
398.8150151394
 30
0.0
 10
238.669338954
 20
399.0747443278
 30
0.0
 10
239.7010060628
 20
399.2259446763
 30
0.0
 10
240.808852706
 20
399.1443867582
 30
0.0
 10
241.9682751566
 20
398.8363367567
 30
0.0
 10
243.156517899
 20
398.3111882024
 30
0.0
 10
244.3498986248
 20
397.5810774252
 30
0.0
 10
245.5243000646
 20
396.6617043367
 30
0.0
 10
247.0568309361
 20
395.1854010403
 30
0.0
 10
248.7597345007
 20
393.0046613573
 30
0.0
 10
250.3412405856
 20
390.0817864424
 30
0.0
 10
251.3675459117
 20
387.046945014
 30
0.0
 10
251.6425451419
 20
384.9801744069
 30
0.0
 10
251.6425451419
 20
383.9972459861
 30
0.0
  0
SPLINE
  5
32F
100
AcDbEntity
  8
_1
100
AcDbSpline
 62
7
  6
CONTINUOUS
 70
0
 71
3
 72
11
 73
7
 74
0
 42
0.0000001
 43
0.0000001
 44
0.0000000001
 40
0.0
 40
0.0
 40
0.0
 40
0.0
 40
0.2355175927
 40
0.4761198995
 40
0.7288998817
 40
1.0
 40
1.0
 40
1.0
 40
1.0
 10
218.0120438854
 20
348.86756619
 30
0.0
 10
218.0120438854
 20
349.0287708665
 30
0.0
 10
217.9462334121
 20
349.3576285096
 30
0.0
 10
217.6758348927
 20
349.7871862235
 30
0.0
 10
217.2766028794
 20
350.1342061797
 30
0.0
 10
216.9574336122
 20
350.3036792282
 30
0.0
 10
216.7865321794
 20
350.375964459
 30
0.0
  0
SPLINE
  5
330
100
AcDbEntity
  8
_1
100
AcDbSpline
 62
7
  6
CONTINUOUS
 70
0
 71
3
 72
9
 73
5
 74
0
 42
0.0000001
 43
0.0000001
 44
0.0000000001
 40
0.0
 40
0.0
 40
0.0
 40
0.0
 40
0.2552653577
 40
1.0
 40
1.0
 40
1.0
 40
1.0
 10
213.7827129461
 20
350.3946226827
 30
0.0
 10
213.7509944819
 20
350.3817782887
 30
0.0
 10
213.6275600691
 20
350.3294706241
 30
0.0
 10
213.5075104092
 20
350.2690399619
 30
0.0
 10
213.421048123
 20
350.2191212357
 30
0.0
  0
SPLINE
  5
331
100
AcDbEntity
  8
_1
100
AcDbSpline
 62
7
  6
CONTINUOUS
 70
0
 71
3
 72
11
 73
7
 74
0
 42
0.0000001
 43
0.0000001
 44
0.0000000001
 40
0.0
 40
0.0
 40
0.0
 40
0.0
 40
0.2897781767
 40
0.5490726313
 40
0.7822276909
 40
1.0
 40
1.0
 40
1.0
 40
1.0
 10
198.9985378708
 20
350.4187328657
 30
0.0
 10
198.8668655099
 20
350.494752219
 30
0.0
 10
198.6280099931
 20
350.6591973188
 30
0.0
 10
198.342638635
 20
350.9592288976
 30
0.0
 10
198.1620691211
 20
351.2910200905
 30
0.0
 10
198.1198714363
 20
351.5292041972
 30
0.0
 10
198.1198714348
 20
351.6434653273
 30
0.0
  0
SPLINE
  5
332
100
AcDbEntity
  8
_1
100
AcDbSpline
 62
7
  6
CONTINUOUS
 70
0
 71
3
 72
11
 73
7
 74
0
 42
0.0000001
 43
0.0000001
 44
0.0000000001
 40
0.0
 40
0.0
 40
0.0
 40
0.0
 40
0.2372279391
 40
0.4999994739
 40
0.762771295
 40
1.0
 40
1.0
 40
1.0
 40
1.0
 10
217.3833730608
 20
342.2539279734
 30
0.0
 10
217.0822207756
 20
342.0800586583
 30
0.0
 10
216.3818655708
 20
341.8263140457
 30
0.0
 10
215.2620560525
 20
341.7047644823
 30
0.0
 10
214.1422448445
 20
341.8263089355
 30
0.0
 10
213.4418868851
 20
342.0800500705
 30
0.0
 10
213.1407323737
 20
342.2539177753
 30
0.0
  0
SPLINE
  5
333
100
AcDbEntity
  8
_1
100
AcDbSpline
 62
7
  6
CONTINUOUS
 70
0
 71
3
 72
11
 73
7
 74
0
 42
0.0000001
 43
0.0000001
 44
0.0000000001
 40
0.0
 40
0.0
 40
0.0
 40
0.0
 40
0.2652883108
 40
0.5168487599
 40
0.7600871689
 40
1.0
 40
1.0
 40
1.0
 40
1.0
 10
213.421048123
 20
350.2191212357
 30
0.0
 10
213.2906641724
 20
350.143844476
 30
0.0
 10
213.04833336
 20
349.9748537254
 30
0.0
 10
212.7529669174
 20
349.6548785766
 30
0.0
 10
212.5582207288
 20
349.279810815
 30
0.0
 10
212.5120438854
 20
349.0037195043
 30
0.0
 10
212.5120438854
 20
348.86756619
 30
0.0
  0
SPLINE
  5
334
100
AcDbEntity
  8
_1
100
AcDbSpline
 62
7
  6
CONTINUOUS
 70
0
 71
3
 72
9
 73
5
 74
0
 42
0.0000001
 43
0.0000001
 44
0.0000000001
 40
0.0
 40
0.0
 40
0.0
 40
0.0
 40
0.5186694468
 40
1.0
 40
1.0
 40
1.0
 40
1.0
 10
201.2651108368
 20
358.8289942463
 30
0.0
 10
200.9101462788
 20
358.840746136
 30
0.0
 10
200.2209486975
 20
358.7822622768
 30
0.0
 10
199.5642884186
 20
358.5487312002
 30
0.0
 10
199.2788536201
 20
358.3839363261
 30
0.0
  0
SPLINE
  5
335
100
AcDbEntity
  8
_1
100
AcDbSpline
 62
7
  6
CONTINUOUS
 70
0
 71
3
 72
12
 73
8
 74
0
 42
0.0000001
 43
0.0000001
 44
0.0000000001
 40
0.0
 40
0.0
 40
0.0
 40
0.0
 40
0.2895886491
 40
0.5486287814
 40
0.7816340557
 40
0.8918352646
 40
1.0
 40
1.0
 40
1.0
 40
1.0
 10
251.6425451419
 20
383.9972459861
 30
0.0
 10
251.6425451419
 20
383.414342461
 30
0.0
 10
251.5542485976
 20
382.3060651841
 30
0.0
 10
251.106070481
 20
380.7842466363
 30
0.0
 10
250.4621344551
 20
379.7342467394
 30
0.0
 10
249.8118204323
 20
379.0945881774
 30
0.0
 10
249.4492923647
 20
378.8415980945
 30
0.0
 10
249.2607470609
 20
378.7327256212
 30
0.0
  0
SPLINE
  5
336
100
AcDbEntity
  8
_1
100
AcDbSpline
 62
7
  6
CONTINUOUS
 70
0
 71
3
 72
9
 73
5
 74
0
 42
0.0000001
 43
0.0000001
 44
0.0000000001
 40
0.0
 40
0.0
 40
0.0
 40
0.0
 40
0.2617410559
 40
1.0
 40
1.0
 40
1.0
 40
1.0
 10
199.2788536201
 20
358.3839363261
 30
0.0
 10
199.2081910278
 20
358.343139503
 30
0.0
 10
198.9459249268
 20
358.1751910605
 30
0.0
 10
198.7158681696
 20
357.9503439444
 30
0.0
 10
198.5912238199
 20
357.756878319
 30
0.0
  0
SPLINE
  5
337
100
AcDbEntity
  8
_1
100
AcDbSpline
 62
7
  6
CONTINUOUS
 70
0
 71
3
 72
9
 73
5
 74
0
 42
0.0000001
 43
0.0000001
 44
0.0000000001
 40
0.0
 40
0.0
 40
0.0
 40
0.0
 40
0.500660371
 40
1.0
 40
1.0
 40
1.0
 40
1.0
 10
198.4887907643
 20
357.5697522415
 30
0.0
 10
198.4504988544
 20
357.4856777336
 30
0.0
 10
198.3904206231
 20
357.309629035
 30
0.0
 10
198.3698493824
 20
357.1245215162
 30
0.0
 10
198.3698493824
 20
357.0323812804
 30
0.0
  0
SPLINE
  5
338
100
AcDbEntity
  8
_1
100
AcDbSpline
 62
7
  6
CONTINUOUS
 70
0
 71
3
 72
9
 73
5
 74
0
 42
0.0000001
 43
0.0000001
 44
0.0000000001
 40
0.0
 40
0.0
 40
0.0
 40
0.0
 40
0.48626979
 40
1.0
 40
1.0
 40
1.0
 40
1.0
 10
232.4040985773
 20
355.3994444331
 30
0.0
 10
232.404098576
 20
355.5004904862
 30
0.0
 10
232.3716552522
 20
355.7093498839
 30
0.0
 10
232.2812002385
 20
355.8994693573
 30
0.0
 10
232.224427049
 20
355.9898732002
 30
0.0
  0
SPLINE
  5
339
100
AcDbEntity
  8
_1
100
AcDbSpline
 62
7
  6
CONTINUOUS
 70
0
 71
3
 72
11
 73
7
 74
0
 42
0.0000001
 43
0.0000001
 44
0.0000000001
 40
0.0
 40
0.0
 40
0.0
 40
0.0
 40
0.2177727701
 40
0.4509280213
 40
0.7102223029
 40
1.0
 40
1.0
 40
1.0
 40
1.0
 10
232.4040985773
 20
351.6435333143
 30
0.0
 10
232.4040985788
 20
351.5292734142
 30
0.0
 10
232.3619018575
 20
351.2910920557
 30
0.0
 10
232.1813362499
 20
350.9593040753
 30
0.0
 10
231.8959706875
 20
350.6592747205
 30
0.0
 10
231.6571197037
 20
350.4948302484
 30
0.0
 10
231.5254498051
 20
350.4188110508
 30
0.0
  0
SPLINE
  5
33A
100
AcDbEntity
  8
_1
100
AcDbSpline
 62
7
  6
CONTINUOUS
 70
0
 71
3
 72
9
 73
5
 74
0
 42
0.0000001
 43
0.0000001
 44
0.0000000001
 40
0.0
 40
0.0
 40
0.0
 40
0.0
 40
0.2547173421
 40
1.0
 40
1.0
 40
1.0
 40
1.0
 10
199.5288525009
 20
358.3591741866
 30
0.0
 10
199.5155851616
 20
358.3515143305
 30
0.0
 10
199.4638300028
 20
358.3208737905
 30
0.0
 10
199.4134279852
 20
358.2879339568
 30
0.0
 10
199.3768357292
 20
358.262044984
 30
0.0
  0
SPLINE
  5
33B
100
AcDbEntity
  8
_1
100
AcDbSpline
 62
7
  6
CONTINUOUS
 70
0
 71
3
 72
19
 73
15
 74
0
 42
0.0000001
 43
0.0000001
 44
0.0000000001
 40
0.0
 40
0.0
 40
0.0
 40
0.0
 40
0.0587606991
 40
0.1122172294
 40
0.1612987715
 40
0.2076818897
 40
0.2536098635
 40
0.3014528226
 40
0.3531302101
 40
0.4098238551
 40
0.5390555014
 40
0.6865972191
 40
0.8438688157
 40
1.0
 40
1.0
 40
1.0
 40
1.0
 10
199.3768357292
 20
358.262044984
 30
0.0
 10
199.3027915841
 20
358.2096588491
 30
0.0
 10
199.168392726
 20
358.0988439253
 30
0.0
 10
199.0082679348
 20
357.9059356936
 30
0.0
 10
198.9041122464
 20
357.6983681723
 30
0.0
 10
198.8605457687
 20
357.4815705689
 30
0.0
 10
198.8804993427
 20
357.263143287
 30
0.0
 10
198.9625690077
 20
357.0514077059
 30
0.0
 10
199.1023575908
 20
356.8524952563
 30
0.0
 10
199.3707917559
 20
356.5996716292
 30
0.0
 10
199.8294793055
 20
356.3493044404
 30
0.0
 10
200.4800716201
 20
356.1721163022
 30
0.0
 10
201.1936806028
 20
356.119983844
 30
0.0
 10
201.6779859133
 20
356.1738518782
 30
0.0
 10
201.9134742299
 20
356.2251047269
 30
0.0
  0
SPLINE
  5
33C
100
AcDbEntity
  8
_1
100
AcDbSpline
 62
7
  6
CONTINUOUS
 70
0
 71
3
 72
9
 73
5
 74
0
 42
0.0000001
 43
0.0000001
 44
0.0000000001
 40
0.0
 40
0.0
 40
0.0
 40
0.0
 40
0.5253909243
 40
1.0
 40
1.0
 40
1.0
 40
1.0
 10
201.2652089099
 20
358.736924726
 30
0.0
 10
200.9513609324
 20
358.7486578139
 30
0.0
 10
200.3497100408
 20
358.7003539272
 30
0.0
 10
199.7745537485
 20
358.5010290213
 30
0.0
 10
199.5288525009
 20
358.3591741866
 30
0.0
  0
SPLINE
  5
33D
100
AcDbEntity
  8
_1
100
AcDbSpline
 62
7
  6
CONTINUOUS
 70
0
 71
3
 72
14
 73
10
 74
0
 42
0.0000001
 43
0.0000001
 44
0.0000000001
 40
0.0
 40
0.0
 40
0.0
 40
0.0
 40
0.2970894303
 40
0.436099496
 40
0.5667832732
 40
0.6883059824
 40
0.8004574683
 40
0.9038290132
 40
1.0
 40
1.0
 40
1.0
 40
1.0
 10
212.4597307873
 20
348.6628813856
 30
0.0
 10
211.3852286846
 20
348.8118796923
 30
0.0
 10
209.8193238039
 20
349.160291519
 30
0.0
 10
207.8854149464
 20
349.9052769899
 30
0.0
 10
206.6135162484
 20
350.5629112366
 30
0.0
 10
205.5139651661
 20
351.3188947037
 30
0.0
 10
204.6084150633
 20
352.1600504375
 30
0.0
 10
203.9160086009
 20
353.0711232027
 30
0.0
 10
203.5988258583
 20
353.7347168976
 30
0.0
 10
203.4859351143
 20
354.0672317586
 30
0.0
  0
SPLINE
  5
33E
100
AcDbEntity
  8
_1
100
AcDbSpline
 62
7
  6
CONTINUOUS
 70
0
 71
3
 72
11
 73
7
 74
0
 42
0.0000001
 43
0.0000001
 44
0.0000000001
 40
0.0
 40
0.0
 40
0.0
 40
0.0
 40
0.2897776971
 40
0.5490719787
 40
0.7822272299
 40
1.0
 40
1.0
 40
1.0
 40
1.0
 10
231.5254498051
 20
354.1747221696
 30
0.0
 10
231.6571197037
 20
354.2507413672
 30
0.0
 10
231.8959706875
 20
354.4151858393
 30
0.0
 10
232.1813362499
 20
354.7152151941
 30
0.0
 10
232.3619018575
 20
355.0470031745
 30
0.0
 10
232.4040985788
 20
355.285184533
 30
0.0
 10
232.4040985773
 20
355.3994444331
 30
0.0
  0
SPLINE
  5
33F
100
AcDbEntity
  8
_1
100
AcDbSpline
 62
7
  6
CONTINUOUS
 70
0
 71
3
 72
11
 73
7
 74
0
 42
0.0000001
 43
0.0000001
 44
0.0000000001
 40
0.0
 40
0.0
 40
0.0
 40
0.0
 40
0.2976702691
 40
0.568619985
 40
0.8038537449
 40
1.0
 40
1.0
 40
1.0
 40
1.0
 10
210.3585204136
 20
376.2428927818
 30
0.0
 10
211.8481829393
 20
375.3336761566
 30
0.0
 10
214.681458624
 20
373.5766113302
 30
0.0
 10
218.6585881052
 20
371.0478014179
 30
0.0
 10
222.1092630807
 20
368.8008420733
 30
0.0
 10
224.2118052403
 20
367.3949782555
 30
0.0
 10
225.1615211581
 20
366.74651038
 30
0.0
  0
SPLINE
  5
340
100
AcDbEntity
  8
_1
100
AcDbSpline
 62
7
  6
CONTINUOUS
 70
0
 71
3
 72
17
 73
13
 74
0
 42
0.0000001
 43
0.0000001
 44
0.0000000001
 40
0.0
 40
0.0
 40
0.0
 40
0.0
 40
0.1286919658
 40
0.2702764102
 40
0.4174294026
 40
0.5617750105
 40
0.6954477686
 40
0.8127152973
 40
0.8646787954
 40
0.9125127165
 40
0.9571419224
 40
1.0
 40
1.0
 40
1.0
 40
1.0
 10
217.2065956295
 20
346.1118992808
 30
0.0
 10
217.0030249232
 20
345.9943683803
 30
0.0
 10
216.5421217049
 20
345.8041995233
 30
0.0
 10
215.7909452235
 20
345.653924013
 30
0.0
 10
214.9964418337
 20
345.6319065106
 30
0.0
 10
214.2234366746
 20
345.740527132
 30
0.0
 10
213.5346116971
 20
345.9706199613
 30
0.0
 10
213.0555200268
 20
346.2622204606
 30
0.0
 10
212.7743762299
 20
346.5443968297
 30
0.0
 10
212.6250274768
 20
346.7640791914
 30
0.0
 10
212.5329795696
 20
346.9957953431
 30
0.0
 10
212.5120660686
 20
347.1562787523
 30
0.0
 10
212.5120640591
 20
347.2345613548
 30
0.0
  0
SPLINE
  5
341
100
AcDbEntity
  8
_1
100
AcDbSpline
 62
7
  6
CONTINUOUS
 70
0
 71
3
 72
11
 73
7
 74
0
 42
0.0000001
 43
0.0000001
 44
0.0000000001
 40
0.0
 40
0.0
 40
0.0
 40
0.0
 40
0.2897730581
 40
0.5490651526
 40
0.7822233799
 40
1.0
 40
1.0
 40
1.0
 40
1.0
 10
217.2065956295
 20
347.744904115
 30
0.0
 10
217.327291483
 20
347.8145874826
 30
0.0
 10
217.5462380246
 20
347.9653244317
 30
0.0
 10
217.8078228698
 20
348.2403497025
 30
0.0
 10
217.9733517303
 20
348.5444875121
 30
0.0
 10
218.0120290274
 20
348.7628257679
 30
0.0
 10
218.0120282677
 20
348.8675661899
 30
0.0
  0
SPLINE
  5
342
100
AcDbEntity
  8
_1
100
AcDbSpline
 62
7
  6
CONTINUOUS
 70
0
 71
3
 72
9
 73
5
 74
0
 42
0.0000001
 43
0.0000001
 44
0.0000000001
 40
0.0
 40
0.0
 40
0.0
 40
0.0
 40
0.2547173421
 40
1.0
 40
1.0
 40
1.0
 40
1.0
 10
213.6710470038
 20
350.1943590962
 30
0.0
 10
213.6577796646
 20
350.1866992401
 30
0.0
 10
213.6060245058
 20
350.1560587001
 30
0.0
 10
213.5556224881
 20
350.1231188664
 30
0.0
 10
213.5190302321
 20
350.0972298936
 30
0.0
  0
SPLINE
  5
343
100
AcDbEntity
  8
_1
100
AcDbSpline
 62
7
  6
CONTINUOUS
 70
0
 71
3
 72
19
 73
15
 74
0
 42
0.0000001
 43
0.0000001
 44
0.0000000001
 40
0.0
 40
0.0
 40
0.0
 40
0.0
 40
0.0572560345
 40
0.1085827813
 40
0.1554631043
 40
0.2004575537
 40
0.2467138748
 40
0.296983868
 40
0.3529421451
 40
0.415120081
 40
0.5556502443
 40
0.7093598588
 40
0.8620917778
 40
1.0
 40
1.0
 40
1.0
 40
1.0
 10
213.5190302321
 20
350.0972298936
 30
0.0
 10
213.4336462877
 20
350.0368208656
 30
0.0
 10
213.2808238755
 20
349.9079608933
 30
0.0
 10
213.1083838219
 20
349.678656236
 30
0.0
 10
213.0137430605
 20
349.4303283588
 30
0.0
 10
213.0048011773
 20
349.1733337212
 30
0.0
 10
213.082544169
 20
348.9222113881
 30
0.0
 10
213.2398972176
 20
348.6884891689
 30
0.0
 10
213.4681583601
 20
348.4788778282
 30
0.0
 10
213.8718204595
 20
348.229130199
 30
0.0
 10
214.4984208231
 20
348.0224205726
 30
0.0
 10
215.317404522
 20
347.94759237
 30
0.0
 10
216.1289862462
 20
348.0448709554
 30
0.0
 10
216.634867137
 20
348.2313138487
 30
0.0
 10
216.853040767
 20
348.3572757009
 30
0.0
  0
SPLINE
  5
344
100
AcDbEntity
  8
_1
100
AcDbSpline
 62
7
  6
CONTINUOUS
 70
0
 71
3
 72
16
 73
12
 74
0
 42
0.0000001
 43
0.0000001
 44
0.0000000001
 40
0.0
 40
0.0
 40
0.0
 40
0.0
 40
0.138664565
 40
0.2606524889
 40
0.3696257383
 40
0.4736564769
 40
0.5828685297
 40
0.7052222606
 40
0.7727254709
 40
0.8445126698
 40
1.0
 40
1.0
 40
1.0
 40
1.0
 10
216.853040767
 20
348.3572757009
 30
0.0
 10
216.9653537691
 20
348.4221192558
 30
0.0
 10
217.1664650896
 20
348.5636958535
 30
0.0
 10
217.3953500941
 20
348.8285991485
 30
0.0
 10
217.5172150847
 20
349.1247600792
 30
0.0
 10
217.5156677079
 20
349.4343495553
 30
0.0
 10
217.3909980952
 20
349.7298215604
 30
0.0
 10
217.2042151204
 20
349.9430605544
 30
0.0
 10
217.0128429069
 20
350.0960877724
 30
0.0
 10
216.7796847749
 20
350.2440773164
 30
0.0
 10
216.5841323872
 20
350.3310129248
 30
0.0
 10
216.4472097574
 20
350.3799983505
 30
0.0
  0
SPLINE
  5
345
100
AcDbEntity
  8
_1
100
AcDbSpline
 62
7
  6
CONTINUOUS
 70
0
 71
3
 72
9
 73
5
 74
0
 42
0.0000001
 43
0.0000001
 44
0.0000000001
 40
0.0
 40
0.0
 40
0.0
 40
0.0
 40
0.2600582178
 40
1.0
 40
1.0
 40
1.0
 40
1.0
 10
214.1049195104
 20
350.3898872383
 30
0.0
 10
214.065905607
 20
350.3763760623
 30
0.0
 10
213.9170394385
 20
350.3212183773
 30
0.0
 10
213.7727828837
 20
350.2530959833
 30
0.0
 10
213.6710470038
 20
350.1943590962
 30
0.0
  0
SPLINE
  5
346
100
AcDbEntity
  8
_1
100
AcDbSpline
 62
7
  6
CONTINUOUS
 70
0
 71
3
 72
12
 73
8
 74
0
 42
0.0000001
 43
0.0000001
 44
0.0000000001
 40
0.0
 40
0.0
 40
0.0
 40
0.0
 40
0.2105930593
 40
0.3261888478
 40
0.4487372438
 40
0.7132822001
 40
1.0
 40
1.0
 40
1.0
 40
1.0
 10
202.1488250455
 20
380.9826553848
 30
0.0
 10
202.5188476971
 20
380.4113660458
 30
0.0
 10
203.2330671877
 20
379.6142963716
 30
0.0
 10
204.3694766782
 20
378.7116016737
 30
0.0
 10
205.7412210376
 20
377.835435953
 30
0.0
 10
207.7327000522
 20
376.9275866271
 30
0.0
 10
209.4526953118
 20
376.4384490981
 30
0.0
 10
210.3585204136
 20
376.2428927818
 30
0.0
  0
SPLINE
  5
347
100
AcDbEntity
  8
_1
100
AcDbSpline
 62
7
  6
CONTINUOUS
 70
0
 71
3
 72
11
 73
7
 74
0
 42
0.0000001
 43
0.0000001
 44
0.0000000001
 40
0.0
 40
0.0
 40
0.0
 40
0.0
 40
0.2344602688
 40
0.494033777
 40
0.7568249118
 40
1.0
 40
1.0
 40
1.0
 40
1.0
 10
231.3486723738
 20
354.2767823582
 30
0.0
 10
231.0913208837
 20
354.128201293
 30
0.0
 10
230.4964423557
 20
353.9051972675
 30
0.0
 10
229.53900512
 20
353.7797262185
 30
0.0
 10
228.5649670209
 20
353.8516457387
 30
0.0
 10
227.9431005075
 20
354.038425464
 30
0.0
 10
227.6643377745
 20
354.1698944301
 30
0.0
  0
SPLINE
  5
348
100
AcDbEntity
  8
_1
100
AcDbSpline
 62
7
  6
CONTINUOUS
 70
0
 71
3
 72
15
 73
11
 74
0
 42
0.0000001
 43
0.0000001
 44
0.0000000001
 40
0.0
 40
0.0
 40
0.0
 40
0.0
 40
0.0870976203
 40
0.1837270316
 40
0.2951246962
 40
0.4218046468
 40
0.5609389539
 40
0.7076610979
 40
0.8560616175
 40
1.0
 40
1.0
 40
1.0
 40
1.0
 10
198.3698650002
 20
357.0323812804
 30
0.0
 10
198.369865974
 20
356.8981326562
 30
0.0
 10
198.4360573905
 20
356.612439258
 30
0.0
 10
198.7070938634
 20
356.2365820145
 30
0.0
 10
199.1202310849
 20
355.9187598943
 30
0.0
 10
199.6503193397
 20
355.6712293005
 30
0.0
 10
200.2671532486
 20
355.5058813693
 30
0.0
 10
200.9348444825
 20
355.4320330042
 30
0.0
 10
201.6133762039
 20
355.4539831287
 30
0.0
 10
202.0589759766
 20
355.5339257485
 30
0.0
 10
202.2733400003
 20
355.591111313
 30
0.0
  0
SPLINE
  5
349
100
AcDbEntity
  8
_1
100
AcDbSpline
 62
7
  6
CONTINUOUS
 70
0
 71
3
 72
17
 73
13
 74
0
 42
0.0000001
 43
0.0000001
 44
0.0000000001
 40
0.0
 40
0.0
 40
0.0
 40
0.0
 40
0.1286919658
 40
0.2702764102
 40
0.4174294026
 40
0.5617750105
 40
0.6954477686
 40
0.8127152973
 40
0.8646787954
 40
0.9125127165
 40
0.9571419224
 40
1.0
 40
1.0
 40
1.0
 40
1.0
 10
203.0644011266
 20
354.2767143712
 30
0.0
 10
202.8608304203
 20
354.1591834707
 30
0.0
 10
202.399927202
 20
353.9690146137
 30
0.0
 10
201.6487507205
 20
353.8187391034
 30
0.0
 10
200.8542473308
 20
353.796721601
 30
0.0
 10
200.0812421717
 20
353.9053422224
 30
0.0
 10
199.3924171942
 20
354.1354350517
 30
0.0
 10
198.9133255239
 20
354.427035551
 30
0.0
 10
198.632181727
 20
354.7092119201
 30
0.0
 10
198.4828329739
 20
354.9288942818
 30
0.0
 10
198.3907850667
 20
355.1606104335
 30
0.0
 10
198.3698715657
 20
355.3210938427
 30
0.0
 10
198.3698695561
 20
355.3993764452
 30
0.0
  0
SPLINE
  5
34A
100
AcDbEntity
  8
_1
100
AcDbSpline
 62
7
  6
CONTINUOUS
 70
0
 71
3
 72
9
 73
5
 74
0
 42
0.0000001
 43
0.0000001
 44
0.0000000001
 40
0.0
 40
0.0
 40
0.0
 40
0.0
 40
0.4768196011
 40
1.0
 40
1.0
 40
1.0
 40
1.0
 10
223.7473017078
 20
350.5005213854
 30
0.0
 10
222.9214775458
 20
350.0237344292
 30
0.0
 10
221.0638752421
 20
349.2377289255
 30
0.0
 10
219.100710624
 20
348.8066094603
 30
0.0
 10
218.0643339794
 20
348.6628935639
 30
0.0
  0
SPLINE
  5
34B
100
AcDbEntity
  8
_1
100
AcDbSpline
 62
7
  6
CONTINUOUS
 70
0
 71
3
 72
10
 73
6
 74
0
 42
0.0000001
 43
0.0000001
 44
0.0000000001
 40
0.0
 40
0.0
 40
0.0
 40
0.0
 40
0.4628426792
 40
0.7218681998
 40
1.0
 40
1.0
 40
1.0
 40
1.0
 10
226.8301450156
 20
353.5576224111
 30
0.0
 10
226.5379458641
 20
352.9457746249
 30
0.0
 10
225.8791536543
 20
352.0841459183
 30
0.0
 10
224.7617401436
 20
351.1354471942
 30
0.0
 10
224.1001627853
 20
350.7042446074
 30
0.0
 10
223.7473017078
 20
350.5005213854
 30
0.0
  0
SPLINE
  5
34C
100
AcDbEntity
  8
_1
100
AcDbSpline
 62
7
  6
CONTINUOUS
 70
0
 71
3
 72
9
 73
5
 74
0
 42
0.0000001
 43
0.0000001
 44
0.0000000001
 40
0.0
 40
0.0
 40
0.0
 40
0.0
 40
0.5245221438
 40
1.0
 40
1.0
 40
1.0
 40
1.0
 10
229.8196008073
 20
355.4629893038
 30
0.0
 10
230.0986249592
 20
355.4876302531
 30
0.0
 10
230.6276355041
 20
355.5818581083
 30
0.0
 10
231.1287717422
 20
355.7828282615
 30
0.0
 10
231.3486723738
 20
355.9097871925
 30
0.0
  0
SPLINE
  5
34D
100
AcDbEntity
  8
_1
100
AcDbSpline
 62
7
  6
CONTINUOUS
 70
0
 71
3
 72
17
 73
13
 74
0
 42
0.0000001
 43
0.0000001
 44
0.0000000001
 40
0.0
 40
0.0
 40
0.0
 40
0.0
 40
0.0428588705
 40
0.0874882997
 40
0.1353223328
 40
0.1872856408
 40
0.3045518466
 40
0.4382226938
 40
0.5825694618
 40
0.7297273024
 40
0.8713109533
 40
1.0
 40
1.0
 40
1.0
 40
1.0
 10
212.5120595031
 20
348.86756619
 30
0.0
 10
212.512060071
 20
348.7892819985
 30
0.0
 10
212.5329747524
 20
348.6287964176
 30
0.0
 10
212.6250211211
 20
348.3970769942
 30
0.0
 10
212.7743730766
 20
348.1773956158
 30
0.0
 10
213.0555154589
 20
347.8952208551
 30
0.0
 10
213.5346027762
 20
347.6036233945
 30
0.0
 10
214.2234245956
 20
347.3735292226
 30
0.0
 10
214.9964387855
 20
347.2649084495
 30
0.0
 10
215.7909534776
 20
347.2869257114
 30
0.0
 10
216.5421321917
 20
347.4372081918
 30
0.0
 10
217.0030291751
 20
347.6273756693
 30
0.0
 10
217.2065956295
 20
347.744904115
 30
0.0
  0
SPLINE
  5
34E
100
AcDbEntity
  8
_1
100
AcDbSpline
 62
7
  6
CONTINUOUS
 70
0
 71
3
 72
11
 73
7
 74
0
 42
0.0000001
 43
0.0000001
 44
0.0000000001
 40
0.0
 40
0.0
 40
0.0
 40
0.0
 40
0.2177713965
 40
0.4509290994
 40
0.7102263779
 40
1.0
 40
1.0
 40
1.0
 40
1.0
 10
232.154100456
 20
355.3994444341
 30
0.0
 10
232.1541031446
 20
355.2947067855
 30
0.0
 10
232.1154204655
 20
355.0763730745
 30
0.0
 10
231.9499029875
 20
354.7722314552
 30
0.0
 10
231.6883144948
 20
354.497205898
 30
0.0
 10
231.4693681614
 20
354.3464656877
 30
0.0
 10
231.3486723738
 20
354.2767823582
 30
0.0
  0
SPLINE
  5
34F
100
AcDbEntity
  8
_1
100
AcDbSpline
 62
7
  6
CONTINUOUS
 70
0
 71
3
 72
11
 73
7
 74
0
 42
0.0000001
 43
0.0000001
 44
0.0000000001
 40
0.0
 40
0.0
 40
0.0
 40
0.0
 40
0.2177713965
 40
0.4509290994
 40
0.7102263779
 40
1.0
 40
1.0
 40
1.0
 40
1.0
 10
218.0120237117
 20
347.2345613566
 30
0.0
 10
218.0120264003
 20
347.129823708
 30
0.0
 10
217.9733437212
 20
346.9114899971
 30
0.0
 10
217.8078262432
 20
346.6073483777
 30
0.0
 10
217.5462377505
 20
346.3323228205
 30
0.0
 10
217.3272914171
 20
346.1815826103
 30
0.0
 10
217.2065956295
 20
346.1118992808
 30
0.0
  0
SPLINE
  5
350
100
AcDbEntity
  8
_1
100
AcDbSpline
 62
7
  6
CONTINUOUS
 70
0
 71
3
 72
13
 73
9
 74
0
 42
0.0000001
 43
0.0000001
 44
0.0000000001
 40
0.0
 40
0.0
 40
0.0
 40
0.0
 40
0.4174323911
 40
0.7161246706
 40
0.823847006
 40
0.9056203653
 40
0.9632767735
 40
1.0
 40
1.0
 40
1.0
 40
1.0
 10
202.1488250455
 20
380.9826553848
 30
0.0
 10
202.0316009639
 20
381.0399840552
 30
0.0
 10
201.8292510383
 20
381.1357080059
 30
0.0
 10
201.5919259454
 20
381.2364468839
 30
0.0
 10
201.447825063
 20
381.2865731581
 30
0.0
 10
201.372990599
 20
381.3069285674
 30
0.0
 10
201.3188190961
 20
381.3152214583
 30
0.0
 10
201.2881658282
 20
381.3128204222
 30
0.0
 10
201.2778310904
 20
381.3078223419
 30
0.0
  0
SPLINE
  5
351
100
AcDbEntity
  8
_1
100
AcDbSpline
 62
7
  6
CONTINUOUS
 70
0
 71
3
 72
11
 73
7
 74
0
 42
0.0000001
 43
0.0000001
 44
0.0000000001
 40
0.0
 40
0.0
 40
0.0
 40
0.0
 40
0.237228705
 40
0.5000005261
 40
0.7627720609
 40
1.0
 40
1.0
 40
1.0
 40
1.0
 10
213.1407323737
 20
346.0098288941
 30
0.0
 10
213.4418868851
 20
345.8359611893
 30
0.0
 10
214.1422448445
 20
345.5822200543
 30
0.0
 10
215.2620560525
 20
345.4606756011
 30
0.0
 10
216.3818655708
 20
345.5822251645
 30
0.0
 10
217.0822207756
 20
345.8359697771
 30
0.0
 10
217.3833730608
 20
346.0098390922
 30
0.0
  0
SPLINE
  5
352
100
AcDbEntity
  8
_1
100
AcDbSpline
 62
7
  6
CONTINUOUS
 70
0
 71
3
 72
11
 73
7
 74
0
 42
0.0000001
 43
0.0000001
 44
0.0000000001
 40
0.0
 40
0.0
 40
0.0
 40
0.0
 40
0.2177723091
 40
0.4509273687
 40
0.7102218233
 40
1.0
 40
1.0
 40
1.0
 40
1.0
 10
198.1198714348
 20
355.3993764461
 30
0.0
 10
198.1198714363
 20
355.285115316
 30
0.0
 10
198.1620691211
 20
355.0469312093
 30
0.0
 10
198.342638635
 20
354.7151400164
 30
0.0
 10
198.6280099931
 20
354.4151084376
 30
0.0
 10
198.8668655099
 20
354.2506633378
 30
0.0
 10
198.9985378708
 20
354.1746439845
 30
0.0
  0
SPLINE
  5
353
100
AcDbEntity
  8
_1
100
AcDbSpline
 62
7
  6
CONTINUOUS
 70
0
 71
3
 72
11
 73
7
 74
0
 42
0.0000001
 43
0.0000001
 44
0.0000000001
 40
0.0
 40
0.0
 40
0.0
 40
0.0
 40
0.2875022507
 40
0.5471892705
 40
0.7819963901
 40
1.0
 40
1.0
 40
1.0
 40
1.0
 10
231.3486723738
 20
355.9097871925
 30
0.0
 10
231.4603361258
 20
355.9742559049
 30
0.0
 10
231.6643744057
 20
356.1130286854
 30
0.0
 10
231.9141783313
 20
356.3627670074
 30
0.0
 10
232.0836838484
 20
356.6376090515
 30
0.0
 10
232.1384132352
 20
356.8369664104
 30
0.0
 10
232.148841346
 20
356.9341781827
 30
0.0
  0
SPLINE
  5
354
100
AcDbEntity
  8
_1
100
AcDbSpline
 62
7
  6
CONTINUOUS
 70
0
 71
3
 72
9
 73
5
 74
0
 42
0.0000001
 43
0.0000001
 44
0.0000000001
 40
0.0
 40
0.0
 40
0.0
 40
0.0
 40
0.258914902
 40
1.0
 40
1.0
 40
1.0
 40
1.0
 10
309.8341847087
 20
239.5351093571
 30
0.0
 10
309.8184206173
 20
239.5112396903
 30
0.0
 10
309.7529359244
 20
239.4222173183
 30
0.0
 10
309.6669477539
 20
239.3479111095
 30
0.0
 10
309.5960333961
 20
239.3069855957
 30
0.0
  0
SPLINE
  5
355
100
AcDbEntity
  8
_1
100
AcDbSpline
 62
7
  6
CONTINUOUS
 70
0
 71
3
 72
9
 73
5
 74
0
 42
0.0000001
 43
0.0000001
 44
0.0000000001
 40
0.0
 40
0.0
 40
0.0
 40
0.0
 40
0.5316494249
 40
1.0
 40
1.0
 40
1.0
 40
1.0
 10
324.6031720735
 20
248.5192767163
 30
0.0
 10
324.5765101886
 20
248.3964075737
 30
0.0
 10
324.4935364666
 20
248.1686541925
 30
0.0
 10
324.3186899033
 20
247.9944677885
 30
0.0
 10
324.2227450602
 20
247.939130754
 30
0.0
  0
SPLINE
  5
356
100
AcDbEntity
  8
_1
100
AcDbSpline
 62
7
  6
CONTINUOUS
 70
0
 71
3
 72
9
 73
5
 74
0
 42
0.0000001
 43
0.0000001
 44
0.0000000001
 40
0.0
 40
0.0
 40
0.0
 40
0.0
 40
0.258600532
 40
1.0
 40
1.0
 40
1.0
 40
1.0
 10
326.8148001415
 20
265.6898299196
 30
0.0
 10
326.7402696737
 20
264.1984448814
 30
0.0
 10
326.3454887664
 20
258.43763946
 30
0.0
 10
325.5110156326
 20
252.7030003992
 30
0.0
 10
324.6031720735
 20
248.5192767163
 30
0.0
  0
SPLINE
  5
357
100
AcDbEntity
  8
_1
100
AcDbSpline
 62
7
  6
CONTINUOUS
 70
0
 71
3
 72
10
 73
6
 74
0
 42
0.0000001
 43
0.0000001
 44
0.0000000001
 40
0.0
 40
0.0
 40
0.0
 40
0.0
 40
0.2324097199
 40
0.4892618267
 40
1.0
 40
1.0
 40
1.0
 40
1.0
 10
323.2227598931
 20
323.1563837232
 30
0.0
 10
323.3939578029
 20
323.0575447999
 30
0.0
 10
323.7231899089
 20
322.7937708439
 30
0.0
 10
324.2595093627
 20
322.1309961335
 30
0.0
 10
324.5289022744
 20
321.5093655306
 30
0.0
 10
324.6031720735
 20
321.0813417257
 30
0.0
  0
SPLINE
  5
358
100
AcDbEntity
  8
_1
100
AcDbSpline
 62
7
  6
CONTINUOUS
 70
0
 71
3
 72
13
 73
9
 74
0
 42
0.0000001
 43
0.0000001
 44
0.0000000001
 40
0.0
 40
0.0
 40
0.0
 40
0.0
 40
0.11459287
 40
0.2380706217
 40
0.5005460296
 40
0.7627228902
 40
0.885851754
 40
1.0
 40
1.0
 40
1.0
 40
1.0
 10
310.0414097575
 20
342.0977481264
 30
0.0
 10
310.0472868325
 20
341.3167241893
 30
0.0
 10
310.2002657459
 20
339.6935459126
 30
0.0
 10
310.9913282342
 20
336.3666470728
 30
0.0
 10
312.8021264285
 20
332.2921885864
 30
0.0
 10
315.4417075283
 20
328.7013733912
 30
0.0
 10
317.9355739141
 20
326.3723508301
 30
0.0
 10
319.2667839105
 20
325.4403158522
 30
0.0
 10
319.9405689655
 20
325.0513146697
 30
0.0
  0
SPLINE
  5
359
100
AcDbEntity
  8
_1
100
AcDbSpline
 62
7
  6
CONTINUOUS
 70
0
 71
3
 72
11
 73
7
 74
0
 42
0.0000001
 43
0.0000001
 44
0.0000000001
 40
0.0
 40
0.0
 40
0.0
 40
0.0
 40
0.2369927091
 40
0.4994505644
 40
0.7622069344
 40
1.0
 40
1.0
 40
1.0
 40
1.0
 10
308.577015729
 20
351.2079747802
 30
0.0
 10
308.7766189522
 20
351.0927364126
 30
0.0
 10
309.1545961788
 20
350.7752841833
 30
0.0
 10
309.5965873307
 20
350.1734538059
 30
0.0
 10
309.9004582755
 20
349.490528704
 30
0.0
 10
309.9894411939
 20
349.004022464
 30
0.0
 10
309.9911813301
 20
348.7727700007
 30
0.0
  0
SPLINE
  5
35A
100
AcDbEntity
  8
_1
100
AcDbSpline
 62
7
  6
CONTINUOUS
 70
0
 71
3
 72
9
 73
5
 74
0
 42
0.0000001
 43
0.0000001
 44
0.0000000001
 40
0.0
 40
0.0
 40
0.0
 40
0.0
 40
0.7431890093
 40
1.0
 40
1.0
 40
1.0
 40
1.0
 10
308.660366852
 20
238.7769882946
 30
0.0
 10
308.7031938883
 20
238.8120254074
 30
0.0
 10
308.7552201117
 20
238.8665319658
 30
0.0
 10
308.7983622537
 20
238.9272222267
 30
0.0
 10
308.8088988289
 20
238.9431776185
 30
0.0
  0
SPLINE
  5
35B
100
AcDbEntity
  8
_1
100
AcDbSpline
 62
7
  6
CONTINUOUS
 70
0
 71
3
 72
9
 73
5
 74
0
 42
0.0000001
 43
0.0000001
 44
0.0000000001
 40
0.0
 40
0.0
 40
0.0
 40
0.0
 40
0.4683506128
 40
1.0
 40
1.0
 40
1.0
 40
1.0
 10
323.197444489
 20
247.3471767436
 30
0.0
 10
323.2933893487
 20
247.4025137675
 30
0.0
 10
323.4682359273
 20
247.5767001707
 30
0.0
 10
323.5512096265
 20
247.8044535592
 30
0.0
 10
323.5778715096
 20
247.9273226931
 30
0.0
  0
SPLINE
  5
35C
100
AcDbEntity
  8
_1
100
AcDbSpline
 62
7
  6
CONTINUOUS
 70
0
 71
3
 72
9
 73
5
 74
0
 42
0.0000001
 43
0.0000001
 44
0.0000000001
 40
0.0
 40
0.0
 40
0.0
 40
0.0
 40
0.2466551114
 40
1.0
 40
1.0
 40
1.0
 40
1.0
 10
315.1430074446
 20
327.4996803221
 30
0.0
 10
315.0151625294
 20
327.6343407727
 30
0.0
 10
314.5042126563
 20
328.1872443817
 30
0.0
 10
314.0223815879
 20
328.7669575956
 30
0.0
 10
313.6761775315
 20
329.2161405172
 30
0.0
  0
SPLINE
  5
35D
100
AcDbEntity
  8
_1
100
AcDbSpline
 62
7
  6
CONTINUOUS
 70
0
 71
3
 72
9
 73
5
 74
0
 42
0.0000001
 43
0.0000001
 44
0.0000000001
 40
0.0
 40
0.0
 40
0.0
 40
0.0
 40
0.2530591126
 40
1.0
 40
1.0
 40
1.0
 40
1.0
 10
310.5617727702
 20
334.5791710419
 30
0.0
 10
310.4881999565
 20
334.7552614017
 30
0.0
 10
310.2061118784
 20
335.4546778171
 30
0.0
 10
309.9587813637
 20
336.1682002848
 30
0.0
 10
309.795903558
 20
336.7074371284
 30
0.0
  0
SPLINE
  5
35E
100
AcDbEntity
  8
_1
100
AcDbSpline
 62
7
  6
CONTINUOUS
 70
0
 71
3
 72
9
 73
5
 74
0
 42
0.0000001
 43
0.0000001
 44
0.0000000001
 40
0.0
 40
0.0
 40
0.0
 40
0.0
 40
0.2308360766
 40
1.0
 40
1.0
 40
1.0
 40
1.0
 10
308.9658807661
 20
348.1808159776
 30
0.0
 10
308.9652147812
 20
348.2693209239
 30
0.0
 10
308.9354629142
 20
348.6524186596
 30
0.0
 10
308.8155699844
 20
349.025315033
 30
0.0
 10
308.6910450231
 20
349.2926494104
 30
0.0
  0
SPLINE
  5
35F
100
AcDbEntity
  8
_1
100
AcDbSpline
 62
7
  6
CONTINUOUS
 70
0
 71
3
 72
9
 73
5
 74
0
 42
0.0000001
 43
0.0000001
 44
0.0000000001
 40
0.0
 40
0.0
 40
0.0
 40
0.0
 40
0.267187639
 40
1.0
 40
1.0
 40
1.0
 40
1.0
 10
308.3795408625
 20
349.8290621149
 30
0.0
 10
308.3204977329
 20
349.9123979571
 30
0.0
 10
308.0857077541
 20
350.2135797869
 30
0.0
 10
307.7943043981
 20
350.4759649666
 30
0.0
 10
307.551715165
 20
350.6160207571
 30
0.0
  0
SPLINE
  5
360
100
AcDbEntity
  8
_1
100
AcDbSpline
 62
7
  6
CONTINUOUS
 70
0
 71
3
 72
9
 73
5
 74
0
 42
0.0000001
 43
0.0000001
 44
0.0000000001
 40
0.0
 40
0.0
 40
0.0
 40
0.0
 40
0.2416048332
 40
1.0
 40
1.0
 40
1.0
 40
1.0
 10
323.5778715096
 20
247.9273226931
 30
0.0
 10
323.8737250106
 20
249.2907396461
 30
0.0
 10
324.9702634
 20
254.9614056154
 30
0.0
 10
325.5709186127
 20
260.7239817031
 30
0.0
 10
325.7894995776
 20
265.0978758965
 30
0.0
  0
SPLINE
  5
361
100
AcDbEntity
  8
_1
100
AcDbSpline
 62
7
  6
CONTINUOUS
 70
0
 71
3
 72
9
 73
5
 74
0
 42
0.0000001
 43
0.0000001
 44
0.0000000001
 40
0.0
 40
0.0
 40
0.0
 40
0.0
 40
0.2528929181
 40
1.0
 40
1.0
 40
1.0
 40
1.0
 10
330.8822763606
 20
268.0381743919
 30
0.0
 10
330.8305368571
 20
267.3701862545
 30
0.0
 10
330.6020548272
 20
264.7307198579
 30
0.0
 10
330.2769551492
 20
262.0994906582
 30
0.0
 10
329.9768803526
 20
260.1430595342
 30
0.0
  0
SPLINE
  5
362
100
AcDbEntity
  8
_1
100
AcDbSpline
 62
7
  6
CONTINUOUS
 70
0
 71
3
 72
9
 73
5
 74
0
 42
0.0000001
 43
0.0000001
 44
0.0000000001
 40
0.0
 40
0.0
 40
0.0
 40
0.0
 40
0.2481608386
 40
1.0
 40
1.0
 40
1.0
 40
1.0
 10
331.3037672878
 20
285.9595159762
 30
0.0
 10
331.2939238004
 20
284.4766413011
 30
0.0
 10
331.2287311823
 20
278.5013754377
 30
0.0
 10
331.0622193524
 20
272.5272516983
 30
0.0
 10
330.8822763606
 20
268.0381743919
 30
0.0
  0
SPLINE
  5
363
100
AcDbEntity
  8
_1
100
AcDbSpline
 62
7
  6
CONTINUOUS
 70
0
 71
3
 72
9
 73
5
 74
0
 42
0.0000001
 43
0.0000001
 44
0.0000000001
 40
0.0
 40
0.0
 40
0.0
 40
0.0
 40
0.2562910634
 40
1.0
 40
1.0
 40
1.0
 40
1.0
 10
327.9883704186
 20
323.0357752351
 30
0.0
 10
328.3479510808
 20
321.4043629619
 30
0.0
 10
329.6462144798
 20
315.0165880624
 30
0.0
 10
330.5166706313
 20
308.5392993829
 30
0.0
 10
330.8822763606
 20
303.7054226464
 30
0.0
  0
SPLINE
  5
364
100
AcDbEntity
  8
_1
100
AcDbSpline
 62
7
  6
CONTINUOUS
 70
0
 71
3
 72
9
 73
5
 74
0
 42
0.0000001
 43
0.0000001
 44
0.0000000001
 40
0.0
 40
0.0
 40
0.0
 40
0.0
 40
0.2518459049
 40
1.0
 40
1.0
 40
1.0
 40
1.0
 10
331.3037672878
 20
285.9595159762
 30
0.0
 10
331.293972068
 20
287.4496903847
 30
0.0
 10
331.2299806371
 20
293.3665025099
 30
0.0
 10
331.0648885911
 20
299.282260738
 30
0.0
 10
330.8822763606
 20
303.7054226464
 30
0.0
  0
SPLINE
  5
365
100
AcDbEntity
  8
_1
100
AcDbSpline
 62
7
  6
CONTINUOUS
 70
0
 71
3
 72
9
 73
5
 74
0
 42
0.0000001
 43
0.0000001
 44
0.0000000001
 40
0.0
 40
0.0
 40
0.0
 40
0.0
 40
0.2385358009
 40
1.0
 40
1.0
 40
1.0
 40
1.0
 10
312.952501367
 20
241.2448040125
 30
0.0
 10
312.9827608518
 20
241.262292162
 30
0.0
 10
313.1043099647
 20
241.3448366901
 30
0.0
 10
313.2003138535
 20
241.4617392311
 30
0.0
 10
313.257070316
 20
241.5577913397
 30
0.0
  0
SPLINE
  5
366
100
AcDbEntity
  8
_1
100
AcDbSpline
 62
7
  6
CONTINUOUS
 70
0
 71
3
 72
9
 73
5
 74
0
 42
0.0000001
 43
0.0000001
 44
0.0000000001
 40
0.0
 40
0.0
 40
0.0
 40
0.0
 40
0.5316494249
 40
1.0
 40
1.0
 40
1.0
 40
1.0
 10
327.4669426143
 20
250.1726655394
 30
0.0
 10
327.4402807293
 20
250.0497963969
 30
0.0
 10
327.3573070073
 20
249.8220430157
 30
0.0
 10
327.182460444
 20
249.6478566117
 30
0.0
 10
327.0865156009
 20
249.5925195772
 30
0.0
  0
SPLINE
  5
367
100
AcDbEntity
  8
_1
100
AcDbSpline
 62
7
  6
CONTINUOUS
 70
0
 71
3
 72
10
 73
6
 74
0
 42
0.0000001
 43
0.0000001
 44
0.0000000001
 40
0.0
 40
0.0
 40
0.0
 40
0.0
 40
0.5187028498
 40
0.7726146422
 40
1.0
 40
1.0
 40
1.0
 40
1.0
 10
304.7718506133
 20
356.7322633084
 30
0.0
 10
304.6339757201
 20
357.0920014952
 30
0.0
 10
304.3429623936
 20
357.5987623484
 30
0.0
 10
303.8513761203
 20
358.1570885973
 30
0.0
 10
303.5733746812
 20
358.386117292
 30
0.0
 10
303.4315666931
 20
358.4778381053
 30
0.0
  0
SPLINE
  5
368
100
AcDbEntity
  8
_1
100
AcDbSpline
 62
7
  6
CONTINUOUS
 70
0
 71
3
 72
9
 73
5
 74
0
 42
0.0000001
 43
0.0000001
 44
0.0000000001
 40
0.0
 40
0.0
 40
0.0
 40
0.0
 40
0.4480220883
 40
1.0
 40
1.0
 40
1.0
 40
1.0
 10
329.5760411736
 20
259.429454746
 30
0.0
 10
329.6845797683
 20
259.4920425875
 30
0.0
 10
329.8784453173
 20
259.7151154619
 30
0.0
 10
329.9534780664
 20
259.9904810383
 30
0.0
 10
329.9768803526
 20
260.1430595342
 30
0.0
  0
SPLINE
  5
369
100
AcDbEntity
  8
_1
100
AcDbSpline
 62
7
  6
CONTINUOUS
 70
0
 71
3
 72
13
 73
9
 74
0
 42
0.0000001
 43
0.0000001
 44
0.0000000001
 40
0.0
 40
0.0
 40
0.0
 40
0.0
 40
0.11459287
 40
0.2380706217
 40
0.5005460296
 40
0.7627228902
 40
0.885851754
 40
1.0
 40
1.0
 40
1.0
 40
1.0
 10
312.9051802982
 20
343.7511369496
 30
0.0
 10
312.9110573732
 20
342.9701130124
 30
0.0
 10
313.0640362866
 20
341.3469347358
 30
0.0
 10
313.8550987749
 20
338.020035896
 30
0.0
 10
315.6658969692
 20
333.9455774096
 30
0.0
 10
318.305478069
 20
330.3547622144
 30
0.0
 10
320.7993444548
 20
328.0257396532
 30
0.0
 10
322.1305544512
 20
327.0937046754
 30
0.0
 10
322.8043395063
 20
326.7047034929
 30
0.0
  0
SPLINE
  5
36A
100
AcDbEntity
  8
_1
100
AcDbSpline
 62
7
  6
CONTINUOUS
 70
0
 71
3
 72
11
 73
7
 74
0
 42
0.0000001
 43
0.0000001
 44
0.0000000001
 40
0.0
 40
0.0
 40
0.0
 40
0.0
 40
0.2369927091
 40
0.4994505644
 40
0.7622069344
 40
1.0
 40
1.0
 40
1.0
 40
1.0
 10
311.4407862697
 20
352.8613636034
 30
0.0
 10
311.6403894929
 20
352.7461252358
 30
0.0
 10
312.0183667195
 20
352.4286730065
 30
0.0
 10
312.4603578714
 20
351.8268426291
 30
0.0
 10
312.7642288163
 20
351.1439175272
 30
0.0
 10
312.8532117346
 20
350.6574112871
 30
0.0
 10
312.8549518708
 20
350.4261588239
 30
0.0
  0
SPLINE
  5
36B
100
AcDbEntity
  8
_1
100
AcDbSpline
 62
7
  6
CONTINUOUS
 70
0
 71
3
 72
11
 73
7
 74
0
 42
0.0000001
 43
0.0000001
 44
0.0000000001
 40
0.0
 40
0.0
 40
0.0
 40
0.0
 40
0.251065161
 40
0.5170493729
 40
0.7739687976
 40
1.0
 40
1.0
 40
1.0
 40
1.0
 10
327.9883704186
 20
323.0357752351
 30
0.0
 10
327.9427655681
 20
323.2426837836
 30
0.0
 10
327.8048660382
 20
323.6594832366
 30
0.0
 10
327.5045980947
 20
324.2422185056
 30
0.0
 10
327.1316642648
 20
324.7553368979
 30
0.0
 10
326.835364517
 20
325.0406934152
 30
0.0
 10
326.6812987522
 20
325.1531601454
 30
0.0
  0
SPLINE
  5
36C
100
AcDbEntity
  8
_1
100
AcDbSpline
 62
7
  6
CONTINUOUS
 70
0
 71
3
 72
10
 73
6
 74
0
 42
0.0000001
 43
0.0000001
 44
0.0000000001
 40
0.0
 40
0.0
 40
0.0
 40
0.0
 40
0.2989905474
 40
0.5642879825
 40
1.0
 40
1.0
 40
1.0
 40
1.0
 10
258.9187797067
 20
384.1767262677
 30
0.0
 10
258.8263150951
 20
384.2243767606
 30
0.0
 10
258.6443476598
 20
384.3019707146
 30
0.0
 10
258.3059324967
 20
384.3808153532
 30
0.0
 10
258.044159482
 20
384.3480396248
 30
0.0
 10
257.912876912
 20
384.2722542313
 30
0.0
  0
SPLINE
  5
36D
100
AcDbEntity
  8
_1
100
AcDbSpline
 62
7
  6
CONTINUOUS
 70
0
 71
3
 72
8
 73
4
 74
0
 42
0.0000001
 43
0.0000001
 44
0.0000000001
 40
0.0
 40
0.0
 40
0.0
 40
0.0
 40
1.0
 40
1.0
 40
1.0
 40
1.0
 10
309.6955157061
 20
239.3771549705
 30
0.0
 10
309.748907094
 20
239.4225348863
 30
0.0
 10
309.7955858453
 20
239.4766596739
 30
0.0
 10
309.8341993928
 20
239.5351316416
 30
0.0
  0
SPLINE
  5
36E
100
AcDbEntity
  8
_1
100
AcDbSpline
 62
7
  6
CONTINUOUS
 70
0
 71
3
 72
9
 73
5
 74
0
 42
0.0000001
 43
0.0000001
 44
0.0000000001
 40
0.0
 40
0.0
 40
0.0
 40
0.0
 40
0.2308360766
 40
1.0
 40
1.0
 40
1.0
 40
1.0
 10
309.9911813301
 20
348.7727700007
 30
0.0
 10
309.9905153451
 20
348.861274947
 30
0.0
 10
309.9607634781
 20
349.2443726827
 30
0.0
 10
309.8408705484
 20
349.6172690561
 30
0.0
 10
309.7163455871
 20
349.8846034335
 30
0.0
  0
SPLINE
  5
36F
100
AcDbEntity
  8
_1
100
AcDbSpline
 62
7
  6
CONTINUOUS
 70
0
 71
3
 72
9
 73
5
 74
0
 42
0.0000001
 43
0.0000001
 44
0.0000000001
 40
0.0
 40
0.0
 40
0.0
 40
0.0
 40
0.267187639
 40
1.0
 40
1.0
 40
1.0
 40
1.0
 10
309.4048414264
 20
350.4210161381
 30
0.0
 10
309.3457982968
 20
350.5043519802
 30
0.0
 10
309.1110083181
 20
350.80553381
 30
0.0
 10
308.8196049621
 20
351.0679189897
 30
0.0
 10
308.577015729
 20
351.2079747802
 30
0.0
  0
SPLINE
  5
370
100
AcDbEntity
  8
_1
100
AcDbSpline
 62
7
  6
CONTINUOUS
 70
0
 71
3
 72
9
 73
5
 74
0
 42
0.0000001
 43
0.0000001
 44
0.0000000001
 40
0.0
 40
0.0
 40
0.0
 40
0.0
 40
0.2466551114
 40
1.0
 40
1.0
 40
1.0
 40
1.0
 10
316.1683080085
 20
328.0916343452
 30
0.0
 10
316.0404630895
 20
328.2262947999
 30
0.0
 10
315.5295132008
 20
328.7791984262
 30
0.0
 10
315.0476821186
 20
329.358911659
 30
0.0
 10
314.7014780528
 20
329.8080945957
 30
0.0
  0
SPLINE
  5
371
100
AcDbEntity
  8
_1
100
AcDbSpline
 62
7
  6
CONTINUOUS
 70
0
 71
3
 72
9
 73
5
 74
0
 42
0.0000001
 43
0.0000001
 44
0.0000000001
 40
0.0
 40
0.0
 40
0.0
 40
0.0
 40
0.2530591125
 40
1.0
 40
1.0
 40
1.0
 40
1.0
 10
311.5870732926
 20
335.1711251647
 30
0.0
 10
311.5135004832
 20
335.3472155163
 30
0.0
 10
311.2314124214
 20
336.0466318995
 30
0.0
 10
310.9840819199
 20
336.7601543336
 30
0.0
 10
310.8212041219
 20
337.2993911515
 30
0.0
  0
SPLINE
  5
372
100
AcDbEntity
  8
_1
100
AcDbSpline
 62
7
  6
CONTINUOUS
 70
0
 71
3
 72
9
 73
5
 74
0
 42
0.0000001
 43
0.0000001
 44
0.0000000001
 40
0.0
 40
0.0
 40
0.0
 40
0.0
 40
0.2664728507
 40
1.0
 40
1.0
 40
1.0
 40
1.0
 10
323.951077801
 20
322.5026836917
 30
0.0
 10
323.8971658004
 20
322.5712238212
 30
0.0
 10
323.6847784336
 20
322.8199030654
 30
0.0
 10
323.4306455835
 20
323.0363635791
 30
0.0
 10
323.2227598931
 20
323.1563837232
 30
0.0
  0
SPLINE
  5
373
100
AcDbEntity
  8
_1
100
AcDbSpline
 62
7
  6
CONTINUOUS
 70
0
 71
3
 72
9
 73
5
 74
0
 42
0.0000001
 43
0.0000001
 44
0.0000000001
 40
0.0
 40
0.0
 40
0.0
 40
0.0
 40
0.2434995701
 40
1.0
 40
1.0
 40
1.0
 40
1.0
 10
326.8148001415
 20
301.3570781742
 30
0.0
 10
326.7387417887
 20
302.9668594466
 30
0.0
 10
326.3147961251
 20
309.5723746066
 30
0.0
 10
325.45915461
 20
316.1482342391
 30
0.0
 10
324.6031720735
 20
321.0813417257
 30
0.0
  0
SPLINE
  5
374
100
AcDbEntity
  8
_1
100
AcDbSpline
 62
7
  6
CONTINUOUS
 70
0
 71
3
 72
9
 73
5
 74
0
 42
0.0000001
 43
0.0000001
 44
0.0000000001
 40
0.0
 40
0.0
 40
0.0
 40
0.0
 40
0.2416048332
 40
1.0
 40
1.0
 40
1.0
 40
1.0
 10
324.6031720735
 20
248.5192767163
 30
0.0
 10
324.8990255746
 20
249.8826936692
 30
0.0
 10
325.995563964
 20
255.5533596385
 30
0.0
 10
326.5962191766
 20
261.3159357262
 30
0.0
 10
326.8148001415
 20
265.6898299196
 30
0.0
  0
SPLINE
  5
375
100
AcDbEntity
  8
_1
100
AcDbSpline
 62
7
  6
CONTINUOUS
 70
0
 71
3
 72
11
 73
7
 74
0
 42
0.0000001
 43
0.0000001
 44
0.0000000001
 40
0.0
 40
0.0
 40
0.0
 40
0.0
 40
0.2177434119
 40
0.4508805377
 40
0.710457812
 40
1.0
 40
1.0
 40
1.0
 40
1.0
 10
292.215212513
 20
349.1942335148
 30
0.0
 10
292.2152124894
 20
349.2703954615
 30
0.0
 10
292.1872440949
 20
349.4291859953
 30
0.0
 10
292.0667880774
 20
349.6504670022
 30
0.0
 10
291.8764004527
 20
349.8503400056
 30
0.0
 10
291.7172398396
 20
349.960084878
 30
0.0
 10
291.6295320934
 20
350.0107218234
 30
0.0
  0
SPLINE
  5
376
100
AcDbEntity
  8
_1
100
AcDbSpline
 62
7
  6
CONTINUOUS
 70
0
 71
3
 72
9
 73
5
 74
0
 42
0.0000001
 43
0.0000001
 44
0.0000000001
 40
0.0
 40
0.0
 40
0.0
 40
0.0
 40
0.258600532
 40
1.0
 40
1.0
 40
1.0
 40
1.0
 10
325.7894995776
 20
265.0978758965
 30
0.0
 10
325.7149691097
 20
263.6064908583
 30
0.0
 10
325.3201882024
 20
257.8456854369
 30
0.0
 10
324.4857150686
 20
252.1110463761
 30
0.0
 10
323.5778715096
 20
247.9273226931
 30
0.0
  0
SPLINE
  5
377
100
AcDbEntity
  8
_1
100
AcDbSpline
 62
7
  6
CONTINUOUS
 70
0
 71
3
 72
9
 73
5
 74
0
 42
0.0000001
 43
0.0000001
 44
0.0000000001
 40
0.0
 40
0.0
 40
0.0
 40
0.0
 40
0.2564416329
 40
1.0
 40
1.0
 40
1.0
 40
1.0
 10
323.5778715096
 20
320.4893877026
 30
0.0
 10
323.8680323596
 20
318.8171635621
 30
0.0
 10
324.9051603596
 20
312.2805300256
 30
0.0
 10
325.5572481791
 20
305.6807440404
 30
0.0
 10
325.7894995776
 20
300.7651241511
 30
0.0
  0
SPLINE
  5
378
100
AcDbEntity
  8
_1
100
AcDbSpline
 62
7
  6
CONTINUOUS
 70
0
 71
3
 72
10
 73
6
 74
0
 42
0.0000001
 43
0.0000001
 44
0.0000000001
 40
0.0
 40
0.0
 40
0.0
 40
0.0
 40
0.232389521
 40
0.4892596858
 40
1.0
 40
1.0
 40
1.0
 40
1.0
 10
322.1974593291
 20
322.5644297001
 30
0.0
 10
322.3686428664
 20
322.4655990746
 30
0.0
 10
322.6978617551
 20
322.2018154818
 30
0.0
 10
323.234256764
 20
321.5390963257
 30
0.0
 10
323.5036011794
 20
320.9174145678
 30
0.0
 10
323.5778715096
 20
320.4893877026
 30
0.0
  0
SPLINE
  5
379
100
AcDbEntity
  8
_1
100
AcDbSpline
 62
7
  6
CONTINUOUS
 70
0
 71
3
 72
13
 73
9
 74
0
 42
0.0000001
 43
0.0000001
 44
0.0000000001
 40
0.0
 40
0.0
 40
0.0
 40
0.0
 40
0.11459287
 40
0.2380706217
 40
0.5005460296
 40
0.7627228902
 40
0.885851754
 40
1.0
 40
1.0
 40
1.0
 40
1.0
 10
309.0161091935
 20
341.5057941033
 30
0.0
 10
309.0219862685
 20
340.7247701661
 30
0.0
 10
309.174965182
 20
339.1015918895
 30
0.0
 10
309.9660276702
 20
335.7746930497
 30
0.0
 10
311.7768258646
 20
331.7002345633
 30
0.0
 10
314.4164069644
 20
328.1094193681
 30
0.0
 10
316.9102733501
 20
325.7803968069
 30
0.0
 10
318.2414833465
 20
324.8483618291
 30
0.0
 10
318.9152684016
 20
324.4593606466
 30
0.0
  0
SPLINE
  5
37A
100
AcDbEntity
  8
_1
100
AcDbSpline
 62
7
  6
CONTINUOUS
 70
0
 71
3
 72
11
 73
7
 74
0
 42
0.0000001
 43
0.0000001
 44
0.0000000001
 40
0.0
 40
0.0
 40
0.0
 40
0.0
 40
0.2369927091
 40
0.4994505644
 40
0.7622069344
 40
1.0
 40
1.0
 40
1.0
 40
1.0
 10
307.551715165
 20
350.6160207571
 30
0.0
 10
307.7513183883
 20
350.5007823895
 30
0.0
 10
308.1292956149
 20
350.1833301602
 30
0.0
 10
308.5712867667
 20
349.5814997828
 30
0.0
 10
308.8751577116
 20
348.8985746809
 30
0.0
 10
308.9641406299
 20
348.4120684408
 30
0.0
 10
308.9658807661
 20
348.1808159776
 30
0.0
  0
SPLINE
  5
37B
100
AcDbEntity
  8
_1
100
AcDbSpline
 62
7
  6
CONTINUOUS
 70
0
 71
3
 72
11
 73
7
 74
0
 42
0.0000001
 43
0.0000001
 44
0.0000000001
 40
0.0
 40
0.0
 40
0.0
 40
0.0
 40
0.2895416688
 40
0.549118971
 40
0.7822562702
 40
1.0
 40
1.0
 40
1.0
 40
1.0
 10
256.2741930344
 20
350.0106368396
 30
0.0
 10
256.1864869417
 20
349.9600000057
 30
0.0
 10
256.0273293837
 20
349.8502554305
 30
0.0
 10
255.8369454777
 20
349.6503839702
 30
0.0
 10
255.7164921742
 20
349.4291050402
 30
0.0
 10
255.6885243669
 20
349.2703164069
 30
0.0
 10
255.6885243906
 20
349.1941553314
 30
0.0
  0
SPLINE
  5
37C
100
AcDbEntity
  8
_1
100
AcDbSpline
 62
7
  6
CONTINUOUS
 70
0
 71
3
 72
9
 73
5
 74
0
 42
0.0000001
 43
0.0000001
 44
0.0000000001
 40
0.0
 40
0.0
 40
0.0
 40
0.0
 40
0.2589154379
 40
1.0
 40
1.0
 40
1.0
 40
1.0
 10
308.8088784822
 20
238.9431619123
 30
0.0
 10
308.7931140491
 20
238.9192926308
 30
0.0
 10
308.7276274089
 20
238.830272524
 30
0.0
 10
308.6416400441
 20
238.7559678217
 30
0.0
 10
308.5707272153
 20
238.7150408793
 30
0.0
  0
SPLINE
  5
37D
100
AcDbEntity
  8
_1
100
AcDbSpline
 62
7
  6
CONTINUOUS
 70
0
 71
3
 72
9
 73
5
 74
0
 42
0.0000001
 43
0.0000001
 44
0.0000000001
 40
0.0
 40
0.0
 40
0.0
 40
0.0
 40
0.2416048332
 40
1.0
 40
1.0
 40
1.0
 40
1.0
 10
292.4653026722
 20
229.9645799228
 30
0.0
 10
292.7611561732
 20
231.3279968757
 30
0.0
 10
293.8576945626
 20
236.9986628451
 30
0.0
 10
294.4583497752
 20
242.7612389327
 30
0.0
 10
294.6769307402
 20
247.1351331262
 30
0.0
  0
SPLINE
  5
37E
100
AcDbEntity
  8
_1
100
AcDbSpline
 62
7
  6
CONTINUOUS
 70
0
 71
3
 72
11
 73
7
 74
0
 42
0.0000001
 43
0.0000001
 44
0.0000000001
 40
0.0
 40
0.0
 40
0.0
 40
0.0
 40
0.2177438688
 40
0.4508811915
 40
0.7104582954
 40
1.0
 40
1.0
 40
1.0
 40
1.0
 10
292.215212513
 20
348.7859823078
 30
0.0
 10
292.2152124961
 20
348.7098211825
 30
0.0
 10
292.1872447393
 20
348.55103248
 30
0.0
 10
292.0667913281
 20
348.3297536143
 30
0.0
 10
291.8764075633
 20
348.1298820928
 30
0.0
 10
291.7172499741
 20
348.020137639
 30
0.0
 10
291.6295438692
 20
347.969500798
 30
0.0
  0
SPLINE
  5
37F
100
AcDbEntity
  8
_1
100
AcDbSpline
 62
7
  6
CONTINUOUS
 70
0
 71
3
 72
11
 73
7
 74
0
 42
0.0000001
 43
0.0000001
 44
0.0000000001
 40
0.0
 40
0.0
 40
0.0
 40
0.0
 40
0.2177434119
 40
0.4508805377
 40
0.710457812
 40
1.0
 40
1.0
 40
1.0
 40
1.0
 10
255.6885243906
 20
349.1941553314
 30
0.0
 10
255.6885244142
 20
349.1179933848
 30
0.0
 10
255.7164928087
 20
348.9592028509
 30
0.0
 10
255.8369488262
 20
348.737921844
 30
0.0
 10
256.0273364509
 20
348.5380488406
 30
0.0
 10
256.1864970639
 20
348.4283039682
 30
0.0
 10
256.2742048102
 20
348.3776670228
 30
0.0
  0
SPLINE
  5
380
100
AcDbEntity
  8
_1
100
AcDbSpline
 62
7
  6
CONTINUOUS
 70
0
 71
3
 72
11
 73
7
 74
0
 42
0.0000001
 43
0.0000001
 44
0.0000000001
 40
0.0
 40
0.0
 40
0.0
 40
0.0
 40
0.2895421522
 40
0.5491196247
 40
0.782256727
 40
1.0
 40
1.0
 40
1.0
 40
1.0
 10
256.2742048102
 20
347.9694158143
 30
0.0
 10
256.1864970762
 20
348.0200527526
 30
0.0
 10
256.0273364943
 20
348.1297977464
 30
0.0
 10
255.8369487284
 20
348.3296706887
 30
0.0
 10
255.7164928186
 20
348.5509517598
 30
0.0
 10
255.6885243736
 20
348.7097422245
 30
0.0
 10
255.6885243906
 20
348.7859041213
 30
0.0
  0
SPLINE
  5
381
100
AcDbEntity
  8
_1
100
AcDbSpline
 62
7
  6
CONTINUOUS
 70
0
 71
3
 72
11
 73
7
 74
0
 42
0.0000001
 43
0.0000001
 44
0.0000000001
 40
0.0
 40
0.0
 40
0.0
 40
0.0
 40
0.2372524156
 40
0.4999996414
 40
0.7627470637
 40
1.0
 40
1.0
 40
1.0
 40
1.0
 10
275.3661556133
 20
338.579885259
 30
0.0
 10
275.165367457
 20
338.4639608549
 30
0.0
 10
274.6984654677
 20
338.2947723365
 30
0.0
 10
273.951943864
 20
338.2138838489
 30
0.0
 10
273.2054213929
 20
338.2947690899
 30
0.0
 10
272.7385179216
 20
338.4639552496
 30
0.0
 10
272.5377284886
 20
338.5798784603
 30
0.0
  0
SPLINE
  5
382
100
AcDbEntity
  8
_1
100
AcDbSpline
 62
7
  6
CONTINUOUS
 70
0
 71
3
 72
9
 73
5
 74
0
 42
0.0000001
 43
0.0000001
 44
0.0000000001
 40
0.0
 40
0.0
 40
0.0
 40
0.0
 40
0.2308360766
 40
1.0
 40
1.0
 40
1.0
 40
1.0
 10
277.8533119287
 20
330.2180732073
 30
0.0
 10
277.8526459438
 20
330.3065781536
 30
0.0
 10
277.8228940768
 20
330.6896758893
 30
0.0
 10
277.703001147
 20
331.0625722626
 30
0.0
 10
277.5784761857
 20
331.3299066401
 30
0.0
  0
SPLINE
  5
383
100
AcDbEntity
  8
_1
100
AcDbSpline
 62
7
  6
CONTINUOUS
 70
0
 71
3
 72
9
 73
5
 74
0
 42
0.0000001
 43
0.0000001
 44
0.0000000001
 40
0.0
 40
0.0
 40
0.0
 40
0.0
 40
0.267187639
 40
1.0
 40
1.0
 40
1.0
 40
1.0
 10
277.266972025
 20
331.8663193446
 30
0.0
 10
277.2079288955
 20
331.9496551868
 30
0.0
 10
276.9731389167
 20
332.2508370165
 30
0.0
 10
276.6817355607
 20
332.5132221962
 30
0.0
 10
276.4391463276
 20
332.6532779868
 30
0.0
  0
SPLINE
  5
384
100
AcDbEntity
  8
_1
100
AcDbSpline
 62
7
  6
CONTINUOUS
 70
0
 71
3
 72
11
 73
7
 74
0
 42
0.0000001
 43
0.0000001
 44
0.0000000001
 40
0.0
 40
0.0
 40
0.0
 40
0.0
 40
0.2372531816
 40
0.5000006935
 40
0.7627478297
 40
1.0
 40
1.0
 40
1.0
 40
1.0
 10
272.5377284886
 20
338.9881296689
 30
0.0
 10
272.7385181292
 20
338.8722063384
 30
0.0
 10
273.2054219548
 20
338.7030201383
 30
0.0
 10
273.9519446842
 20
338.6221350575
 30
0.0
 10
274.6984660296
 20
338.7030237052
 30
0.0
 10
275.1653676646
 20
338.8722121833
 30
0.0
 10
275.3661556133
 20
338.9881364676
 30
0.0
  0
SPLINE
  5
385
100
AcDbEntity
  8
_1
100
AcDbSpline
 62
7
  6
CONTINUOUS
 70
0
 71
3
 72
11
 73
7
 74
0
 42
0.0000001
 43
0.0000001
 44
0.0000000001
 40
0.0
 40
0.0
 40
0.0
 40
0.0
 40
0.2895416688
 40
0.549118971
 40
0.7822562702
 40
1.0
 40
1.0
 40
1.0
 40
1.0
 10
291.6295438692
 20
348.3777520066
 30
0.0
 10
291.7172499619
 20
348.4283888405
 30
0.0
 10
291.8764075199
 20
348.5381334157
 30
0.0
 10
292.0667914259
 20
348.7380048761
 30
0.0
 10
292.1872447294
 20
348.959283806
 30
0.0
 10
292.2152125367
 20
349.1180724393
 30
0.0
 10
292.215212513
 20
349.1942335148
 30
0.0
  0
SPLINE
  5
386
100
AcDbEntity
  8
_1
100
AcDbSpline
 62
7
  6
CONTINUOUS
 70
0
 71
3
 72
9
 73
5
 74
0
 42
0.0000001
 43
0.0000001
 44
0.0000000001
 40
0.0
 40
0.0
 40
0.0
 40
0.0
 40
0.2381234994
 40
1.0
 40
1.0
 40
1.0
 40
1.0
 10
287.8026995642
 20
306.4966178762
 30
0.0
 10
287.5526994391
 20
306.6409522505
 30
0.0
 10
286.5228972504
 20
307.2816733672
 30
0.0
 10
285.5733134359
 20
308.0474949224
 30
0.0
 10
284.8975907834
 20
308.6771437167
 30
0.0
  0
SPLINE
  5
387
100
AcDbEntity
  8
_1
100
AcDbSpline
 62
7
  6
CONTINUOUS
 70
0
 71
3
 72
9
 73
5
 74
0
 42
0.0000001
 43
0.0000001
 44
0.0000000001
 40
0.0
 40
0.0
 40
0.0
 40
0.0
 40
0.2439554958
 40
1.0
 40
1.0
 40
1.0
 40
1.0
 10
284.8975907834
 20
308.6771437167
 30
0.0
 10
284.6897715646
 20
308.8707928715
 30
0.0
 10
283.8556251677
 20
309.6834884661
 30
0.0
 10
283.0916181018
 20
310.5674194025
 30
0.0
 10
282.5546569892
 20
311.2650198102
 30
0.0
  0
SPLINE
  5
388
100
AcDbEntity
  8
_1
100
AcDbSpline
 62
7
  6
CONTINUOUS
 70
0
 71
3
 72
9
 73
5
 74
0
 42
0.0000001
 43
0.0000001
 44
0.0000000001
 40
0.0
 40
0.0
 40
0.0
 40
0.0
 40
0.2554664266
 40
1.0
 40
1.0
 40
1.0
 40
1.0
 10
279.454955889
 20
316.6026739284
 30
0.0
 10
279.3398607978
 20
316.8776452873
 30
0.0
 10
278.9102285404
 20
317.9625446188
 30
0.0
 10
278.5648234357
 20
319.0814154033
 30
0.0
 10
278.3647322003
 20
319.9268074577
 30
0.0
  0
SPLINE
  5
389
100
AcDbEntity
  8
_1
100
AcDbSpline
 62
7
  6
CONTINUOUS
 70
0
 71
3
 72
9
 73
5
 74
0
 42
0.0000001
 43
0.0000001
 44
0.0000000001
 40
0.0
 40
0.0
 40
0.0
 40
0.0
 40
0.2613585724
 40
1.0
 40
1.0
 40
1.0
 40
1.0
 10
278.3647322003
 20
319.9268074577
 30
0.0
 10
278.2914995326
 20
320.2362178887
 30
0.0
 10
278.0406876987
 20
321.4265430919
 30
0.0
 10
277.9103020023
 20
322.6444738069
 30
0.0
 10
277.9035403561
 20
323.543051333
 30
0.0
  0
SPLINE
  5
38A
100
AcDbEntity
  8
_1
100
AcDbSpline
 62
7
  6
CONTINUOUS
 70
0
 71
3
 72
16
 73
12
 74
0
 42
0.0000001
 43
0.0000001
 44
0.0000000001
 40
0.0
 40
0.0
 40
0.0
 40
0.0
 40
0.0428779141
 40
0.0875234847
 40
0.1869287945
 40
0.3042400339
 40
0.4379633427
 40
0.5823675368
 40
0.729595529
 40
0.8712500532
 40
1.0
 40
1.0
 40
1.0
 40
1.0
 10
48.2258997634
 20
281.2930641638
 30
0.0
 10
48.361486834
 20
281.3713585893
 30
0.0
 10
48.6604124111
 20
281.4954836814
 30
0.0
 10
49.3416259954
 20
281.5954691295
 30
0.0
 10
50.3033794946
 20
281.4076164544
 30
0.0
 10
51.4362918223
 20
280.7862069142
 30
0.0
 10
52.5253021159
 20
279.8229763252
 30
0.0
 10
53.4859697811
 20
278.5928476672
 30
0.0
 10
54.2425495316
 20
277.1946627738
 30
0.0
 10
54.7334630349
 20
275.7432567706
 30
0.0
 10
54.8649815579
 20
274.7547409183
 30
0.0
 10
54.8649815579
 20
274.284609415
 30
0.0
  0
SPLINE
  5
38B
100
AcDbEntity
  8
_1
100
AcDbSpline
 62
7
  6
CONTINUOUS
 70
0
 71
3
 72
16
 73
12
 74
0
 42
0.0000001
 43
0.0000001
 44
0.0000000001
 40
0.0
 40
0.0
 40
0.0
 40
0.0
 40
0.0428779141
 40
0.0875234847
 40
0.1869287945
 40
0.3042400339
 40
0.4379633427
 40
0.5823675368
 40
0.729595529
 40
0.8712500532
 40
1.0
 40
1.0
 40
1.0
 40
1.0
 10
130.726243243
 20
138.3990708527
 30
0.0
 10
130.8618303135
 20
138.4773652781
 30
0.0
 10
131.1607558906
 20
138.6014903703
 30
0.0
 10
131.841969475
 20
138.7014758183
 30
0.0
 10
132.8037229742
 20
138.5136231433
 30
0.0
 10
133.9366353019
 20
137.8922136031
 30
0.0
 10
135.0256455954
 20
136.9289830141
 30
0.0
 10
135.9863132607
 20
135.6988543561
 30
0.0
 10
136.7428930112
 20
134.3006694627
 30
0.0
 10
137.2338065145
 20
132.8492634595
 30
0.0
 10
137.3653250374
 20
131.8607476071
 30
0.0
 10
137.3653250374
 20
131.3906161039
 30
0.0
  0
SPLINE
  5
38C
100
AcDbEntity
  8
_1
100
AcDbSpline
 62
7
  6
CONTINUOUS
 70
0
 71
3
 72
11
 73
7
 74
0
 42
0.0000001
 43
0.0000001
 44
0.0000000001
 40
0.0
 40
0.0
 40
0.0
 40
0.0
 40
0.2177696012
 40
0.4509414157
 40
0.7102110461
 40
1.0
 40
1.0
 40
1.0
 40
1.0
 10
50.870908641
 20
195.0630082958
 30
0.0
 10
50.4751118116
 20
194.8344437098
 30
0.0
 10
49.7342728161
 20
194.2119829797
 30
0.0
 10
48.9461668067
 20
192.9227684742
 30
0.0
 10
48.477432347
 20
191.3341551061
 30
0.0
 10
48.3855412469
 20
190.1778240861
 30
0.0
 10
48.3855412469
 20
189.56961827
 30
0.0
  0
SPLINE
  5
38D
100
AcDbEntity
  8
_1
100
AcDbSpline
 62
7
  6
CONTINUOUS
 70
0
 71
3
 72
9
 73
5
 74
0
 42
0.0000001
 43
0.0000001
 44
0.0000000001
 40
0.0
 40
0.0
 40
0.0
 40
0.0
 40
0.258600532
 40
1.0
 40
1.0
 40
1.0
 40
1.0
 10
164.9233766114
 20
172.2223308908
 30
0.0
 10
164.8488461435
 20
170.7309458525
 30
0.0
 10
164.4540652363
 20
164.9701404312
 30
0.0
 10
163.6195921025
 20
159.2355013703
 30
0.0
 10
162.7117485434
 20
155.0517776874
 30
0.0
  0
SPLINE
  5
38E
100
AcDbEntity
  8
_1
100
AcDbSpline
 62
7
  6
CONTINUOUS
 70
0
 71
3
 72
13
 73
9
 74
0
 42
0.0000001
 43
0.0000001
 44
0.0000000001
 40
0.0
 40
0.0
 40
0.0
 40
0.0
 40
0.11459287
 40
0.2380706217
 40
0.5005460296
 40
0.7627228902
 40
0.885851754
 40
1.0
 40
1.0
 40
1.0
 40
1.0
 10
148.1499862274
 20
248.6302490975
 30
0.0
 10
148.1558633024
 20
247.8492251604
 30
0.0
 10
148.3088422158
 20
246.2260468837
 30
0.0
 10
149.0999047041
 20
242.8991480439
 30
0.0
 10
150.9107028984
 20
238.8246895575
 30
0.0
 10
153.5502839982
 20
235.2338743623
 30
0.0
 10
156.044150384
 20
232.9048518012
 30
0.0
 10
157.3753603804
 20
231.9728168233
 30
0.0
 10
158.0491454354
 20
231.5838156408
 30
0.0
  0
SPLINE
  5
38F
100
AcDbEntity
  8
_1
100
AcDbSpline
 62
7
  6
CONTINUOUS
 70
0
 71
3
 72
11
 73
7
 74
0
 42
0.0000001
 43
0.0000001
 44
0.0000000001
 40
0.0
 40
0.0
 40
0.0
 40
0.0
 40
0.2369927091
 40
0.4994505644
 40
0.7622069344
 40
1.0
 40
1.0
 40
1.0
 40
1.0
 10
146.6855921988
 20
257.7404757514
 30
0.0
 10
146.8851954221
 20
257.6252373837
 30
0.0
 10
147.2631726487
 20
257.3077851544
 30
0.0
 10
147.7051638006
 20
256.705954777
 30
0.0
 10
148.0090347454
 20
256.0230296751
 30
0.0
 10
148.0980176637
 20
255.5365234351
 30
0.0
 10
148.0997578
 20
255.3052709718
 30
0.0
  0
SPLINE
  5
390
100
AcDbEntity
  8
_1
100
AcDbSpline
 62
7
  6
CONTINUOUS
 70
0
 71
3
 72
14
 73
10
 74
0
 42
0.0000001
 43
0.0000001
 44
0.0000000001
 40
0.0
 40
0.0
 40
0.0
 40
0.0
 40
0.1080472999
 40
0.2181309043
 40
0.3321047466
 40
0.4515035881
 40
0.5774611372
 40
0.7107195163
 40
1.0
 40
1.0
 40
1.0
 40
1.0
 10
68.6832884767
 20
247.4934302622
 30
0.0
 10
67.888083029
 20
247.0343700046
 30
0.0
 10
66.3593063288
 20
245.9674508951
 30
0.0
 10
64.3391217195
 20
243.9794872437
 30
0.0
 10
62.6017724899
 20
241.6198321175
 30
0.0
 10
61.1633555191
 20
238.9152756027
 30
0.0
 10
60.0346626094
 20
235.8930861047
 30
0.0
 10
58.9253514653
 20
231.3576287805
 30
0.0
 10
58.6383319769
 20
227.7491961247
 30
0.0
 10
58.6383319769
 20
225.2908576574
 30
0.0
  0
SPLINE
  5
391
100
AcDbEntity
  8
_1
100
AcDbSpline
 62
7
  6
CONTINUOUS
 70
0
 71
3
 72
23
 73
19
 74
0
 42
0.0000001
 43
0.0000001
 44
0.0000000001
 40
0.0
 40
0.0
 40
0.0
 40
0.0
 40
0.0428145166
 40
0.0873965192
 40
0.1351794166
 40
0.1870887323
 40
0.2435354523
 40
0.3044930317
 40
0.3695910938
 40
0.4381991939
 40
0.5094968414
 40
0.5825325449
 40
0.6562756193
 40
0.7296644022
 40
0.8016522045
 40
0.8712565662
 40
0.9376056817
 40
1.0
 40
1.0
 40
1.0
 40
1.0
 10
59.751362027
 20
255.6156125226
 30
0.0
 10
61.2306053378
 20
256.4696466906
 30
0.0
 10
64.4913444626
 20
257.8249194523
 30
0.0
 10
69.8739202907
 20
258.6137759509
 30
0.0
 10
75.6539401476
 20
258.188304354
 30
0.0
 10
81.703105471
 20
256.5810996625
 30
0.0
 10
87.9026286677
 20
253.8411964546
 30
0.0
 10
94.1290987481
 20
250.0318868878
 30
0.0
 10
100.2560382262
 20
245.2352212175
 30
0.0
 10
106.1562272957
 20
239.5528447005
 30
0.0
 10
111.7054986805
 20
233.1052109926
 30
0.0
 10
116.7861204454
 20
226.0293851159
 30
0.0
 10
121.2898783624
 20
218.4761626711
 30
0.0
 10
125.1206800653
 20
210.606630785
 30
0.0
 10
128.1968758119
 20
202.5886917212
 30
0.0
 10
130.4528701105
 20
194.5923128034
 30
0.0
 10
131.8405629852
 20
186.7884835033
 30
0.0
 10
132.1777698879
 20
181.648850018
 30
0.0
 10
132.1777698879
 20
179.1596370995
 30
0.0
  0
SPLINE
  5
392
100
AcDbEntity
  8
_1
100
AcDbSpline
 62
7
  6
CONTINUOUS
 70
0
 71
3
 72
14
 73
10
 74
0
 42
0.0000001
 43
0.0000001
 44
0.0000000001
 40
0.0
 40
0.0
 40
0.0
 40
0.0
 40
0.108047219
 40
0.2181316133
 40
0.3321053793
 40
0.4515027594
 40
0.5774625305
 40
0.7107203477
 40
1.0
 40
1.0
 40
1.0
 40
1.0
 10
57.2513771554
 20
259.9457391755
 30
0.0
 10
56.1856653512
 20
259.3304574291
 30
0.0
 10
54.1366601453
 20
257.9007421724
 30
0.0
 10
51.4293080589
 20
255.2363076965
 30
0.0
 10
49.1009067884
 20
252.0739120831
 30
0.0
 10
47.1730241149
 20
248.4492863473
 30
0.0
 10
45.6604623781
 20
244.3988786264
 30
0.0
 10
44.1736998591
 20
238.3204401002
 30
0.0
 10
43.7890542445
 20
233.4844032141
 30
0.0
 10
43.7890542445
 20
230.1897314146
 30
0.0
  0
SPLINE
  5
393
100
AcDbEntity
  8
_1
100
AcDbSpline
 62
7
  6
CONTINUOUS
 70
0
 71
3
 72
11
 73
7
 74
0
 42
0.0000001
 43
0.0000001
 44
0.0000000001
 40
0.0
 40
0.0
 40
0.0
 40
0.0
 40
0.2369685237
 40
0.4994503089
 40
0.7622309485
 40
1.0
 40
1.0
 40
1.0
 40
1.0
 10
142.066393126
 20
243.2611995572
 30
0.0
 10
143.1641028195
 20
242.6274509075
 30
0.0
 10
145.2428627127
 20
240.8813883101
 30
0.0
 10
147.6745364893
 20
237.571627098
 30
0.0
 10
149.3452041465
 20
233.815062421
 30
0.0
 10
149.8347341146
 20
231.1393380061
 30
0.0
 10
149.8443039323
 20
229.8675732698
 30
0.0
  0
SPLINE
  5
394
100
AcDbEntity
  8
_1
100
AcDbSpline
 62
7
  6
CONTINUOUS
 70
0
 71
3
 72
9
 73
5
 74
0
 42
0.0000001
 43
0.0000001
 44
0.0000000001
 40
0.0
 40
0.0
 40
0.0
 40
0.0
 40
0.2465287234
 40
1.0
 40
1.0
 40
1.0
 40
1.0
 10
48.2258997634
 20
186.0295888225
 30
0.0
 10
48.2792944197
 20
186.0604214375
 30
0.0
 10
48.5021220568
 20
186.1745499675
 30
0.0
 10
48.7478893238
 20
186.2422186179
 30
0.0
 10
48.9346447594
 20
186.2673965526
 30
0.0
  0
SPLINE
  5
395
100
AcDbEntity
  8
_1
100
AcDbSpline
 62
7
  6
CONTINUOUS
 70
0
 71
3
 72
16
 73
12
 74
0
 42
0.0000001
 43
0.0000001
 44
0.0000000001
 40
0.0
 40
0.0
 40
0.0
 40
0.0
 40
0.0428779141
 40
0.0875234847
 40
0.1869287945
 40
0.3042400339
 40
0.4379633427
 40
0.5823675368
 40
0.729595529
 40
0.8712500532
 40
1.0
 40
1.0
 40
1.0
 40
1.0
 10
130.726243243
 20
233.6625461939
 30
0.0
 10
130.8618303135
 20
233.7408406194
 30
0.0
 10
131.1607558906
 20
233.8649657115
 30
0.0
 10
131.841969475
 20
233.9649511596
 30
0.0
 10
132.8037229742
 20
233.7770984845
 30
0.0
 10
133.9366353019
 20
233.1556889443
 30
0.0
 10
135.0256455954
 20
232.1924583554
 30
0.0
 10
135.9863132607
 20
230.9623296973
 30
0.0
 10
136.7428930112
 20
229.5641448039
 30
0.0
 10
137.2338065145
 20
228.1127388008
 30
0.0
 10
137.3653250374
 20
227.1242229484
 30
0.0
 10
137.3653250374
 20
226.6540914451
 30
0.0
  0
SPLINE
  5
396
100
AcDbEntity
  8
_1
100
AcDbSpline
 62
7
  6
CONTINUOUS
 70
0
 71
3
 72
11
 73
7
 74
0
 42
0.0000001
 43
0.0000001
 44
0.0000000001
 40
0.0
 40
0.0
 40
0.0
 40
0.0
 40
0.2897768139
 40
0.5490678485
 40
0.7822253266
 40
1.0
 40
1.0
 40
1.0
 40
1.0
 10
133.5811470794
 20
124.0519313126
 30
0.0
 10
134.0639419226
 20
123.7731958857
 30
0.0
 10
135.0240236977
 20
123.3162300956
 30
0.0
 10
136.4999313756
 20
122.9601558525
 30
0.0
 10
137.8845534389
 20
122.9950628015
 30
0.0
 10
138.7182491302
 20
123.2977579503
 30
0.0
 10
139.0810830387
 20
123.5072325595
 30
0.0
  0
SPLINE
  5
397
100
AcDbEntity
  8
_1
100
AcDbSpline
 62
7
  6
CONTINUOUS
 70
0
 71
3
 72
11
 73
7
 74
0
 42
0.0000001
 43
0.0000001
 44
0.0000000001
 40
0.0
 40
0.0
 40
0.0
 40
0.0
 40
0.2377690515
 40
0.5005496911
 40
0.7630314763
 40
1.0
 40
1.0
 40
1.0
 40
1.0
 10
43.0930417329
 20
185.1972303953
 30
0.0
 10
43.1026115507
 20
183.925465659
 30
0.0
 10
43.5921415187
 20
181.2497412441
 30
0.0
 10
45.2628091759
 20
177.4931765671
 30
0.0
 10
47.6944829526
 20
174.183415355
 30
0.0
 10
49.7732428457
 20
172.4373527576
 30
0.0
 10
50.8709525392
 20
171.8036041079
 30
0.0
  0
SPLINE
  5
398
100
AcDbEntity
  8
_1
100
AcDbSpline
 62
7
  6
CONTINUOUS
 70
0
 71
3
 72
11
 73
7
 74
0
 42
0.0000001
 43
0.0000001
 44
0.0000000001
 40
0.0
 40
0.0
 40
0.0
 40
0.0
 40
0.2897016594
 40
0.5490895814
 40
0.7822189142
 40
1.0
 40
1.0
 40
1.0
 40
1.0
 10
137.3653250374
 20
226.6540914451
 30
0.0
 10
137.3653250374
 20
226.3754176324
 30
0.0
 10
137.3230742855
 20
225.8454363823
 30
0.0
 10
137.1084494655
 20
225.1172645495
 30
0.0
 10
136.7470662196
 20
224.5263947985
 30
0.0
 10
136.4076167241
 20
224.2410437276
 30
0.0
 10
136.2261998553
 20
224.1362849961
 30
0.0
  0
SPLINE
  5
399
100
AcDbEntity
  8
_1
100
AcDbSpline
 62
7
  6
CONTINUOUS
 70
0
 71
3
 72
9
 73
5
 74
0
 42
0.0000001
 43
0.0000001
 44
0.0000000001
 40
0.0
 40
0.0
 40
0.0
 40
0.0
 40
0.2568131914
 40
1.0
 40
1.0
 40
1.0
 40
1.0
 10
54.310668404
 20
177.0305473433
 30
0.0
 10
54.2703198988
 20
176.9762271763
 30
0.0
 10
54.1035330576
 20
176.7721457118
 30
0.0
 10
53.8954319346
 20
176.6012486205
 30
0.0
 10
53.7258563757
 20
176.5033276247
 30
0.0
  0
SPLINE
  5
39A
100
AcDbEntity
  8
_1
100
AcDbSpline
 62
7
  6
CONTINUOUS
 70
0
 71
3
 72
11
 73
7
 74
0
 42
0.0000001
 43
0.0000001
 44
0.0000000001
 40
0.0
 40
0.0
 40
0.0
 40
0.0
 40
0.2897016594
 40
0.5490895814
 40
0.7822189142
 40
1.0
 40
1.0
 40
1.0
 40
1.0
 10
137.3653250374
 20
131.3906161039
 30
0.0
 10
137.3653250374
 20
131.1119422912
 30
0.0
 10
137.3230742855
 20
130.5819610411
 30
0.0
 10
137.1084494655
 20
129.8537892082
 30
0.0
 10
136.7470662196
 20
129.2629194572
 30
0.0
 10
136.4076167241
 20
128.9775683864
 30
0.0
 10
136.2261998553
 20
128.8728096549
 30
0.0
  0
SPLINE
  5
39B
100
AcDbEntity
  8
_1
100
AcDbSpline
 62
7
  6
CONTINUOUS
 70
0
 71
3
 72
11
 73
7
 74
0
 42
0.0000001
 43
0.0000001
 44
0.0000000001
 40
0.0
 40
0.0
 40
0.0
 40
0.0
 40
0.2897016594
 40
0.5490895814
 40
0.7822189142
 40
1.0
 40
1.0
 40
1.0
 40
1.0
 10
54.8649815579
 20
274.284609415
 30
0.0
 10
54.8649815579
 20
274.0059356023
 30
0.0
 10
54.8227308059
 20
273.4759543522
 30
0.0
 10
54.6081059859
 20
272.7477825193
 30
0.0
 10
54.24672274
 20
272.1569127684
 30
0.0
 10
53.9072732445
 20
271.8715616975
 30
0.0
 10
53.7258563757
 20
271.766802966
 30
0.0
  0
SPLINE
  5
39C
100
AcDbEntity
  8
_1
100
AcDbSpline
 62
7
  6
CONTINUOUS
 70
0
 71
3
 72
11
 73
7
 74
0
 42
0.0000001
 43
0.0000001
 44
0.0000000001
 40
0.0
 40
0.0
 40
0.0
 40
0.0
 40
0.2177746734
 40
0.4509321515
 40
0.7102231861
 40
1.0
 40
1.0
 40
1.0
 40
1.0
 10
53.8562626265
 20
291.5575711056
 30
0.0
 10
54.2190965351
 20
291.7670457148
 30
0.0
 10
55.0527922264
 20
292.0697408636
 30
0.0
 10
56.4374142896
 20
292.1046478125
 30
0.0
 10
57.9133219675
 20
291.7485735695
 30
0.0
 10
58.8734037426
 20
291.2916077794
 30
0.0
 10
59.3561985858
 20
291.0128723525
 30
0.0
  0
SPLINE
  5
39D
100
AcDbEntity
  8
_1
100
AcDbSpline
 62
7
  6
CONTINUOUS
 70
0
 71
3
 72
11
 73
7
 74
0
 42
0.0000001
 43
0.0000001
 44
0.0000000001
 40
0.0
 40
0.0
 40
0.0
 40
0.0
 40
0.2182576202
 40
0.4516168347
 40
0.7107274315
 40
1.0
 40
1.0
 40
1.0
 40
1.0
 10
45.37101658
 20
286.6586412592
 30
0.0
 10
45.01226714
 20
286.4515247329
 30
0.0
 10
44.3405572372
 20
285.8893154145
 30
0.0
 10
43.6212548451
 20
284.7267292806
 30
0.0
 10
43.1880377355
 20
283.2939834981
 30
0.0
 10
43.0972091677
 20
282.2502829957
 30
0.0
 10
43.0930417329
 20
281.7012708378
 30
0.0
  0
SPLINE
  5
39E
100
AcDbEntity
  8
_1
100
AcDbSpline
 62
7
  6
CONTINUOUS
 70
0
 71
3
 72
10
 73
6
 74
0
 42
0.0000001
 43
0.0000001
 44
0.0000000001
 40
0.0
 40
0.0
 40
0.0
 40
0.0
 40
0.2184082244
 40
0.4522516324
 40
1.0
 40
1.0
 40
1.0
 40
1.0
 10
83.4354198122
 20
293.7788044466
 30
0.0
 10
83.5013811422
 20
293.8168829864
 30
0.0
 10
83.652933562
 20
293.8720834468
 30
0.0
 10
84.0060079797
 20
293.8807886334
 30
0.0
 10
84.2699392188
 20
293.7753545832
 30
0.0
 10
84.435360676
 20
293.6798506209
 30
0.0
  0
SPLINE
  5
39F
100
AcDbEntity
  8
_1
100
AcDbSpline
 62
7
  6
CONTINUOUS
 70
0
 71
3
 72
11
 73
7
 74
0
 42
0.0000001
 43
0.0000001
 44
0.0000000001
 40
0.0
 40
0.0
 40
0.0
 40
0.0
 40
0.2372436391
 40
0.5000005261
 40
0.7627571268
 40
1.0
 40
1.0
 40
1.0
 40
1.0
 10
110.2571623307
 20
277.955492691
 30
0.0
 10
110.1567716029
 20
278.0134519935
 30
0.0
 10
109.9233141871
 20
278.0980175619
 30
0.0
 10
109.5500544378
 20
278.1385363593
 30
0.0
 10
109.1767952518
 20
278.0980158586
 30
0.0
 10
108.9433387541
 20
278.013449131
 30
0.0
 10
108.8429487683
 20
277.9554892917
 30
0.0
  0
SPLINE
  5
3A0
100
AcDbEntity
  8
_1
100
AcDbSpline
 62
7
  6
CONTINUOUS
 70
0
 71
3
 72
11
 73
7
 74
0
 42
0.0000001
 43
0.0000001
 44
0.0000000001
 40
0.0
 40
0.0
 40
0.0
 40
0.0
 40
0.2861917377
 40
0.5440976218
 40
0.7787519717
 40
1.0
 40
1.0
 40
1.0
 40
1.0
 10
94.7542199869
 20
269.8101355934
 30
0.0
 10
94.4890837704
 20
269.6364966813
 30
0.0
 10
94.0091544056
 20
269.2658805599
 30
0.0
 10
93.4420280559
 20
268.6066712968
 30
0.0
 10
93.0864976582
 20
267.8899389855
 30
0.0
 10
93.0042434711
 20
267.3820577899
 30
0.0
 10
93.0042434742
 20
267.1370430096
 30
0.0
  0
SPLINE
  5
3A1
100
AcDbEntity
  8
_1
100
AcDbSpline
 62
7
  6
CONTINUOUS
 70
0
 71
3
 72
11
 73
7
 74
0
 42
0.0000001
 43
0.0000001
 44
0.0000000001
 40
0.0
 40
0.0
 40
0.0
 40
0.0
 40
0.2306304773
 40
0.4760766412
 40
0.7336509601
 40
1.0
 40
1.0
 40
1.0
 40
1.0
 10
43.7890542445
 20
230.1897314146
 30
0.0
 10
43.7890542445
 20
227.4458930187
 30
0.0
 10
44.167329597
 20
221.7781110067
 30
0.0
 10
45.7217031793
 20
213.1739591126
 30
0.0
 10
48.2466094228
 20
204.3614081779
 30
0.0
 10
50.5136830003
 20
198.5445506309
 30
0.0
 10
51.7918215739
 20
195.6449697809
 30
0.0
  0
SPLINE
  5
3A2
100
AcDbEntity
  8
_1
100
AcDbSpline
 62
7
  6
CONTINUOUS
 70
0
 71
3
 72
14
 73
10
 74
0
 42
0.0000001
 43
0.0000001
 44
0.0000000001
 40
0.0
 40
0.0
 40
0.0
 40
0.0
 40
0.289278867
 40
0.4225365083
 40
0.548496389
 40
0.6678937916
 40
0.7818677049
 40
0.8919524012
 40
1.0
 40
1.0
 40
1.0
 40
1.0
 10
132.1777698879
 20
179.1596370995
 30
0.0
 10
132.1777698879
 20
176.1184097343
 30
0.0
 10
131.8227153676
 20
171.6543854413
 30
0.0
 10
130.4503224339
 20
166.0435276491
 30
0.0
 10
129.0541205986
 20
162.3046867363
 30
0.0
 10
127.2745352939
 20
158.9588750759
 30
0.0
 10
125.1252399752
 20
156.0397364757
 30
0.0
 10
122.6261462914
 20
153.5802444685
 30
0.0
 10
120.7347474189
 20
152.2605079687
 30
0.0
 10
119.7510107312
 20
151.6925522189
 30
0.0
  0
SPLINE
  5
3A3
100
AcDbEntity
  8
_1
100
AcDbSpline
 62
7
  6
CONTINUOUS
 70
0
 71
3
 72
10
 73
6
 74
0
 42
0.0000001
 43
0.0000001
 44
0.0000000001
 40
0.0
 40
0.0
 40
0.0
 40
0.0
 40
0.2319649619
 40
0.4775029914
 40
1.0
 40
1.0
 40
1.0
 40
1.0
 10
58.6383319769
 20
225.2908576574
 30
0.0
 10
58.6383319769
 20
223.4744143915
 30
0.0
 10
58.8602069266
 20
219.7326722067
 30
0.0
 10
60.1139855251
 20
211.9943166166
 30
0.0
 10
61.9001925719
 20
206.2100128544
 30
0.0
 10
63.4027338392
 20
202.4043859661
 30
0.0
  0
SPLINE
  5
3A4
100
AcDbEntity
  8
_1
100
AcDbSpline
 62
7
  6
CONTINUOUS
 70
0
 71
3
 72
16
 73
12
 74
0
 42
0.0000001
 43
0.0000001
 44
0.0000000001
 40
0.0
 40
0.0
 40
0.0
 40
0.0
 40
0.1570904241
 40
0.3071616761
 40
0.4480519692
 40
0.5782472454
 40
0.6971400757
 40
0.8053391051
 40
0.9049715877
 40
0.9528009824
 40
1.0
 40
1.0
 40
1.0
 40
1.0
 10
75.5215304145
 20
181.4266229941
 30
0.0
 10
77.1161938159
 20
179.4208064729
 30
0.0
 10
80.4275591201
 20
175.6469928711
 30
0.0
 10
85.8122001771
 20
170.683756672
 30
0.0
 10
91.3910466943
 20
166.6434217243
 30
0.0
 10
97.021118688
 20
163.6333939495
 30
0.0
 10
102.564610685
 20
161.7373225292
 30
0.0
 10
107.8851661666
 20
161.0173774693
 30
0.0
 10
112.0841168639
 20
161.4514102265
 30
0.0
 10
115.1159865268
 20
162.4244206487
 30
0.0
 10
116.5162352578
 20
163.1040076498
 30
0.0
 10
117.1830188164
 20
163.4889318641
 30
0.0
  0
SPLINE
  5
3A5
100
AcDbEntity
  8
_1
100
AcDbSpline
 62
7
  6
CONTINUOUS
 70
0
 71
3
 72
17
 73
13
 74
0
 42
0.0000001
 43
0.0000001
 44
0.0000000001
 40
0.0
 40
0.0
 40
0.0
 40
0.0
 40
0.1286889276
 40
0.2702752976
 40
0.4174285834
 40
0.5617761264
 40
0.6954478599
 40
0.8127113764
 40
0.8646766119
 40
0.9125108666
 40
0.957140214
 40
1.0
 40
1.0
 40
1.0
 40
1.0
 10
48.3855412469
 20
189.56961827
 30
0.0
 10
48.3855412469
 20
188.5439122463
 30
0.0
 10
48.6725107426
 20
186.3872492647
 30
0.0
 10
49.7434299092
 20
183.220624066
 30
0.0
 10
51.3938168883
 20
180.1701551429
 30
0.0
 10
53.4908604836
 20
177.4859622833
 30
0.0
 10
55.8632049059
 20
175.3847928683
 30
0.0
 10
58.0105617227
 20
174.210804673
 30
0.0
 10
59.6902465744
 20
173.7638329363
 30
0.0
 10
60.8463295815
 20
173.6788022229
 30
0.0
 10
61.9227882462
 20
173.8366694222
 30
0.0
 10
62.574980102
 20
174.1076159954
 30
0.0
 10
62.8708072563
 20
174.2784501356
 30
0.0
  0
SPLINE
  5
3A6
100
AcDbEntity
  8
_1
100
AcDbSpline
 62
7
  6
CONTINUOUS
 70
0
 71
3
 72
11
 73
7
 74
0
 42
0.0000001
 43
0.0000001
 44
0.0000000001
 40
0.0
 40
0.0
 40
0.0
 40
0.0
 40
0.2892725685
 40
0.5483831653
 40
0.7817423798
 40
1.0
 40
1.0
 40
1.0
 40
1.0
 10
149.8443039323
 20
133.3635328273
 30
0.0
 10
149.8401364976
 20
132.8145206694
 30
0.0
 10
149.7493079298
 20
131.7708201669
 30
0.0
 10
149.3160908201
 20
130.3380743845
 30
0.0
 10
148.596788428
 20
129.1754882506
 30
0.0
 10
147.9250785252
 20
128.6132789322
 30
0.0
 10
147.5663290853
 20
128.4061624059
 30
0.0
  0
SPLINE
  5
3A7
100
AcDbEntity
  8
_1
100
AcDbSpline
 62
7
  6
CONTINUOUS
 70
0
 71
3
 72
11
 73
7
 74
0
 42
0.0000001
 43
0.0000001
 44
0.0000000001
 40
0.0
 40
0.0
 40
0.0
 40
0.0
 40
0.2897781767
 40
0.5490726313
 40
0.7822276909
 40
1.0
 40
1.0
 40
1.0
 40
1.0
 10
95.0544651582
 20
263.8710827239
 30
0.0
 10
94.7472296493
 20
264.0484612148
 30
0.0
 10
94.1899001102
 20
264.4321664478
 30
0.0
 10
93.524033608
 20
265.1322401316
 30
0.0
 10
93.1027047422
 20
265.9064195817
 30
0.0
 10
93.0042434776
 20
266.4621824973
 30
0.0
 10
93.0042434742
 20
266.728791801
 30
0.0
  0
SPLINE
  5
3A8
100
AcDbEntity
  8
_1
100
AcDbSpline
 62
7
  6
CONTINUOUS
 70
0
 71
3
 72
17
 73
13
 74
0
 42
0.0000001
 43
0.0000001
 44
0.0000000001
 40
0.0
 40
0.0
 40
0.0
 40
0.0
 40
0.046718975
 40
0.0941090868
 40
0.142794274
 40
0.1933151993
 40
0.3013216581
 40
0.4204470305
 40
0.5511512867
 40
0.6926043226
 40
0.8430318896
 40
1.0
 40
1.0
 40
1.0
 40
1.0
 10
119.7510107312
 20
151.6925522189
 30
0.0
 10
118.8951042316
 20
151.1983986271
 30
0.0
 10
117.0940483718
 20
150.3301156373
 30
0.0
 10
114.200882726
 20
149.4277007553
 30
0.0
 10
111.1305470313
 20
148.9262013406
 30
0.0
 10
106.7383052528
 20
148.7922931682
 30
0.0
 10
100.8817905962
 20
149.7054562866
 30
0.0
 10
93.7441367974
 20
152.3383440709
 30
0.0
 10
86.5169834726
 20
156.436580192
 30
0.0
 10
79.3961038262
 20
161.8806571189
 30
0.0
 10
72.5764068872
 20
168.5150551356
 30
0.0
 10
68.4192722224
 20
173.5333134437
 30
0.0
 10
66.4305662176
 20
176.1924948674
 30
0.0
  0
SPLINE
  5
3A9
100
AcDbEntity
  8
_1
100
AcDbSpline
 62
7
  6
CONTINUOUS
 70
0
 71
3
 72
11
 73
7
 74
0
 42
0.0000001
 43
0.0000001
 44
0.0000000001
 40
0.0
 40
0.0
 40
0.0
 40
0.0
 40
0.2662563996
 40
0.5236760313
 40
0.7691022422
 40
1.0
 40
1.0
 40
1.0
 40
1.0
 10
54.3494414756
 20
197.0932357391
 30
0.0
 10
53.2261429769
 20
199.7055124757
 30
0.0
 10
51.2345548669
 20
204.940689278
 30
0.0
 10
49.0183600595
 20
212.8622691591
 30
0.0
 10
47.6554817908
 20
220.5922425947
 30
0.0
 10
47.3246028703
 20
225.682596929
 30
0.0
 10
47.3246028703
 20
228.148527642
 30
0.0
  0
SPLINE
  5
3AA
100
AcDbEntity
  8
_1
100
AcDbSpline
 62
7
  6
CONTINUOUS
 70
0
 71
3
 72
11
 73
7
 74
0
 42
0.0000001
 43
0.0000001
 44
0.0000000001
 40
0.0
 40
0.0
 40
0.0
 40
0.0
 40
0.2897768139
 40
0.5490678485
 40
0.7822253266
 40
1.0
 40
1.0
 40
1.0
 40
1.0
 10
50.8709525392
 20
286.113942506
 30
0.0
 10
50.388157696
 20
286.3926779329
 30
0.0
 10
49.428075921
 20
286.849643723
 30
0.0
 10
47.9521682431
 20
287.2057179661
 30
0.0
 10
46.5675461798
 20
287.1708110171
 30
0.0
 10
45.7338504885
 20
286.8681158684
 30
0.0
 10
45.37101658
 20
286.6586412592
 30
0.0
  0
SPLINE
  5
3AB
100
AcDbEntity
  8
_1
100
AcDbSpline
 62
7
  6
CONTINUOUS
 70
0
 71
3
 72
11
 73
7
 74
0
 42
0.0000001
 43
0.0000001
 44
0.0000000001
 40
0.0
 40
0.0
 40
0.0
 40
0.0
 40
0.2377690515
 40
0.5005496911
 40
0.7630314763
 40
1.0
 40
1.0
 40
1.0
 40
1.0
 10
141.3590578858
 20
224.9686434233
 30
0.0
 10
141.349488068
 20
226.2404081596
 30
0.0
 10
140.8599580999
 20
228.9161325746
 30
0.0
 10
139.1892904428
 20
232.6726972515
 30
0.0
 10
136.7576166661
 20
235.9824584637
 30
0.0
 10
134.6788567729
 20
237.728521061
 30
0.0
 10
133.5811470794
 20
238.3622697107
 30
0.0
  0
SPLINE
  5
3AC
100
AcDbEntity
  8
_1
100
AcDbSpline
 62
7
  6
CONTINUOUS
 70
0
 71
3
 72
11
 73
7
 74
0
 42
0.0000001
 43
0.0000001
 44
0.0000000001
 40
0.0
 40
0.0
 40
0.0
 40
0.0
 40
0.2372279391
 40
0.4999994739
 40
0.762771295
 40
1.0
 40
1.0
 40
1.0
 40
1.0
 10
104.9539600947
 20
263.8711065193
 30
0.0
 10
104.2512714291
 20
263.4654114508
 30
0.0
 10
102.6171092846
 20
262.8733406882
 30
0.0
 10
100.0042204085
 20
262.5897250401
 30
0.0
 10
97.39132759
 20
262.8733287644
 30
0.0
 10
95.7571590181
 20
263.4653914127
 30
0.0
 10
95.0544651582
 20
263.8710827239
 30
0.0
  0
SPLINE
  5
3AD
100
AcDbEntity
  8
_1
100
AcDbSpline
 62
7
  6
CONTINUOUS
 70
0
 71
3
 72
11
 73
7
 74
0
 42
0.0000001
 43
0.0000001
 44
0.0000000001
 40
0.0
 40
0.0
 40
0.0
 40
0.0
 40
0.2190474191
 40
0.4555950413
 40
0.7152083972
 40
1.0
 40
1.0
 40
1.0
 40
1.0
 10
63.6191324907
 20
257.291155775
 30
0.0
 10
62.1593536478
 20
255.9550783331
 30
0.0
 10
59.5135886474
 20
252.7283374644
 30
0.0
 10
56.7408162145
 20
246.8356550431
 30
0.0
 10
55.0819724868
 20
239.937267507
 30
0.0
 10
54.749193161
 20
235.0079358407
 30
0.0
 10
54.749193161
 20
232.4350912576
 30
0.0
  0
SPLINE
  5
3AE
100
AcDbEntity
  8
_1
100
AcDbSpline
 62
7
  6
CONTINUOUS
 70
0
 71
3
 72
11
 73
7
 74
0
 42
0.0000001
 43
0.0000001
 44
0.0000000001
 40
0.0
 40
0.0
 40
0.0
 40
0.0
 40
0.2897016594
 40
0.5490895814
 40
0.7822189142
 40
1.0
 40
1.0
 40
1.0
 40
1.0
 10
129.5871180608
 20
231.1447397449
 30
0.0
 10
129.5871180608
 20
231.4234135576
 30
0.0
 10
129.6293688128
 20
231.9533948077
 30
0.0
 10
129.8439936328
 20
232.6815666405
 30
0.0
 10
130.2053768787
 20
233.2724363915
 30
0.0
 10
130.5448263741
 20
233.5577874624
 30
0.0
 10
130.726243243
 20
233.6625461939
 30
0.0
  0
SPLINE
  5
3AF
100
AcDbEntity
  8
_1
100
AcDbSpline
 62
7
  6
CONTINUOUS
 70
0
 71
3
 72
11
 73
7
 74
0
 42
0.0000001
 43
0.0000001
 44
0.0000000001
 40
0.0
 40
0.0
 40
0.0
 40
0.0
 40
0.2897016594
 40
0.5490895814
 40
0.7822189142
 40
1.0
 40
1.0
 40
1.0
 40
1.0
 10
47.0867745812
 20
183.5117823735
 30
0.0
 10
47.0867745812
 20
183.7904561862
 30
0.0
 10
47.1290253332
 20
184.3204374363
 30
0.0
 10
47.3436501532
 20
185.0486092692
 30
0.0
 10
47.7050333991
 20
185.6394790201
 30
0.0
 10
48.0444828946
 20
185.924830091
 30
0.0
 10
48.2258997634
 20
186.0295888225
 30
0.0
  0
SPLINE
  5
3B0
100
AcDbEntity
  8
_1
100
AcDbSpline
 62
7
  6
CONTINUOUS
 70
0
 71
3
 72
14
 73
10
 74
0
 42
0.0000001
 43
0.0000001
 44
0.0000000001
 40
0.0
 40
0.0
 40
0.0
 40
0.0
 40
0.108047219
 40
0.2181316133
 40
0.3321053793
 40
0.4515027594
 40
0.5774625305
 40
0.7107203477
 40
1.0
 40
1.0
 40
1.0
 40
1.0
 10
122.2509956028
 20
147.3624255661
 30
0.0
 10
123.316707407
 20
147.9777073125
 30
0.0
 10
125.3657126129
 20
149.4074225691
 30
0.0
 10
128.0730646992
 20
152.071857045
 30
0.0
 10
130.4014659698
 20
155.2342526584
 30
0.0
 10
132.3293486433
 20
158.8588783943
 30
0.0
 10
133.8419103801
 20
162.9092861152
 30
0.0
 10
135.3286728991
 20
168.9877246413
 30
0.0
 10
135.7133185136
 20
173.8237615275
 30
0.0
 10
135.7133185136
 20
177.1184333269
 30
0.0
  0
SPLINE
  5
3B1
100
AcDbEntity
  8
_1
100
AcDbSpline
 62
7
  6
CONTINUOUS
 70
0
 71
3
 72
14
 73
10
 74
0
 42
0.0000001
 43
0.0000001
 44
0.0000000001
 40
0.0
 40
0.0
 40
0.0
 40
0.0
 40
0.2892790848
 40
0.4225366072
 40
0.5484963024
 40
0.6678936013
 40
0.781867523
 40
0.8919523079
 40
1.0
 40
1.0
 40
1.0
 40
1.0
 10
138.1881819439
 20
178.5472878655
 30
0.0
 10
138.1881819439
 20
175.2526224147
 30
0.0
 10
137.8035393921
 20
170.4165948886
 30
0.0
 10
136.31677961
 20
164.3381668544
 30
0.0
 10
134.8042293206
 20
160.2877602493
 30
0.0
 10
132.8763472238
 20
156.6631335823
 30
0.0
 10
130.5479448097
 20
153.5007328807
 30
0.0
 10
127.8405919588
 20
150.8362815302
 30
0.0
 10
125.7915751598
 20
149.4065652196
 30
0.0
 10
124.725859363
 20
148.7912795275
 30
0.0
  0
SPLINE
  5
3B2
100
AcDbEntity
  8
_1
100
AcDbSpline
 62
7
  6
CONTINUOUS
 70
0
 71
3
 72
11
 73
7
 74
0
 42
0.0000001
 43
0.0000001
 44
0.0000000001
 40
0.0
 40
0.0
 40
0.0
 40
0.0
 40
0.2897016594
 40
0.5490895814
 40
0.7822189142
 40
1.0
 40
1.0
 40
1.0
 40
1.0
 10
129.5871180608
 20
135.8812644036
 30
0.0
 10
129.5871180608
 20
136.1599382163
 30
0.0
 10
129.6293688128
 20
136.6899194664
 30
0.0
 10
129.8439936328
 20
137.4180912993
 30
0.0
 10
130.2053768787
 20
138.0089610503
 30
0.0
 10
130.5448263741
 20
138.2943121211
 30
0.0
 10
130.726243243
 20
138.3990708527
 30
0.0
  0
SPLINE
  5
3B3
100
AcDbEntity
  8
_1
100
AcDbSpline
 62
7
  6
CONTINUOUS
 70
0
 71
3
 72
23
 73
19
 74
0
 42
0.0000001
 43
0.0000001
 44
0.0000000001
 40
0.0
 40
0.0
 40
0.0
 40
0.0
 40
0.0428145631
 40
0.087396591
 40
0.1351795184
 40
0.1870888485
 40
0.2435355305
 40
0.3044930327
 40
0.36959101
 40
0.4381990631
 40
0.5094966675
 40
0.5825323993
 40
0.6562755592
 40
0.7296644265
 40
0.8016522219
 40
0.8712564986
 40
0.9376056049
 40
1.0
 40
1.0
 40
1.0
 40
1.0
 10
59.7262402557
 20
261.3745942911
 30
0.0
 10
61.3287557817
 20
262.2997986254
 30
0.0
 10
64.8612262294
 20
263.7680115396
 30
0.0
 10
70.6923547223
 20
264.6226054611
 30
0.0
 10
76.9540456885
 20
264.1616744602
 30
0.0
 10
83.5073078484
 20
262.4205343086
 30
0.0
 10
90.2234532107
 20
259.4523059564
 30
0.0
 10
96.9687881012
 20
255.3255581523
 30
0.0
 10
103.6062991589
 20
250.1291765298
 30
0.0
 10
109.998165872
 20
243.9732746581
 30
0.0
 10
116.0098763739
 20
236.9883415867
 30
0.0
 10
121.5138861975
 20
229.3228618911
 30
0.0
 10
126.3929627312
 20
221.140197532
 30
0.0
 10
130.5430011058
 20
212.6148650268
 30
0.0
 10
133.8755461951
 20
203.9287646508
 30
0.0
 10
136.3195392017
 20
195.2660251876
 30
0.0
 10
137.8228735634
 20
186.8118776744
 30
0.0
 10
138.1881819439
 20
181.2439385053
 30
0.0
 10
138.1881819439
 20
178.5472878655
 30
0.0
  0
SPLINE
  5
3B4
100
AcDbEntity
  8
_1
100
AcDbSpline
 62
7
  6
CONTINUOUS
 70
0
 71
3
 72
11
 73
7
 74
0
 42
0.0000001
 43
0.0000001
 44
0.0000000001
 40
0.0
 40
0.0
 40
0.0
 40
0.0
 40
0.2897016594
 40
0.5490895814
 40
0.7822189142
 40
1.0
 40
1.0
 40
1.0
 40
1.0
 10
47.0867745812
 20
278.7752577147
 30
0.0
 10
47.0867745812
 20
279.0539315274
 30
0.0
 10
47.1290253332
 20
279.5839127775
 30
0.0
 10
47.3436501532
 20
280.3120846104
 30
0.0
 10
47.7050333991
 20
280.9029543614
 30
0.0
 10
48.0444828946
 20
281.1883054322
 30
0.0
 10
48.2258997634
 20
281.2930641638
 30
0.0
  0
SPLINE
  5
3B5
100
AcDbEntity
  8
_1
100
AcDbSpline
 62
7
  6
CONTINUOUS
 70
0
 71
3
 72
16
 73
12
 74
0
 42
0.0000001
 43
0.0000001
 44
0.0000000001
 40
0.0
 40
0.0
 40
0.0
 40
0.0
 40
0.0428779141
 40
0.0875234847
 40
0.1869287945
 40
0.3042400339
 40
0.4379633427
 40
0.5823675368
 40
0.729595529
 40
0.8712500532
 40
1.0
 40
1.0
 40
1.0
 40
1.0
 10
136.2261998553
 20
128.8728096549
 30
0.0
 10
136.0906127847
 20
128.7945152294
 30
0.0
 10
135.7916872076
 20
128.6703901373
 30
0.0
 10
135.1104736233
 20
128.5704046892
 30
0.0
 10
134.1487201241
 20
128.7582573642
 30
0.0
 10
133.0158077963
 20
129.3796669044
 30
0.0
 10
131.9267975028
 20
130.3428974934
 30
0.0
 10
130.9661298376
 20
131.5730261514
 30
0.0
 10
130.2095500871
 20
132.9712110449
 30
0.0
 10
129.7186365838
 20
134.422617048
 30
0.0
 10
129.5871180608
 20
135.4111329004
 30
0.0
 10
129.5871180608
 20
135.8812644036
 30
0.0
  0
SPLINE
  5
3B6
100
AcDbEntity
  8
_1
100
AcDbSpline
 62
7
  6
CONTINUOUS
 70
0
 71
3
 72
17
 73
13
 74
0
 42
0.0000001
 43
0.0000001
 44
0.0000000001
 40
0.0
 40
0.0
 40
0.0
 40
0.0
 40
0.0428595039
 40
0.087488893
 40
0.1353233594
 40
0.187288892
 40
0.3045519341
 40
0.4382215219
 40
0.5825668323
 40
0.7297207643
 40
0.8713092579
 40
1.0
 40
1.0
 40
1.0
 40
1.0
 10
86.9332010733
 20
215.8834658044
 30
0.0
 10
87.2290259985
 20
216.0542993308
 30
0.0
 10
87.8812187358
 20
216.3252398736
 30
0.0
 10
88.9576762234
 20
216.483105286
 30
0.0
 10
90.1137646868
 20
216.3980833667
 30
0.0
 10
91.7934482455
 20
215.9511032042
 30
0.0
 10
93.9407898098
 20
214.7771289354
 30
0.0
 10
96.3131062412
 20
212.6759866118
 30
0.0
 10
98.4101483536
 20
209.9918308889
 30
0.0
 10
100.0605426798
 20
206.9413606808
 30
0.0
 10
101.131493459
 20
203.7747075342
 30
0.0
 10
101.4184703483
 20
201.6180125278
 30
0.0
 10
101.4184703483
 20
200.5922920089
 30
0.0
  0
SPLINE
  5
3B7
100
AcDbEntity
  8
_1
100
AcDbSpline
 62
7
  6
CONTINUOUS
 70
0
 71
3
 72
11
 73
7
 74
0
 42
0.0000001
 43
0.0000001
 44
0.0000000001
 40
0.0
 40
0.0
 40
0.0
 40
0.0
 40
0.2177723091
 40
0.4509273687
 40
0.7102218233
 40
1.0
 40
1.0
 40
1.0
 40
1.0
 10
93.0042434742
 20
267.1370430096
 30
0.0
 10
93.0042434776
 20
266.8704337058
 30
0.0
 10
93.1027047422
 20
266.3146707903
 30
0.0
 10
93.524033608
 20
265.5404913402
 30
0.0
 10
94.1899001102
 20
264.8404176564
 30
0.0
 10
94.7472296493
 20
264.4567124234
 30
0.0
 10
95.0544651582
 20
264.2793339324
 30
0.0
  0
SPLINE
  5
3B8
100
AcDbEntity
  8
_1
100
AcDbSpline
 62
7
  6
CONTINUOUS
 70
0
 71
3
 72
11
 73
7
 74
0
 42
0.0000001
 43
0.0000001
 44
0.0000000001
 40
0.0
 40
0.0
 40
0.0
 40
0.0
 40
0.2177696012
 40
0.4509414157
 40
0.7102110461
 40
1.0
 40
1.0
 40
1.0
 40
1.0
 10
62.8708072563
 20
174.2784501356
 30
0.0
 10
63.2666040857
 20
174.5070147217
 30
0.0
 10
64.0074430812
 20
175.1294754518
 30
0.0
 10
64.7955490906
 20
176.4186899573
 30
0.0
 10
65.2642835503
 20
178.0073033254
 30
0.0
 10
65.3561746504
 20
179.1636343454
 30
0.0
 10
65.3561746504
 20
179.7718401615
 30
0.0
  0
SPLINE
  5
3B9
100
AcDbEntity
  8
_1
100
AcDbSpline
 62
7
  6
CONTINUOUS
 70
0
 71
3
 72
11
 73
7
 74
0
 42
0.0000001
 43
0.0000001
 44
0.0000000001
 40
0.0
 40
0.0
 40
0.0
 40
0.0
 40
0.237228705
 40
0.5000005261
 40
0.7627720609
 40
1.0
 40
1.0
 40
1.0
 40
1.0
 10
95.0544651582
 20
264.2793339324
 30
0.0
 10
95.7571590181
 20
263.8736426212
 30
0.0
 10
97.39132759
 20
263.281579973
 30
0.0
 10
100.0042204085
 20
262.9979762487
 30
0.0
 10
102.6171092846
 20
263.2815918968
 30
0.0
 10
104.2512714291
 20
263.8736626593
 30
0.0
 10
104.9539600947
 20
264.2793577279
 30
0.0
  0
SPLINE
  5
3BA
100
AcDbEntity
  8
_1
100
AcDbSpline
 62
7
  6
CONTINUOUS
 70
0
 71
3
 72
14
 73
10
 74
0
 42
0.0000001
 43
0.0000001
 44
0.0000000001
 40
0.0
 40
0.0
 40
0.0
 40
0.0
 40
0.1080472999
 40
0.2181309043
 40
0.3321047466
 40
0.4515035881
 40
0.5774611372
 40
0.7107195163
 40
1.0
 40
1.0
 40
1.0
 40
1.0
 10
117.1830188164
 20
163.4889318641
 30
0.0
 10
117.9782242641
 20
163.9479921217
 30
0.0
 10
119.5070009644
 20
165.0149112313
 30
0.0
 10
121.5271855736
 20
167.0028748827
 30
0.0
 10
123.2645348032
 20
169.3625300089
 30
0.0
 10
124.702951774
 20
172.0670865236
 30
0.0
 10
125.8316446837
 20
175.0892760217
 30
0.0
 10
126.9409558279
 20
179.6247333459
 30
0.0
 10
127.2279753162
 20
183.2331660017
 30
0.0
 10
127.2279753162
 20
185.691504469
 30
0.0
  0
SPLINE
  5
3BB
100
AcDbEntity
  8
_1
100
AcDbSpline
 62
7
  6
CONTINUOUS
 70
0
 71
3
 72
23
 73
19
 74
0
 42
0.0000001
 43
0.0000001
 44
0.0000000001
 40
0.0
 40
0.0
 40
0.0
 40
0.0
 40
0.0623942264
 40
0.1287430361
 40
0.1983471082
 40
0.2703348395
 40
0.3437238693
 40
0.4174672706
 40
0.4905031806
 40
0.5618009309
 40
0.630409151
 40
0.6955072684
 40
0.7564648065
 40
0.8129114205
 40
0.8648206619
 40
0.9126035329
 40
0.9571855152
 40
1.0
 40
1.0
 40
1.0
 40
1.0
 10
135.7133185136
 20
177.1184333269
 30
0.0
 10
135.7133185136
 20
179.8150766704
 30
0.0
 10
135.3480133723
 20
185.3829957906
 30
0.0
 10
133.8446868304
 20
193.8371151014
 30
0.0
 10
131.4007088517
 20
202.4998332644
 30
0.0
 10
128.068171892
 20
211.185931862
 30
0.0
 10
123.9181337914
 20
219.7112808484
 30
0.0
 10
119.0390484319
 20
227.8939693549
 30
0.0
 10
113.5350265489
 20
235.5594705488
 30
0.0
 10
107.5233027722
 20
242.5444202746
 30
0.0
 10
101.1314212714
 20
248.7003351215
 30
0.0
 10
94.4938966052
 20
253.8967235475
 30
0.0
 10
87.7485552332
 20
258.0234698476
 30
0.0
 10
81.0324123662
 20
260.9916908241
 30
0.0
 10
74.4791577598
 20
262.732823535
 30
0.0
 10
68.2174749984
 20
263.1937490556
 30
0.0
 10
62.3863541737
 20
262.3391542622
 30
0.0
 10
58.8538908141
 20
260.8709399649
 30
0.0
 10
57.2513771554
 20
259.9457391755
 30
0.0
  0
SPLINE
  5
3BC
100
AcDbEntity
  8
_1
100
AcDbSpline
 62
7
  6
CONTINUOUS
 70
0
 71
3
 72
16
 73
12
 74
0
 42
0.0000001
 43
0.0000001
 44
0.0000000001
 40
0.0
 40
0.0
 40
0.0
 40
0.0
 40
0.0428779141
 40
0.0875234847
 40
0.1869287945
 40
0.3042400339
 40
0.4379633427
 40
0.5823675368
 40
0.729595529
 40
0.8712500532
 40
1.0
 40
1.0
 40
1.0
 40
1.0
 10
53.7258563757
 20
176.5033276247
 30
0.0
 10
53.5902693052
 20
176.4250331993
 30
0.0
 10
53.291343728
 20
176.3009081071
 30
0.0
 10
52.6101301437
 20
176.200922659
 30
0.0
 10
51.6483766445
 20
176.3887753341
 30
0.0
 10
50.5154643168
 20
177.0101848743
 30
0.0
 10
49.4264540233
 20
177.9734154633
 30
0.0
 10
48.465786358
 20
179.2035441213
 30
0.0
 10
47.7092066075
 20
180.6017290147
 30
0.0
 10
47.2182931042
 20
182.0531350179
 30
0.0
 10
47.0867745812
 20
183.0416508702
 30
0.0
 10
47.0867745812
 20
183.5117823735
 30
0.0
  0
SPLINE
  5
3BD
100
AcDbEntity
  8
_1
100
AcDbSpline
 62
7
  6
CONTINUOUS
 70
0
 71
3
 72
14
 73
10
 74
0
 42
0.0000001
 43
0.0000001
 44
0.0000000001
 40
0.0
 40
0.0
 40
0.0
 40
0.0
 40
0.289278867
 40
0.4225365083
 40
0.548496389
 40
0.6678937916
 40
0.7818677049
 40
0.8919524012
 40
1.0
 40
1.0
 40
1.0
 40
1.0
 10
47.3246028703
 20
228.148527642
 30
0.0
 10
47.3246028703
 20
231.1897550072
 30
0.0
 10
47.6796573906
 20
235.6537793003
 30
0.0
 10
49.0520503243
 20
241.2646370925
 30
0.0
 10
50.4482521596
 20
245.0034780053
 30
0.0
 10
52.2278374643
 20
248.3492896656
 30
0.0
 10
54.377132783
 20
251.2684282658
 30
0.0
 10
56.8762264668
 20
253.727920273
 30
0.0
 10
58.7676253393
 20
255.0476567728
 30
0.0
 10
59.751362027
 20
255.6156125226
 30
0.0
  0
SPLINE
  5
3BE
100
AcDbEntity
  8
_1
100
AcDbSpline
 62
7
  6
CONTINUOUS
 70
0
 71
3
 72
16
 73
12
 74
0
 42
0.0000001
 43
0.0000001
 44
0.0000000001
 40
0.0
 40
0.0
 40
0.0
 40
0.0
 40
0.0428779141
 40
0.0875234847
 40
0.1869287945
 40
0.3042400339
 40
0.4379633427
 40
0.5823675368
 40
0.729595529
 40
0.8712500532
 40
1.0
 40
1.0
 40
1.0
 40
1.0
 10
136.2261998553
 20
224.1362849961
 30
0.0
 10
136.0906127847
 20
224.0579905706
 30
0.0
 10
135.7916872076
 20
223.9338654785
 30
0.0
 10
135.1104736233
 20
223.8338800304
 30
0.0
 10
134.1487201241
 20
224.0217327055
 30
0.0
 10
133.0158077963
 20
224.6431422457
 30
0.0
 10
131.9267975028
 20
225.6063728346
 30
0.0
 10
130.9661298376
 20
226.8365014927
 30
0.0
 10
130.2095500871
 20
228.2346863861
 30
0.0
 10
129.7186365838
 20
229.6860923892
 30
0.0
 10
129.5871180608
 20
230.6746082416
 30
0.0
 10
129.5871180608
 20
231.1447397449
 30
0.0
  0
SPLINE
  5
3BF
100
AcDbEntity
  8
_1
100
AcDbSpline
 62
7
  6
CONTINUOUS
 70
0
 71
3
 72
11
 73
7
 74
0
 42
0.0000001
 43
0.0000001
 44
0.0000000001
 40
0.0
 40
0.0
 40
0.0
 40
0.0
 40
0.230898324
 40
0.4763240683
 40
0.7337433408
 40
1.0
 40
1.0
 40
1.0
 40
1.0
 10
54.749193161
 20
232.4350912576
 30
0.0
 10
54.749193161
 20
229.9692928645
 30
0.0
 10
55.0800351405
 20
224.8792232447
 30
0.0
 10
56.4427722527
 20
217.1496760693
 30
0.0
 10
58.6587402132
 20
209.2285194762
 30
0.0
 10
60.6501295018
 20
203.9936050057
 30
0.0
 10
61.7733205916
 20
201.3814527459
 30
0.0
  0
SPLINE
  5
3C0
100
AcDbEntity
  8
_1
100
AcDbSpline
 62
7
  6
CONTINUOUS
 70
0
 71
3
 72
15
 73
11
 74
0
 42
0.0000001
 43
0.0000001
 44
0.0000000001
 40
0.0
 40
0.0
 40
0.0
 40
0.0
 40
0.1534420606
 40
0.3012880503
 40
0.441511057
 40
0.5725352451
 40
0.693417599
 40
0.8040672029
 40
0.9054925899
 40
1.0
 40
1.0
 40
1.0
 40
1.0
 10
73.8553159601
 20
180.4788439601
 30
0.0
 10
75.6680269957
 20
178.055008138
 30
0.0
 10
79.445947603
 20
173.4539417913
 30
0.0
 10
85.6091374358
 20
167.2806783056
 30
0.0
 10
92.0502929875
 20
162.0710572833
 30
0.0
 10
98.6201806748
 20
157.94867792
 30
0.0
 10
105.1702844485
 20
155.0117436355
 30
0.0
 10
111.5584516352
 20
153.3370661975
 30
0.0
 10
117.6398098061
 20
152.9810719821
 30
0.0
 10
121.4913323236
 20
153.6725596452
 30
0.0
 10
123.2652464015
 20
154.2456557285
 30
0.0
  0
SPLINE
  5
3C1
100
AcDbEntity
  8
_1
100
AcDbSpline
 62
7
  6
CONTINUOUS
 70
0
 71
3
 72
16
 73
12
 74
0
 42
0.0000001
 43
0.0000001
 44
0.0000000001
 40
0.0
 40
0.0
 40
0.0
 40
0.0
 40
0.0428779141
 40
0.0875234847
 40
0.1869287945
 40
0.3042400339
 40
0.4379633427
 40
0.5823675368
 40
0.729595529
 40
0.8712500532
 40
1.0
 40
1.0
 40
1.0
 40
1.0
 10
53.7258563757
 20
271.766802966
 30
0.0
 10
53.5902693052
 20
271.6885085405
 30
0.0
 10
53.291343728
 20
271.5643834484
 30
0.0
 10
52.6101301437
 20
271.4643980003
 30
0.0
 10
51.6483766445
 20
271.6522506754
 30
0.0
 10
50.5154643168
 20
272.2736602156
 30
0.0
 10
49.4264540233
 20
273.2368908045
 30
0.0
 10
48.465786358
 20
274.4670194626
 30
0.0
 10
47.7092066075
 20
275.865204356
 30
0.0
 10
47.2182931042
 20
277.3166103591
 30
0.0
 10
47.0867745812
 20
278.3051262115
 30
0.0
 10
47.0867745812
 20
278.7752577147
 30
0.0
  0
SPLINE
  5
3C2
100
AcDbEntity
  8
_1
100
AcDbSpline
 62
7
  6
CONTINUOUS
 70
0
 71
3
 72
13
 73
9
 74
0
 42
0.0000001
 43
0.0000001
 44
0.0000000001
 40
0.0
 40
0.0
 40
0.0
 40
0.0
 40
0.2873520294
 40
0.5454948641
 40
0.6651748796
 40
0.7798072361
 40
0.8908415956
 40
1.0
 40
1.0
 40
1.0
 40
1.0
 10
131.4481896036
 20
186.7241895377
 30
0.0
 10
131.3746488518
 20
184.4198680982
 30
0.0
 10
130.8901225404
 20
180.0434520665
 30
0.0
 10
129.2171853208
 20
174.9204624653
 30
0.0
 10
127.2771390515
 20
171.4655357661
 30
0.0
 10
125.5884115542
 20
169.255943045
 30
0.0
 10
123.6444351205
 20
167.3867423243
 30
0.0
 10
122.1841318086
 20
166.3762620983
 30
0.0
 10
121.4256417071
 20
165.9383970788
 30
0.0
  0
SPLINE
  5
3C3
100
AcDbEntity
  8
_1
100
AcDbSpline
 62
7
  6
CONTINUOUS
 70
0
 71
3
 72
22
 73
18
 74
0
 42
0.0000001
 43
0.0000001
 44
0.0000000001
 40
0.0
 40
0.0
 40
0.0
 40
0.0
 40
0.0624019061
 40
0.1287605619
 40
0.198373606
 40
0.2703710655
 40
0.4173894174
 40
0.4904351044
 40
0.5617423443
 40
0.6303596076
 40
0.6954663603
 40
0.7564320708
 40
0.812886279
 40
0.8648024883
 40
0.912591791
 40
0.9571797757
 40
1.0
 40
1.0
 40
1.0
 40
1.0
 10
127.2279753162
 20
185.691504469
 30
0.0
 10
127.2279753162
 20
187.7035943543
 30
0.0
 10
126.9553826175
 20
191.8581567406
 30
0.0
 10
125.8337248986
 20
198.1660978391
 30
0.0
 10
124.0100308054
 20
204.6303868433
 30
0.0
 10
120.6724416933
 20
213.3278141424
 30
0.0
 10
116.163942813
 20
221.6584005485
 30
0.0
 10
110.679922497
 20
229.2971862227
 30
0.0
 10
106.1937941611
 20
234.5094523499
 30
0.0
 10
101.4245893103
 20
239.1026015331
 30
0.0
 10
96.4719504568
 20
242.9799320734
 30
0.0
 10
91.4388950286
 20
246.0591162172
 30
0.0
 10
86.4276149691
 20
248.2738701889
 30
0.0
 10
81.5378732048
 20
249.5730287955
 30
0.0
 10
76.8656954263
 20
249.9169412846
 30
0.0
 10
72.5147587461
 20
249.2793150537
 30
0.0
 10
69.8790411118
 20
248.1837204436
 30
0.0
 10
68.6832884767
 20
247.4934302622
 30
0.0
  0
SPLINE
  5
3C4
100
AcDbEntity
  8
_1
100
AcDbSpline
 62
7
  6
CONTINUOUS
 70
0
 71
3
 72
11
 73
7
 74
0
 42
0.0000001
 43
0.0000001
 44
0.0000000001
 40
0.0
 40
0.0
 40
0.0
 40
0.0
 40
0.2897901079
 40
0.5490572946
 40
0.7822295523
 40
1.0
 40
1.0
 40
1.0
 40
1.0
 10
101.4184703483
 20
200.5922920089
 30
0.0
 10
101.4184703483
 20
199.9840833749
 30
0.0
 10
101.3265825047
 20
198.8277534398
 30
0.0
 10
100.8578434721
 20
197.2391433905
 30
0.0
 10
100.0697486476
 20
195.9499233164
 30
0.0
 10
99.3289044551
 20
195.3274626209
 30
0.0
 10
98.9331062198
 20
195.098896322
 30
0.0
  0
SPLINE
  5
3C5
100
AcDbEntity
  8
_1
100
AcDbSpline
 62
7
  6
CONTINUOUS
 70
0
 71
3
 72
11
 73
7
 74
0
 42
0.0000001
 43
0.0000001
 44
0.0000000001
 40
0.0
 40
0.0
 40
0.0
 40
0.0
 40
0.2182576202
 40
0.4516168347
 40
0.7107274315
 40
1.0
 40
1.0
 40
1.0
 40
1.0
 10
139.0810830387
 20
123.5072325595
 30
0.0
 10
139.4398324787
 20
123.7143490857
 30
0.0
 10
140.1115423815
 20
124.2765584041
 30
0.0
 10
140.8308447735
 20
125.4391445381
 30
0.0
 10
141.2640618832
 20
126.8718903205
 30
0.0
 10
141.354890451
 20
127.9155908229
 30
0.0
 10
141.3590578858
 20
128.4646029808
 30
0.0
  0
SPLINE
  5
3C6
100
AcDbEntity
  8
_1
100
AcDbSpline
 62
7
  6
CONTINUOUS
 70
0
 71
3
 72
17
 73
13
 74
0
 42
0.0000001
 43
0.0000001
 44
0.0000000001
 40
0.0
 40
0.0
 40
0.0
 40
0.0
 40
0.1286889276
 40
0.2702752976
 40
0.4174285834
 40
0.5617761264
 40
0.6954478599
 40
0.8127113764
 40
0.8646766119
 40
0.9125108666
 40
0.957140214
 40
1.0
 40
1.0
 40
1.0
 40
1.0
 10
65.3561746504
 20
179.7718401615
 30
0.0
 10
65.3561746504
 20
180.7975461852
 30
0.0
 10
65.0692051547
 20
182.9542091667
 30
0.0
 10
63.9982859881
 20
186.1208343655
 30
0.0
 10
62.347899009
 20
189.1713032886
 30
0.0
 10
60.2508554137
 20
191.8554961482
 30
0.0
 10
57.8785109914
 20
193.9566655632
 30
0.0
 10
55.7311541746
 20
195.1306537585
 30
0.0
 10
54.0514693229
 20
195.5776254952
 30
0.0
 10
52.8953863158
 20
195.6626562086
 30
0.0
 10
51.8189276511
 20
195.5047890093
 30
0.0
 10
51.1667357953
 20
195.2338424361
 30
0.0
 10
50.870908641
 20
195.0630082958
 30
0.0
  0
SPLINE
  5
3C7
100
AcDbEntity
  8
_1
100
AcDbSpline
 62
7
  6
CONTINUOUS
 70
0
 71
3
 72
14
 73
10
 74
0
 42
0.0000001
 43
0.0000001
 44
0.0000000001
 40
0.0
 40
0.0
 40
0.0
 40
0.0
 40
0.1081553241
 40
0.2183312298
 40
0.3323662448
 40
0.4517852979
 40
0.5777276207
 40
0.7109345389
 40
1.0
 40
1.0
 40
1.0
 40
1.0
 10
72.9259116326
 20
249.942894894
 30
0.0
 10
73.717404768
 20
250.3998120725
 30
0.0
 10
75.3972439722
 20
251.1874095169
 30
0.0
 10
78.1147573693
 20
251.9421171385
 30
0.0
 10
81.0112167116
 20
252.2705402551
 30
0.0
 10
84.0560646888
 20
252.1716241921
 30
0.0
 10
87.2206083204
 20
251.6491999596
 30
0.0
 10
91.6791187917
 20
250.3631409719
 30
0.0
 10
94.9317629071
 20
248.8273274117
 30
0.0
 10
97.0509719626
 20
247.6127272747
 30
0.0
  0
SPLINE
  5
3C8
100
AcDbEntity
  8
_1
100
AcDbSpline
 62
7
  6
CONTINUOUS
 70
0
 71
3
 72
9
 73
5
 74
0
 42
0.0000001
 43
0.0000001
 44
0.0000000001
 40
0.0
 40
0.0
 40
0.0
 40
0.0
 40
0.2589154379
 40
1.0
 40
1.0
 40
1.0
 40
1.0
 10
277.6963096448
 20
220.980419142
 30
0.0
 10
277.6805452117
 20
220.9565498604
 30
0.0
 10
277.6150585715
 20
220.8675297536
 30
0.0
 10
277.5290712067
 20
220.7932250513
 30
0.0
 10
277.4581583779
 20
220.7522981089
 30
0.0
  0
SPLINE
  5
3C9
100
AcDbEntity
  8
_1
100
AcDbSpline
 62
7
  6
CONTINUOUS
 70
0
 71
3
 72
9
 73
5
 74
0
 42
0.0000001
 43
0.0000001
 44
0.0000000001
 40
0.0
 40
0.0
 40
0.0
 40
0.0
 40
0.258600532
 40
1.0
 40
1.0
 40
1.0
 40
1.0
 10
294.6769307402
 20
247.1351331262
 30
0.0
 10
294.6024002723
 20
245.643748088
 30
0.0
 10
294.207619365
 20
239.8829426666
 30
0.0
 10
293.3731462312
 20
234.1483036057
 30
0.0
 10
292.4653026722
 20
229.9645799228
 30
0.0
  0
SPLINE
  5
3CA
100
AcDbEntity
  8
_1
100
AcDbSpline
 62
7
  6
CONTINUOUS
 70
0
 71
3
 72
9
 73
5
 74
0
 42
0.0000001
 43
0.0000001
 44
0.0000000001
 40
0.0
 40
0.0
 40
0.0
 40
0.0
 40
0.2564416329
 40
1.0
 40
1.0
 40
1.0
 40
1.0
 10
292.4653026722
 20
302.5266449323
 30
0.0
 10
292.7554635222
 20
300.8544207917
 30
0.0
 10
293.7925915222
 20
294.3177872553
 30
0.0
 10
294.4446793416
 20
287.71800127
 30
0.0
 10
294.6769307402
 20
282.8023813807
 30
0.0
  0
SPLINE
  5
3CB
100
AcDbEntity
  8
_1
100
AcDbSpline
 62
7
  6
CONTINUOUS
 70
0
 71
3
 72
10
 73
6
 74
0
 42
0.0000001
 43
0.0000001
 44
0.0000000001
 40
0.0
 40
0.0
 40
0.0
 40
0.0
 40
0.2323984221
 40
0.4892597683
 40
1.0
 40
1.0
 40
1.0
 40
1.0
 10
291.0848904917
 20
304.6016869298
 30
0.0
 10
291.2560803452
 20
304.5028526577
 30
0.0
 10
291.5852930866
 20
304.23906093
 30
0.0
 10
292.1216830579
 20
303.5763420422
 30
0.0
 10
292.3910324584
 20
302.9546711269
 30
0.0
 10
292.4653026722
 20
302.5266449323
 30
0.0
  0
SPLINE
  5
3CC
100
AcDbEntity
  8
_1
100
AcDbSpline
 62
7
  6
CONTINUOUS
 70
0
 71
3
 72
11
 73
7
 74
0
 42
0.0000001
 43
0.0000001
 44
0.0000000001
 40
0.0
 40
0.0
 40
0.0
 40
0.0
 40
0.2377670757
 40
0.5005497159
 40
0.7630334845
 40
1.0
 40
1.0
 40
1.0
 40
1.0
 10
277.9035403561
 20
323.543051333
 30
0.0
 10
277.9157200267
 20
321.924454612
 30
0.0
 10
278.5387433742
 20
318.5189844472
 30
0.0
 10
280.6650510847
 20
313.737884791
 30
0.0
 10
283.7599219882
 20
309.5254501055
 30
0.0
 10
286.4056259018
 20
307.3032004839
 30
0.0
 10
287.8026995642
 20
306.4966178762
 30
0.0
  0
SPLINE
  5
3CD
100
AcDbEntity
  8
_1
100
AcDbSpline
 62
7
  6
CONTINUOUS
 70
0
 71
3
 72
11
 73
7
 74
0
 42
0.0000001
 43
0.0000001
 44
0.0000000001
 40
0.0
 40
0.0
 40
0.0
 40
0.0
 40
0.2369927091
 40
0.4994505644
 40
0.7622069344
 40
1.0
 40
1.0
 40
1.0
 40
1.0
 10
276.4391463276
 20
332.6532779868
 30
0.0
 10
276.6387495509
 20
332.5380396191
 30
0.0
 10
277.0167267775
 20
332.2205873899
 30
0.0
 10
277.4587179293
 20
331.6187570124
 30
0.0
 10
277.7625888742
 20
330.9358319105
 30
0.0
 10
277.8515717925
 20
330.4493256705
 30
0.0
 10
277.8533119287
 20
330.2180732073
 30
0.0
  0
SPLINE
  5
3CE
100
AcDbEntity
  8
_1
100
AcDbSpline
 62
7
  6
CONTINUOUS
 70
0
 71
3
 72
9
 73
5
 74
0
 42
0.0000001
 43
0.0000001
 44
0.0000000001
 40
0.0
 40
0.0
 40
0.0
 40
0.0
 40
0.2416048332
 40
1.0
 40
1.0
 40
1.0
 40
1.0
 10
162.7117485434
 20
155.0517776874
 30
0.0
 10
163.0076020445
 20
156.4151946403
 30
0.0
 10
164.1041404339
 20
162.0858606096
 30
0.0
 10
164.7047956465
 20
167.8484366973
 30
0.0
 10
164.9233766114
 20
172.2223308908
 30
0.0
  0
SPLINE
  5
3CF
100
AcDbEntity
  8
_1
100
AcDbSpline
 62
7
  6
CONTINUOUS
 70
0
 71
3
 72
9
 73
5
 74
0
 42
0.0000001
 43
0.0000001
 44
0.0000000001
 40
0.0
 40
0.0
 40
0.0
 40
0.0
 40
0.2380419583
 40
1.0
 40
1.0
 40
1.0
 40
1.0
 10
158.0491454354
 20
231.5838156408
 30
0.0
 10
157.7992344193
 20
231.7280985691
 30
0.0
 10
156.7694967569
 20
232.3688883523
 30
0.0
 10
155.8198476987
 20
233.1345941422
 30
0.0
 10
155.1440682665
 20
233.7643080226
 30
0.0
  0
SPLINE
  5
3D0
100
AcDbEntity
  8
_1
100
AcDbSpline
 62
7
  6
CONTINUOUS
 70
0
 71
3
 72
9
 73
5
 74
0
 42
0.0000001
 43
0.0000001
 44
0.0000000001
 40
0.0
 40
0.0
 40
0.0
 40
0.0
 40
0.2439810622
 40
1.0
 40
1.0
 40
1.0
 40
1.0
 10
155.1440682665
 20
233.7643080226
 30
0.0
 10
154.9362116568
 20
233.9579957645
 30
0.0
 10
154.102001222
 20
234.770765842
 30
0.0
 10
153.3379504151
 20
235.6547919
 30
0.0
 10
152.8009970371
 20
236.3524541196
 30
0.0
  0
SPLINE
  5
3D1
100
AcDbEntity
  8
_1
100
AcDbSpline
 62
7
  6
CONTINUOUS
 70
0
 71
3
 72
9
 73
5
 74
0
 42
0.0000001
 43
0.0000001
 44
0.0000000001
 40
0.0
 40
0.0
 40
0.0
 40
0.0
 40
0.2554717505
 40
1.0
 40
1.0
 40
1.0
 40
1.0
 10
149.7013849139
 20
241.6900682265
 30
0.0
 10
149.5862868104
 20
241.965023138
 30
0.0
 10
149.15655714
 20
243.0497997576
 30
0.0
 10
148.8112752441
 20
244.1686303843
 30
0.0
 10
148.6111867006
 20
245.0139561336
 30
0.0
  0
SPLINE
  5
3D2
100
AcDbEntity
  8
_1
100
AcDbSpline
 62
7
  6
CONTINUOUS
 70
0
 71
3
 72
9
 73
5
 74
0
 42
0.0000001
 43
0.0000001
 44
0.0000000001
 40
0.0
 40
0.0
 40
0.0
 40
0.0
 40
0.2614045708
 40
1.0
 40
1.0
 40
1.0
 40
1.0
 10
148.6111867006
 20
245.0139561336
 30
0.0
 10
148.5379356742
 20
245.3234240206
 30
0.0
 10
148.2871911997
 20
246.5137797559
 30
0.0
 10
148.1567475413
 20
247.7317157197
 30
0.0
 10
148.1499862274
 20
248.6302490975
 30
0.0
  0
SPLINE
  5
3D3
100
AcDbEntity
  8
_1
100
AcDbSpline
 62
7
  6
CONTINUOUS
 70
0
 71
3
 72
10
 73
6
 74
0
 42
0.0000001
 43
0.0000001
 44
0.0000000001
 40
0.0
 40
0.0
 40
0.0
 40
0.0
 40
0.5107402317
 40
0.7676015779
 40
1.0
 40
1.0
 40
1.0
 40
1.0
 10
162.7117485434
 20
227.6138426968
 30
0.0
 10
162.6374783296
 20
228.0418688914
 30
0.0
 10
162.3681289292
 20
228.6635398068
 30
0.0
 10
161.8317389579
 20
229.3262586945
 30
0.0
 10
161.5025262164
 20
229.5900504223
 30
0.0
 10
161.331336363
 20
229.6888846943
 30
0.0
  0
SPLINE
  5
3D4
100
AcDbEntity
  8
_1
100
AcDbSpline
 62
7
  6
CONTINUOUS
 70
0
 71
3
 72
9
 73
5
 74
0
 42
0.0000001
 43
0.0000001
 44
0.0000000001
 40
0.0
 40
0.0
 40
0.0
 40
0.0
 40
0.2434995701
 40
1.0
 40
1.0
 40
1.0
 40
1.0
 10
164.9233766114
 20
207.8895791453
 30
0.0
 10
164.8473182586
 20
209.4993604177
 30
0.0
 10
164.423372595
 20
216.1048755777
 30
0.0
 10
163.5677310799
 20
222.6807352102
 30
0.0
 10
162.7117485434
 20
227.6138426968
 30
0.0
  0
SPLINE
  5
3D5
100
AcDbEntity
  8
_1
100
AcDbSpline
 62
7
  6
CONTINUOUS
 70
0
 71
3
 72
8
 73
4
 74
0
 42
0.0000001
 43
0.0000001
 44
0.0000000001
 40
0.0
 40
0.0
 40
0.0
 40
0.0
 40
1.0
 40
1.0
 40
1.0
 40
1.0
 10
83.6075267111
 20
293.8487590262
 30
0.0
 10
83.5475457027
 20
293.8333572412
 30
0.0
 10
83.4890515321
 20
293.8097653115
 30
0.0
 10
83.4354198148
 20
293.7788044451
 30
0.0
  0
SPLINE
  5
3D6
100
AcDbEntity
  8
_1
100
AcDbSpline
 62
7
  6
CONTINUOUS
 70
0
 71
3
 72
9
 73
5
 74
0
 42
0.0000001
 43
0.0000001
 44
0.0000000001
 40
0.0
 40
0.0
 40
0.0
 40
0.0
 40
0.2308360766
 40
1.0
 40
1.0
 40
1.0
 40
1.0
 10
148.0997578
 20
255.3052709718
 30
0.0
 10
148.099091815
 20
255.3937759181
 30
0.0
 10
148.069339948
 20
255.7768736539
 30
0.0
 10
147.9494470183
 20
256.1497700272
 30
0.0
 10
147.824922057
 20
256.4171044046
 30
0.0
  0
SPLINE
  5
3D7
100
AcDbEntity
  8
_1
100
AcDbSpline
 62
7
  6
CONTINUOUS
 70
0
 71
3
 72
9
 73
5
 74
0
 42
0.0000001
 43
0.0000001
 44
0.0000000001
 40
0.0
 40
0.0
 40
0.0
 40
0.0
 40
0.267187639
 40
1.0
 40
1.0
 40
1.0
 40
1.0
 10
147.5134178963
 20
256.9535171092
 30
0.0
 10
147.4543747667
 20
257.0368529513
 30
0.0
 10
147.219584788
 20
257.3380347811
 30
0.0
 10
146.928181432
 20
257.6004199608
 30
0.0
 10
146.6855921988
 20
257.7404757514
 30
0.0
  0
ELLIPSE
  5
3D8
100
AcDbEntity
  8
_1
100
AcDbEllipse
 62
7
  6
CONTINUOUS
 10
295.4523919693
 20
361.4391597636
 30
0.0
 11
2.3730687665
 21
4.4026444242
 31
0.0
 40
0.556862072
 41
-2.372483465
 42
-0.8016871382
  0
ELLIPSE
  5
3D9
100
AcDbEntity
  8
_1
100
AcDbEllipse
 62
7
  6
CONTINUOUS
 10
289.5081528705
 20
377.4223839154
 30
0.0
 11
-6.9732295899
 21
12.1706873307
 31
0.0
 40
0.5773483695
 41
4.2636328641
 42
6.2393851482
  0
ELLIPSE
  5
3DA
100
AcDbEntity
  8
_1
100
AcDbEllipse
 62
7
  6
CONTINUOUS
 10
161.5847642869
 20
316.4895990706
 30
0.0
 11
113.9080210456
 21
65.2639215266
 31
0.0
 40
0.0753349731
 41
-0.3837585309
 42
0.471358875
  0
ELLIPSE
  5
3DB
100
AcDbEntity
  8
_1
100
AcDbEllipse
 62
7
  6
CONTINUOUS
 10
557.4351325687
 20
505.0420255526
 30
0.0
 11
273.5438290272
 21
140.9202579684
 31
0.0
 40
0.0331551908
 41
2.7916930674
 42
3.1245139142
  0
ELLIPSE
  5
3DC
100
AcDbEntity
  8
_1
100
AcDbEllipse
 62
7
  6
CONTINUOUS
 10
238.1273305666
 20
364.7334651317
 30
0.0
 11
2.3730687665
 21
4.4026444242
 31
0.0
 40
0.556862072
 41
-2.372483465
 42
-0.8016871382
  0
ELLIPSE
  5
3DD
100
AcDbEntity
  8
_1
100
AcDbEllipse
 62
7
  6
CONTINUOUS
 10
232.2324770992
 20
380.5453077104
 30
0.0
 11
-6.9732295899
 21
12.1706873307
 31
0.0
 40
0.5773483695
 41
4.2785797136
 42
6.2393851432
  0
ELLIPSE
  5
3DE
100
AcDbEntity
  8
_1
100
AcDbEllipse
 62
7
  6
CONTINUOUS
 10
102.8948808411
 20
318.9389039683
 30
0.0
 11
113.9080210456
 21
65.2639215266
 31
0.0
 40
0.0753349731
 41
5.8994267763
 42
6.7545441822
  0
ELLIPSE
  5
3DF
100
AcDbEntity
  8
_1
100
AcDbEllipse
 62
7
  6
CONTINUOUS
 10
498.7452491229
 20
507.4913304504
 30
0.0
 11
273.5438290272
 21
140.9202579684
 31
0.0
 40
0.0331551908
 41
2.7767462179
 42
3.1245139142
  0
ENDSEC
  0
SECTION
  2
OBJECTS
  0
DICTIONARY
  5
C
100
AcDbDictionary
280
0
281
1
  3
ACAD_GROUP
350
D
  3
ACAD_MLINESTYLE
350
17
  3
ACAD_LAYOUT
350
1A
  3
ACAD_PLOTSETTINGS
350
19
  3
ACAD_PLOTSTYLENAME
350
E
  0
DICTIONARY
  5
D
102
{ACAD_REACTORS
330
C
102
}
100
AcDbDictionary
280
0
281
1
  0
ACDBDICTIONARYWDFLT
  5
E
102
{ACAD_REACTORS
330
C
102
}
100
AcDbDictionary
281
1
  3
Normal
350
F
100
AcDbDictionaryWithDefault
340
F
  0
DICTIONARY
  5
17
102
{ACAD_REACTORS
330
C
102
}
100
AcDbDictionary
280
0
281
1
  3
Standard
350
18
  0
DICTIONARY
  5
19
102
{ACAD_REACTORS
330
C
102
}
100
AcDbDictionary
281
1
  0
DICTIONARY
  5
1A
102
{ACAD_REACTORS
330
C
102
}
100
AcDbDictionary
281
1
  3
Model
350
3E0
  3
Layout1
350
3E1
  0
ACDBPLACEHOLDER
  5
F
102
{ACAD_REACTORS
330
E
102
}
  0
MLINESTYLE
  5
18
102
{ACAD_REACTORS
330
17
102
}
100
AcDbMlineStyle
  2
STANDARD
 70
0
  3

 62
256
 51
90.0
 52
90.0
 71
2
 49
0.5
 62
256
  6
BYLAYER
 49
-0.5
 62
256
  6
BYLAYER
  0
LAYOUT
  5
3E0
102
{ACAD_REACTORS
330
1A
102
}
100
AcDbPlotSettings
  1

  2
none_device
  4

  6

 40
0.0
 41
0.0
 42
0.0
 43
0.0
 44
210.0
 45
297.0
 46
0.0
 47
0.0
 48
0.0
 49
0.0
140
0.0
141
0.0
142
1.0
143
1.0
 70
1024
 72
1
 73
0
 74
0
  7

 75
0
147
1.0
148
0.0
149
0.0
100
AcDbLayout
  1
Model
 70
0
 71
0
 10
0.0
 20
0.0
 11
210.0
 21
297.0
 12
0.0
 22
0.0
 32
0.0
 14
0.0
 24
0.0
 34
0.0
 15
0.0
 25
0.0
 35
0.0
146
0.0
 13
0.0
 23
0.0
 33
0.0
 16
1.0
 26
0.0
 36
0.0
 17
0.0
 27
1.0
 37
0.0
 76
0
330
211
345
0
346
0
  0
LAYOUT
  5
3E1
102
{ACAD_REACTORS
330
1A
102
}
100
AcDbPlotSettings
  1

  2
none_device
  4

  6

 40
0.0
 41
0.0
 42
0.0
 43
0.0
 44
210.0
 45
297.0
 46
0.0
 47
0.0
 48
0.0
 49
0.0
140
0.0
141
0.0
142
1.0
143
1.0
 70
0
 72
1
 73
0
 74
0
  7

 75
0
147
1.0
148
0.0
149
0.0
100
AcDbLayout
  1
Layout1
 70
0
 71
1
 10
0.0
 20
0.0
 11
210.0
 21
297.0
 12
0.0
 22
0.0
 32
0.0
 14
0.0
 24
0.0
 34
0.0
 15
0.0
 25
0.0
 35
0.0
146
0.0
 13
0.0
 23
0.0
 33
0.0
 16
1.0
 26
0.0
 36
0.0
 17
0.0
 27
1.0
 37
0.0
 76
0
330
212
345
0
346
0
  0
ENDSEC
  0
EOF
