999
DXF file: C:\Users\sesa63760\Dev\_Creo\CAD\MCADPE0010331_3D-CAD\drw0001_1.dxf
999
Pro/ENGINEER 2019471 by Parametric Technology Corporation
  0
SECTION
  2
HEADER
  9
$ACADVER
  1
AC1024
  9
$DWGCODEPAGE
  3
ANSI_1252
  9
$EXTMAX
 10
47.0656985184
 20
66.5643450475
 30
0.0
  9
$EXTMIN
 10
0.0
 20
0.0
 30
0.0
  9
$LIMMIN
 10
0.0
 20
0.0
  9
$LIMMAX
 10
47.0656985184
 20
66.5643450475
  9
$VIEWCTR
 10
23.5328492592
 20
33.2821725237
  9
$VIEWSIZE
 40
66.5643450475
  9
$CLAYER
  8
0
  9
$LTSCALE
 40
4.3390091587
  9
$CELTYPE
  6
BYLAYER
  9
$DIMSCALE
 40
1.0
  9
$DIMASZ
 40
0.5603059347
  9
$DIMEXO
 40
1.0
  9
$DIMDLI
 40
2.9978608733
  9
$DIMEXE
 40
1.0
  9
$DIMCEN
 40
0.7100196805
  9
$DIMLFAC
 40
1.0
  9
$DIMBLK
  1
_FILLED
  9
$DIMALT
 70
0
  9
$DIMALTF
 40
0.0393700787
  9
$DIMTXT
 40
0.7844283086
  9
$DIMTOL
 70
1
  9
$DIMLIM
 70
0
  9
$DIMTFAC
 40
1.0
  9
$DIMTP
 40
0.01
  9
$DIMTM
 40
0.01
  9
$DIMGAP
 40
0.625
  9
$DIMDSEP
 70
46
  9
$AUNITS
 70
0
  9
$PDMODE
 70
3
  9
$PDSIZE
 40
0.3125
  9
$HANDSEED
  5
281
  9
$TILEMODE
 70
1
  9
$MEASUREMENT
 70
1
  9
$INSUNITS
 70
4
  0
ENDSEC
  0
SECTION
  2
CLASSES
  0
CLASS
  1
ACDBDICTIONARYWDFLT
  2
AcDbDictionaryWithDefault
  3
AutoCAD 2000
 90
0
 91
1
280
0
281
0
  0
CLASS
  1
ACDBPLACEHOLDER
  2
AcDbPlaceHolder
  3
AutoCAD 2000
 90
0
 91
1
280
0
281
0
  0
CLASS
  1
LAYOUT
  2
AcDbLayout
  3
AutoCAD 2000
 90
0
 91
0
280
0
281
0
  0
ENDSEC
  0
SECTION
  2
TABLES
  0
TABLE
  2
VPORT
  5
8
100
AcDbSymbolTable
 70
2
  0
VPORT
  5
1F4
100
AcDbSymbolTableRecord
100
AcDbViewportTableRecord
  2
*ACTIVE
 70
0
 10
0.0
 20
0.0
 11
1.0
 21
1.0
 12
23.5328492592
 22
33.2821725237
 13
0.0
 23
0.0
 14
1.0
 24
1.0
 15
0.0
 25
0.0
 16
0.0
 26
0.0
 36
1.0
 17
0.0
 27
0.0
 37
0.0
 40
66.5643450475
 41
0.7070707071
 42
50.0
 43
0.0
 44
0.0
 50
0.0
 51
0.0
 71
0
 72
100
 73
1
 74
1
 75
0
 76
0
 77
0
 78
0
  0
ENDTAB
  0
TABLE
  2
LTYPE
  5
5
100
AcDbSymbolTable
 70
6
  0
LTYPE
  5
14
100
AcDbSymbolTableRecord
100
AcDbLinetypeTableRecord
  2
BYBLOCK
 70
0
  3

 72
65
 73
0
 40
0.0
  0
LTYPE
  5
15
100
AcDbSymbolTableRecord
100
AcDbLinetypeTableRecord
  2
BYLAYER
 70
0
  3

 72
65
 73
0
 40
0.0
  0
LTYPE
  5
16
100
AcDbSymbolTableRecord
100
AcDbLinetypeTableRecord
  2
CONTINUOUS
 70
64
  3
Solid line
 72
65
 73
0
 40
0.0
  0
LTYPE
  5
1F5
100
AcDbSymbolTableRecord
100
AcDbLinetypeTableRecord
  2
CENTER
 70
64
  3
____ _ ____ _ ____ _ ____ _ ____ _ ____ _ ____
 72
65
 73
4
 40
0.6
 49
0.375
 74
0
 49
-0.075
 74
0
 49
0.075
 74
0
 49
-0.075
 74
0
  0
LTYPE
  5
1F6
100
AcDbSymbolTableRecord
100
AcDbLinetypeTableRecord
  2
HIDDEN
 70
64
  3
- - - - - - - - - - - - - - - - - - - -
 72
65
 73
2
 40
0.2
 49
0.1
 74
0
 49
-0.1
 74
0
  0
LTYPE
  5
1F7
100
AcDbSymbolTableRecord
100
AcDbLinetypeTableRecord
  2
PHANTOM
 70
64
  3
_____ _ _ _____ _ _ _____ _ _ _____
 72
65
 73
6
 40
0.8
 49
0.45
 74
0
 49
-0.05
 74
0
 49
0.1
 74
0
 49
-0.05
 74
0
 49
0.1
 74
0
 49
-0.05
 74
0
  0
LTYPE
  5
1F8
100
AcDbSymbolTableRecord
100
AcDbLinetypeTableRecord
  2
DOT
 70
64
  3
. . . . . . . . . . . . . . . . . . . .
 72
65
 73
2
 40
0.2
 49
0.1
 74
0
 49
-0.1
 74
0
  0
LTYPE
  5
1F9
100
AcDbSymbolTableRecord
100
AcDbLinetypeTableRecord
  2
DASHED
 70
64
  3
- - - - - - - - - - - - - - - - - - - -
 72
65
 73
2
 40
0.2
 49
0.1
 74
0
 49
-0.1
 74
0
  0
ENDTAB
  0
TABLE
  2
LAYER
  5
2
100
AcDbSymbolTable
 70
36
  0
LAYER
  5
10
100
AcDbSymbolTableRecord
100
AcDbLayerTableRecord
  2
0
 70
0
 62
7
  6
CONTINUOUS
370
-3
390
F
  0
LAYER
  5
1FA
100
AcDbSymbolTableRecord
100
AcDbLayerTableRecord
  2
DEFAULT_1
 70
0
 62
7
  6
CENTER
370
-3
390
F
  0
LAYER
  5
1FB
100
AcDbSymbolTableRecord
100
AcDbLayerTableRecord
  2
DEFAULT_2
 70
0
 62
7
  6
HIDDEN
370
-3
390
F
  0
LAYER
  5
1FC
100
AcDbSymbolTableRecord
100
AcDbLayerTableRecord
  2
DEFAULT_3
 70
0
 62
7
  6
PHANTOM
370
-3
390
F
  0
LAYER
  5
1FD
100
AcDbSymbolTableRecord
100
AcDbLayerTableRecord
  2
00_COMPONENTS
 70
0
 62
7
  6
CONTINUOUS
370
-3
390
F
  0
LAYER
  5
1FE
100
AcDbSymbolTableRecord
100
AcDbLayerTableRecord
  2
01_1_DEFAULT_DATUMS
 70
0
 62
7
  6
CONTINUOUS
370
-3
390
F
  0
LAYER
  5
1FF
100
AcDbSymbolTableRecord
100
AcDbLayerTableRecord
  2
01_PLANES
 70
0
 62
7
  6
CONTINUOUS
370
-3
390
F
  0
LAYER
  5
200
100
AcDbSymbolTableRecord
100
AcDbLayerTableRecord
  2
02_COORD_SYS
 70
0
 62
7
  6
CONTINUOUS
370
-3
390
F
  0
LAYER
  5
201
100
AcDbSymbolTableRecord
100
AcDbLayerTableRecord
  2
03_AXES
 70
0
 62
7
  6
CONTINUOUS
370
-3
390
F
  0
LAYER
  5
202
100
AcDbSymbolTableRecord
100
AcDbLayerTableRecord
  2
04_POINTS
 70
0
 62
7
  6
CONTINUOUS
370
-3
390
F
  0
LAYER
  5
203
100
AcDbSymbolTableRecord
100
AcDbLayerTableRecord
  2
05_CURVES
 70
0
 62
7
  6
CONTINUOUS
370
-3
390
F
  0
LAYER
  5
204
100
AcDbSymbolTableRecord
100
AcDbLayerTableRecord
  2
06_SURFS
 70
0
 62
7
  6
CONTINUOUS
370
-3
390
F
  0
LAYER
  5
205
100
AcDbSymbolTableRecord
100
AcDbLayerTableRecord
  2
07_COSMETICS
 70
0
 62
7
  6
CONTINUOUS
370
-3
390
F
  0
LAYER
  5
206
100
AcDbSymbolTableRecord
100
AcDbLayerTableRecord
  2
10_NOTES
 70
0
 62
7
  6
CONTINUOUS
370
-3
390
F
  0
LAYER
  5
207
100
AcDbSymbolTableRecord
100
AcDbLayerTableRecord
  2
11_NOTES_PUB
 70
0
 62
7
  6
CONTINUOUS
370
-3
390
F
  0
LAYER
  5
208
100
AcDbSymbolTableRecord
100
AcDbLayerTableRecord
  2
13_REF_GTOL
 70
0
 62
7
  6
CONTINUOUS
370
-3
390
F
  0
LAYER
  5
209
100
AcDbSymbolTableRecord
100
AcDbLayerTableRecord
  2
16_MISC
 70
0
 62
7
  6
CONTINUOUS
370
-3
390
F
  0
LAYER
  5
20A
100
AcDbSymbolTableRecord
100
AcDbLayerTableRecord
  2
17_NO_PRINT
 70
0
 62
7
  6
CONTINUOUS
370
-3
390
F
  0
LAYER
  5
20B
100
AcDbSymbolTableRecord
100
AcDbLayerTableRecord
  2
18_DATUM_CAMS_JOINTS
 70
0
 62
7
  6
CONTINUOUS
370
-3
390
F
  0
LAYER
  5
20C
100
AcDbSymbolTableRecord
100
AcDbLayerTableRecord
  2
19_DATUM_FUNCTIONAL
 70
0
 62
7
  6
CONTINUOUS
370
-3
390
F
  0
LAYER
  5
20D
100
AcDbSymbolTableRecord
100
AcDbLayerTableRecord
  2
20_DATUM_KINEMATIC_SCHEME
 70
0
 62
7
  6
CONTINUOUS
370
-3
390
F
  0
ENDTAB
  0
TABLE
  2
STYLE
  5
3
100
AcDbSymbolTable
 70
1
  0
STYLE
  5
11
100
AcDbSymbolTableRecord
100
AcDbTextStyleTableRecord
  2
STANDARD
 70
0
 40
0.0
 41
1.0
 50
0.0
 71
0
 42
0.2
  3
ARIAL.TTF
  4

  0
STYLE
  5
20E
100
AcDbSymbolTableRecord
100
AcDbTextStyleTableRecord
  2
TEXTSTYLE_1
 70
0
 40
0.0
 41
0.8
 50
0.0
 71
0
 42
0.2
  3
gdt
  4

  0
ENDTAB
  0
TABLE
  2
VIEW
  5
6
100
AcDbSymbolTable
 70
0
  0
ENDTAB
  0
TABLE
  2
UCS
  5
7
100
AcDbSymbolTable
 70
0
  0
ENDTAB
  0
TABLE
  2
APPID
  5
9
100
AcDbSymbolTable
 70
1
  0
APPID
  5
20F
100
AcDbSymbolTableRecord
100
AcDbRegAppTableRecord
  2
ACAD
 70
0
  0
ENDTAB
  0
TABLE
  2
BLOCK_RECORD
  5
1
100
AcDbSymbolTable
 70
0
  0
BLOCK_RECORD
  5
210
100
AcDbSymbolTableRecord
100
AcDbBlockTableRecord
  2
*Model_Space
  0
BLOCK_RECORD
  5
211
100
AcDbSymbolTableRecord
100
AcDbBlockTableRecord
  2
*Paper_Space
  0
BLOCK_RECORD
  5
212
100
AcDbSymbolTableRecord
100
AcDbBlockTableRecord
  2
_FILLED
  0
ENDTAB
  0
TABLE
  2
DIMSTYLE
  5
A
100
AcDbSymbolTable
 70
1
100
AcDbDimStyleTable
 71
0
  0
DIMSTYLE
105
213
100
AcDbSymbolTableRecord
100
AcDbDimStyleTableRecord
  2
STANDARD
 70
0
  3

  4

 40
1.0
 41
0.5603059347
 42
1.0
 43
0.38
 44
1.0
 45
0.0
 46
0.0
 47
0.01
 48
0.01
140
0.7844283086
141
0.09
142
0.0
143
25.4
144
1.0
145
0.0
146
1.0
147
0.625
 71
1
 72
0
 73
0
 74
0
 75
0
 76
0
 77
1
 78
8
 79
2
170
0
171
1
172
0
173
0
174
0
175
0
176
0
177
0
178
0
270
2
179
2
271
2
272
2
273
2
274
2
275
0
280
0
281
0
282
0
283
1
284
8
285
0
286
0
287
3
288
0
340
11
278
46
341
212
342
212
343
212
344
212
  0
ENDTAB
  0
ENDSEC
  0
SECTION
  2
BLOCKS
  0
BLOCK
  5
20
100
AcDbEntity
  8
0
100
AcDbBlockBegin
  2
*Model_Space
 70
0
 10
0.0
 20
0.0
 30
0.0
  3
*Model_Space
  1

  0
ENDBLK
  5
21
100
AcDbEntity
  8
0
100
AcDbBlockEnd
  0
BLOCK
  5
1C
100
AcDbEntity
  8
0
100
AcDbBlockBegin
  2
*Paper_Space
 70
0
 10
0.0
 20
0.0
 30
0.0
  3
*Paper_Space
  1

  0
ENDBLK
  5
1D
100
AcDbEntity
  8
0
100
AcDbBlockEnd
  0
BLOCK
  5
214
100
AcDbEntity
  8
0
100
AcDbBlockBegin
  2
_FILLED
 70
64
 10
0.0
 20
0.0
  3
_FILLED
  1

  0
SOLID
  5
215
100
AcDbEntity
  8
0
  6
BYBLOCK
 62
0
100
AcDbTrace
 10
0.0
 20
0.0
 11
-1.0
 21
0.25
 12
-1.0
 22
-0.25
 13
-1.0
 23
-0.25
  0
ENDBLK
  5
216
100
AcDbEntity
  8
0
  6
BYBLOCK
 62
0
100
AcDbBlockEnd
  0
ENDSEC
  0
SECTION
  2
ENTITIES
  0
LINE
  5
217
100
AcDbEntity
  8
0
100
AcDbLine
 62
7
  6
BYLAYER
 10
9.2562831324
 20
9.5976764441
 11
16.9030679923
 21
5.1827229159
  0
LINE
  5
218
100
AcDbEntity
  8
0
100
AcDbLine
 62
7
  6
BYLAYER
 10
10.6048186088
 20
9.1573292359
 11
9.0491772135
 21
10.0554588959
  0
LINE
  5
219
100
AcDbEntity
  8
0
100
AcDbLine
 62
7
  6
BYLAYER
 10
9.0491772135
 20
15.473509834
 11
10.6048186088
 21
14.5753801741
  0
LINE
  5
21A
100
AcDbEntity
  8
0
100
AcDbLine
 62
7
  6
BYLAYER
 10
10.8374486495
 20
15.0933190371
 11
9.2818072542
 21
15.9914486971
  0
LINE
  5
21B
100
AcDbEntity
  8
0
100
AcDbLine
 62
7
  6
BYLAYER
 10
10.8876595549
 20
15.2547781882
 11
9.6148620496
 21
15.9896115463
  0
LINE
  5
21C
100
AcDbEntity
  8
0
100
AcDbLine
 62
7
  6
BYLAYER
 10
31.0351847864
 20
60.2965162961
 11
33.0383409532
 21
61.4530321448
  0
LINE
  5
21D
100
AcDbEntity
  8
0
100
AcDbLine
 62
7
  6
BYLAYER
 10
15.8474245152
 20
50.5481082561
 11
16.180108137
 21
50.7401820882
  0
LINE
  5
21E
100
AcDbEntity
  8
0
100
AcDbLine
 62
7
  6
BYLAYER
 10
11.9711468259
 20
16.3356956466
 11
12.0418577985
 21
16.2948715711
  0
LINE
  5
21F
100
AcDbEntity
  8
0
100
AcDbLine
 62
7
  6
BYLAYER
 10
12.2837015542
 20
16.483740416
 11
12.2129905817
 21
16.5245644915
  0
LINE
  5
220
100
AcDbEntity
  8
0
100
AcDbLine
 62
7
  6
BYLAYER
 10
34.5939823485
 20
60.5549024848
 11
32.5908261817
 21
59.3983866362
  0
LINE
  5
221
100
AcDbEntity
  8
0
100
AcDbLine
 62
7
  6
BYLAYER
 10
21.8038230016
 20
53.1296884602
 11
18.3551944369
 21
51.138633715
  0
LINE
  5
222
100
AcDbEntity
  8
0
100
AcDbLine
 62
7
  6
BYLAYER
 10
17.7357495323
 20
49.8420524283
 11
17.4030659105
 21
49.6499785962
  0
LINE
  5
223
100
AcDbEntity
  8
0
100
AcDbLine
 62
7
  6
BYLAYER
 10
9.0491772135
 20
15.473509834
 11
9.0491772135
 21
10.0554588959
  0
LINE
  5
224
100
AcDbEntity
  8
0
100
AcDbLine
 62
7
  6
BYLAYER
 10
9.0491772135
 20
24.5368561196
 11
9.0491772135
 21
38.7731331628
  0
LINE
  5
225
100
AcDbEntity
  8
0
100
AcDbLine
 62
7
  6
BYLAYER
 10
9.2562831323
 20
39.470059503
 11
15.3474265969
 21
50.0202880255
  0
LINE
  5
226
100
AcDbEntity
  8
0
100
AcDbLine
 62
7
  6
BYLAYER
 10
19.9108358322
 20
50.240504055
 11
23.359464397
 21
52.2315588002
  0
LINE
  5
227
100
AcDbEntity
  8
0
100
AcDbLine
 62
7
  6
BYLAYER
 10
16.68591102
 20
19.1069908956
 11
16.7566219925
 21
19.0661668202
  0
LINE
  5
228
100
AcDbEntity
  8
0
100
AcDbLine
 62
7
  6
BYLAYER
 10
16.89804276
 20
19.3111161344
 11
16.8273317875
 21
19.3519402098
  0
LINE
  5
229
100
AcDbEntity
  8
0
100
AcDbLine
 62
7
  6
BYLAYER
 10
9.1527333738
 20
24.3079630457
 11
10.7083747691
 21
23.4098333858
  0
LINE
  5
22A
100
AcDbEntity
  8
0
100
AcDbLine
 62
7
  6
BYLAYER
 10
10.6048186088
 20
23.6387264597
 11
9.0491772135
 21
24.5368561196
  0
LINE
  5
22B
100
AcDbEntity
  8
0
100
AcDbLine
 62
7
  6
BYLAYER
 10
9.6148620496
 20
24.0411589662
 11
9.6148620496
 21
15.9896115463
  0
LINE
  5
22C
100
AcDbEntity
  8
0
100
AcDbLine
 62
7
  6
BYLAYER
 10
10.6048186088
 20
37.8750035028
 11
10.6048186088
 21
23.6387264597
  0
LINE
  5
22D
100
AcDbEntity
  8
0
100
AcDbLine
 62
7
  6
BYLAYER
 10
10.6048186088
 20
9.1573292359
 11
10.6048186088
 21
14.5753801741
  0
LINE
  5
22E
100
AcDbEntity
  8
0
100
AcDbLine
 62
7
  6
BYLAYER
 10
10.8876595549
 20
15.2547781882
 11
10.8876595549
 21
23.3894040265
  0
LINE
  5
22F
100
AcDbEntity
  8
0
100
AcDbLine
 62
7
  6
BYLAYER
 10
16.9030679923
 20
49.1221583655
 11
10.8119245277
 21
38.571929843
  0
LINE
  5
230
100
AcDbEntity
  8
0
100
AcDbLine
 62
7
  6
BYLAYER
 10
10.70840132
 20
23.4098793185
 11
10.8374486495
 21
23.3894040265
  0
LINE
  5
231
100
AcDbEntity
  8
0
100
AcDbLine
 62
7
  6
BYLAYER
 10
16.8273317875
 20
26.2105605137
 11
16.89804276
 21
26.1697364383
  0
LINE
  5
232
100
AcDbEntity
  8
0
100
AcDbLine
 62
7
  6
BYLAYER
 10
16.8566181266
 20
26.2612899105
 11
16.89804276
 21
26.1697364383
  0
LINE
  5
233
100
AcDbEntity
  8
0
100
AcDbLine
 62
7
  6
BYLAYER
 10
16.8273317875
 20
26.2105605137
 11
16.8273317875
 21
19.3519402098
  0
LINE
  5
234
100
AcDbEntity
  8
0
100
AcDbLine
 62
7
  6
BYLAYER
 10
16.89804276
 20
26.1697364383
 11
16.89804276
 21
19.3111161344
  0
LINE
  5
235
100
AcDbEntity
  8
0
100
AcDbLine
 62
7
  6
BYLAYER
 10
10.8374486495
 20
23.3894040265
 11
12.0418577984
 21
23.5785750837
  0
LINE
  5
236
100
AcDbEntity
  8
0
100
AcDbLine
 62
7
  6
BYLAYER
 10
9.0491772135
 20
38.7731331628
 11
10.6048186088
 21
37.8750035028
  0
LINE
  5
237
100
AcDbEntity
  8
0
100
AcDbLine
 62
7
  6
BYLAYER
 10
10.8119245277
 20
38.5719298431
 11
9.2562831324
 21
39.4700595031
  0
LINE
  5
238
100
AcDbEntity
  8
0
100
AcDbLine
 62
7
  6
BYLAYER
 10
9.2818072542
 20
15.991448697
 11
9.6148620496
 21
16.3237135539
  0
LINE
  5
239
100
AcDbEntity
  8
0
100
AcDbLine
 62
7
  6
BYLAYER
 10
10.8876595549
 20
15.2547781882
 11
11.971146826
 21
16.3356956466
  0
LINE
  5
23A
100
AcDbEntity
  8
0
100
AcDbLine
 62
7
  6
BYLAYER
 10
12.0418577984
 20
16.2948715711
 11
10.8374486495
 21
15.0933190371
  0
LINE
  5
23B
100
AcDbEntity
  8
0
100
AcDbLine
 62
7
  6
BYLAYER
 10
16.7566219925
 20
26.2513880909
 11
12.2837015542
 21
23.6689616868
  0
LINE
  5
23C
100
AcDbEntity
  8
0
100
AcDbLine
 62
7
  6
BYLAYER
 10
16.68591102
 20
19.1069908956
 11
12.2129905817
 21
16.5245644915
  0
LINE
  5
23D
100
AcDbEntity
  8
0
100
AcDbLine
 62
7
  6
BYLAYER
 10
16.7566219925
 20
19.0661668202
 11
12.2837015542
 21
16.483740416
  0
LINE
  5
23E
100
AcDbEntity
  8
0
100
AcDbLine
 62
7
  6
BYLAYER
 10
15.3474265969
 20
50.0202880254
 11
16.9030679922
 21
49.1221583655
  0
LINE
  5
23F
100
AcDbEntity
  8
0
100
AcDbLine
 62
7
  6
BYLAYER
 10
17.4030659105
 20
49.6499785962
 11
15.8474245152
 21
50.5481082561
  0
LINE
  5
240
100
AcDbEntity
  8
0
100
AcDbLine
 62
7
  6
BYLAYER
 10
18.1413276314
 20
5.8061429563
 11
18.7504850248
 21
6.6503656534
  0
LINE
  5
241
100
AcDbEntity
  8
0
100
AcDbLine
 62
7
  6
BYLAYER
 10
16.180108137
 20
50.7401820882
 11
17.7357495323
 21
49.8420524283
  0
LINE
  5
242
100
AcDbEntity
  8
0
100
AcDbLine
 62
7
  6
BYLAYER
 10
18.1413276314
 20
49.9285488622
 11
16.5856862361
 21
50.8266785222
  0
LINE
  5
243
100
AcDbEntity
  8
0
100
AcDbLine
 62
7
  6
BYLAYER
 10
16.7328820406
 20
50.7926479791
 11
18.2885234359
 21
49.8945183192
  0
LINE
  5
244
100
AcDbEntity
  8
0
100
AcDbLine
 62
7
  6
BYLAYER
 10
19.9108358322
 20
50.240504055
 11
18.3551944369
 21
51.138633715
  0
LINE
  5
245
100
AcDbEntity
  8
0
100
AcDbLine
 62
7
  6
BYLAYER
 10
38.7475513299
 20
55.5423022933
 11
38.7475513299
 21
24.00814321
  0
LINE
  5
246
100
AcDbEntity
  8
0
100
AcDbLine
 62
7
  6
BYLAYER
 10
18.2885234359
 20
49.8945183192
 11
18.1413276314
 21
49.9285488622
  0
LINE
  5
247
100
AcDbEntity
  8
0
100
AcDbLine
 62
7
  6
BYLAYER
 10
16.5856862361
 20
50.8266785222
 11
16.7328820406
 21
50.7926479791
  0
LINE
  5
248
100
AcDbEntity
  8
0
100
AcDbLine
 62
7
  6
BYLAYER
 10
21.8038230016
 20
53.1296884602
 11
23.359464397
 21
52.2315588002
  0
LINE
  5
249
100
AcDbEntity
  8
0
100
AcDbLine
 62
7
  6
BYLAYER
 10
35.5349298177
 20
15.3779808232
 11
38.5959770082
 21
23.2674303232
  0
LINE
  5
24A
100
AcDbEntity
  8
0
100
AcDbLine
 62
7
  6
BYLAYER
 10
23.2619772949
 20
10.2887009329
 11
21.5895317183
 21
9.3231197928
  0
LINE
  5
24B
100
AcDbEntity
  8
0
100
AcDbLine
 62
7
  6
BYLAYER
 10
17.7357495323
 20
5.4243209364
 11
17.4030659105
 21
5.2322471044
  0
LINE
  5
24C
100
AcDbEntity
  8
0
100
AcDbLine
 62
7
  6
BYLAYER
 10
32.5203806787
 20
12.9803778559
 11
34.2025665469
 21
13.9517021977
  0
LINE
  5
24D
100
AcDbEntity
  8
0
100
AcDbLine
 62
7
  6
BYLAYER
 10
29.8516768653
 20
59.3776922146
 11
31.4073182606
 21
58.4795625547
  0
LINE
  5
24E
100
AcDbEntity
  8
0
100
AcDbLine
 62
7
  6
BYLAYER
 10
38.6054504033
 20
56.0726375876
 11
35.5125371777
 21
60.4728503843
  0
LINE
  5
24F
100
AcDbEntity
  8
0
100
AcDbLine
 62
7
  6
BYLAYER
 10
32.5908261817
 20
59.3983866362
 11
31.0351847864
 21
60.2965162961
  0
LINE
  5
250
100
AcDbEntity
  8
0
100
AcDbLine
 62
7
  6
BYLAYER
 10
35.5125371777
 20
60.4728503843
 11
35.343957446
 21
60.6291731972
  0
LINE
  5
251
100
AcDbEntity
  8
0
100
AcDbLine
 62
7
  6
BYLAYER
 10
33.0383409532
 20
61.4530321448
 11
34.5939823485
 21
60.5549024848
  0
LINE
  5
252
100
AcDbEntity
  8
0
100
AcDbLine
 62
7
  6
BYLAYER
 10
33.7883282279
 20
61.5273239716
 11
35.3439696232
 21
60.6291943117
  0
ARC
  5
253
100
AcDbEntity
  8
0
100
AcDbCircle
 62
7
  6
BYLAYER
 10
22.8886094359
 20
33.5815979145
 40
22.6569731289
100
AcDbArc
 50
299.9575823482
 51
301.0699280411
  0
SPLINE
  5
254
100
AcDbEntity
  8
0
100
AcDbSpline
 62
7
  6
BYLAYER
 70
0
 71
3
 72
9
 73
5
 74
0
 42
0.0000001
 43
0.0000001
 44
0.0000000001
 40
0.0
 40
0.0
 40
0.0
 40
0.0
 40
0.2439822202
 40
1.0
 40
1.0
 40
1.0
 40
1.0
 10
32.2618578377
 20
12.8493787706
 30
0.0
 10
32.2834737034
 20
12.8587939029
 30
0.0
 10
32.3714815792
 20
12.8987265332
 30
0.0
 10
32.4571104093
 20
12.9438489668
 30
0.0
 10
32.5203806787
 20
12.9803778559
 30
0.0
  0
SPLINE
  5
255
100
AcDbEntity
  8
0
100
AcDbSpline
 62
7
  6
BYLAYER
 70
0
 71
3
 72
9
 73
5
 74
0
 42
0.0000001
 43
0.0000001
 44
0.0000000001
 40
0.0
 40
0.0
 40
0.0
 40
0.0
 40
0.474079461
 40
1.0
 40
1.0
 40
1.0
 40
1.0
 10
31.528408888
 20
12.691983939
 30
0.0
 10
31.6476124744
 20
12.6879873216
 30
0.0
 10
31.9007058735
 20
12.7151228118
 30
0.0
 10
32.1405523824
 20
12.7965422604
 30
0.0
 10
32.2618578377
 20
12.8493787706
 30
0.0
  0
SPLINE
  5
256
100
AcDbEntity
  8
0
100
AcDbSpline
 62
7
  6
BYLAYER
 70
0
 71
3
 72
14
 73
10
 74
0
 42
0.0000001
 43
0.0000001
 44
0.0000000001
 40
0.0
 40
0.0
 40
0.0
 40
0.0
 40
0.1402248899
 40
0.2760730209
 40
0.4074203931
 40
0.5342903618
 40
0.6567892698
 40
0.7751016239
 40
1.0
 40
1.0
 40
1.0
 40
1.0
 10
23.2619772949
 20
10.2887009329
 30
0.0
 10
23.6147737748
 20
10.4923868596
 30
0.0
 10
24.3199293706
 20
10.8754691872
 30
0.0
 10
25.3904895672
 20
11.3817673881
 30
0.0
 10
26.4535367412
 20
11.8086750309
 30
0.0
 10
27.5048873281
 20
12.1546235487
 30
0.0
 10
28.5410773982
 20
12.418271238
 30
0.0
 10
29.8738793461
 20
12.6547469672
 30
0.0
 10
30.8754133458
 20
12.7138773493
 30
0.0
 10
31.528408888
 20
12.691983939
 30
0.0
  0
SPLINE
  5
257
100
AcDbEntity
  8
0
100
AcDbSpline
 62
7
  6
BYLAYER
 70
0
 71
3
 72
11
 73
7
 74
0
 42
0.0000001
 43
0.0000001
 44
0.0000000001
 40
0.0
 40
0.0
 40
0.0
 40
0.0
 40
0.2664103979
 40
0.5241016098
 40
0.7695723741
 40
1.0
 40
1.0
 40
1.0
 40
1.0
 10
18.7504850248
 20
6.6503656534
 30
0.0
 10
18.954464098
 20
6.9330573931
 30
0.0
 10
19.3806584499
 20
7.4717632554
 30
0.0
 10
20.0779295915
 20
8.2004690582
 30
0.0
 10
20.8099623999
 20
8.82404068
 30
0.0
 10
21.3284104452
 20
9.1723622553
 30
0.0
 10
21.5895317183
 20
9.3231197928
 30
0.0
  0
SPLINE
  5
258
100
AcDbEntity
  8
0
100
AcDbSpline
 62
7
  6
BYLAYER
 70
0
 71
3
 72
9
 73
5
 74
0
 42
0.0000001
 43
0.0000001
 44
0.0000000001
 40
0.0
 40
0.0
 40
0.0
 40
0.0
 40
0.4757636218
 40
1.0
 40
1.0
 40
1.0
 40
1.0
 10
17.7357495323
 20
5.4243209364
 30
0.0
 10
17.812663063
 20
5.468726719
 30
0.0
 10
17.961583022
 20
5.5844631901
 30
0.0
 10
18.0840657775
 20
5.7267845553
 30
0.0
 10
18.1413276314
 20
5.8061429563
 30
0.0
  0
SPLINE
  5
259
100
AcDbEntity
  8
0
100
AcDbSpline
 62
7
  6
BYLAYER
 70
0
 71
3
 72
11
 73
7
 74
0
 42
0.0000001
 43
0.0000001
 44
0.0000000001
 40
0.0
 40
0.0
 40
0.0
 40
0.0
 40
0.2177182217
 40
0.4509432136
 40
0.7102956781
 40
1.0
 40
1.0
 40
1.0
 40
1.0
 10
16.9030679923
 20
5.1827229159
 30
0.0
 10
16.9360436028
 20
5.1636838939
 30
0.0
 10
17.0118440152
 20
5.1362012389
 30
0.0
 10
17.1377287384
 20
5.1329623811
 30
0.0
 10
17.2718996343
 20
5.1654042155
 30
0.0
 10
17.3591869033
 20
5.2069136989
 30
0.0
 10
17.4030659105
 20
5.2322471044
 30
0.0
  0
SPLINE
  5
25A
100
AcDbEntity
  8
0
100
AcDbSpline
 62
7
  6
BYLAYER
 70
0
 71
3
 72
9
 73
5
 74
0
 42
0.0000001
 43
0.0000001
 44
0.0000000001
 40
0.0
 40
0.0
 40
0.0
 40
0.0
 40
0.2627913002
 40
1.0
 40
1.0
 40
1.0
 40
1.0
 10
16.7566219925
 20
26.2513880909
 30
0.0
 10
16.7596309812
 20
26.2531253209
 30
0.0
 10
16.7712625246
 20
26.2594076294
 30
0.0
 10
16.7836560092
 20
26.2643495526
 30
0.0
 10
16.7930658106
 20
26.2668909443
 30
0.0
  0
SPLINE
  5
25B
100
AcDbEntity
  8
0
100
AcDbSpline
 62
7
  6
BYLAYER
 70
0
 71
3
 72
9
 73
5
 74
0
 42
0.0000001
 43
0.0000001
 44
0.0000000001
 40
0.0
 40
0.0
 40
0.0
 40
0.0
 40
0.2646354139
 40
1.0
 40
1.0
 40
1.0
 40
1.0
 10
16.7930658106
 20
26.2668909443
 30
0.0
 10
16.7960179355
 20
26.2676882518
 30
0.0
 10
16.8072721132
 20
26.2702930105
 30
0.0
 10
16.8190002359
 20
26.2710924451
 30
0.0
 10
16.8274621026
 20
26.2703179393
 30
0.0
  0
SPLINE
  5
25C
100
AcDbEntity
  8
0
100
AcDbSpline
 62
7
  6
BYLAYER
 70
0
 71
3
 72
9
 73
5
 74
0
 42
0.0000001
 43
0.0000001
 44
0.0000000001
 40
0.0
 40
0.0
 40
0.0
 40
0.0
 40
0.2577915679
 40
1.0
 40
1.0
 40
1.0
 40
1.0
 10
16.8274621026
 20
26.2703179393
 30
0.0
 10
16.83008535
 20
26.2700778361
 30
0.0
 10
16.8402073155
 20
26.2686558303
 30
0.0
 10
16.8500500054
 20
26.2650819296
 30
0.0
 10
16.8566181266
 20
26.2612899105
 30
0.0
  0
SPLINE
  5
25D
100
AcDbEntity
  8
0
100
AcDbSpline
 62
7
  6
BYLAYER
 70
0
 71
3
 72
9
 73
5
 74
0
 42
0.0000001
 43
0.0000001
 44
0.0000000001
 40
0.0
 40
0.0
 40
0.0
 40
0.0
 40
0.2322170285
 40
1.0
 40
1.0
 40
1.0
 40
1.0
 10
12.0418577984
 20
23.5785750837
 30
0.0
 10
12.0616655492
 20
23.5816861968
 30
0.0
 10
12.146199753
 20
23.5999620235
 30
0.0
 10
12.2262895417
 20
23.6358150437
 30
0.0
 10
12.2837015542
 20
23.6689616868
 30
0.0
  0
SPLINE
  5
25E
100
AcDbEntity
  8
0
100
AcDbSpline
 62
7
  6
BYLAYER
 70
0
 71
3
 72
10
 73
6
 74
0
 42
0.0000001
 43
0.0000001
 44
0.0000000001
 40
0.0
 40
0.0
 40
0.0
 40
0.0
 40
0.2785281602
 40
0.537670293
 40
1.0
 40
1.0
 40
1.0
 40
1.0
 10
38.7475513299
 20
55.5423022933
 30
0.0
 10
38.7475513299
 20
55.5939247279
 30
0.0
 10
38.7420677705
 20
55.6937901138
 30
0.0
 10
38.7083339891
 20
55.8761488734
 30
0.0
 10
38.6547257646
 20
56.0025347235
 30
0.0
 10
38.6054504033
 20
56.0726375876
 30
0.0
  0
SPLINE
  5
25F
100
AcDbEntity
  8
0
100
AcDbSpline
 62
7
  6
BYLAYER
 70
0
 71
3
 72
9
 73
5
 74
0
 42
0.0000001
 43
0.0000001
 44
0.0000000001
 40
0.0
 40
0.0
 40
0.0
 40
0.0
 40
0.5226147808
 40
1.0
 40
1.0
 40
1.0
 40
1.0
 10
38.5959770082
 20
23.2674303232
 30
0.0
 10
38.6438173004
 20
23.3907324306
 30
0.0
 10
38.7176742442
 20
23.6340258131
 30
0.0
 10
38.7475513299
 20
23.8873317046
 30
0.0
 10
38.7475513299
 20
24.00814321
 30
0.0
  0
SPLINE
  5
260
100
AcDbEntity
  8
0
100
AcDbSpline
 62
7
  6
BYLAYER
 70
0
 71
3
 72
12
 73
8
 74
0
 42
0.0000001
 43
0.0000001
 44
0.0000000001
 40
0.0
 40
0.0
 40
0.0
 40
0.0
 40
0.1115027352
 40
0.2293929452
 40
0.4791059082
 40
0.7396746941
 40
1.0
 40
1.0
 40
1.0
 40
1.0
 10
34.5815071751
 20
14.1750378426
 30
0.0
 10
34.6312008292
 20
14.2048720196
 30
0.0
 10
34.7299367458
 20
14.272204005
 30
0.0
 10
34.9214071832
 20
14.4319101344
 30
0.0
 10
35.1435211953
 20
14.6734817554
 30
0.0
 10
35.3680769146
 20
15.0067217254
 30
0.0
 10
35.4859808641
 20
15.2518212856
 30
0.0
 10
35.5349298177
 20
15.3779808232
 30
0.0
  0
SPLINE
  5
261
100
AcDbEntity
  8
0
100
AcDbSpline
 62
7
  6
BYLAYER
 70
0
 71
3
 72
11
 73
7
 74
0
 42
0.0000001
 43
0.0000001
 44
0.0000000001
 40
0.0
 40
0.0
 40
0.0
 40
0.0
 40
0.2177068691
 40
0.4508430786
 40
0.7104028475
 40
1.0
 40
1.0
 40
1.0
 40
1.0
 10
9.15273687
 20
24.3079690526
 30
0.0
 10
9.1362515901
 20
24.3174915909
 30
0.0
 10
9.1053864863
 20
24.3434130613
 30
0.0
 10
9.0725300346
 20
24.3971415924
 30
0.0
 10
9.0530361408
 20
24.4633482409
 30
0.0
 10
9.0491772135
 20
24.5115315469
 30
0.0
 10
9.0491772135
 20
24.5368561196
 30
0.0
  0
SPLINE
  5
262
100
AcDbEntity
  8
0
100
AcDbSpline
 62
7
  6
BYLAYER
 70
0
 71
3
 72
11
 73
7
 74
0
 42
0.0000001
 43
0.0000001
 44
0.0000000001
 40
0.0
 40
0.0
 40
0.0
 40
0.0
 40
0.2822482825
 40
0.5391484874
 40
0.7753544159
 40
1.0
 40
1.0
 40
1.0
 40
1.0
 10
33.1676023737
 20
61.5185316875
 30
0.0
 10
33.2230488248
 20
61.5426822664
 30
0.0
 10
33.3328619466
 20
61.5807462579
 30
0.0
 10
33.4986824931
 20
61.6037536784
 30
0.0
 10
33.6533441683
 20
61.5883136933
 30
0.0
 10
33.7466402875
 20
61.5513886061
 30
0.0
 10
33.7883278375
 20
61.5273232736
 30
0.0
  0
SPLINE
  5
263
100
AcDbEntity
  8
0
100
AcDbSpline
 62
7
  6
BYLAYER
 70
0
 71
3
 72
9
 73
5
 74
0
 42
0.0000001
 43
0.0000001
 44
0.0000000001
 40
0.0
 40
0.0
 40
0.0
 40
0.0
 40
0.2560789398
 40
1.0
 40
1.0
 40
1.0
 40
1.0
 10
33.0383409532
 20
61.4530321448
 30
0.0
 10
33.049056328
 20
61.4592186324
 30
0.0
 10
33.0912143686
 20
61.4828262221
 30
0.0
 10
33.1346484495
 20
61.5041780844
 30
0.0
 10
33.1676023737
 20
61.5185316875
 30
0.0
  0
SPLINE
  5
264
100
AcDbEntity
  8
0
100
AcDbSpline
 62
7
  6
BYLAYER
 70
0
 71
3
 72
9
 73
5
 74
0
 42
0.0000001
 43
0.0000001
 44
0.0000000001
 40
0.0
 40
0.0
 40
0.0
 40
0.0
 40
0.5171937691
 40
1.0
 40
1.0
 40
1.0
 40
1.0
 10
29.8516768653
 20
59.3776922146
 30
0.0
 10
30.0358369251
 20
59.5595595678
 30
0.0
 10
30.4113326377
 20
59.8922472537
 30
0.0
 10
30.8259383858
 20
60.1757085515
 30
0.0
 10
31.0351847864
 20
60.2965162961
 30
0.0
  0
SPLINE
  5
265
100
AcDbEntity
  8
0
100
AcDbSpline
 62
7
  6
BYLAYER
 70
0
 71
3
 72
11
 73
7
 74
0
 42
0.0000001
 43
0.0000001
 44
0.0000000001
 40
0.0
 40
0.0
 40
0.0
 40
0.0
 40
0.236733177
 40
0.4828410924
 40
0.7375737905
 40
1.0
 40
1.0
 40
1.0
 40
1.0
 10
21.8038230016
 20
53.1296884602
 30
0.0
 10
22.5018525645
 20
53.5326936106
 30
0.0
 10
23.8949946402
 20
54.4085386051
 30
0.0
 10
25.9268271077
 20
55.8872210875
 30
0.0
 10
27.9285005439
 20
57.5470038373
 30
0.0
 10
29.2159377534
 20
58.7498677573
 30
0.0
 10
29.8516768653
 20
59.3776922146
 30
0.0
  0
SPLINE
  5
266
100
AcDbEntity
  8
0
100
AcDbSpline
 62
7
  6
BYLAYER
 70
0
 71
3
 72
9
 73
5
 74
0
 42
0.0000001
 43
0.0000001
 44
0.0000000001
 40
0.0
 40
0.0
 40
0.0
 40
0.0
 40
0.2439822202
 40
1.0
 40
1.0
 40
1.0
 40
1.0
 10
18.0104973154
 20
50.9639682679
 30
0.0
 10
18.0393184698
 20
50.9765217776
 30
0.0
 10
18.1566623041
 20
51.0297652848
 30
0.0
 10
18.2708340776
 20
51.0899285296
 30
0.0
 10
18.3551944369
 20
51.138633715
 30
0.0
  0
SPLINE
  5
267
100
AcDbEntity
  8
0
100
AcDbSpline
 62
7
  6
BYLAYER
 70
0
 71
3
 72
11
 73
7
 74
0
 42
0.0000001
 43
0.0000001
 44
0.0000000001
 40
0.0
 40
0.0
 40
0.0
 40
0.0
 40
0.2267116261
 40
0.4669950787
 40
0.7241738609
 40
1.0
 40
1.0
 40
1.0
 40
1.0
 10
16.7328820406
 20
50.7926479791
 30
0.0
 10
16.8293083919
 20
50.7703549449
 30
0.0
 10
17.0330598671
 20
50.7448161656
 30
0.0
 10
17.3501183148
 20
50.7627764483
 30
0.0
 10
17.6810752749
 20
50.835205812
 30
0.0
 10
17.9001041046
 20
50.9158847584
 30
0.0
 10
18.0104973154
 20
50.9639682679
 30
0.0
  0
SPLINE
  5
268
100
AcDbEntity
  8
0
100
AcDbSpline
 62
7
  6
BYLAYER
 70
0
 71
3
 72
11
 73
7
 74
0
 42
0.0000001
 43
0.0000001
 44
0.0000000001
 40
0.0
 40
0.0
 40
0.0
 40
0.0
 40
0.2824877836
 40
0.5419588858
 40
0.7797443963
 40
1.0
 40
1.0
 40
1.0
 40
1.0
 10
16.180108137
 20
50.7401820882
 30
0.0
 10
16.2146670269
 20
50.7601345535
 30
0.0
 10
16.2835133873
 20
50.7942903189
 30
0.0
 10
16.389020255
 20
50.8276855531
 30
0.0
 10
16.4902637041
 20
50.8400875511
 30
0.0
 10
16.5553718445
 20
50.8336869774
 30
0.0
 10
16.5856862361
 20
50.8266785222
 30
0.0
  0
SPLINE
  5
269
100
AcDbEntity
  8
0
100
AcDbSpline
 62
7
  6
BYLAYER
 70
0
 71
3
 72
11
 73
7
 74
0
 42
0.0000001
 43
0.0000001
 44
0.0000000001
 40
0.0
 40
0.0
 40
0.0
 40
0.0
 40
0.2659716567
 40
0.5253523206
 40
0.7717469624
 40
1.0
 40
1.0
 40
1.0
 40
1.0
 10
15.3474265969
 20
50.0202880255
 30
0.0
 10
15.3799843409
 20
50.0766800052
 30
0.0
 10
15.4506325067
 20
50.18454172
 30
0.0
 10
15.571824065
 20
50.3300661412
 30
0.0
 10
15.7034385827
 20
50.4531214682
 30
0.0
 10
15.7990297269
 20
50.5201676789
 30
0.0
 10
15.8474245152
 20
50.5481082561
 30
0.0
  0
SPLINE
  5
26A
100
AcDbEntity
  8
0
100
AcDbSpline
 62
7
  6
BYLAYER
 70
0
 71
3
 72
11
 73
7
 74
0
 42
0.0000001
 43
0.0000001
 44
0.0000000001
 40
0.0
 40
0.0
 40
0.0
 40
0.0
 40
0.2282541849
 40
0.4746493001
 40
0.7340296028
 40
1.0
 40
1.0
 40
1.0
 40
1.0
 10
9.0491772135
 20
38.7731331628
 30
0.0
 10
9.0491772135
 20
38.8290152068
 30
0.0
 10
9.0594454892
 20
38.9453237862
 30
0.0
 10
9.1002071553
 20
39.1208344814
 30
0.0
 10
9.1656388034
 20
39.2985527984
 30
0.0
 10
9.2237253338
 20
39.4136674286
 30
0.0
 10
9.2562831323
 20
39.470059503
 30
0.0
  0
SPLINE
  5
26B
100
AcDbEntity
  8
0
100
AcDbSpline
 62
7
  6
BYLAYER
 70
0
 71
3
 72
11
 73
7
 74
0
 42
0.0000001
 43
0.0000001
 44
0.0000000001
 40
0.0
 40
0.0
 40
0.0
 40
0.0
 40
0.2296154374
 40
0.4826037412
 40
0.744739721
 40
1.0
 40
1.0
 40
1.0
 40
1.0
 10
9.0491772135
 20
15.473509834
 30
0.0
 10
9.0491772135
 20
15.517918085
 30
0.0
 10
9.062078943
 20
15.6113575957
 30
0.0
 10
9.1098655051
 20
15.7480059389
 30
0.0
 10
9.1831077821
 20
15.8785720098
 30
0.0
 10
9.2468573607
 20
15.9565816976
 30
0.0
 10
9.2818072542
 20
15.991448697
 30
0.0
  0
SPLINE
  5
26C
100
AcDbEntity
  8
0
100
AcDbSpline
 62
7
  6
BYLAYER
 70
0
 71
3
 72
11
 73
7
 74
0
 42
0.0000001
 43
0.0000001
 44
0.0000000001
 40
0.0
 40
0.0
 40
0.0
 40
0.0
 40
0.2177167293
 40
0.4509418166
 40
0.7102950539
 40
1.0
 40
1.0
 40
1.0
 40
1.0
 10
9.2562831324
 20
9.5976764442
 30
0.0
 10
9.2233073601
 20
9.6167155595
 30
0.0
 10
9.1616072876
 20
9.668621308
 30
0.0
 10
9.0958613423
 20
9.7760235645
 30
0.0
 10
9.0568722527
 20
9.9084420407
 30
0.0
 10
9.0491772135
 20
10.0047911532
 30
0.0
 10
9.0491772135
 20
10.0554588959
 30
0.0
  0
SPLINE
  5
26D
100
AcDbEntity
  8
0
100
AcDbSpline
 62
7
  6
BYLAYER
 70
0
 71
3
 72
11
 73
7
 74
0
 42
0.0000001
 43
0.0000001
 44
0.0000000001
 40
0.0
 40
0.0
 40
0.0
 40
0.0
 40
0.2758261391
 40
0.5330049213
 40
0.7732883739
 40
1.0
 40
1.0
 40
1.0
 40
1.0
 10
19.5661387108
 20
50.0658386079
 30
0.0
 10
19.4557455
 20
50.0177550985
 30
0.0
 10
19.2367166702
 20
49.937076152
 30
0.0
 10
18.9057597101
 20
49.8646467884
 30
0.0
 10
18.5887012625
 20
49.8466865056
 30
0.0
 10
18.3849497872
 20
49.872225285
 30
0.0
 10
18.2885234359
 20
49.8945183192
 30
0.0
  0
SPLINE
  5
26E
100
AcDbEntity
  8
0
100
AcDbSpline
 62
7
  6
BYLAYER
 70
0
 71
3
 72
9
 73
5
 74
0
 42
0.0000001
 43
0.0000001
 44
0.0000000001
 40
0.0
 40
0.0
 40
0.0
 40
0.0
 40
0.2560789398
 40
1.0
 40
1.0
 40
1.0
 40
1.0
 10
19.9108358322
 20
50.240504055
 30
0.0
 10
19.8822614993
 20
50.2240067547
 30
0.0
 10
19.7698400577
 20
50.1610531822
 30
0.0
 10
19.654015842
 20
50.1041148827
 30
0.0
 10
19.5661387108
 20
50.0658386079
 30
0.0
  0
SPLINE
  5
26F
100
AcDbEntity
  8
0
100
AcDbSpline
 62
7
  6
BYLAYER
 70
0
 71
3
 72
11
 73
7
 74
0
 42
0.0000001
 43
0.0000001
 44
0.0000000001
 40
0.0
 40
0.0
 40
0.0
 40
0.0
 40
0.2624262095
 40
0.5171589076
 40
0.763266823
 40
1.0
 40
1.0
 40
1.0
 40
1.0
 10
31.4073182606
 20
58.4795625547
 30
0.0
 10
30.7715791487
 20
57.8517380974
 30
0.0
 10
29.4841419393
 20
56.6488741774
 30
0.0
 10
27.482468503
 20
54.9890914276
 30
0.0
 10
25.4506360355
 20
53.5104089451
 30
0.0
 10
24.0574939599
 20
52.6345639507
 30
0.0
 10
23.359464397
 20
52.2315588002
 30
0.0
  0
SPLINE
  5
270
100
AcDbEntity
  8
0
100
AcDbSpline
 62
7
  6
BYLAYER
 70
0
 71
3
 72
9
 73
5
 74
0
 42
0.0000001
 43
0.0000001
 44
0.0000000001
 40
0.0
 40
0.0
 40
0.0
 40
0.0
 40
0.4828062309
 40
1.0
 40
1.0
 40
1.0
 40
1.0
 10
32.5908261817
 20
59.3983866362
 30
0.0
 10
32.3815797811
 20
59.2775788916
 30
0.0
 10
31.966974033
 20
58.9941175938
 30
0.0
 10
31.5914783204
 20
58.6614299079
 30
0.0
 10
31.4073182606
 20
58.4795625547
 30
0.0
  0
SPLINE
  5
271
100
AcDbEntity
  8
0
100
AcDbSpline
 62
7
  6
BYLAYER
 70
0
 71
3
 72
9
 73
5
 74
0
 42
0.0000001
 43
0.0000001
 44
0.0000000001
 40
0.0
 40
0.0
 40
0.0
 40
0.0
 40
0.2439822202
 40
1.0
 40
1.0
 40
1.0
 40
1.0
 10
34.723243769
 20
60.6204020275
 30
0.0
 10
34.7124358362
 20
60.6156944614
 30
0.0
 10
34.6684318983
 20
60.5957281462
 30
0.0
 10
34.6256174832
 20
60.5731669294
 30
0.0
 10
34.5939823485
 20
60.5549024848
 30
0.0
  0
SPLINE
  5
272
100
AcDbEntity
  8
0
100
AcDbSpline
 62
7
  6
BYLAYER
 70
0
 71
3
 72
11
 73
7
 74
0
 42
0.0000001
 43
0.0000001
 44
0.0000000001
 40
0.0
 40
0.0
 40
0.0
 40
0.0
 40
0.255260279
 40
0.5173962588
 40
0.7703845626
 40
1.0
 40
1.0
 40
1.0
 40
1.0
 10
10.8374486495
 20
15.0933190371
 30
0.0
 10
10.802498756
 20
15.0584520377
 30
0.0
 10
10.7387491774
 20
14.9804423499
 30
0.0
 10
10.6655069005
 20
14.849876279
 30
0.0
 10
10.6177203383
 20
14.7132279357
 30
0.0
 10
10.6048186088
 20
14.6197884251
 30
0.0
 10
10.6048186088
 20
14.5753801741
 30
0.0
  0
SPLINE
  5
273
100
AcDbEntity
  8
0
100
AcDbSpline
 62
7
  6
BYLAYER
 70
0
 71
3
 72
9
 73
5
 74
0
 42
0.0000001
 43
0.0000001
 44
0.0000000001
 40
0.0
 40
0.0
 40
0.0
 40
0.0
 40
0.2367348574
 40
1.0
 40
1.0
 40
1.0
 40
1.0
 10
12.2837015542
 20
16.483740416
 30
0.0
 10
12.2626971064
 20
16.4716135649
 30
0.0
 10
12.1759576545
 20
16.4169640535
 30
0.0
 10
12.0972174361
 20
16.3500999069
 30
0.0
 10
12.0418577984
 20
16.2948715711
 30
0.0
  0
SPLINE
  5
274
100
AcDbEntity
  8
0
100
AcDbSpline
 62
7
  6
BYLAYER
 70
0
 71
3
 72
11
 73
7
 74
0
 42
0.0000001
 43
0.0000001
 44
0.0000000001
 40
0.0
 40
0.0
 40
0.0
 40
0.0
 40
0.2372446848
 40
0.5000016179
 40
0.7627576706
 40
1.0
 40
1.0
 40
1.0
 40
1.0
 10
16.89804276
 20
19.3111161344
 30
0.0
 10
16.89804276
 20
19.2879318905
 30
0.0
 10
16.8893446594
 20
19.2390390637
 30
0.0
 10
16.8590371514
 20
19.1703363414
 30
0.0
 10
16.8146930557
 20
19.1097378635
 30
0.0
 10
16.7766999674
 20
19.0777587751
 30
0.0
 10
16.7566219925
 20
19.0661668202
 30
0.0
  0
SPLINE
  5
275
100
AcDbEntity
  8
0
100
AcDbSpline
 62
7
  6
BYLAYER
 70
0
 71
3
 72
11
 73
7
 74
0
 42
0.0000001
 43
0.0000001
 44
0.0000000001
 40
0.0
 40
0.0
 40
0.0
 40
0.0
 40
0.2897049461
 40
0.5490581835
 40
0.7822832707
 40
1.0
 40
1.0
 40
1.0
 40
1.0
 10
10.6048186088
 20
9.1573292359
 30
0.0
 10
10.6048186088
 20
9.1066614932
 30
0.0
 10
10.612513648
 20
9.0103123807
 30
0.0
 10
10.6515027376
 20
8.8778939045
 30
0.0
 10
10.717248683
 20
8.7704916481
 30
0.0
 10
10.7789487554
 20
8.7185858996
 30
0.0
 10
10.8119245277
 20
8.6995467842
 30
0.0
  0
SPLINE
  5
276
100
AcDbEntity
  8
0
100
AcDbSpline
 62
7
  6
BYLAYER
 70
0
 71
3
 72
11
 73
7
 74
0
 42
0.0000001
 43
0.0000001
 44
0.0000000001
 40
0.0
 40
0.0
 40
0.0
 40
0.0
 40
0.2895971525
 40
0.5491569214
 40
0.7822931309
 40
1.0
 40
1.0
 40
1.0
 40
1.0
 10
10.6048186088
 20
23.6387264597
 30
0.0
 10
10.6048186088
 20
23.6134018869
 30
0.0
 10
10.6086775361
 20
23.5652185809
 30
0.0
 10
10.6281714299
 20
23.4990119324
 30
0.0
 10
10.6610278816
 20
23.4452834013
 30
0.0
 10
10.6918929855
 20
23.419361931
 30
0.0
 10
10.7083782653
 20
23.4098393926
 30
0.0
  0
SPLINE
  5
277
100
AcDbEntity
  8
0
100
AcDbSpline
 62
7
  6
BYLAYER
 70
0
 71
3
 72
11
 73
7
 74
0
 42
0.0000001
 43
0.0000001
 44
0.0000000001
 40
0.0
 40
0.0
 40
0.0
 40
0.0
 40
0.2246455841
 40
0.4608515126
 40
0.7177517175
 40
1.0
 40
1.0
 40
1.0
 40
1.0
 10
35.3439692328
 20
60.6291936136
 30
0.0
 10
35.3022816828
 20
60.6532589461
 30
0.0
 10
35.2089855636
 20
60.6901840333
 30
0.0
 10
35.0543238885
 20
60.7056240184
 30
0.0
 10
34.8885033419
 20
60.6826165979
 30
0.0
 10
34.7786902201
 20
60.6445526065
 30
0.0
 10
34.723243769
 20
60.6204020275
 30
0.0
  0
SPLINE
  5
278
100
AcDbEntity
  8
0
100
AcDbSpline
 62
7
  6
BYLAYER
 70
0
 71
3
 72
11
 73
7
 74
0
 42
0.0000001
 43
0.0000001
 44
0.0000000001
 40
0.0
 40
0.0
 40
0.0
 40
0.0
 40
0.2659703972
 40
0.5253506999
 40
0.7717458151
 40
1.0
 40
1.0
 40
1.0
 40
1.0
 10
10.8119245277
 20
38.571929843
 30
0.0
 10
10.7793667291
 20
38.5155377687
 30
0.0
 10
10.7212801987
 20
38.4004231384
 30
0.0
 10
10.6558485506
 20
38.2227048214
 30
0.0
 10
10.6150868845
 20
38.0471941263
 30
0.0
 10
10.6048186088
 20
37.9308855468
 30
0.0
 10
10.6048186088
 20
37.8750035028
 30
0.0
  0
SPLINE
  5
279
100
AcDbEntity
  8
0
100
AcDbSpline
 62
7
  6
BYLAYER
 70
0
 71
3
 72
9
 73
5
 74
0
 42
0.0000001
 43
0.0000001
 44
0.0000000001
 40
0.0
 40
0.0
 40
0.0
 40
0.0
 40
0.2629049963
 40
1.0
 40
1.0
 40
1.0
 40
1.0
 10
11.971146826
 20
16.3356956466
 30
0.0
 10
11.9902132287
 20
16.3547168277
 30
0.0
 10
12.0647385543
 20
16.424976861
 30
0.0
 10
12.147598579
 20
16.4868106265
 30
0.0
 10
12.2129905817
 20
16.5245644915
 30
0.0
  0
SPLINE
  5
27A
100
AcDbEntity
  8
0
100
AcDbSpline
 62
7
  6
BYLAYER
 70
0
 71
3
 72
11
 73
7
 74
0
 42
0.0000001
 43
0.0000001
 44
0.0000000001
 40
0.0
 40
0.0
 40
0.0
 40
0.0
 40
0.2372423294
 40
0.4999983821
 40
0.7627553152
 40
1.0
 40
1.0
 40
1.0
 40
1.0
 10
16.68591102
 20
19.1069908956
 30
0.0
 10
16.7059889949
 20
19.1185828506
 30
0.0
 10
16.7439820832
 20
19.1505619389
 30
0.0
 10
16.7883261789
 20
19.2111604169
 30
0.0
 10
16.8186336869
 20
19.2798631391
 30
0.0
 10
16.8273317875
 20
19.3287559659
 30
0.0
 10
16.8273317875
 20
19.3519402098
 30
0.0
  0
SPLINE
  5
27B
100
AcDbEntity
  8
0
100
AcDbSpline
 62
7
  6
BYLAYER
 70
0
 71
3
 72
9
 73
5
 74
0
 42
0.0000001
 43
0.0000001
 44
0.0000000001
 40
0.0
 40
0.0
 40
0.0
 40
0.0
 40
0.2627930052
 40
1.0
 40
1.0
 40
1.0
 40
1.0
 10
16.8273317875
 20
26.2105605137
 30
0.0
 10
16.8273317875
 20
26.2140354934
 30
0.0
 10
16.8269565966
 20
26.2272516899
 30
0.0
 10
16.8250392472
 20
26.2404575608
 30
0.0
 10
16.8225346322
 20
26.2498785923
 30
0.0
  0
SPLINE
  5
27C
100
AcDbEntity
  8
0
100
AcDbSpline
 62
7
  6
BYLAYER
 70
0
 71
3
 72
9
 73
5
 74
0
 42
0.0000001
 43
0.0000001
 44
0.0000000001
 40
0.0
 40
0.0
 40
0.0
 40
0.0
 40
0.2572451346
 40
1.0
 40
1.0
 40
1.0
 40
1.0
 10
16.8225346322
 20
26.2498785923
 30
0.0
 10
16.8221384216
 20
26.2513689259
 30
0.0
 10
16.8204906243
 20
26.2571327071
 30
0.0
 10
16.8183984328
 20
26.2627734642
 30
0.0
 10
16.8165665475
 20
26.2668317429
 30
0.0
  0
SPLINE
  5
27D
100
AcDbEntity
  8
0
100
AcDbSpline
 62
7
  6
BYLAYER
 70
0
 71
3
 72
11
 73
7
 74
0
 42
0.0000001
 43
0.0000001
 44
0.0000000001
 40
0.0
 40
0.0
 40
0.0
 40
0.0
 40
0.2282530376
 40
0.4746476794
 40
0.7340283433
 40
1.0
 40
1.0
 40
1.0
 40
1.0
 10
17.4030659105
 20
49.6499785962
 30
0.0
 10
17.3546711222
 20
49.6220380189
 30
0.0
 10
17.2590799781
 20
49.5549918083
 30
0.0
 10
17.1274654603
 20
49.4319364813
 30
0.0
 10
17.006273902
 20
49.2864120601
 30
0.0
 10
16.9356257362
 20
49.1785503453
 30
0.0
 10
16.9030679923
 20
49.1221583655
 30
0.0
  0
SPLINE
  5
27E
100
AcDbEntity
  8
0
100
AcDbSpline
 62
7
  6
BYLAYER
 70
0
 71
3
 72
11
 73
7
 74
0
 42
0.0000001
 43
0.0000001
 44
0.0000000001
 40
0.0
 40
0.0
 40
0.0
 40
0.0
 40
0.2202556037
 40
0.4580411142
 40
0.7175122164
 40
1.0
 40
1.0
 40
1.0
 40
1.0
 10
18.1413276314
 20
49.9285488622
 30
0.0
 10
18.1110132398
 20
49.9355573175
 30
0.0
 10
18.0459050995
 20
49.9419578911
 30
0.0
 10
17.9446616503
 20
49.9295558932
 30
0.0
 10
17.8391547826
 20
49.896160659
 30
0.0
 10
17.7703084222
 20
49.8620048936
 30
0.0
 10
17.7357495323
 20
49.8420524283
 30
0.0
  0
ENDSEC
  0
SECTION
  2
OBJECTS
  0
DICTIONARY
  5
C
100
AcDbDictionary
280
0
281
1
  3
ACAD_GROUP
350
D
  3
ACAD_MLINESTYLE
350
17
  3
ACAD_LAYOUT
350
1A
  3
ACAD_PLOTSETTINGS
350
19
  3
ACAD_PLOTSTYLENAME
350
E
  0
DICTIONARY
  5
D
102
{ACAD_REACTORS
330
C
102
}
100
AcDbDictionary
280
0
281
1
  0
ACDBDICTIONARYWDFLT
  5
E
102
{ACAD_REACTORS
330
C
102
}
100
AcDbDictionary
281
1
  3
Normal
350
F
100
AcDbDictionaryWithDefault
340
F
  0
DICTIONARY
  5
17
102
{ACAD_REACTORS
330
C
102
}
100
AcDbDictionary
280
0
281
1
  3
Standard
350
18
  0
DICTIONARY
  5
19
102
{ACAD_REACTORS
330
C
102
}
100
AcDbDictionary
281
1
  0
DICTIONARY
  5
1A
102
{ACAD_REACTORS
330
C
102
}
100
AcDbDictionary
281
1
  3
Model
350
27F
  3
Layout1
350
280
  0
ACDBPLACEHOLDER
  5
F
102
{ACAD_REACTORS
330
E
102
}
  0
MLINESTYLE
  5
18
102
{ACAD_REACTORS
330
17
102
}
100
AcDbMlineStyle
  2
STANDARD
 70
0
  3

 62
256
 51
90.0
 52
90.0
 71
2
 49
0.5
 62
256
  6
BYLAYER
 49
-0.5
 62
256
  6
BYLAYER
  0
LAYOUT
  5
27F
102
{ACAD_REACTORS
330
1A
102
}
100
AcDbPlotSettings
  1

  2
none_device
  4

  6

 40
0.0
 41
0.0
 42
0.0
 43
0.0
 44
210.0
 45
297.0
 46
0.0
 47
0.0
 48
0.0
 49
0.0
140
0.0
141
0.0
142
1.0
143
1.0
 70
1024
 72
1
 73
0
 74
0
  7

 75
0
147
1.0
148
0.0
149
0.0
100
AcDbLayout
  1
Model
 70
0
 71
0
 10
0.0
 20
0.0
 11
210.0
 21
297.0
 12
0.0
 22
0.0
 32
0.0
 14
0.0
 24
0.0
 34
0.0
 15
0.0
 25
0.0
 35
0.0
146
0.0
 13
0.0
 23
0.0
 33
0.0
 16
1.0
 26
0.0
 36
0.0
 17
0.0
 27
1.0
 37
0.0
 76
0
330
210
345
0
346
0
  0
LAYOUT
  5
280
102
{ACAD_REACTORS
330
1A
102
}
100
AcDbPlotSettings
  1

  2
none_device
  4

  6

 40
0.0
 41
0.0
 42
0.0
 43
0.0
 44
210.0
 45
297.0
 46
0.0
 47
0.0
 48
0.0
 49
0.0
140
0.0
141
0.0
142
1.0
143
1.0
 70
0
 72
1
 73
0
 74
0
  7

 75
0
147
1.0
148
0.0
149
0.0
100
AcDbLayout
  1
Layout1
 70
0
 71
1
 10
0.0
 20
0.0
 11
210.0
 21
297.0
 12
0.0
 22
0.0
 32
0.0
 14
0.0
 24
0.0
 34
0.0
 15
0.0
 25
0.0
 35
0.0
146
0.0
 13
0.0
 23
0.0
 33
0.0
 16
1.0
 26
0.0
 36
0.0
 17
0.0
 27
1.0
 37
0.0
 76
0
330
211
345
0
346
0
  0
ENDSEC
  0
EOF
