999
DXF file: C:\Users\sesa63760\Dev\_Creo\CAD\MCADPD0005171_3D-CAD\drw0001_1.dxf
999
Pro/ENGINEER 2019471 by Parametric Technology Corporation
  0
SECTION
  2
HEADER
  9
$ACADVER
  1
AC1024
  9
$DWGCODEPAGE
  3
ANSI_1252
  9
$EXTMAX
 10
115.6310801392
 20
163.5353847682
 30
0.0
  9
$EXTMIN
 10
0.0
 20
0.0
 30
0.0
  9
$LIMMIN
 10
0.0
 20
0.0
  9
$LIMMAX
 10
115.6310801392
 20
163.5353847682
  9
$VIEWCTR
 10
57.8155400696
 20
81.7676923841
  9
$VIEWSIZE
 40
163.5353847682
  9
$CLAYER
  8
0
  9
$LTSCALE
 40
10.6600843404
  9
$CELTYPE
  6
BYLAYER
  9
$DIMSCALE
 40
1.0
  9
$DIMASZ
 40
1.3765604778
  9
$DIMEXO
 40
1.0
  9
$DIMDLI
 40
7.3651491807
  9
$DIMEXE
 40
1.0
  9
$DIMCEN
 40
1.7443774375
  9
$DIMLFAC
 40
1.0
  9
$DIMBLK
  1
_FILLED
  9
$DIMALT
 70
0
  9
$DIMALTF
 40
0.0393700787
  9
$DIMTXT
 40
1.927184669
  9
$DIMTOL
 70
1
  9
$DIMLIM
 70
0
  9
$DIMTFAC
 40
1.0
  9
$DIMTP
 40
0.01
  9
$DIMTM
 40
0.01
  9
$DIMGAP
 40
0.625
  9
$DIMDSEP
 70
46
  9
$AUNITS
 70
0
  9
$PDMODE
 70
3
  9
$PDSIZE
 40
0.3125
  9
$HANDSEED
  5
519
  9
$TILEMODE
 70
1
  9
$MEASUREMENT
 70
1
  9
$INSUNITS
 70
4
  0
ENDSEC
  0
SECTION
  2
CLASSES
  0
CLASS
  1
ACDBDICTIONARYWDFLT
  2
AcDbDictionaryWithDefault
  3
AutoCAD 2000
 90
0
 91
1
280
0
281
0
  0
CLASS
  1
ACDBPLACEHOLDER
  2
AcDbPlaceHolder
  3
AutoCAD 2000
 90
0
 91
1
280
0
281
0
  0
CLASS
  1
LAYOUT
  2
AcDbLayout
  3
AutoCAD 2000
 90
0
 91
0
280
0
281
0
  0
ENDSEC
  0
SECTION
  2
TABLES
  0
TABLE
  2
VPORT
  5
8
100
AcDbSymbolTable
 70
2
  0
VPORT
  5
1F4
100
AcDbSymbolTableRecord
100
AcDbViewportTableRecord
  2
*ACTIVE
 70
0
 10
0.0
 20
0.0
 11
1.0
 21
1.0
 12
57.8155400696
 22
81.7676923841
 13
0.0
 23
0.0
 14
1.0
 24
1.0
 15
0.0
 25
0.0
 16
0.0
 26
0.0
 36
1.0
 17
0.0
 27
0.0
 37
0.0
 40
163.5353847682
 41
0.7070707071
 42
50.0
 43
0.0
 44
0.0
 50
0.0
 51
0.0
 71
0
 72
100
 73
1
 74
1
 75
0
 76
0
 77
0
 78
0
  0
ENDTAB
  0
TABLE
  2
LTYPE
  5
5
100
AcDbSymbolTable
 70
6
  0
LTYPE
  5
14
100
AcDbSymbolTableRecord
100
AcDbLinetypeTableRecord
  2
BYBLOCK
 70
0
  3

 72
65
 73
0
 40
0.0
  0
LTYPE
  5
15
100
AcDbSymbolTableRecord
100
AcDbLinetypeTableRecord
  2
BYLAYER
 70
0
  3

 72
65
 73
0
 40
0.0
  0
LTYPE
  5
16
100
AcDbSymbolTableRecord
100
AcDbLinetypeTableRecord
  2
CONTINUOUS
 70
64
  3
Solid line
 72
65
 73
0
 40
0.0
  0
LTYPE
  5
1F5
100
AcDbSymbolTableRecord
100
AcDbLinetypeTableRecord
  2
CENTER
 70
64
  3
____ _ ____ _ ____ _ ____ _ ____ _ ____ _ ____
 72
65
 73
4
 40
0.6
 49
0.375
 74
0
 49
-0.075
 74
0
 49
0.075
 74
0
 49
-0.075
 74
0
  0
LTYPE
  5
1F6
100
AcDbSymbolTableRecord
100
AcDbLinetypeTableRecord
  2
HIDDEN
 70
64
  3
- - - - - - - - - - - - - - - - - - - -
 72
65
 73
2
 40
0.2
 49
0.1
 74
0
 49
-0.1
 74
0
  0
LTYPE
  5
1F7
100
AcDbSymbolTableRecord
100
AcDbLinetypeTableRecord
  2
PHANTOM
 70
64
  3
_____ _ _ _____ _ _ _____ _ _ _____
 72
65
 73
6
 40
0.8
 49
0.45
 74
0
 49
-0.05
 74
0
 49
0.1
 74
0
 49
-0.05
 74
0
 49
0.1
 74
0
 49
-0.05
 74
0
  0
LTYPE
  5
1F8
100
AcDbSymbolTableRecord
100
AcDbLinetypeTableRecord
  2
DOT
 70
64
  3
. . . . . . . . . . . . . . . . . . . .
 72
65
 73
2
 40
0.2
 49
0.1
 74
0
 49
-0.1
 74
0
  0
LTYPE
  5
1F9
100
AcDbSymbolTableRecord
100
AcDbLinetypeTableRecord
  2
DASHED
 70
64
  3
- - - - - - - - - - - - - - - - - - - -
 72
65
 73
2
 40
0.2
 49
0.1
 74
0
 49
-0.1
 74
0
  0
ENDTAB
  0
TABLE
  2
LAYER
  5
2
100
AcDbSymbolTable
 70
36
  0
LAYER
  5
10
100
AcDbSymbolTableRecord
100
AcDbLayerTableRecord
  2
0
 70
0
 62
7
  6
CONTINUOUS
370
-3
390
F
  0
LAYER
  5
1FA
100
AcDbSymbolTableRecord
100
AcDbLayerTableRecord
  2
DEFAULT_1
 70
0
 62
7
  6
CENTER
370
-3
390
F
  0
LAYER
  5
1FB
100
AcDbSymbolTableRecord
100
AcDbLayerTableRecord
  2
DEFAULT_2
 70
0
 62
7
  6
HIDDEN
370
-3
390
F
  0
LAYER
  5
1FC
100
AcDbSymbolTableRecord
100
AcDbLayerTableRecord
  2
DEFAULT_3
 70
0
 62
7
  6
PHANTOM
370
-3
390
F
  0
LAYER
  5
1FD
100
AcDbSymbolTableRecord
100
AcDbLayerTableRecord
  2
00_COMPONENTS
 70
0
 62
7
  6
CONTINUOUS
370
-3
390
F
  0
LAYER
  5
1FE
100
AcDbSymbolTableRecord
100
AcDbLayerTableRecord
  2
01_1_DEFAULT_DATUMS
 70
0
 62
7
  6
CONTINUOUS
370
-3
390
F
  0
LAYER
  5
1FF
100
AcDbSymbolTableRecord
100
AcDbLayerTableRecord
  2
01_PLANES
 70
0
 62
7
  6
CONTINUOUS
370
-3
390
F
  0
LAYER
  5
200
100
AcDbSymbolTableRecord
100
AcDbLayerTableRecord
  2
02_COORD_SYS
 70
0
 62
7
  6
CONTINUOUS
370
-3
390
F
  0
LAYER
  5
201
100
AcDbSymbolTableRecord
100
AcDbLayerTableRecord
  2
03_AXES
 70
0
 62
7
  6
CONTINUOUS
370
-3
390
F
  0
LAYER
  5
202
100
AcDbSymbolTableRecord
100
AcDbLayerTableRecord
  2
04_POINTS
 70
0
 62
7
  6
CONTINUOUS
370
-3
390
F
  0
LAYER
  5
203
100
AcDbSymbolTableRecord
100
AcDbLayerTableRecord
  2
05_CURVES
 70
0
 62
7
  6
CONTINUOUS
370
-3
390
F
  0
LAYER
  5
204
100
AcDbSymbolTableRecord
100
AcDbLayerTableRecord
  2
06_SURFS
 70
0
 62
7
  6
CONTINUOUS
370
-3
390
F
  0
LAYER
  5
205
100
AcDbSymbolTableRecord
100
AcDbLayerTableRecord
  2
07_COSMETICS
 70
0
 62
7
  6
CONTINUOUS
370
-3
390
F
  0
LAYER
  5
206
100
AcDbSymbolTableRecord
100
AcDbLayerTableRecord
  2
10_NOTES
 70
0
 62
7
  6
CONTINUOUS
370
-3
390
F
  0
LAYER
  5
207
100
AcDbSymbolTableRecord
100
AcDbLayerTableRecord
  2
11_NOTES_PUB
 70
0
 62
7
  6
CONTINUOUS
370
-3
390
F
  0
LAYER
  5
208
100
AcDbSymbolTableRecord
100
AcDbLayerTableRecord
  2
13_REF_GTOL
 70
0
 62
7
  6
CONTINUOUS
370
-3
390
F
  0
LAYER
  5
209
100
AcDbSymbolTableRecord
100
AcDbLayerTableRecord
  2
16_MISC
 70
0
 62
7
  6
CONTINUOUS
370
-3
390
F
  0
LAYER
  5
20A
100
AcDbSymbolTableRecord
100
AcDbLayerTableRecord
  2
17_NO_PRINT
 70
0
 62
7
  6
CONTINUOUS
370
-3
390
F
  0
LAYER
  5
20B
100
AcDbSymbolTableRecord
100
AcDbLayerTableRecord
  2
18_DATUM_CAMS_JOINTS
 70
0
 62
7
  6
CONTINUOUS
370
-3
390
F
  0
LAYER
  5
20C
100
AcDbSymbolTableRecord
100
AcDbLayerTableRecord
  2
19_DATUM_FUNCTIONAL
 70
0
 62
7
  6
CONTINUOUS
370
-3
390
F
  0
LAYER
  5
20D
100
AcDbSymbolTableRecord
100
AcDbLayerTableRecord
  2
20_DATUM_KINEMATIC_SCHEME
 70
0
 62
7
  6
CONTINUOUS
370
-3
390
F
  0
ENDTAB
  0
TABLE
  2
STYLE
  5
3
100
AcDbSymbolTable
 70
1
  0
STYLE
  5
11
100
AcDbSymbolTableRecord
100
AcDbTextStyleTableRecord
  2
STANDARD
 70
0
 40
0.0
 41
1.0
 50
0.0
 71
0
 42
0.2
  3
ARIAL.TTF
  4

  0
STYLE
  5
20E
100
AcDbSymbolTableRecord
100
AcDbTextStyleTableRecord
  2
TEXTSTYLE_1
 70
0
 40
0.0
 41
0.8
 50
0.0
 71
0
 42
0.2
  3
gdt
  4

  0
ENDTAB
  0
TABLE
  2
VIEW
  5
6
100
AcDbSymbolTable
 70
0
  0
ENDTAB
  0
TABLE
  2
UCS
  5
7
100
AcDbSymbolTable
 70
0
  0
ENDTAB
  0
TABLE
  2
APPID
  5
9
100
AcDbSymbolTable
 70
1
  0
APPID
  5
20F
100
AcDbSymbolTableRecord
100
AcDbRegAppTableRecord
  2
ACAD
 70
0
  0
ENDTAB
  0
TABLE
  2
BLOCK_RECORD
  5
1
100
AcDbSymbolTable
 70
0
  0
BLOCK_RECORD
  5
210
100
AcDbSymbolTableRecord
100
AcDbBlockTableRecord
  2
*Model_Space
  0
BLOCK_RECORD
  5
211
100
AcDbSymbolTableRecord
100
AcDbBlockTableRecord
  2
*Paper_Space
  0
BLOCK_RECORD
  5
212
100
AcDbSymbolTableRecord
100
AcDbBlockTableRecord
  2
_FILLED
  0
ENDTAB
  0
TABLE
  2
DIMSTYLE
  5
A
100
AcDbSymbolTable
 70
1
100
AcDbDimStyleTable
 71
0
  0
DIMSTYLE
105
213
100
AcDbSymbolTableRecord
100
AcDbDimStyleTableRecord
  2
STANDARD
 70
0
  3

  4

 40
1.0
 41
1.3765604778
 42
1.0
 43
0.38
 44
1.0
 45
0.0
 46
0.0
 47
0.01
 48
0.01
140
1.927184669
141
0.09
142
0.0
143
25.4
144
1.0
145
0.0
146
1.0
147
0.625
 71
1
 72
0
 73
0
 74
0
 75
0
 76
0
 77
1
 78
8
 79
2
170
0
171
1
172
0
173
0
174
0
175
0
176
0
177
0
178
0
270
2
179
2
271
2
272
2
273
2
274
2
275
0
280
0
281
0
282
0
283
1
284
8
285
0
286
0
287
3
288
0
340
11
278
46
341
212
342
212
343
212
344
212
  0
ENDTAB
  0
ENDSEC
  0
SECTION
  2
BLOCKS
  0
BLOCK
  5
20
100
AcDbEntity
  8
0
100
AcDbBlockBegin
  2
*Model_Space
 70
0
 10
0.0
 20
0.0
 30
0.0
  3
*Model_Space
  1

  0
ENDBLK
  5
21
100
AcDbEntity
  8
0
100
AcDbBlockEnd
  0
BLOCK
  5
1C
100
AcDbEntity
  8
0
100
AcDbBlockBegin
  2
*Paper_Space
 70
0
 10
0.0
 20
0.0
 30
0.0
  3
*Paper_Space
  1

  0
ENDBLK
  5
1D
100
AcDbEntity
  8
0
100
AcDbBlockEnd
  0
BLOCK
  5
214
100
AcDbEntity
  8
0
100
AcDbBlockBegin
  2
_FILLED
 70
64
 10
0.0
 20
0.0
  3
_FILLED
  1

  0
SOLID
  5
215
100
AcDbEntity
  8
0
  6
BYBLOCK
 62
0
100
AcDbTrace
 10
0.0
 20
0.0
 11
-1.0
 21
0.25
 12
-1.0
 22
-0.25
 13
-1.0
 23
-0.25
  0
ENDBLK
  5
216
100
AcDbEntity
  8
0
  6
BYBLOCK
 62
0
100
AcDbBlockEnd
  0
ENDSEC
  0
SECTION
  2
ENTITIES
  0
LINE
  5
217
100
AcDbEntity
  8
0
100
AcDbLine
 62
7
  6
BYLAYER
 10
16.1568537183
 20
135.8010709229
 11
32.1374004393
 21
145.0273888004
  0
LINE
  5
218
100
AcDbEntity
  8
0
100
AcDbLine
 62
7
  6
BYLAYER
 10
20.4293941467
 20
136.9962282446
 11
34.1472085886
 21
144.9161648297
  0
LINE
  5
219
100
AcDbEntity
  8
0
100
AcDbLine
 62
7
  6
BYLAYER
 10
21.9120408413
 20
137.7281858969
 11
35.6298552833
 21
145.648122482
  0
LINE
  5
21A
100
AcDbEntity
  8
0
100
AcDbLine
 62
7
  6
BYLAYER
 10
35.9972046008
 20
145.5324654101
 11
22.2793901589
 21
137.6125288249
  0
LINE
  5
21B
100
AcDbEntity
  8
0
100
AcDbLine
 62
7
  6
BYLAYER
 10
36.3383874082
 20
145.1968660248
 11
22.8610725386
 21
137.4157811037
  0
LINE
  5
21C
100
AcDbEntity
  8
0
100
AcDbLine
 62
7
  6
BYLAYER
 10
40.1277403338
 20
146.4060127002
 11
38.9963741944
 21
145.7528220542
  0
LINE
  5
21D
100
AcDbEntity
  8
0
100
AcDbLine
 62
7
  6
BYLAYER
 10
25.2785597525
 20
137.8328854691
 11
24.1471936127
 21
137.1796948227
  0
LINE
  5
21E
100
AcDbEntity
  8
0
100
AcDbLine
 62
7
  6
BYLAYER
 10
39.0173197387
 20
145.6590791704
 11
25.3702174912
 21
137.7799680461
  0
LINE
  5
21F
100
AcDbEntity
  8
0
100
AcDbLine
 62
7
  6
BYLAYER
 10
27.5975909002
 20
135.1876520861
 11
28.7289570399
 21
135.8408427324
  0
LINE
  5
220
100
AcDbEntity
  8
0
100
AcDbLine
 62
7
  6
BYLAYER
 10
42.4467714819
 20
143.7607793175
 11
43.5781376212
 21
144.4139699636
  0
LINE
  5
221
100
AcDbEntity
  8
0
100
AcDbLine
 62
7
  6
BYLAYER
 10
43.5979331551
 20
144.2392428727
 11
42.5372773994
 21
143.626876642
  0
LINE
  5
222
100
AcDbEntity
  8
0
100
AcDbLine
 62
7
  6
BYLAYER
 10
28.8194629575
 20
135.7069400569
 11
27.7588072015
 21
135.094573826
  0
LINE
  5
223
100
AcDbEntity
  8
0
100
AcDbLine
 62
7
  6
BYLAYER
 10
32.5754163668
 20
127.8230049347
 11
32.6461267505
 21
127.8638293501
  0
LINE
  5
224
100
AcDbEntity
  8
0
100
AcDbLine
 62
7
  6
BYLAYER
 10
62.2604077981
 20
26.3079227101
 11
63.5332053034
 21
26.258423746
  0
LINE
  5
225
100
AcDbEntity
  8
0
100
AcDbLine
 62
7
  6
BYLAYER
 10
15.4098650379
 20
106.9322634469
 11
15.6804379375
 21
108.2442995931
  0
LINE
  5
226
100
AcDbEntity
  8
0
100
AcDbLine
 62
7
  6
BYLAYER
 10
13.9000685797
 20
104.7189852021
 11
14.0854921721
 21
105.0319125251
  0
LINE
  5
227
100
AcDbEntity
  8
0
100
AcDbLine
 62
7
  6
BYLAYER
 10
16.1568537182
 20
112.6669001056
 11
15.0984226525
 21
112.0558182925
  0
LINE
  5
228
100
AcDbEntity
  8
0
100
AcDbLine
 62
7
  6
BYLAYER
 10
16.1568537182
 20
112.3785159025
 11
15.8101653266
 21
112.1783564611
  0
LINE
  5
229
100
AcDbEntity
  8
0
100
AcDbLine
 62
7
  6
BYLAYER
 10
16.1568537182
 20
111.8138089939
 11
16.0026582743
 21
111.7247847443
  0
LINE
  5
22A
100
AcDbEntity
  8
0
100
AcDbLine
 62
7
  6
BYLAYER
 10
86.1607165081
 20
37.6081418734
 11
81.5645032943
 21
36.8151281256
  0
LINE
  5
22B
100
AcDbEntity
  8
0
100
AcDbLine
 62
7
  6
BYLAYER
 10
24.2396471843
 20
47.1570983338
 11
39.58392822
 21
38.2982739607
  0
LINE
  5
22C
100
AcDbEntity
  8
0
100
AcDbLine
 62
7
  6
BYLAYER
 10
23.9704011674
 20
47.7522203259
 11
40.0217919282
 21
38.4851551984
  0
LINE
  5
22D
100
AcDbEntity
  8
0
100
AcDbLine
 62
7
  6
BYLAYER
 10
16.6735689876
 20
54.1287377652
 11
16.156853718
 21
54.8145278224
  0
LINE
  5
22E
100
AcDbEntity
  8
0
100
AcDbLine
 62
7
  6
BYLAYER
 10
16.1568537183
 20
135.8010709229
 11
16.1568537181
 21
78.0239765714
  0
LINE
  5
22F
100
AcDbEntity
  8
0
100
AcDbLine
 62
7
  6
BYLAYER
 10
16.156853718
 20
56.3935460483
 11
16.156853718
 21
54.8145278224
  0
LINE
  5
230
100
AcDbEntity
  8
0
100
AcDbLine
 62
7
  6
BYLAYER
 10
15.4003119876
 20
89.3183211175
 11
15.6708848872
 21
90.6303572637
  0
LINE
  5
231
100
AcDbEntity
  8
0
100
AcDbLine
 62
7
  6
BYLAYER
 10
15.6804379375
 20
108.2442995931
 11
16.1568537182
 21
108.5193567304
  0
LINE
  5
232
100
AcDbEntity
  8
0
100
AcDbLine
 62
7
  6
BYLAYER
 10
13.4240887137
 20
106.590379501
 11
15.598217901
 21
107.8456060798
  0
LINE
  5
233
100
AcDbEntity
  8
0
100
AcDbLine
 62
7
  6
BYLAYER
 10
63.5332053034
 20
27.0749261631
 11
16.6735689876
 21
54.1287377652
  0
LINE
  5
234
100
AcDbEntity
  8
0
100
AcDbLine
 62
7
  6
BYLAYER
 10
19.7593071629
 20
57.5809307094
 11
18.8104565585
 21
64.940632475
  0
LINE
  5
235
100
AcDbEntity
  8
0
100
AcDbLine
 62
7
  6
BYLAYER
 10
18.8104565585
 20
74.5020863727
 11
18.8104565585
 21
64.940632475
  0
LINE
  5
236
100
AcDbEntity
  8
0
100
AcDbLine
 62
7
  6
BYLAYER
 10
20.7530669323
 20
71.923833014
 11
20.7530669323
 21
57.1865597961
  0
LINE
  5
237
100
AcDbEntity
  8
0
100
AcDbLine
 62
7
  6
BYLAYER
 10
13.8905155293
 20
87.1050428727
 11
14.0759391217
 21
87.4179701957
  0
LINE
  5
238
100
AcDbEntity
  8
0
100
AcDbLine
 62
7
  6
BYLAYER
 10
19.7593071629
 20
57.5809307094
 11
20.7530669324
 21
57.1865597961
  0
LINE
  5
239
100
AcDbEntity
  8
0
100
AcDbLine
 62
7
  6
BYLAYER
 10
20.7530669323
 20
71.923833014
 11
16.1568537181
 21
78.0239765714
  0
LINE
  5
23A
100
AcDbEntity
  8
0
100
AcDbLine
 62
7
  6
BYLAYER
 10
14.9001986843
 20
84.7259233911
 11
13.8905155293
 21
87.1050428727
  0
LINE
  5
23B
100
AcDbEntity
  8
0
100
AcDbLine
 62
7
  6
BYLAYER
 10
15.6349465154
 20
83.7444763436
 11
15.307893987
 21
84.5151112085
  0
LINE
  5
23C
100
AcDbEntity
  8
0
100
AcDbLine
 62
7
  6
BYLAYER
 10
14.0759391217
 20
87.4179701957
 11
13.4145356633
 21
88.9764371716
  0
LINE
  5
23D
100
AcDbEntity
  8
0
100
AcDbLine
 62
7
  6
BYLAYER
 10
16.1568537181
 20
83.5519023538
 11
16.0451541788
 21
83.8151003171
  0
LINE
  5
23E
100
AcDbEntity
  8
0
100
AcDbLine
 62
7
  6
BYLAYER
 10
23.9704011674
 20
49.9160050467
 11
23.9704011674
 21
47.752220326
  0
LINE
  5
23F
100
AcDbEntity
  8
0
100
AcDbLine
 62
7
  6
BYLAYER
 10
16.1568537182
 20
95.0584731994
 11
15.0888696021
 21
94.4418759631
  0
LINE
  5
240
100
AcDbEntity
  8
0
100
AcDbLine
 62
7
  6
BYLAYER
 10
16.1568537182
 20
94.7700889963
 11
15.8006122762
 21
94.5644141316
  0
LINE
  5
241
100
AcDbEntity
  8
0
100
AcDbLine
 62
7
  6
BYLAYER
 10
16.1568537181
 20
94.2053820878
 11
15.9931052239
 21
94.1108424149
  0
LINE
  5
242
100
AcDbEntity
  8
0
100
AcDbLine
 62
7
  6
BYLAYER
 10
88.8143193484
 20
21.5037388326
 11
81.5645032943
 21
26.0718332206
  0
LINE
  5
243
100
AcDbEntity
  8
0
100
AcDbLine
 62
7
  6
BYLAYER
 10
15.8006122762
 20
94.5644141316
 11
15.9931052239
 21
94.1108424149
  0
LINE
  5
244
100
AcDbEntity
  8
0
100
AcDbLine
 62
7
  6
BYLAYER
 10
14.9097517347
 20
102.3398657205
 11
13.9000685797
 21
104.7189852021
  0
LINE
  5
245
100
AcDbEntity
  8
0
100
AcDbLine
 62
7
  6
BYLAYER
 10
15.6444995658
 20
101.358418673
 11
15.3174470374
 21
102.129053538
  0
LINE
  5
246
100
AcDbEntity
  8
0
100
AcDbLine
 62
7
  6
BYLAYER
 10
14.0854921721
 20
105.0319125251
 11
13.4240887137
 21
106.590379501
  0
LINE
  5
247
100
AcDbEntity
  8
0
100
AcDbLine
 62
7
  6
BYLAYER
 10
16.1568537182
 20
101.1883545646
 11
16.0547072292
 21
101.4290426466
  0
LINE
  5
248
100
AcDbEntity
  8
0
100
AcDbLine
 62
7
  6
BYLAYER
 10
16.1568537181
 20
91.7756932159
 11
15.0888696021
 21
94.4418759631
  0
LINE
  5
249
100
AcDbEntity
  8
0
100
AcDbLine
 62
7
  6
BYLAYER
 10
15.6708848872
 20
90.6303572637
 11
16.1568537181
 21
90.9109298242
  0
LINE
  5
24A
100
AcDbEntity
  8
0
100
AcDbLine
 62
7
  6
BYLAYER
 10
13.4145356633
 20
88.9764371716
 11
15.5886648506
 21
90.2316637504
  0
LINE
  5
24B
100
AcDbEntity
  8
0
100
AcDbLine
 62
7
  6
BYLAYER
 10
15.8101653266
 20
112.178356461
 11
16.0026582743
 21
111.7247847443
  0
LINE
  5
24C
100
AcDbEntity
  8
0
100
AcDbLine
 62
7
  6
BYLAYER
 10
16.1568537182
 20
109.4134843813
 11
15.0984226525
 21
112.0558182925
  0
LINE
  5
24D
100
AcDbEntity
  8
0
100
AcDbLine
 62
7
  6
BYLAYER
 10
90.7005260475
 20
117.2084617916
 11
90.5195165299
 21
117.1496669285
  0
LINE
  5
24E
100
AcDbEntity
  8
0
100
AcDbLine
 62
7
  6
BYLAYER
 10
89.4786539905
 20
116.5258733376
 11
89.5691599082
 21
116.5552711455
  0
LINE
  5
24F
100
AcDbEntity
  8
0
100
AcDbLine
 62
7
  6
BYLAYER
 10
41.1885073717
 20
39.3207033569
 11
41.1885073717
 21
38.9137898184
  0
LINE
  5
250
100
AcDbEntity
  8
0
100
AcDbLine
 62
7
  6
BYLAYER
 10
69.8128642436
 20
106.4060888925
 11
69.7421538599
 21
106.3652644771
  0
LINE
  5
251
100
AcDbEntity
  8
0
100
AcDbLine
 62
7
  6
BYLAYER
 10
75.8513454662
 20
108.6353345604
 11
75.7608395486
 21
108.6059367525
  0
LINE
  5
252
100
AcDbEntity
  8
0
100
AcDbLine
 62
7
  6
BYLAYER
 10
74.7001837926
 20
107.9935705215
 11
69.8128642436
 21
106.4060888925
  0
LINE
  5
253
100
AcDbEntity
  8
0
100
AcDbLine
 62
7
  6
BYLAYER
 10
69.7421538599
 20
106.3652644771
 11
74.7199793265
 21
107.9821439141
  0
LINE
  5
254
100
AcDbEntity
  8
0
100
AcDbLine
 62
7
  6
BYLAYER
 10
16.156853718
 20
56.3935460483
 11
20.7530669324
 21
57.1865597961
  0
LINE
  5
255
100
AcDbEntity
  8
0
100
AcDbLine
 62
7
  6
BYLAYER
 10
15.307893987
 20
84.5151112085
 11
14.9001986843
 21
84.7259233911
  0
LINE
  5
256
100
AcDbEntity
  8
0
100
AcDbLine
 62
7
  6
BYLAYER
 10
81.5645032943
 20
26.0718332206
 11
86.1607165082
 21
19.9716896636
  0
LINE
  5
257
100
AcDbEntity
  8
0
100
AcDbLine
 62
7
  6
BYLAYER
 10
90.5393097463
 20
117.1382395682
 11
89.4786539906
 21
116.5258733375
  0
LINE
  5
258
100
AcDbEntity
  8
0
100
AcDbLine
 62
7
  6
BYLAYER
 10
75.7608395486
 20
108.6059367524
 11
74.7001837926
 21
107.9935705215
  0
LINE
  5
259
100
AcDbEntity
  8
0
100
AcDbLine
 62
7
  6
BYLAYER
 10
74.7199793265
 20
107.9821439141
 11
75.8513454662
 21
108.6353345604
  0
LINE
  5
25A
100
AcDbEntity
  8
0
100
AcDbLine
 62
7
  6
BYLAYER
 10
89.5691599082
 20
116.5552711455
 11
90.7005260475
 21
117.2084617916
  0
LINE
  5
25B
100
AcDbEntity
  8
0
100
AcDbLine
 62
7
  6
BYLAYER
 10
92.4221013217
 20
114.8265116732
 11
78.7749990743
 21
106.947400549
  0
LINE
  5
25C
100
AcDbEntity
  8
0
100
AcDbLine
 62
7
  6
BYLAYER
 10
78.170376614
 20
105.9901011774
 11
94.150923335
 21
115.2164190549
  0
LINE
  5
25D
100
AcDbEntity
  8
0
100
AcDbLine
 62
7
  6
BYLAYER
 10
19.6471830437
 20
58.450614592
 11
16.156853718
 21
56.3935460483
  0
LINE
  5
25E
100
AcDbEntity
  8
0
100
AcDbLine
 62
7
  6
BYLAYER
 10
15.3174470374
 20
102.129053538
 11
14.9097517347
 21
102.3398657205
  0
LINE
  5
25F
100
AcDbEntity
  8
0
100
AcDbLine
 62
7
  6
BYLAYER
 10
87.0445963048
 20
43.7139457162
 11
86.6910443862
 21
44.1830528297
  0
LINE
  5
260
100
AcDbEntity
  8
0
100
AcDbLine
 62
7
  6
BYLAYER
 10
62.2604077981
 20
24.364328118
 11
62.2604077981
 21
26.3079227101
  0
LINE
  5
261
100
AcDbEntity
  8
0
100
AcDbLine
 62
7
  6
BYLAYER
 10
63.5332053034
 20
26.258423746
 11
63.5332053034
 21
27.0749261631
  0
LINE
  5
262
100
AcDbEntity
  8
0
100
AcDbLine
 62
7
  6
BYLAYER
 10
86.1607165079
 20
95.3852362257
 11
102.141263229
 21
104.6115541032
  0
LINE
  5
263
100
AcDbEntity
  8
0
100
AcDbLine
 62
7
  6
BYLAYER
 10
101.2573834325
 20
103.8315818341
 11
87.0445963047
 21
95.6258743414
  0
LINE
  5
264
100
AcDbEntity
  8
0
100
AcDbLine
 62
7
  6
BYLAYER
 10
87.0445963047
 20
93.8324016579
 11
98.6205861985
 21
100.515762645
  0
LINE
  5
265
100
AcDbEntity
  8
0
100
AcDbLine
 62
7
  6
BYLAYER
 10
86.6910443861
 20
93.1601438133
 11
87.0445963047
 21
93.3642658903
  0
LINE
  5
266
100
AcDbEntity
  8
0
100
AcDbLine
 62
7
  6
BYLAYER
 10
101.2573834325
 20
101.569973383
 11
101.6109353513
 21
101.77409546
  0
LINE
  5
267
100
AcDbEntity
  8
0
100
AcDbLine
 62
7
  6
BYLAYER
 10
86.6910443861
 20
92.895243539
 11
87.7237014559
 21
93.4914448173
  0
LINE
  5
268
100
AcDbEntity
  8
0
100
AcDbLine
 62
7
  6
BYLAYER
 10
89.4207506652
 20
94.4712307866
 11
91.2592206419
 21
95.5326655867
  0
LINE
  5
269
100
AcDbEntity
  8
0
100
AcDbLine
 62
7
  6
BYLAYER
 10
92.9562698512
 20
96.512451556
 11
94.794739828
 21
97.5738863561
  0
LINE
  5
26A
100
AcDbEntity
  8
0
100
AcDbLine
 62
7
  6
BYLAYER
 10
96.4917890373
 20
98.5536723253
 11
97.4463792175
 21
99.1048019331
  0
LINE
  5
26B
100
AcDbEntity
  8
0
100
AcDbLine
 62
7
  6
BYLAYER
 10
96.2030494814
 20
98.2067146118
 11
94.8894021634
 21
97.4482845064
  0
LINE
  5
26C
100
AcDbEntity
  8
0
100
AcDbLine
 62
7
  6
BYLAYER
 10
92.6675302953
 20
96.1654938425
 11
91.3538829774
 21
95.407063737
  0
LINE
  5
26D
100
AcDbEntity
  8
0
100
AcDbLine
 62
7
  6
BYLAYER
 10
89.1320111093
 20
94.1242730731
 11
87.8183637913
 21
93.3658429677
  0
LINE
  5
26E
100
AcDbEntity
  8
0
100
AcDbLine
 62
7
  6
BYLAYER
 10
86.6910443862
 20
51.0624110693
 11
88.225670609
 21
49.026206371
  0
LINE
  5
26F
100
AcDbEntity
  8
0
100
AcDbLine
 62
7
  6
BYLAYER
 10
86.8899127884
 20
52.6162631722
 11
86.6910443862
 21
52.8801298837
  0
LINE
  5
270
100
AcDbEntity
  8
0
100
AcDbLine
 62
7
  6
BYLAYER
 10
102.1412632293
 20
29.1980075411
 11
99.4876603894
 21
32.7198977391
  0
LINE
  5
271
100
AcDbEntity
  8
0
100
AcDbLine
 62
7
  6
BYLAYER
 10
27.5975909002
 20
135.1876520861
 11
32.5754163668
 21
127.8230049347
  0
LINE
  5
272
100
AcDbEntity
  8
0
100
AcDbLine
 62
7
  6
BYLAYER
 10
32.6461267505
 20
127.8638293501
 11
27.7588072015
 21
135.094573826
  0
LINE
  5
273
100
AcDbEntity
  8
0
100
AcDbLine
 62
7
  6
BYLAYER
 10
28.8194629575
 20
135.7069400569
 11
28.7289570399
 21
135.8408427324
  0
LINE
  5
274
100
AcDbEntity
  8
0
100
AcDbLine
 62
7
  6
BYLAYER
 10
101.2638794794
 20
96.8333845142
 11
98.5061745151
 21
95.2412323146
  0
LINE
  5
275
100
AcDbEntity
  8
0
100
AcDbLine
 62
7
  6
BYLAYER
 10
97.7283602933
 20
94.7921637448
 11
94.970655329
 21
93.2000115452
  0
LINE
  5
276
100
AcDbEntity
  8
0
100
AcDbLine
 62
7
  6
BYLAYER
 10
94.1928411072
 20
92.7509429755
 11
91.435136143
 21
91.1587907759
  0
LINE
  5
277
100
AcDbEntity
  8
0
100
AcDbLine
 62
7
  6
BYLAYER
 10
101.9756221535
 20
95.8890152889
 11
101.2448410426
 21
95.4671011363
  0
LINE
  5
278
100
AcDbEntity
  8
0
100
AcDbLine
 62
7
  6
BYLAYER
 10
99.9486982993
 20
94.7187772415
 11
99.2179171892
 21
94.2968630893
  0
LINE
  5
279
100
AcDbEntity
  8
0
100
AcDbLine
 62
7
  6
BYLAYER
 10
98.4401029674
 20
93.8477945196
 11
97.7093218565
 21
93.425880367
  0
LINE
  5
27A
100
AcDbEntity
  8
0
100
AcDbLine
 62
7
  6
BYLAYER
 10
96.4131791132
 20
92.6775564721
 11
95.6823980032
 21
92.25564232
  0
LINE
  5
27B
100
AcDbEntity
  8
0
100
AcDbLine
 62
7
  6
BYLAYER
 10
94.9045837814
 20
91.8065737502
 11
94.1738026705
 21
91.3846595976
  0
LINE
  5
27C
100
AcDbEntity
  8
0
100
AcDbLine
 62
7
  6
BYLAYER
 10
92.8776599272
 20
90.6363357028
 11
92.1468788171
 21
90.2144215506
  0
LINE
  5
27D
100
AcDbEntity
  8
0
100
AcDbLine
 62
7
  6
BYLAYER
 10
101.7831292058
 20
95.6577102542
 11
101.0523480949
 21
95.2357961016
  0
LINE
  5
27E
100
AcDbEntity
  8
0
100
AcDbLine
 62
7
  6
BYLAYER
 10
98.2476100197
 20
93.6164894848
 11
97.5168289088
 21
93.1945753322
  0
LINE
  5
27F
100
AcDbEntity
  8
0
100
AcDbLine
 62
7
  6
BYLAYER
 10
94.7120908337
 20
91.5752687155
 11
93.9813097228
 21
91.1533545629
  0
LINE
  5
280
100
AcDbEntity
  8
0
100
AcDbLine
 62
7
  6
BYLAYER
 10
91.9543858694
 20
89.9831165159
 11
92.6851669795
 21
90.405030668
  0
LINE
  5
281
100
AcDbEntity
  8
0
100
AcDbLine
 62
7
  6
BYLAYER
 10
95.4899050555
 20
92.0243372852
 11
96.2206861655
 21
92.4462514374
  0
LINE
  5
282
100
AcDbEntity
  8
0
100
AcDbLine
 62
7
  6
BYLAYER
 10
99.0254242415
 20
94.0655580546
 11
99.7562053516
 21
94.4874722067
  0
LINE
  5
283
100
AcDbEntity
  8
0
100
AcDbLine
 62
7
  6
BYLAYER
 10
91.1127786005
 20
88.7138593448
 11
91.8435597114
 21
89.1357734974
  0
LINE
  5
284
100
AcDbEntity
  8
0
100
AcDbLine
 62
7
  6
BYLAYER
 10
92.6213739332
 20
89.5848420671
 11
93.3521550441
 21
90.0067562197
  0
LINE
  5
285
100
AcDbEntity
  8
0
100
AcDbLine
 62
7
  6
BYLAYER
 10
94.6482977866
 20
90.7550801141
 11
95.3790788975
 21
91.1769942667
  0
LINE
  5
286
100
AcDbEntity
  8
0
100
AcDbLine
 62
7
  6
BYLAYER
 10
96.1568931193
 20
91.6260628365
 11
96.8876742302
 21
92.0479769891
  0
LINE
  5
287
100
AcDbEntity
  8
0
100
AcDbLine
 62
7
  6
BYLAYER
 10
98.1838169726
 20
92.7963008835
 11
98.9145980835
 21
93.2182150361
  0
LINE
  5
288
100
AcDbEntity
  8
0
100
AcDbLine
 62
7
  6
BYLAYER
 10
99.6924123053
 20
93.6672836058
 11
100.4231934162
 21
94.0891977585
  0
LINE
  5
289
100
AcDbEntity
  8
0
100
AcDbLine
 62
7
  6
BYLAYER
 10
101.7193361587
 20
94.8375216528
 11
102.4501172696
 21
95.2594358054
  0
LINE
  5
28A
100
AcDbEntity
  8
0
100
AcDbLine
 62
7
  6
BYLAYER
 10
16.1568537181
 20
83.8343312239
 11
15.6349465154
 21
83.7444763436
  0
LINE
  5
28B
100
AcDbEntity
  8
0
100
AcDbLine
 62
7
  6
BYLAYER
 10
32.5754163668
 20
127.8230049347
 11
32.58840009
 21
127.8073370036
  0
LINE
  5
28C
100
AcDbEntity
  8
0
100
AcDbLine
 62
7
  6
BYLAYER
 10
88.4880583733
 20
52.6008948185
 11
88.9625534894
 21
51.971315335
  0
LINE
  5
28D
100
AcDbEntity
  8
0
100
AcDbLine
 62
7
  6
BYLAYER
 10
86.6910443862
 20
55.3815608588
 11
87.9311788446
 21
53.7360998511
  0
LINE
  5
28E
100
AcDbEntity
  8
0
100
AcDbLine
 62
7
  6
BYLAYER
 10
89.8667891112
 20
51.2582511445
 11
89.1550464371
 21
52.2026203697
  0
LINE
  5
28F
100
AcDbEntity
  8
0
100
AcDbLine
 62
7
  6
BYLAYER
 10
88.680551321
 20
52.8321998532
 11
87.9688086469
 21
53.7765690785
  0
LINE
  5
290
100
AcDbEntity
  8
0
100
AcDbLine
 62
7
  6
BYLAYER
 10
86.6910443862
 20
56.1116299981
 11
88.3047372834
 21
53.9705164095
  0
LINE
  5
291
100
AcDbEntity
  8
0
100
AcDbLine
 62
7
  6
BYLAYER
 10
91.3231424696
 20
50.5096711042
 11
91.1003338504
 21
50.8053026728
  0
LINE
  5
292
100
AcDbEntity
  8
0
100
AcDbLine
 62
7
  6
BYLAYER
 10
90.5574122727
 20
52.4289146402
 11
90.9628000585
 21
51.8910295827
  0
LINE
  5
293
100
AcDbEntity
  8
0
100
AcDbLine
 62
7
  6
BYLAYER
 10
91.3461001609
 20
51.9729055366
 11
90.9306023948
 21
52.5242049285
  0
LINE
  5
294
100
AcDbEntity
  8
0
100
AcDbLine
 62
7
  6
BYLAYER
 10
91.5284831282
 20
52.2176249058
 11
91.1230953425
 21
52.7555099633
  0
LINE
  5
295
100
AcDbEntity
  8
0
100
AcDbLine
 62
7
  6
BYLAYER
 10
90.1432072601
 20
55.0319512095
 11
87.7928931458
 21
58.1504438893
  0
LINE
  5
296
100
AcDbEntity
  8
0
100
AcDbLine
 62
7
  6
BYLAYER
 10
91.2457633376
 20
54.1930470181
 11
91.6571502594
 21
53.6472020621
  0
LINE
  5
297
100
AcDbEntity
  8
0
100
AcDbLine
 62
7
  6
BYLAYER
 10
92.6244940755
 20
52.8504033441
 11
91.9127514013
 21
53.7947725693
  0
LINE
  5
298
100
AcDbEntity
  8
0
100
AcDbLine
 62
7
  6
BYLAYER
 10
91.4382562853
 20
54.4243520528
 11
90.7265136111
 21
55.3687212781
  0
LINE
  5
299
100
AcDbEntity
  8
0
100
AcDbLine
 62
7
  6
BYLAYER
 10
92.0235775594
 20
54.6421155879
 11
92.4980726754
 21
54.0125361044
  0
LINE
  5
29A
100
AcDbEntity
  8
0
100
AcDbLine
 62
7
  6
BYLAYER
 10
87.0445963048
 20
61.3503979263
 11
86.6910443862
 21
61.8195050398
  0
LINE
  5
29B
100
AcDbEntity
  8
0
100
AcDbLine
 62
7
  6
BYLAYER
 10
89.2012027992
 20
58.7832721451
 11
91.4666980306
 21
55.7773206204
  0
LINE
  5
29C
100
AcDbEntity
  8
0
100
AcDbLine
 62
7
  6
BYLAYER
 10
93.4023082973
 20
53.2994719138
 11
92.6905656231
 21
54.2438411391
  0
LINE
  5
29D
100
AcDbEntity
  8
0
100
AcDbLine
 62
7
  6
BYLAYER
 10
92.2160705071
 20
54.8734206226
 11
91.5043278329
 21
55.8177898478
  0
LINE
  5
29E
100
AcDbEntity
  8
0
100
AcDbLine
 62
7
  6
BYLAYER
 10
89.4899423551
 20
59.1302298586
 11
91.8402564694
 21
56.0117371788
  0
LINE
  5
29F
100
AcDbEntity
  8
0
100
AcDbLine
 62
7
  6
BYLAYER
 10
94.8586616557
 20
52.5508918736
 11
94.6358530364
 21
52.8465234421
  0
LINE
  5
2A0
100
AcDbEntity
  8
0
100
AcDbLine
 62
7
  6
BYLAYER
 10
88.225670609
 20
49.026206371
 11
89.6957819596
 21
46.2929976683
  0
LINE
  5
2A1
100
AcDbEntity
  8
0
100
AcDbLine
 62
7
  6
BYLAYER
 10
89.1320111093
 20
94.1242730731
 11
89.4207506652
 21
94.4712307866
  0
LINE
  5
2A2
100
AcDbEntity
  8
0
100
AcDbLine
 62
7
  6
BYLAYER
 10
93.3331166073
 20
88.6404728419
 11
94.4291275546
 21
89.2732512801
  0
LINE
  5
2A3
100
AcDbEntity
  8
0
100
AcDbLine
 62
7
  6
BYLAYER
 10
94.9948106243
 20
89.5998466032
 11
96.0908215716
 21
90.2326250415
  0
LINE
  5
2A4
100
AcDbEntity
  8
0
100
AcDbLine
 62
7
  6
BYLAYER
 10
96.8686357934
 20
90.6816936112
 11
97.9646467406
 21
91.3144720495
  0
LINE
  5
2A5
100
AcDbEntity
  8
0
100
AcDbLine
 62
7
  6
BYLAYER
 10
98.5303298104
 20
91.6410673726
 11
99.6263407577
 21
92.2738458108
  0
LINE
  5
2A6
100
AcDbEntity
  8
0
100
AcDbLine
 62
7
  6
BYLAYER
 10
100.4041549795
 20
92.7229143806
 11
101.5001659267
 21
93.3556928188
  0
LINE
  5
2A7
100
AcDbEntity
  8
0
100
AcDbLine
 62
7
  6
BYLAYER
 10
102.0658489965
 20
93.6822881419
 11
103.1618599437
 21
94.3150665802
  0
LINE
  5
2A8
100
AcDbEntity
  8
0
100
AcDbLine
 62
7
  6
BYLAYER
 10
101.8834660291
 20
93.4375687727
 11
101.3177829594
 21
93.1109734496
  0
LINE
  5
2A9
100
AcDbEntity
  8
0
100
AcDbLine
 62
7
  6
BYLAYER
 10
98.3479468431
 20
91.3963480033
 11
97.7822637733
 21
91.0697526802
  0
LINE
  5
2AA
100
AcDbEntity
  8
0
100
AcDbLine
 62
7
  6
BYLAYER
 10
94.812427657
 20
89.355127234
 11
94.2467445872
 21
89.0285319109
  0
LINE
  5
2AB
100
AcDbEntity
  8
0
100
AcDbLine
 62
7
  6
BYLAYER
 10
88.156478919
 20
84.367207299
 11
102.3692660469
 21
92.5729147917
  0
LINE
  5
2AC
100
AcDbEntity
  8
0
100
AcDbLine
 62
7
  6
BYLAYER
 10
91.2539507796
 20
85.8506720323
 11
94.0116557439
 21
87.4428242319
  0
LINE
  5
2AD
100
AcDbEntity
  8
0
100
AcDbLine
 62
7
  6
BYLAYER
 10
94.7894699657
 20
87.8918928016
 11
97.54717493
 21
89.4840450012
  0
LINE
  5
2AE
100
AcDbEntity
  8
0
100
AcDbLine
 62
7
  6
BYLAYER
 10
89.6265902697
 20
81.6339985964
 11
103.8393773976
 21
89.8397060891
  0
LINE
  5
2AF
100
AcDbEntity
  8
0
100
AcDbLine
 62
7
  6
BYLAYER
 10
89.7305613419
 20
81.0097793111
 11
103.9433484697
 21
89.2154868039
  0
LINE
  5
2B0
100
AcDbEntity
  8
0
100
AcDbLine
 62
7
  6
BYLAYER
 10
13.4145356633
 20
88.9764371716
 11
15.4003119876
 21
89.3183211175
  0
LINE
  5
2B1
100
AcDbEntity
  8
0
100
AcDbLine
 62
7
  6
BYLAYER
 10
16.1568537181
 20
90.7140247641
 11
15.6708848872
 21
90.6303572637
  0
LINE
  5
2B2
100
AcDbEntity
  8
0
100
AcDbLine
 62
7
  6
BYLAYER
 10
22.2793901591
 20
137.6125288247
 11
22.5363668108
 21
137.35975757
  0
LINE
  5
2B3
100
AcDbEntity
  8
0
100
AcDbLine
 62
7
  6
BYLAYER
 10
32.5754163668
 20
127.8230049347
 11
32.5892862934
 21
127.8087035832
  0
LINE
  5
2B4
100
AcDbEntity
  8
0
100
AcDbLine
 62
7
  6
BYLAYER
 10
94.0929314588
 20
54.4701354095
 11
94.4983192445
 21
53.9322503521
  0
LINE
  5
2B5
100
AcDbEntity
  8
0
100
AcDbLine
 62
7
  6
BYLAYER
 10
94.881619347
 20
54.0141263059
 11
94.4661215808
 21
54.5654256979
  0
LINE
  5
2B6
100
AcDbEntity
  8
0
100
AcDbLine
 62
7
  6
BYLAYER
 10
95.0640023143
 20
54.2588456752
 11
94.6586145286
 21
54.7967307326
  0
LINE
  5
2B7
100
AcDbEntity
  8
0
100
AcDbLine
 62
7
  6
BYLAYER
 10
93.6787264461
 20
57.0731719789
 11
91.3284123319
 21
60.1916646587
  0
LINE
  5
2B8
100
AcDbEntity
  8
0
100
AcDbLine
 62
7
  6
BYLAYER
 10
94.7812825236
 20
56.2342677874
 11
95.1926694455
 21
55.6884228314
  0
LINE
  5
2B9
100
AcDbEntity
  8
0
100
AcDbLine
 62
7
  6
BYLAYER
 10
96.1600132615
 20
54.8916241134
 11
95.4482705874
 21
55.8359933387
  0
LINE
  5
2BA
100
AcDbEntity
  8
0
100
AcDbLine
 62
7
  6
BYLAYER
 10
94.9737754713
 20
56.4655728222
 11
94.2620327972
 21
57.4099420474
  0
LINE
  5
2BB
100
AcDbEntity
  8
0
100
AcDbLine
 62
7
  6
BYLAYER
 10
87.718934239
 20
66.1723321225
 11
86.6910443862
 21
67.536178326
  0
LINE
  5
2BC
100
AcDbEntity
  8
0
100
AcDbLine
 62
7
  6
BYLAYER
 10
95.5590967454
 20
56.6833363572
 11
96.0335918615
 21
56.0537568737
  0
LINE
  5
2BD
100
AcDbEntity
  8
0
100
AcDbLine
 62
7
  6
BYLAYER
 10
86.6910443862
 20
68.6751534295
 11
88.1569815644
 21
66.7300881586
  0
LINE
  5
2BE
100
AcDbEntity
  8
0
100
AcDbLine
 62
7
  6
BYLAYER
 10
92.7367219853
 20
60.8244929144
 11
95.0022172167
 21
57.8185413898
  0
LINE
  5
2BF
100
AcDbEntity
  8
0
100
AcDbLine
 62
7
  6
BYLAYER
 10
96.9378274833
 20
55.3406926832
 11
96.2260848092
 21
56.2850619084
  0
LINE
  5
2C0
100
AcDbEntity
  8
0
100
AcDbLine
 62
7
  6
BYLAYER
 10
95.7515896931
 20
56.9146413919
 11
95.039847019
 21
57.8590106172
  0
LINE
  5
2C1
100
AcDbEntity
  8
0
100
AcDbLine
 62
7
  6
BYLAYER
 10
93.0254615412
 20
61.171450628
 11
95.3757756554
 21
58.0529579482
  0
LINE
  5
2C2
100
AcDbEntity
  8
0
100
AcDbLine
 62
7
  6
BYLAYER
 10
86.8212237438
 20
70.3201449598
 11
86.6910443861
 21
70.492872244
  0
LINE
  5
2C3
100
AcDbEntity
  8
0
100
AcDbLine
 62
7
  6
BYLAYER
 10
97.6284506449
 20
56.5113561789
 11
98.0338384306
 21
55.9734711214
  0
LINE
  5
2C4
100
AcDbEntity
  8
0
100
AcDbLine
 62
7
  6
BYLAYER
 10
98.417138533
 20
56.0553470753
 11
98.0016407669
 21
56.6066464672
  0
LINE
  5
2C5
100
AcDbEntity
  8
0
100
AcDbLine
 62
7
  6
BYLAYER
 10
98.5995215004
 20
56.3000664445
 11
98.1941337146
 21
56.837951502
  0
LINE
  5
2C6
100
AcDbEntity
  8
0
100
AcDbLine
 62
7
  6
BYLAYER
 10
101.2573834327
 20
48.5755695455
 11
100.4709702999
 21
49.6193055042
  0
LINE
  5
2C7
100
AcDbEntity
  8
0
100
AcDbLine
 62
7
  6
BYLAYER
 10
92.6675302953
 20
96.1654938425
 11
92.9562698512
 21
96.512451556
  0
LINE
  5
2C8
100
AcDbEntity
  8
0
100
AcDbLine
 62
7
  6
BYLAYER
 10
96.2030494814
 20
98.2067146118
 11
96.4917890373
 21
98.5536723254
  0
LINE
  5
2C9
100
AcDbEntity
  8
0
100
AcDbLine
 62
7
  6
BYLAYER
 10
97.4463792175
 20
99.1048019331
 11
98.6205861985
 21
100.515762645
  0
LINE
  5
2CA
100
AcDbEntity
  8
0
100
AcDbLine
 62
7
  6
BYLAYER
 10
91.9543858694
 20
89.9831165159
 11
92.1468788171
 21
90.2144215506
  0
LINE
  5
2CB
100
AcDbEntity
  8
0
100
AcDbLine
 62
7
  6
BYLAYER
 10
92.6851669795
 20
90.405030668
 11
92.8776599272
 21
90.6363357028
  0
LINE
  5
2CC
100
AcDbEntity
  8
0
100
AcDbLine
 62
7
  6
BYLAYER
 10
92.6213739332
 20
89.5848420671
 11
92.4288809855
 21
89.3535370324
  0
LINE
  5
2CD
100
AcDbEntity
  8
0
100
AcDbLine
 62
7
  6
BYLAYER
 10
94.1738026705
 20
91.3846595976
 11
93.9813097228
 21
91.1533545629
  0
LINE
  5
2CE
100
AcDbEntity
  8
0
100
AcDbLine
 62
7
  6
BYLAYER
 10
94.7120908337
 20
91.5752687155
 11
94.9045837814
 21
91.8065737502
  0
LINE
  5
2CF
100
AcDbEntity
  8
0
100
AcDbLine
 62
7
  6
BYLAYER
 10
100.3627462982
 20
102.7573453992
 11
101.2573834325
 21
103.8315818341
  0
LINE
  5
2D0
100
AcDbEntity
  8
0
100
AcDbLine
 62
7
  6
BYLAYER
 10
97.4806505752
 20
99.0762603306
 11
100.4499334338
 21
102.6416296962
  0
LINE
  5
2D1
100
AcDbEntity
  8
0
100
AcDbLine
 62
7
  6
BYLAYER
 10
86.6910443861
 20
87.8178023959
 11
87.8996169569
 21
89.1175700065
  0
LINE
  5
2D2
100
AcDbEntity
  8
0
100
AcDbLine
 62
7
  6
BYLAYER
 10
90.818599622
 20
90.4957323712
 11
91.435136143
 21
91.1587907759
  0
LINE
  5
2D3
100
AcDbEntity
  8
0
100
AcDbLine
 62
7
  6
BYLAYER
 10
94.354118808
 20
92.5369531405
 11
94.970655329
 21
93.2000115452
  0
LINE
  5
2D4
100
AcDbEntity
  8
0
100
AcDbLine
 62
7
  6
BYLAYER
 10
97.8896379941
 20
94.5781739099
 11
98.5061745151
 21
95.2412323146
  0
LINE
  5
2D5
100
AcDbEntity
  8
0
100
AcDbLine
 62
7
  6
BYLAYER
 10
41.5411597206
 20
39.7717523598
 11
40.0217919282
 21
38.4851551983
  0
LINE
  5
2D6
100
AcDbEntity
  8
0
100
AcDbLine
 62
7
  6
BYLAYER
 10
40.587474998
 20
38.8117505214
 11
41.6481887677
 21
39.7099605085
  0
LINE
  5
2D7
100
AcDbEntity
  8
0
100
AcDbLine
 62
7
  6
BYLAYER
 10
87.0445963047
 20
78.9843930434
 11
86.6910443861
 21
78.7802709665
  0
LINE
  5
2D8
100
AcDbEntity
  8
0
100
AcDbLine
 62
7
  6
BYLAYER
 10
87.0445963047
 20
77.2487648779
 11
100.402830278
 21
84.9610988219
  0
LINE
  5
2D9
100
AcDbEntity
  8
0
100
AcDbLine
 62
7
  6
BYLAYER
 10
87.0445963047
 20
76.1949923168
 11
98.6210888439
 21
82.8786435045
  0
LINE
  5
2DA
100
AcDbEntity
  8
0
100
AcDbLine
 62
7
  6
BYLAYER
 10
86.6910443861
 20
75.4174132536
 11
87.0445963047
 21
75.6215353305
  0
LINE
  5
2DB
100
AcDbEntity
  8
0
100
AcDbLine
 62
7
  6
BYLAYER
 10
101.2573834326
 20
83.8272428233
 11
101.6109353514
 21
84.0313649003
  0
LINE
  5
2DC
100
AcDbEntity
  8
0
100
AcDbLine
 62
7
  6
BYLAYER
 10
86.6910443861
 20
75.2578341978
 11
87.7242041013
 21
75.8543256769
  0
LINE
  5
2DD
100
AcDbEntity
  8
0
100
AcDbLine
 62
7
  6
BYLAYER
 10
89.4212533106
 20
76.8341116462
 11
91.2597232873
 21
77.8955464463
  0
LINE
  5
2DE
100
AcDbEntity
  8
0
100
AcDbLine
 62
7
  6
BYLAYER
 10
92.9567724967
 20
78.8753324155
 11
94.7952424734
 21
79.9367672156
  0
LINE
  5
2DF
100
AcDbEntity
  8
0
100
AcDbLine
 62
7
  6
BYLAYER
 10
96.4922916827
 20
80.9165531849
 11
97.4468818629
 21
81.4676827926
  0
LINE
  5
2E0
100
AcDbEntity
  8
0
100
AcDbLine
 62
7
  6
BYLAYER
 10
96.2035521268
 20
80.5695954714
 11
94.8899048088
 21
79.8111653659
  0
LINE
  5
2E1
100
AcDbEntity
  8
0
100
AcDbLine
 62
7
  6
BYLAYER
 10
92.6680329407
 20
78.528374702
 11
91.3543856228
 21
77.7699445966
  0
LINE
  5
2E2
100
AcDbEntity
  8
0
100
AcDbLine
 62
7
  6
BYLAYER
 10
89.1325137547
 20
76.4871539327
 11
87.8188664367
 21
75.7287238272
  0
LINE
  5
2E3
100
AcDbEntity
  8
0
100
AcDbLine
 62
7
  6
BYLAYER
 10
16.1568537181
 20
94.1390344024
 11
15.9931052239
 21
94.1108424149
  0
LINE
  5
2E4
100
AcDbEntity
  8
0
100
AcDbLine
 62
7
  6
BYLAYER
 10
15.0888696021
 20
94.4418759631
 11
15.8006122762
 21
94.5644141316
  0
LINE
  5
2E5
100
AcDbEntity
  8
0
100
AcDbLine
 62
7
  6
BYLAYER
 10
88.4193693287
 20
70.3047766061
 11
88.8938644448
 21
69.6751971226
  0
LINE
  5
2E6
100
AcDbEntity
  8
0
100
AcDbLine
 62
7
  6
BYLAYER
 10
86.6910443861
 20
72.994303219
 11
87.8624898001
 21
71.4399816387
  0
LINE
  5
2E7
100
AcDbEntity
  8
0
100
AcDbLine
 62
7
  6
BYLAYER
 10
97.2142456322
 20
59.1143927482
 11
94.863931518
 21
62.232885428
  0
LINE
  5
2E8
100
AcDbEntity
  8
0
100
AcDbLine
 62
7
  6
BYLAYER
 10
89.7981000667
 20
68.9621329321
 11
89.0863573925
 21
69.9065021573
  0
LINE
  5
2E9
100
AcDbEntity
  8
0
100
AcDbLine
 62
7
  6
BYLAYER
 10
88.6118622764
 20
70.5360816408
 11
87.9001196023
 21
71.4804508661
  0
LINE
  5
2EA
100
AcDbEntity
  8
0
100
AcDbLine
 62
7
  6
BYLAYER
 10
98.3168017097
 20
58.2754885568
 11
98.7281886315
 21
57.7296436008
  0
LINE
  5
2EB
100
AcDbEntity
  8
0
100
AcDbLine
 62
7
  6
BYLAYER
 10
86.6910443861
 20
73.7243723584
 11
88.2360482389
 21
71.6743981971
  0
LINE
  5
2EC
100
AcDbEntity
  8
0
100
AcDbLine
 62
7
  6
BYLAYER
 10
99.6955324476
 20
56.9328448828
 11
98.9837897735
 21
57.877214108
  0
LINE
  5
2ED
100
AcDbEntity
  8
0
100
AcDbLine
 62
7
  6
BYLAYER
 10
98.5092946574
 20
58.5067935915
 11
97.7975519833
 21
59.4511628168
  0
LINE
  5
2EE
100
AcDbEntity
  8
0
100
AcDbLine
 62
7
  6
BYLAYER
 10
91.2544534251
 20
68.2135528918
 11
91.0316448058
 21
68.5091844604
  0
LINE
  5
2EF
100
AcDbEntity
  8
0
100
AcDbLine
 62
7
  6
BYLAYER
 10
90.4887232282
 20
70.1327964278
 11
90.8941110139
 21
69.5949113703
  0
LINE
  5
2F0
100
AcDbEntity
  8
0
100
AcDbLine
 62
7
  6
BYLAYER
 10
96.2722411714
 20
62.8657136838
 11
98.5377364027
 21
59.8597621591
  0
LINE
  5
2F1
100
AcDbEntity
  8
0
100
AcDbLine
 62
7
  6
BYLAYER
 10
91.2774111163
 20
69.6767873242
 11
90.8619133502
 21
70.2280867161
  0
LINE
  5
2F2
100
AcDbEntity
  8
0
100
AcDbLine
 62
7
  6
BYLAYER
 10
91.4597940837
 20
69.9215066934
 11
91.0544062979
 21
70.4593917509
  0
LINE
  5
2F3
100
AcDbEntity
  8
0
100
AcDbLine
 62
7
  6
BYLAYER
 10
96.5609807273
 20
63.2126713973
 11
98.9112948415
 21
60.0941787175
  0
LINE
  5
2F4
100
AcDbEntity
  8
0
100
AcDbLine
 62
7
  6
BYLAYER
 10
90.0745182155
 20
72.7358329971
 11
87.7242041013
 21
75.8543256769
  0
LINE
  5
2F5
100
AcDbEntity
  8
0
100
AcDbLine
 62
7
  6
BYLAYER
 10
91.177074293
 20
71.8969288057
 11
91.5884612148
 21
71.3510838497
  0
LINE
  5
2F6
100
AcDbEntity
  8
0
100
AcDbLine
 62
7
  6
BYLAYER
 10
102.4384577369
 20
57.2319138637
 11
102.1841480041
 21
57.5693423951
  0
LINE
  5
2F7
100
AcDbEntity
  8
0
100
AcDbLine
 62
7
  6
BYLAYER
 10
99.8658850217
 20
60.6453083252
 11
97.5155709075
 21
63.763801005
  0
LINE
  5
2F8
100
AcDbEntity
  8
0
100
AcDbLine
 62
7
  6
BYLAYER
 10
92.5558050309
 20
70.5542851317
 11
91.8440623568
 21
71.4986543569
  0
LINE
  5
2F9
100
AcDbEntity
  8
0
100
AcDbLine
 62
7
  6
BYLAYER
 10
91.3695672407
 20
72.1282338404
 11
90.6578245666
 21
73.0726030657
  0
LINE
  5
2FA
100
AcDbEntity
  8
0
100
AcDbLine
 62
7
  6
BYLAYER
 10
91.9548885148
 20
72.3459973754
 11
92.4293836309
 21
71.7164178919
  0
LINE
  5
2FB
100
AcDbEntity
  8
0
100
AcDbLine
 62
7
  6
BYLAYER
 10
89.1325137547
 20
76.4871539327
 11
91.3980089861
 21
73.481202408
  0
LINE
  5
2FC
100
AcDbEntity
  8
0
100
AcDbLine
 62
7
  6
BYLAYER
 10
93.3336192527
 20
71.0033537014
 11
92.6218765786
 21
71.9477229267
  0
LINE
  5
2FD
100
AcDbEntity
  8
0
100
AcDbLine
 62
7
  6
BYLAYER
 10
92.1473814625
 20
72.5773024102
 11
91.4356387884
 21
73.5216716354
  0
LINE
  5
2FE
100
AcDbEntity
  8
0
100
AcDbLine
 62
7
  6
BYLAYER
 10
89.4212533106
 20
76.8341116462
 11
91.7715674248
 21
73.7156189664
  0
LINE
  5
2FF
100
AcDbEntity
  8
0
100
AcDbLine
 62
7
  6
BYLAYER
 10
87.0445963047
 20
78.9843930435
 11
86.6910443861
 21
79.4536309482
  0
LINE
  5
300
100
AcDbEntity
  8
0
100
AcDbLine
 62
7
  6
BYLAYER
 10
42.4467714819
 20
143.7607793175
 11
42.5372773994
 21
143.626876642
  0
LINE
  5
301
100
AcDbEntity
  8
0
100
AcDbLine
 62
7
  6
BYLAYER
 10
88.1569815644
 20
66.7300881586
 11
89.6270929151
 21
63.9968794559
  0
LINE
  5
302
100
AcDbEntity
  8
0
100
AcDbLine
 62
7
  6
BYLAYER
 10
81.5645032943
 20
26.0718332206
 11
81.5645032943
 21
36.8151281256
  0
LINE
  5
303
100
AcDbEntity
  8
0
100
AcDbLine
 62
7
  6
BYLAYER
 10
93.3331166073
 20
88.6404728419
 11
91.2539507796
 21
85.8506720323
  0
LINE
  5
304
100
AcDbEntity
  8
0
100
AcDbLine
 62
7
  6
BYLAYER
 10
94.2467445872
 20
89.0285319109
 11
94.4291275546
 21
89.2732512801
  0
LINE
  5
305
100
AcDbEntity
  8
0
100
AcDbLine
 62
7
  6
BYLAYER
 10
94.9948106243
 20
89.5998466032
 11
94.812427657
 21
89.355127234
  0
LINE
  5
306
100
AcDbEntity
  8
0
100
AcDbLine
 62
7
  6
BYLAYER
 10
94.0116557439
 20
87.4428242319
 11
96.0908215716
 21
90.2326250415
  0
LINE
  5
307
100
AcDbEntity
  8
0
100
AcDbLine
 62
7
  6
BYLAYER
 10
96.8686357934
 20
90.6816936112
 11
94.7894699657
 21
87.8918928016
  0
LINE
  5
308
100
AcDbEntity
  8
0
100
AcDbLine
 62
7
  6
BYLAYER
 10
97.7822637733
 20
91.0697526802
 11
97.9646467406
 21
91.3144720495
  0
LINE
  5
309
100
AcDbEntity
  8
0
100
AcDbLine
 62
7
  6
BYLAYER
 10
98.5303298104
 20
91.6410673726
 11
98.3479468431
 21
91.3963480033
  0
LINE
  5
30A
100
AcDbEntity
  8
0
100
AcDbLine
 62
7
  6
BYLAYER
 10
97.54717493
 20
89.4840450012
 11
99.6263407577
 21
92.2738458108
  0
LINE
  5
30B
100
AcDbEntity
  8
0
100
AcDbLine
 62
7
  6
BYLAYER
 10
95.4899050555
 20
92.0243372852
 11
95.6823980032
 21
92.25564232
  0
LINE
  5
30C
100
AcDbEntity
  8
0
100
AcDbLine
 62
7
  6
BYLAYER
 10
94.4558048388
 20
90.5237750794
 11
94.6482977866
 21
90.7550801141
  0
LINE
  5
30D
100
AcDbEntity
  8
0
100
AcDbLine
 62
7
  6
BYLAYER
 10
96.2206861655
 20
92.4462514374
 11
96.4131791132
 21
92.6775564721
  0
LINE
  5
30E
100
AcDbEntity
  8
0
100
AcDbLine
 62
7
  6
BYLAYER
 10
94.5894228386
 20
90.1377316607
 11
94.3969298909
 21
89.9064266259
  0
LINE
  5
30F
100
AcDbEntity
  8
0
100
AcDbLine
 62
7
  6
BYLAYER
 10
96.1568931193
 20
91.6260628365
 11
95.9644001716
 21
91.3947578017
  0
LINE
  5
310
100
AcDbEntity
  8
0
100
AcDbLine
 62
7
  6
BYLAYER
 10
97.7093218565
 20
93.425880367
 11
97.5168289088
 21
93.1945753322
  0
LINE
  5
311
100
AcDbEntity
  8
0
100
AcDbLine
 62
7
  6
BYLAYER
 10
98.2476100197
 20
93.6164894848
 11
98.4401029674
 21
93.8477945196
  0
LINE
  5
312
100
AcDbEntity
  8
0
100
AcDbLine
 62
7
  6
BYLAYER
 10
99.0254242415
 20
94.0655580546
 11
99.2179171892
 21
94.2968630893
  0
LINE
  5
313
100
AcDbEntity
  8
0
100
AcDbLine
 62
7
  6
BYLAYER
 10
97.9913240249
 20
92.5649958487
 11
98.1838169726
 21
92.7963008835
  0
LINE
  5
314
100
AcDbEntity
  8
0
100
AcDbLine
 62
7
  6
BYLAYER
 10
99.7562053516
 20
94.4874722067
 11
99.9486982993
 21
94.7187772415
  0
LINE
  5
315
100
AcDbEntity
  8
0
100
AcDbLine
 62
7
  6
BYLAYER
 10
98.1249420247
 20
92.17895243
 11
97.932449077
 21
91.9476473953
  0
LINE
  5
316
100
AcDbEntity
  8
0
100
AcDbLine
 62
7
  6
BYLAYER
 10
99.6924123053
 20
93.6672836058
 11
99.4999193576
 21
93.4359785711
  0
LINE
  5
317
100
AcDbEntity
  8
0
100
AcDbLine
 62
7
  6
BYLAYER
 10
101.2448410426
 20
95.4671011363
 11
101.0523480949
 21
95.2357961016
  0
LINE
  5
318
100
AcDbEntity
  8
0
100
AcDbLine
 62
7
  6
BYLAYER
 10
101.7831292058
 20
95.6577102542
 11
101.9756221535
 21
95.8890152889
  0
LINE
  5
319
100
AcDbEntity
  8
0
100
AcDbLine
 62
7
  6
BYLAYER
 10
89.7305613419
 20
81.0097793111
 11
87.0445963047
 21
77.7822468554
  0
LINE
  5
31A
100
AcDbEntity
  8
0
100
AcDbLine
 62
7
  6
BYLAYER
 10
101.526843211
 20
94.6062166181
 11
101.7193361587
 21
94.8375216528
  0
LINE
  5
31B
100
AcDbEntity
  8
0
100
AcDbLine
 62
7
  6
BYLAYER
 10
101.6604612107
 20
94.2201731994
 11
101.467968263
 21
93.9888681646
  0
LINE
  5
31C
100
AcDbEntity
  8
0
100
AcDbLine
 62
7
  6
BYLAYER
 10
89.1325137547
 20
76.4871539326
 11
89.4212533106
 21
76.8341116462
  0
LINE
  5
31D
100
AcDbEntity
  8
0
100
AcDbLine
 62
7
  6
BYLAYER
 10
101.2643821248
 20
79.1962653738
 11
98.5066771605
 21
77.6041131742
  0
LINE
  5
31E
100
AcDbEntity
  8
0
100
AcDbLine
 62
7
  6
BYLAYER
 10
97.7288629387
 20
77.1550446044
 11
94.9711579745
 21
75.5628924048
  0
LINE
  5
31F
100
AcDbEntity
  8
0
100
AcDbLine
 62
7
  6
BYLAYER
 10
94.1933437527
 20
75.113823835
 11
91.4356387884
 21
73.5216716354
  0
LINE
  5
320
100
AcDbEntity
  8
0
100
AcDbLine
 62
7
  6
BYLAYER
 10
90.6578245666
 20
73.0726030657
 11
87.9001196023
 21
71.4804508661
  0
LINE
  5
321
100
AcDbEntity
  8
0
100
AcDbLine
 62
7
  6
BYLAYER
 10
101.9761247989
 20
78.2518961485
 11
101.245343688
 21
77.8299819959
  0
LINE
  5
322
100
AcDbEntity
  8
0
100
AcDbLine
 62
7
  6
BYLAYER
 10
99.9492009447
 20
77.081658101
 11
99.2184198347
 21
76.6597439489
  0
LINE
  5
323
100
AcDbEntity
  8
0
100
AcDbLine
 62
7
  6
BYLAYER
 10
98.4406056129
 20
76.2106753791
 11
97.7098245019
 21
75.7887612265
  0
LINE
  5
324
100
AcDbEntity
  8
0
100
AcDbLine
 62
7
  6
BYLAYER
 10
96.4136817587
 20
75.0404373317
 11
95.6829006486
 21
74.6185231795
  0
LINE
  5
325
100
AcDbEntity
  8
0
100
AcDbLine
 62
7
  6
BYLAYER
 10
94.9050864268
 20
74.1694546098
 11
94.1743053159
 21
73.7475404572
  0
LINE
  5
326
100
AcDbEntity
  8
0
100
AcDbLine
 62
7
  6
BYLAYER
 10
92.8781625726
 20
72.9992165623
 11
92.1473814625
 21
72.5773024102
  0
LINE
  5
327
100
AcDbEntity
  8
0
100
AcDbLine
 62
7
  6
BYLAYER
 10
91.3695672407
 20
72.1282338404
 11
90.6387861298
 21
71.7063196878
  0
LINE
  5
328
100
AcDbEntity
  8
0
100
AcDbLine
 62
7
  6
BYLAYER
 10
89.3426433865
 20
70.957995793
 11
88.6118622764
 21
70.5360816408
  0
LINE
  5
329
100
AcDbEntity
  8
0
100
AcDbLine
 62
7
  6
BYLAYER
 10
101.7836318512
 20
78.0205911138
 11
101.0528507403
 21
77.5986769612
  0
LINE
  5
32A
100
AcDbEntity
  8
0
100
AcDbLine
 62
7
  6
BYLAYER
 10
98.2481126652
 20
75.9793703444
 11
97.5173315542
 21
75.5574561918
  0
LINE
  5
32B
100
AcDbEntity
  8
0
100
AcDbLine
 62
7
  6
BYLAYER
 10
94.7125934791
 20
73.938149575
 11
93.9818123682
 21
73.5162354224
  0
LINE
  5
32C
100
AcDbEntity
  8
0
100
AcDbLine
 62
7
  6
BYLAYER
 10
91.177074293
 20
71.8969288057
 11
90.4462931821
 21
71.4750146531
  0
LINE
  5
32D
100
AcDbEntity
  8
0
100
AcDbLine
 62
7
  6
BYLAYER
 10
88.4193693287
 20
70.3047766061
 11
89.1501504388
 21
70.7266907582
  0
LINE
  5
32E
100
AcDbEntity
  8
0
100
AcDbLine
 62
7
  6
BYLAYER
 10
91.9548885148
 20
72.3459973754
 11
92.6856696249
 21
72.7679115276
  0
LINE
  5
32F
100
AcDbEntity
  8
0
100
AcDbLine
 62
7
  6
BYLAYER
 10
95.4904077009
 20
74.3872181448
 11
96.2211888109
 21
74.8091322969
  0
LINE
  5
330
100
AcDbEntity
  8
0
100
AcDbLine
 62
7
  6
BYLAYER
 10
99.0259268869
 20
76.4284389142
 11
99.756707997
 21
76.8503530663
  0
LINE
  5
331
100
AcDbEntity
  8
0
100
AcDbLine
 62
7
  6
BYLAYER
 10
89.0863573925
 20
69.9065021573
 11
89.8171385034
 21
70.3284163099
  0
LINE
  5
332
100
AcDbEntity
  8
0
100
AcDbLine
 62
7
  6
BYLAYER
 10
91.1132812459
 20
71.0767402043
 11
91.8440623568
 21
71.4986543569
  0
LINE
  5
333
100
AcDbEntity
  8
0
100
AcDbLine
 62
7
  6
BYLAYER
 10
92.6218765786
 20
71.9477229267
 11
93.3526576895
 21
72.3696370793
  0
LINE
  5
334
100
AcDbEntity
  8
0
100
AcDbLine
 62
7
  6
BYLAYER
 10
94.648800432
 20
73.1179609737
 11
95.3795815429
 21
73.5398751263
  0
LINE
  5
335
100
AcDbEntity
  8
0
100
AcDbLine
 62
7
  6
BYLAYER
 10
96.1573957647
 20
73.988943696
 11
96.8881768756
 21
74.4108578487
  0
LINE
  5
336
100
AcDbEntity
  8
0
100
AcDbLine
 62
7
  6
BYLAYER
 10
98.184319618
 20
75.159181743
 11
98.9151007289
 21
75.5810958956
  0
LINE
  5
337
100
AcDbEntity
  8
0
100
AcDbLine
 62
7
  6
BYLAYER
 10
99.6929149507
 20
76.0301644654
 11
100.4236960616
 21
76.452078618
  0
LINE
  5
338
100
AcDbEntity
  8
0
100
AcDbLine
 62
7
  6
BYLAYER
 10
101.7198388041
 20
77.2004025124
 11
102.450619915
 21
77.622316665
  0
LINE
  5
339
100
AcDbEntity
  8
0
100
AcDbLine
 62
7
  6
BYLAYER
 10
89.7981000667
 20
68.9621329321
 11
90.8941110139
 21
69.5949113703
  0
LINE
  5
33A
100
AcDbEntity
  8
0
100
AcDbLine
 62
7
  6
BYLAYER
 10
91.4597940837
 20
69.9215066934
 11
92.5558050309
 21
70.5542851317
  0
LINE
  5
33B
100
AcDbEntity
  8
0
100
AcDbLine
 62
7
  6
BYLAYER
 10
93.3336192527
 20
71.0033537014
 11
94.4296302
 21
71.6361321397
  0
LINE
  5
33C
100
AcDbEntity
  8
0
100
AcDbLine
 62
7
  6
BYLAYER
 10
94.9953132698
 20
71.9627274628
 11
96.091324217
 21
72.595505901
  0
LINE
  5
33D
100
AcDbEntity
  8
0
100
AcDbLine
 62
7
  6
BYLAYER
 10
96.8691384388
 20
73.0445744708
 11
97.965149386
 21
73.677352909
  0
LINE
  5
33E
100
AcDbEntity
  8
0
100
AcDbLine
 62
7
  6
BYLAYER
 10
98.5308324558
 20
74.0039482321
 11
99.6268434031
 21
74.6367266704
  0
LINE
  5
33F
100
AcDbEntity
  8
0
100
AcDbLine
 62
7
  6
BYLAYER
 10
100.4046576249
 20
75.0857952401
 11
101.5006685721
 21
75.7185736784
  0
LINE
  5
340
100
AcDbEntity
  8
0
100
AcDbLine
 62
7
  6
BYLAYER
 10
102.0663516419
 20
76.0451690015
 11
103.1623625891
 21
76.6779474397
  0
LINE
  5
341
100
AcDbEntity
  8
0
100
AcDbLine
 62
7
  6
BYLAYER
 10
101.8839686745
 20
75.8004496322
 11
101.3182856048
 21
75.4738543091
  0
LINE
  5
342
100
AcDbEntity
  8
0
100
AcDbLine
 62
7
  6
BYLAYER
 10
98.3484494885
 20
73.7592288629
 11
97.7827664187
 21
73.4326335398
  0
LINE
  5
343
100
AcDbEntity
  8
0
100
AcDbLine
 62
7
  6
BYLAYER
 10
94.8129303024
 20
71.7180080935
 11
94.2472472326
 21
71.3914127704
  0
LINE
  5
344
100
AcDbEntity
  8
0
100
AcDbLine
 62
7
  6
BYLAYER
 10
91.2774111163
 20
69.6767873242
 11
90.7117280466
 21
69.3501920011
  0
LINE
  5
345
100
AcDbEntity
  8
0
100
AcDbLine
 62
7
  6
BYLAYER
 10
16.1568537182
 20
101.4466288391
 11
15.6444995658
 21
101.358418673
  0
LINE
  5
346
100
AcDbEntity
  8
0
100
AcDbLine
 62
7
  6
BYLAYER
 10
32.6461267505
 20
127.8638293501
 11
69.8128642436
 21
106.4060888925
  0
LINE
  5
347
100
AcDbEntity
  8
0
100
AcDbLine
 62
7
  6
BYLAYER
 10
94.7899726111
 20
70.2547736612
 11
94.5671639919
 21
70.5504052297
  0
LINE
  5
348
100
AcDbEntity
  8
0
100
AcDbLine
 62
7
  6
BYLAYER
 10
94.0242424142
 20
72.1740171971
 11
94.4296302
 21
71.6361321397
  0
LINE
  5
349
100
AcDbEntity
  8
0
100
AcDbLine
 62
7
  6
BYLAYER
 10
94.8129303024
 20
71.7180080935
 11
94.3974325363
 21
72.2693074855
  0
LINE
  5
34A
100
AcDbEntity
  8
0
100
AcDbLine
 62
7
  6
BYLAYER
 10
94.9953132698
 20
71.9627274628
 11
94.589925484
 21
72.5006125202
  0
LINE
  5
34B
100
AcDbEntity
  8
0
100
AcDbLine
 62
7
  6
BYLAYER
 10
93.6100374016
 20
74.7770537665
 11
91.2597232873
 21
77.8955464463
  0
LINE
  5
34C
100
AcDbEntity
  8
0
100
AcDbLine
 62
7
  6
BYLAYER
 10
94.7125934791
 20
73.938149575
 11
95.1239804009
 21
73.392304619
  0
LINE
  5
34D
100
AcDbEntity
  8
0
100
AcDbLine
 62
7
  6
BYLAYER
 10
96.091324217
 20
72.595505901
 11
95.3795815429
 21
73.5398751263
  0
LINE
  5
34E
100
AcDbEntity
  8
0
100
AcDbLine
 62
7
  6
BYLAYER
 10
94.9050864268
 20
74.1694546098
 11
94.1933437527
 21
75.113823835
  0
LINE
  5
34F
100
AcDbEntity
  8
0
100
AcDbLine
 62
7
  6
BYLAYER
 10
101.2573834327
 20
66.1907906132
 11
100.4033329234
 21
67.3239796815
  0
LINE
  5
350
100
AcDbEntity
  8
0
100
AcDbLine
 62
7
  6
BYLAYER
 10
95.4904077009
 20
74.3872181448
 11
95.964902817
 21
73.7576386613
  0
LINE
  5
351
100
AcDbEntity
  8
0
100
AcDbLine
 62
7
  6
BYLAYER
 10
86.6910443861
 20
86.3116056396
 11
88.156478919
 21
84.367207299
  0
LINE
  5
352
100
AcDbEntity
  8
0
100
AcDbLine
 62
7
  6
BYLAYER
 10
92.6680329408
 20
78.528374702
 11
94.9335281721
 21
75.5224231773
  0
LINE
  5
353
100
AcDbEntity
  8
0
100
AcDbLine
 62
7
  6
BYLAYER
 10
96.8691384388
 20
73.0445744708
 11
96.1573957647
 21
73.988943696
  0
LINE
  5
354
100
AcDbEntity
  8
0
100
AcDbLine
 62
7
  6
BYLAYER
 10
95.6829006486
 20
74.6185231795
 11
94.9711579745
 21
75.5628924048
  0
LINE
  5
355
100
AcDbEntity
  8
0
100
AcDbLine
 62
7
  6
BYLAYER
 10
92.9567724967
 20
78.8753324155
 11
95.3070866109
 21
75.7568397358
  0
LINE
  5
356
100
AcDbEntity
  8
0
100
AcDbLine
 62
7
  6
BYLAYER
 10
98.3254917972
 20
72.2959944306
 11
98.102683178
 21
72.5916259991
  0
LINE
  5
357
100
AcDbEntity
  8
0
100
AcDbLine
 62
7
  6
BYLAYER
 10
86.8207210984
 20
87.9572641002
 11
86.6910443861
 21
88.1293244541
  0
LINE
  5
358
100
AcDbEntity
  8
0
100
AcDbLine
 62
7
  6
BYLAYER
 10
97.5597616003
 20
74.2152379665
 11
97.9651493861
 21
73.677352909
  0
LINE
  5
359
100
AcDbEntity
  8
0
100
AcDbLine
 62
7
  6
BYLAYER
 10
98.3484494885
 20
73.7592288629
 11
97.9329517224
 21
74.3105282548
  0
LINE
  5
35A
100
AcDbEntity
  8
0
100
AcDbLine
 62
7
  6
BYLAYER
 10
43.7591471388
 20
144.1461680415
 11
43.5781376212
 21
144.4139699636
  0
LINE
  5
35B
100
AcDbEntity
  8
0
100
AcDbLine
 62
7
  6
BYLAYER
 10
103.9085690875
 20
54.4987051611
 11
102.4384577369
 21
57.2319138637
  0
LINE
  5
35C
100
AcDbEntity
  8
0
100
AcDbLine
 62
7
  6
BYLAYER
 10
89.6957819596
 20
46.2929976683
 11
89.7997530318
 21
45.6687783831
  0
LINE
  5
35D
100
AcDbEntity
  8
0
100
AcDbLine
 62
7
  6
BYLAYER
 10
86.1607165082
 20
17.5284822199
 11
86.1607165082
 21
19.9716896636
  0
LINE
  5
35E
100
AcDbEntity
  8
0
100
AcDbLine
 62
7
  6
BYLAYER
 10
86.1607165082
 20
37.6081418733
 11
86.1607165079
 21
95.3852362257
  0
LINE
  5
35F
100
AcDbEntity
  8
0
100
AcDbLine
 62
7
  6
BYLAYER
 10
86.6910443862
 20
43.5098236392
 11
86.6910443862
 21
57.7809610435
  0
LINE
  5
360
100
AcDbEntity
  8
0
100
AcDbLine
 62
7
  6
BYLAYER
 10
86.6910443862
 20
61.1462758493
 11
86.6910443861
 21
75.4174132536
  0
LINE
  5
361
100
AcDbEntity
  8
0
100
AcDbLine
 62
7
  6
BYLAYER
 10
86.6910443861
 20
78.7802709665
 11
86.6910443861
 21
93.1601438133
  0
LINE
  5
362
100
AcDbEntity
  8
0
100
AcDbLine
 62
7
  6
BYLAYER
 10
87.0445963047
 20
95.6258743414
 11
87.0445963047
 21
93.3642658903
  0
LINE
  5
363
100
AcDbEntity
  8
0
100
AcDbLine
 62
7
  6
BYLAYER
 10
87.0445963047
 20
78.9843930434
 11
87.0445963047
 21
75.6215353305
  0
LINE
  5
364
100
AcDbEntity
  8
0
100
AcDbLine
 62
7
  6
BYLAYER
 10
87.0445963048
 20
61.3503979263
 11
87.0445963048
 21
57.9850831204
  0
LINE
  5
365
100
AcDbEntity
  8
0
100
AcDbLine
 62
7
  6
BYLAYER
 10
87.0445963048
 20
43.7139457162
 11
87.0445963049
 21
40.3698620528
  0
LINE
  5
366
100
AcDbEntity
  8
0
100
AcDbLine
 62
7
  6
BYLAYER
 10
88.8143193484
 20
21.5037388326
 11
88.8143193483
 21
39.1401910424
  0
LINE
  5
367
100
AcDbEntity
  8
0
100
AcDbLine
 62
7
  6
BYLAYER
 10
100.4041549795
 20
92.7229143806
 11
98.3249891518
 21
89.933113571
  0
LINE
  5
368
100
AcDbEntity
  8
0
100
AcDbLine
 62
7
  6
BYLAYER
 10
101.3177829594
 20
93.1109734496
 11
101.5001659267
 21
93.3556928188
  0
LINE
  5
369
100
AcDbEntity
  8
0
100
AcDbLine
 62
7
  6
BYLAYER
 10
102.0658489965
 20
93.6822881419
 11
101.8834660291
 21
93.4375687727
  0
LINE
  5
36A
100
AcDbEntity
  8
0
100
AcDbLine
 62
7
  6
BYLAYER
 10
101.0826941161
 20
91.5252657706
 11
103.1618599437
 21
94.3150665802
  0
LINE
  5
36B
100
AcDbEntity
  8
0
100
AcDbLine
 62
7
  6
BYLAYER
 10
92.6680329408
 20
78.528374702
 11
92.9567724967
 21
78.8753324155
  0
LINE
  5
36C
100
AcDbEntity
  8
0
100
AcDbLine
 62
7
  6
BYLAYER
 10
96.2035521268
 20
80.5695954714
 11
96.4922916827
 21
80.9165531849
  0
LINE
  5
36D
100
AcDbEntity
  8
0
100
AcDbLine
 62
7
  6
BYLAYER
 10
97.4468818629
 20
81.4676827926
 11
98.6210888439
 21
82.8786435045
  0
LINE
  5
36E
100
AcDbEntity
  8
0
100
AcDbLine
 62
7
  6
BYLAYER
 10
100.402830278
 20
84.9610988219
 11
103.9433484697
 21
89.2154868039
  0
LINE
  5
36F
100
AcDbEntity
  8
0
100
AcDbLine
 62
7
  6
BYLAYER
 10
97.4816672876
 20
81.4387342272
 11
100.4076598983
 21
84.9546906845
  0
LINE
  5
370
100
AcDbEntity
  8
0
100
AcDbLine
 62
7
  6
BYLAYER
 10
88.4193693287
 20
70.3047766061
 11
88.6118622764
 21
70.5360816408
  0
LINE
  5
371
100
AcDbEntity
  8
0
100
AcDbLine
 62
7
  6
BYLAYER
 10
89.1501504388
 20
70.7266907582
 11
89.3426433865
 21
70.957995793
  0
LINE
  5
372
100
AcDbEntity
  8
0
100
AcDbLine
 62
7
  6
BYLAYER
 10
89.0863573925
 20
69.9065021573
 11
88.8938644448
 21
69.6751971226
  0
LINE
  5
373
100
AcDbEntity
  8
0
100
AcDbLine
 62
7
  6
BYLAYER
 10
90.6387861298
 20
71.7063196878
 11
90.4462931821
 21
71.4750146531
  0
LINE
  5
374
100
AcDbEntity
  8
0
100
AcDbLine
 62
7
  6
BYLAYER
 10
91.177074293
 20
71.8969288057
 11
91.3695672407
 21
72.1282338404
  0
LINE
  5
375
100
AcDbEntity
  8
0
100
AcDbLine
 62
7
  6
BYLAYER
 10
91.9548885148
 20
72.3459973754
 11
92.1473814625
 21
72.5773024102
  0
LINE
  5
376
100
AcDbEntity
  8
0
100
AcDbLine
 62
7
  6
BYLAYER
 10
90.9207882982
 20
70.8454351696
 11
91.1132812459
 21
71.0767402043
  0
LINE
  5
377
100
AcDbEntity
  8
0
100
AcDbLine
 62
7
  6
BYLAYER
 10
92.6856696249
 20
72.7679115276
 11
92.8781625726
 21
72.9992165623
  0
LINE
  5
378
100
AcDbEntity
  8
0
100
AcDbLine
 62
7
  6
BYLAYER
 10
86.6910443861
 20
70.1801426821
 11
87.9001196023
 21
71.4804508661
  0
LINE
  5
379
100
AcDbEntity
  8
0
100
AcDbLine
 62
7
  6
BYLAYER
 10
90.8191022674
 20
72.8586132307
 11
91.4356387884
 21
73.5216716354
  0
LINE
  5
37A
100
AcDbEntity
  8
0
100
AcDbLine
 62
7
  6
BYLAYER
 10
94.3546214535
 20
74.8998340001
 11
94.9711579745
 21
75.5628924048
  0
LINE
  5
37B
100
AcDbEntity
  8
0
100
AcDbLine
 62
7
  6
BYLAYER
 10
97.8901406395
 20
76.9410547695
 11
98.5066771605
 21
77.6041131742
  0
LINE
  5
37C
100
AcDbEntity
  8
0
100
AcDbLine
 62
7
  6
BYLAYER
 10
88.1569815645
 20
66.7300881585
 11
102.3697686923
 21
74.9357956513
  0
LINE
  5
37D
100
AcDbEntity
  8
0
100
AcDbLine
 62
7
  6
BYLAYER
 10
87.718934239
 20
66.1723321225
 11
90.4766392033
 21
67.7644843221
  0
LINE
  5
37E
100
AcDbEntity
  8
0
100
AcDbLine
 62
7
  6
BYLAYER
 10
91.2544534251
 20
68.2135528918
 11
94.0121583893
 21
69.8057050914
  0
LINE
  5
37F
100
AcDbEntity
  8
0
100
AcDbLine
 62
7
  6
BYLAYER
 10
94.7899726111
 20
70.2547736612
 11
97.5476775754
 21
71.8469258608
  0
LINE
  5
380
100
AcDbEntity
  8
0
100
AcDbLine
 62
7
  6
BYLAYER
 10
98.3254917972
 20
72.2959944306
 11
101.0831967615
 21
73.8881466302
  0
LINE
  5
381
100
AcDbEntity
  8
0
100
AcDbLine
 62
7
  6
BYLAYER
 10
40.587474998
 20
38.8117505214
 11
40.0217919282
 21
38.4851551983
  0
LINE
  5
382
100
AcDbEntity
  8
0
100
AcDbLine
 62
7
  6
BYLAYER
 10
41.1885073717
 20
38.9137898184
 11
40.2339171915
 21
38.3626602107
  0
LINE
  5
383
100
AcDbEntity
  8
0
100
AcDbLine
 62
7
  6
BYLAYER
 10
89.6270929151
 20
63.9968794559
 11
103.839880043
 21
72.2025869487
  0
LINE
  5
384
100
AcDbEntity
  8
0
100
AcDbLine
 62
7
  6
BYLAYER
 10
89.7310639873
 20
63.3726601707
 11
103.9438511151
 21
71.5783676634
  0
LINE
  5
385
100
AcDbEntity
  8
0
100
AcDbLine
 62
7
  6
BYLAYER
 10
87.0445963048
 20
61.3503979263
 11
86.6910443862
 21
61.1462758493
  0
LINE
  5
386
100
AcDbEntity
  8
0
100
AcDbLine
 62
7
  6
BYLAYER
 10
13.4240887137
 20
106.590379501
 11
15.4098650379
 21
106.9322634469
  0
LINE
  5
387
100
AcDbEntity
  8
0
100
AcDbLine
 62
7
  6
BYLAYER
 10
27.7588072015
 20
135.0945738259
 11
74.7001837926
 21
107.9935705215
  0
LINE
  5
388
100
AcDbEntity
  8
0
100
AcDbLine
 62
7
  6
BYLAYER
 10
78.1703766139
 20
105.9901011774
 11
74.7199793265
 21
107.9821439141
  0
LINE
  5
389
100
AcDbEntity
  8
0
100
AcDbLine
 62
7
  6
BYLAYER
 10
24.1471936127
 20
137.1796948228
 11
27.5975909002
 21
135.1876520861
  0
LINE
  5
38A
100
AcDbEntity
  8
0
100
AcDbLine
 62
7
  6
BYLAYER
 10
79.3017427537
 20
106.6432918237
 11
75.8513454662
 21
108.6353345604
  0
LINE
  5
38B
100
AcDbEntity
  8
0
100
AcDbLine
 62
7
  6
BYLAYER
 10
28.7289570399
 20
135.8408427324
 11
25.2785597525
 21
137.8328854691
  0
LINE
  5
38C
100
AcDbEntity
  8
0
100
AcDbLine
 62
7
  6
BYLAYER
 10
36.3383874082
 20
145.1968660248
 11
35.997204601
 21
145.5324654099
  0
LINE
  5
38D
100
AcDbEntity
  8
0
100
AcDbLine
 62
7
  6
BYLAYER
 10
98.5308324558
 20
74.0039482321
 11
98.1254446701
 21
74.5418332896
  0
LINE
  5
38E
100
AcDbEntity
  8
0
100
AcDbLine
 62
7
  6
BYLAYER
 10
86.6910443861
 20
90.6307554291
 11
87.8619871547
 21
89.0771007792
  0
LINE
  5
38F
100
AcDbEntity
  8
0
100
AcDbLine
 62
7
  6
BYLAYER
 10
97.1455565877
 20
76.8182745358
 11
94.7952424734
 21
79.9367672156
  0
LINE
  5
390
100
AcDbEntity
  8
0
100
AcDbLine
 62
7
  6
BYLAYER
 10
98.2481126652
 20
75.9793703444
 11
98.659499587
 21
75.4335253884
  0
LINE
  5
391
100
AcDbEntity
  8
0
100
AcDbLine
 62
7
  6
BYLAYER
 10
86.6910443861
 20
91.3608245685
 11
88.2355455935
 21
89.3115173376
  0
LINE
  5
392
100
AcDbEntity
  8
0
100
AcDbLine
 62
7
  6
BYLAYER
 10
99.6268434031
 20
74.6367266704
 11
98.9151007289
 21
75.5810958956
  0
LINE
  5
393
100
AcDbEntity
  8
0
100
AcDbLine
 62
7
  6
BYLAYER
 10
98.4406056129
 20
76.2106753791
 11
97.7288629387
 21
77.1550446044
  0
LINE
  5
394
100
AcDbEntity
  8
0
100
AcDbLine
 62
7
  6
BYLAYER
 10
91.2539507796
 20
85.8506720323
 11
91.0311421604
 21
86.1463036008
  0
LINE
  5
395
100
AcDbEntity
  8
0
100
AcDbLine
 62
7
  6
BYLAYER
 10
99.0259268869
 20
76.4284389142
 11
99.500422003
 21
75.7988594307
  0
LINE
  5
396
100
AcDbEntity
  8
0
100
AcDbLine
 62
7
  6
BYLAYER
 10
96.2035521268
 20
80.5695954714
 11
98.4690473582
 21
77.5636439467
  0
LINE
  5
397
100
AcDbEntity
  8
0
100
AcDbLine
 62
7
  6
BYLAYER
 10
100.4046576249
 20
75.0857952401
 11
99.6929149507
 21
76.0301644654
  0
LINE
  5
398
100
AcDbEntity
  8
0
100
AcDbLine
 62
7
  6
BYLAYER
 10
99.2184198347
 20
76.6597439489
 11
98.5066771605
 21
77.6041131742
  0
LINE
  5
399
100
AcDbEntity
  8
0
100
AcDbLine
 62
7
  6
BYLAYER
 10
96.4922916827
 20
80.9165531849
 11
98.842605797
 21
77.7980605051
  0
LINE
  5
39A
100
AcDbEntity
  8
0
100
AcDbLine
 62
7
  6
BYLAYER
 10
90.0740155701
 20
90.3729521376
 11
87.7237014559
 21
93.4914448173
  0
LINE
  5
39B
100
AcDbEntity
  8
0
100
AcDbLine
 62
7
  6
BYLAYER
 10
101.0952807864
 20
76.2564587358
 11
101.5006685721
 21
75.7185736784
  0
LINE
  5
39C
100
AcDbEntity
  8
0
100
AcDbLine
 62
7
  6
BYLAYER
 10
102.3697686923
 20
74.9357956513
 11
102.1154589596
 21
75.2732241827
  0
LINE
  5
39D
100
AcDbEntity
  8
0
100
AcDbLine
 62
7
  6
BYLAYER
 10
99.7971959772
 20
78.3491901128
 11
97.4468818629
 21
81.4676827926
  0
LINE
  5
39E
100
AcDbEntity
  8
0
100
AcDbLine
 62
7
  6
BYLAYER
 10
101.8839686745
 20
75.8004496322
 11
101.4684709084
 21
76.3517490242
  0
LINE
  5
39F
100
AcDbEntity
  8
0
100
AcDbLine
 62
7
  6
BYLAYER
 10
102.0663516419
 20
76.0451690015
 11
101.6609638561
 21
76.5830540589
  0
LINE
  5
3A0
100
AcDbEntity
  8
0
100
AcDbLine
 62
7
  6
BYLAYER
 10
91.9543858694
 20
89.9831165159
 11
92.4288809855
 21
89.3535370324
  0
LINE
  5
3A1
100
AcDbEntity
  8
0
100
AcDbLine
 62
7
  6
BYLAYER
 10
89.1320111093
 20
94.1242730731
 11
91.3975063406
 21
91.1183215484
  0
LINE
  5
3A2
100
AcDbEntity
  8
0
100
AcDbLine
 62
7
  6
BYLAYER
 10
93.3331166073
 20
88.6404728419
 11
92.6213739332
 21
89.5848420671
  0
LINE
  5
3A3
100
AcDbEntity
  8
0
100
AcDbLine
 62
7
  6
BYLAYER
 10
92.1468788171
 20
90.2144215506
 11
91.435136143
 21
91.1587907759
  0
LINE
  5
3A4
100
AcDbEntity
  8
0
100
AcDbLine
 62
7
  6
BYLAYER
 10
101.7836318512
 20
78.0205911138
 11
102.195018773
 21
77.4747461578
  0
LINE
  5
3A5
100
AcDbEntity
  8
0
100
AcDbLine
 62
7
  6
BYLAYER
 10
89.4207506652
 20
94.4712307866
 11
91.7710647794
 21
91.3527381069
  0
LINE
  5
3A6
100
AcDbEntity
  8
0
100
AcDbLine
 62
7
  6
BYLAYER
 10
78.1703766139
 20
105.9901011774
 11
86.160716508
 21
95.3852362256
  0
LINE
  5
3A7
100
AcDbEntity
  8
0
100
AcDbLine
 62
7
  6
BYLAYER
 10
88.156478919
 20
84.367207299
 11
89.6265902697
 21
81.6339985964
  0
LINE
  5
3A8
100
AcDbEntity
  8
0
100
AcDbLine
 62
7
  6
BYLAYER
 10
89.6270929151
 20
63.9968794559
 11
89.7310639873
 21
63.3726601707
  0
LINE
  5
3A9
100
AcDbEntity
  8
0
100
AcDbLine
 62
7
  6
BYLAYER
 10
89.6265902697
 20
81.6339985964
 11
89.7305613419
 21
81.0097793111
  0
LINE
  5
3AA
100
AcDbEntity
  8
0
100
AcDbLine
 62
7
  6
BYLAYER
 10
89.7981000667
 20
68.9621329321
 11
87.718934239
 21
66.1723321225
  0
LINE
  5
3AB
100
AcDbEntity
  8
0
100
AcDbLine
 62
7
  6
BYLAYER
 10
90.7117280466
 20
69.3501920011
 11
90.8941110139
 21
69.5949113703
  0
LINE
  5
3AC
100
AcDbEntity
  8
0
100
AcDbLine
 62
7
  6
BYLAYER
 10
91.4597940837
 20
69.9215066934
 11
91.2774111163
 21
69.6767873242
  0
LINE
  5
3AD
100
AcDbEntity
  8
0
100
AcDbLine
 62
7
  6
BYLAYER
 10
90.4766392033
 20
67.7644843221
 11
92.5558050309
 21
70.5542851317
  0
LINE
  5
3AE
100
AcDbEntity
  8
0
100
AcDbLine
 62
7
  6
BYLAYER
 10
93.3336192527
 20
71.0033537014
 11
91.2544534251
 21
68.2135528918
  0
LINE
  5
3AF
100
AcDbEntity
  8
0
100
AcDbLine
 62
7
  6
BYLAYER
 10
94.2472472326
 20
71.3914127704
 11
94.4296302
 21
71.6361321397
  0
LINE
  5
3B0
100
AcDbEntity
  8
0
100
AcDbLine
 62
7
  6
BYLAYER
 10
94.9953132697
 20
71.9627274628
 11
94.8129303024
 21
71.7180080935
  0
LINE
  5
3B1
100
AcDbEntity
  8
0
100
AcDbLine
 62
7
  6
BYLAYER
 10
94.0121583893
 20
69.8057050914
 11
96.091324217
 21
72.595505901
  0
LINE
  5
3B2
100
AcDbEntity
  8
0
100
AcDbLine
 62
7
  6
BYLAYER
 10
96.8691384388
 20
73.0445744708
 11
94.7899726111
 21
70.2547736612
  0
LINE
  5
3B3
100
AcDbEntity
  8
0
100
AcDbLine
 62
7
  6
BYLAYER
 10
97.7827664187
 20
73.4326335398
 11
97.9651493861
 21
73.677352909
  0
LINE
  5
3B4
100
AcDbEntity
  8
0
100
AcDbLine
 62
7
  6
BYLAYER
 10
98.5308324558
 20
74.0039482321
 11
98.3484494885
 21
73.7592288629
  0
LINE
  5
3B5
100
AcDbEntity
  8
0
100
AcDbLine
 62
7
  6
BYLAYER
 10
97.5476775754
 20
71.8469258608
 11
99.6268434031
 21
74.6367266704
  0
LINE
  5
3B6
100
AcDbEntity
  8
0
100
AcDbLine
 62
7
  6
BYLAYER
 10
91.0544062979
 20
70.4593917509
 11
90.8619133502
 21
70.2280867161
  0
LINE
  5
3B7
100
AcDbEntity
  8
0
100
AcDbLine
 62
7
  6
BYLAYER
 10
92.6218765786
 20
71.9477229267
 11
92.4293836309
 21
71.7164178919
  0
LINE
  5
3B8
100
AcDbEntity
  8
0
100
AcDbLine
 62
7
  6
BYLAYER
 10
94.1743053159
 20
73.7475404572
 11
93.9818123682
 21
73.5162354224
  0
LINE
  5
3B9
100
AcDbEntity
  8
0
100
AcDbLine
 62
7
  6
BYLAYER
 10
94.7125934791
 20
73.938149575
 11
94.9050864268
 21
74.1694546098
  0
LINE
  5
3BA
100
AcDbEntity
  8
0
100
AcDbLine
 62
7
  6
BYLAYER
 10
95.4904077009
 20
74.3872181448
 11
95.6829006486
 21
74.6185231795
  0
LINE
  5
3BB
100
AcDbEntity
  8
0
100
AcDbLine
 62
7
  6
BYLAYER
 10
94.4563074843
 20
72.8866559389
 11
94.648800432
 21
73.1179609737
  0
LINE
  5
3BC
100
AcDbEntity
  8
0
100
AcDbLine
 62
7
  6
BYLAYER
 10
96.2211888109
 20
74.8091322969
 11
96.4136817587
 21
75.0404373317
  0
LINE
  5
3BD
100
AcDbEntity
  8
0
100
AcDbLine
 62
7
  6
BYLAYER
 10
94.589925484
 20
72.5006125202
 11
94.3974325363
 21
72.2693074855
  0
LINE
  5
3BE
100
AcDbEntity
  8
0
100
AcDbLine
 62
7
  6
BYLAYER
 10
96.1573957647
 20
73.988943696
 11
95.964902817
 21
73.7576386613
  0
LINE
  5
3BF
100
AcDbEntity
  8
0
100
AcDbLine
 62
7
  6
BYLAYER
 10
97.709824502
 20
75.7887612265
 11
97.5173315542
 21
75.5574561918
  0
LINE
  5
3C0
100
AcDbEntity
  8
0
100
AcDbLine
 62
7
  6
BYLAYER
 10
98.2481126652
 20
75.9793703444
 11
98.4406056129
 21
76.2106753791
  0
LINE
  5
3C1
100
AcDbEntity
  8
0
100
AcDbLine
 62
7
  6
BYLAYER
 10
99.0259268869
 20
76.4284389142
 11
99.2184198347
 21
76.6597439489
  0
LINE
  5
3C2
100
AcDbEntity
  8
0
100
AcDbLine
 62
7
  6
BYLAYER
 10
97.9918266703
 20
74.9278767083
 11
98.184319618
 21
75.159181743
  0
LINE
  5
3C3
100
AcDbEntity
  8
0
100
AcDbLine
 62
7
  6
BYLAYER
 10
99.756707997
 20
76.8503530663
 11
99.9492009447
 21
77.081658101
  0
LINE
  5
3C4
100
AcDbEntity
  8
0
100
AcDbLine
 62
7
  6
BYLAYER
 10
98.1254446701
 20
74.5418332896
 11
97.9329517224
 21
74.3105282548
  0
LINE
  5
3C5
100
AcDbEntity
  8
0
100
AcDbLine
 62
7
  6
BYLAYER
 10
99.6929149507
 20
76.0301644654
 11
99.500422003
 21
75.7988594307
  0
LINE
  5
3C6
100
AcDbEntity
  8
0
100
AcDbLine
 62
7
  6
BYLAYER
 10
101.245343688
 20
77.8299819959
 11
101.0528507403
 21
77.5986769612
  0
LINE
  5
3C7
100
AcDbEntity
  8
0
100
AcDbLine
 62
7
  6
BYLAYER
 10
101.7836318512
 20
78.0205911138
 11
101.9761247989
 21
78.2518961485
  0
LINE
  5
3C8
100
AcDbEntity
  8
0
100
AcDbLine
 62
7
  6
BYLAYER
 10
89.7310639873
 20
63.3726601707
 11
87.0445963048
 21
60.1445237219
  0
LINE
  5
3C9
100
AcDbEntity
  8
0
100
AcDbLine
 62
7
  6
BYLAYER
 10
101.5273458564
 20
76.9690974776
 11
101.7198388041
 21
77.2004025124
  0
LINE
  5
3CA
100
AcDbEntity
  8
0
100
AcDbLine
 62
7
  6
BYLAYER
 10
101.6609638561
 20
76.5830540589
 11
101.4684709084
 21
76.3517490242
  0
LINE
  5
3CB
100
AcDbEntity
  8
0
100
AcDbLine
 62
7
  6
BYLAYER
 10
87.0445963048
 20
59.6113555368
 11
100.4033329234
 21
67.3239796814
  0
LINE
  5
3CC
100
AcDbEntity
  8
0
100
AcDbLine
 62
7
  6
BYLAYER
 10
87.0445963048
 20
58.4514531276
 11
98.6897778885
 21
65.1747617169
  0
LINE
  5
3CD
100
AcDbEntity
  8
0
100
AcDbLine
 62
7
  6
BYLAYER
 10
86.6910443862
 20
57.7809610435
 11
87.0445963048
 21
57.9850831204
  0
LINE
  5
3CE
100
AcDbEntity
  8
0
100
AcDbLine
 62
7
  6
BYLAYER
 10
101.2573834327
 20
66.1907906132
 11
101.6109353514
 21
66.3949126902
  0
LINE
  5
3CF
100
AcDbEntity
  8
0
100
AcDbLine
 62
7
  6
BYLAYER
 10
86.6910443862
 20
57.5142950086
 11
87.7928931458
 21
58.1504438893
  0
LINE
  5
3D0
100
AcDbEntity
  8
0
100
AcDbLine
 62
7
  6
BYLAYER
 10
89.4899423551
 20
59.1302298586
 11
91.3284123319
 21
60.1916646587
  0
LINE
  5
3D1
100
AcDbEntity
  8
0
100
AcDbLine
 62
7
  6
BYLAYER
 10
93.0254615412
 20
61.171450628
 11
94.863931518
 21
62.232885428
  0
LINE
  5
3D2
100
AcDbEntity
  8
0
100
AcDbLine
 62
7
  6
BYLAYER
 10
96.5609807273
 20
63.2126713973
 11
97.5155709075
 21
63.763801005
  0
LINE
  5
3D3
100
AcDbEntity
  8
0
100
AcDbLine
 62
7
  6
BYLAYER
 10
96.2722411714
 20
62.8657136838
 11
94.9585938534
 21
62.1072835783
  0
LINE
  5
3D4
100
AcDbEntity
  8
0
100
AcDbLine
 62
7
  6
BYLAYER
 10
92.7367219853
 20
60.8244929144
 11
91.4230746673
 21
60.066062809
  0
LINE
  5
3D5
100
AcDbEntity
  8
0
100
AcDbLine
 62
7
  6
BYLAYER
 10
89.2012027992
 20
58.7832721451
 11
87.8875554812
 21
58.0248420396
  0
LINE
  5
3D6
100
AcDbEntity
  8
0
100
AcDbLine
 62
7
  6
BYLAYER
 10
16.1568537182
 20
108.3263223793
 11
15.6804379375
 21
108.2442995931
  0
LINE
  5
3D7
100
AcDbEntity
  8
0
100
AcDbLine
 62
7
  6
BYLAYER
 10
16.1568537182
 20
111.7513320176
 11
16.0026582743
 21
111.7247847443
  0
LINE
  5
3D8
100
AcDbEntity
  8
0
100
AcDbLine
 62
7
  6
BYLAYER
 10
15.0984226525
 20
112.0558182925
 11
15.8101653266
 21
112.178356461
  0
LINE
  5
3D9
100
AcDbEntity
  8
0
100
AcDbLine
 62
7
  6
BYLAYER
 10
103.1623625891
 20
76.6779474397
 11
102.450619915
 21
77.622316665
  0
LINE
  5
3DA
100
AcDbEntity
  8
0
100
AcDbLine
 62
7
  6
BYLAYER
 10
101.9761247989
 20
78.2518961485
 11
101.2643821248
 21
79.1962653738
  0
LINE
  5
3DB
100
AcDbEntity
  8
0
100
AcDbLine
 62
7
  6
BYLAYER
 10
94.7894699657
 20
87.8918928016
 11
94.5666613465
 21
88.1875243702
  0
LINE
  5
3DC
100
AcDbEntity
  8
0
100
AcDbLine
 62
7
  6
BYLAYER
 10
94.0237397688
 20
89.8111363376
 11
94.4291275546
 21
89.2732512801
  0
LINE
  5
3DD
100
AcDbEntity
  8
0
100
AcDbLine
 62
7
  6
BYLAYER
 10
94.812427657
 20
89.355127234
 11
94.3969298909
 21
89.9064266259
  0
LINE
  5
3DE
100
AcDbEntity
  8
0
100
AcDbLine
 62
7
  6
BYLAYER
 10
94.9948106243
 20
89.5998466032
 11
94.5894228386
 21
90.1377316607
  0
LINE
  5
3DF
100
AcDbEntity
  8
0
100
AcDbLine
 62
7
  6
BYLAYER
 10
93.6095347562
 20
92.4141729069
 11
91.2592206419
 21
95.5326655867
  0
LINE
  5
3E0
100
AcDbEntity
  8
0
100
AcDbLine
 62
7
  6
BYLAYER
 10
94.7120908337
 20
91.5752687155
 11
95.1234777555
 21
91.0294237595
  0
LINE
  5
3E1
100
AcDbEntity
  8
0
100
AcDbLine
 62
7
  6
BYLAYER
 10
96.0908215716
 20
90.2326250415
 11
95.3790788975
 21
91.1769942667
  0
LINE
  5
3E2
100
AcDbEntity
  8
0
100
AcDbLine
 62
7
  6
BYLAYER
 10
94.9045837814
 20
91.8065737502
 11
94.1928411072
 21
92.7509429755
  0
LINE
  5
3E3
100
AcDbEntity
  8
0
100
AcDbLine
 62
7
  6
BYLAYER
 10
101.2573834326
 20
83.8272428232
 11
100.402830278
 21
84.9610988219
  0
LINE
  5
3E4
100
AcDbEntity
  8
0
100
AcDbLine
 62
7
  6
BYLAYER
 10
95.4899050555
 20
92.0243372852
 11
95.9644001715
 21
91.3947578017
  0
LINE
  5
3E5
100
AcDbEntity
  8
0
100
AcDbLine
 62
7
  6
BYLAYER
 10
92.6675302953
 20
96.1654938425
 11
94.9330255267
 21
93.1595423178
  0
LINE
  5
3E6
100
AcDbEntity
  8
0
100
AcDbLine
 62
7
  6
BYLAYER
 10
96.8686357934
 20
90.6816936112
 11
96.1568931193
 21
91.6260628365
  0
LINE
  5
3E7
100
AcDbEntity
  8
0
100
AcDbLine
 62
7
  6
BYLAYER
 10
95.6823980032
 20
92.25564232
 11
94.970655329
 21
93.2000115452
  0
LINE
  5
3E8
100
AcDbEntity
  8
0
100
AcDbLine
 62
7
  6
BYLAYER
 10
92.9562698512
 20
96.512451556
 11
95.3065839655
 21
93.3939588762
  0
LINE
  5
3E9
100
AcDbEntity
  8
0
100
AcDbLine
 62
7
  6
BYLAYER
 10
98.3249891518
 20
89.933113571
 11
98.1021805326
 21
90.2287451395
  0
LINE
  5
3EA
100
AcDbEntity
  8
0
100
AcDbLine
 62
7
  6
BYLAYER
 10
97.5592589549
 20
91.8523571069
 11
97.9646467406
 21
91.3144720495
  0
LINE
  5
3EB
100
AcDbEntity
  8
0
100
AcDbLine
 62
7
  6
BYLAYER
 10
98.3479468431
 20
91.3963480033
 11
97.932449077
 21
91.9476473953
  0
LINE
  5
3EC
100
AcDbEntity
  8
0
100
AcDbLine
 62
7
  6
BYLAYER
 10
103.839880043
 20
72.2025869487
 11
102.3697686923
 21
74.9357956513
  0
LINE
  5
3ED
100
AcDbEntity
  8
0
100
AcDbLine
 62
7
  6
BYLAYER
 10
99.4876603894
 20
45.3024105821
 11
99.4876603895
 21
27.6659583723
  0
LINE
  5
3EE
100
AcDbEntity
  8
0
100
AcDbLine
 62
7
  6
BYLAYER
 10
101.2573834327
 20
48.5755695455
 11
101.2573834327
 21
50.5638107054
  0
LINE
  5
3EF
100
AcDbEntity
  8
0
100
AcDbLine
 62
7
  6
BYLAYER
 10
101.2573834327
 20
66.1907906132
 11
101.2573834327
 21
68.3502312146
  0
LINE
  5
3F0
100
AcDbEntity
  8
0
100
AcDbLine
 62
7
  6
BYLAYER
 10
101.2573834326
 20
83.8272428232
 11
101.2573834326
 21
85.9879543481
  0
LINE
  5
3F1
100
AcDbEntity
  8
0
100
AcDbLine
 62
7
  6
BYLAYER
 10
101.2573834325
 20
101.569973383
 11
101.2573834325
 21
103.8315818341
  0
LINE
  5
3F2
100
AcDbEntity
  8
0
100
AcDbLine
 62
7
  6
BYLAYER
 10
100.4046576249
 20
75.0857952401
 11
98.3254917972
 21
72.2959944306
  0
LINE
  5
3F3
100
AcDbEntity
  8
0
100
AcDbLine
 62
7
  6
BYLAYER
 10
101.3182856048
 20
75.4738543091
 11
101.5006685721
 21
75.7185736784
  0
LINE
  5
3F4
100
AcDbEntity
  8
0
100
AcDbLine
 62
7
  6
BYLAYER
 10
102.0663516419
 20
76.0451690015
 11
101.8839686745
 21
75.8004496322
  0
LINE
  5
3F5
100
AcDbEntity
  8
0
100
AcDbLine
 62
7
  6
BYLAYER
 10
101.0831967615
 20
73.8881466302
 11
103.1623625891
 21
76.6779474397
  0
LINE
  5
3F6
100
AcDbEntity
  8
0
100
AcDbLine
 62
7
  6
BYLAYER
 10
89.2012027992
 20
58.7832721451
 11
89.4899423551
 21
59.1302298586
  0
LINE
  5
3F7
100
AcDbEntity
  8
0
100
AcDbLine
 62
7
  6
BYLAYER
 10
92.7367219853
 20
60.8244929144
 11
93.0254615412
 21
61.171450628
  0
LINE
  5
3F8
100
AcDbEntity
  8
0
100
AcDbLine
 62
7
  6
BYLAYER
 10
96.2722411714
 20
62.8657136838
 11
96.5609807273
 21
63.2126713973
  0
LINE
  5
3F9
100
AcDbEntity
  8
0
100
AcDbLine
 62
7
  6
BYLAYER
 10
100.4033329234
 20
67.3239796814
 11
103.9438511151
 21
71.5783676634
  0
LINE
  5
3FA
100
AcDbEntity
  8
0
100
AcDbLine
 62
7
  6
BYLAYER
 10
98.6584464548
 20
65.2163335417
 11
100.4076598984
 21
67.3182384745
  0
LINE
  5
3FB
100
AcDbEntity
  8
0
100
AcDbLine
 62
7
  6
BYLAYER
 10
97.5155709075
 20
63.763801005
 11
98.6897778885
 21
65.1747617169
  0
LINE
  5
3FC
100
AcDbEntity
  8
0
100
AcDbLine
 62
7
  6
BYLAYER
 10
88.4880583733
 20
52.6008948185
 11
88.680551321
 21
52.8321998532
  0
LINE
  5
3FD
100
AcDbEntity
  8
0
100
AcDbLine
 62
7
  6
BYLAYER
 10
89.2188394834
 20
53.0228089706
 11
89.4113324311
 21
53.2541140054
  0
LINE
  5
3FE
100
AcDbEntity
  8
0
100
AcDbLine
 62
7
  6
BYLAYER
 10
89.1550464371
 20
52.2026203697
 11
88.9625534894
 21
51.971315335
  0
LINE
  5
3FF
100
AcDbEntity
  8
0
100
AcDbLine
 62
7
  6
BYLAYER
 10
90.7074751744
 20
54.0024379002
 11
90.5149822267
 21
53.7711328655
  0
LINE
  5
400
100
AcDbEntity
  8
0
100
AcDbLine
 62
7
  6
BYLAYER
 10
86.6910443862
 20
52.4023887933
 11
87.9688086469
 21
53.7765690785
  0
LINE
  5
401
100
AcDbEntity
  8
0
100
AcDbLine
 62
7
  6
BYLAYER
 10
90.8877913119
 20
55.1547314432
 11
91.5043278329
 21
55.8177898478
  0
LINE
  5
402
100
AcDbEntity
  8
0
100
AcDbLine
 62
7
  6
BYLAYER
 10
97.7975519833
 20
59.4511628168
 11
95.039847019
 21
57.8590106172
  0
LINE
  5
403
100
AcDbEntity
  8
0
100
AcDbLine
 62
7
  6
BYLAYER
 10
94.2620327972
 20
57.4099420474
 11
91.5043278329
 21
55.8177898478
  0
LINE
  5
404
100
AcDbEntity
  8
0
100
AcDbLine
 62
7
  6
BYLAYER
 10
90.7265136111
 20
55.3687212781
 11
87.9688086469
 21
53.7765690785
  0
LINE
  5
405
100
AcDbEntity
  8
0
100
AcDbLine
 62
7
  6
BYLAYER
 10
98.5092946574
 20
58.5067935915
 11
97.7785135465
 21
58.0848794389
  0
LINE
  5
406
100
AcDbEntity
  8
0
100
AcDbLine
 62
7
  6
BYLAYER
 10
96.4823708032
 20
57.3365555441
 11
95.7515896931
 21
56.9146413919
  0
LINE
  5
407
100
AcDbEntity
  8
0
100
AcDbLine
 62
7
  6
BYLAYER
 10
94.9737754713
 20
56.4655728222
 11
94.2429943604
 21
56.0436586696
  0
LINE
  5
408
100
AcDbEntity
  8
0
100
AcDbLine
 62
7
  6
BYLAYER
 10
92.9468516171
 20
55.2953347747
 11
92.2160705071
 21
54.8734206226
  0
LINE
  5
409
100
AcDbEntity
  8
0
100
AcDbLine
 62
7
  6
BYLAYER
 10
91.4382562853
 20
54.4243520528
 11
90.7074751744
 21
54.0024379002
  0
LINE
  5
40A
100
AcDbEntity
  8
0
100
AcDbLine
 62
7
  6
BYLAYER
 10
89.4113324311
 20
53.2541140054
 11
88.680551321
 21
52.8321998532
  0
LINE
  5
40B
100
AcDbEntity
  8
0
100
AcDbLine
 62
7
  6
BYLAYER
 10
98.3168017097
 20
58.2754885568
 11
97.5860205988
 21
57.8535744042
  0
LINE
  5
40C
100
AcDbEntity
  8
0
100
AcDbLine
 62
7
  6
BYLAYER
 10
94.7812825236
 20
56.2342677874
 11
94.0505014127
 21
55.8123536348
  0
LINE
  5
40D
100
AcDbEntity
  8
0
100
AcDbLine
 62
7
  6
BYLAYER
 10
91.2457633376
 20
54.1930470181
 11
90.5149822267
 21
53.7711328655
  0
LINE
  5
40E
100
AcDbEntity
  8
0
100
AcDbLine
 62
7
  6
BYLAYER
 10
88.4880583733
 20
52.6008948185
 11
89.2188394834
 21
53.0228089706
  0
LINE
  5
40F
100
AcDbEntity
  8
0
100
AcDbLine
 62
7
  6
BYLAYER
 10
92.0235775594
 20
54.6421155878
 11
92.7543586694
 21
55.06402974
  0
LINE
  5
410
100
AcDbEntity
  8
0
100
AcDbLine
 62
7
  6
BYLAYER
 10
95.5590967454
 20
56.6833363572
 11
96.2898778555
 21
57.1052505093
  0
LINE
  5
411
100
AcDbEntity
  8
0
100
AcDbLine
 62
7
  6
BYLAYER
 10
89.1550464371
 20
52.2026203697
 11
89.885827548
 21
52.6245345223
  0
LINE
  5
412
100
AcDbEntity
  8
0
100
AcDbLine
 62
7
  6
BYLAYER
 10
91.1819702904
 20
53.3728584167
 11
91.9127514013
 21
53.7947725693
  0
LINE
  5
413
100
AcDbEntity
  8
0
100
AcDbLine
 62
7
  6
BYLAYER
 10
92.6905656231
 20
54.2438411391
 11
93.421346734
 21
54.6657552917
  0
LINE
  5
414
100
AcDbEntity
  8
0
100
AcDbLine
 62
7
  6
BYLAYER
 10
94.7174894765
 20
55.4140791861
 11
95.4482705874
 21
55.8359933387
  0
LINE
  5
415
100
AcDbEntity
  8
0
100
AcDbLine
 62
7
  6
BYLAYER
 10
96.2260848092
 20
56.2850619084
 11
96.9568659201
 21
56.7069760611
  0
LINE
  5
416
100
AcDbEntity
  8
0
100
AcDbLine
 62
7
  6
BYLAYER
 10
98.2530086626
 20
57.4552999554
 11
98.9837897735
 21
57.877214108
  0
LINE
  5
417
100
AcDbEntity
  8
0
100
AcDbLine
 62
7
  6
BYLAYER
 10
101.7885278487
 20
59.4965207248
 11
102.5193089596
 21
59.9184348774
  0
LINE
  5
418
100
AcDbEntity
  8
0
100
AcDbLine
 62
7
  6
BYLAYER
 10
89.8667891112
 20
51.2582511445
 11
90.9628000585
 21
51.8910295827
  0
LINE
  5
419
100
AcDbEntity
  8
0
100
AcDbLine
 62
7
  6
BYLAYER
 10
91.5284831282
 20
52.2176249058
 11
92.6244940755
 21
52.8504033441
  0
LINE
  5
41A
100
AcDbEntity
  8
0
100
AcDbLine
 62
7
  6
BYLAYER
 10
93.4023082973
 20
53.2994719138
 11
94.4983192445
 21
53.9322503521
  0
LINE
  5
41B
100
AcDbEntity
  8
0
100
AcDbLine
 62
7
  6
BYLAYER
 10
95.0640023143
 20
54.2588456752
 11
96.1600132615
 21
54.8916241134
  0
LINE
  5
41C
100
AcDbEntity
  8
0
100
AcDbLine
 62
7
  6
BYLAYER
 10
96.9378274833
 20
55.3406926832
 11
98.0338384306
 21
55.9734711214
  0
LINE
  5
41D
100
AcDbEntity
  8
0
100
AcDbLine
 62
7
  6
BYLAYER
 10
98.5995215004
 20
56.3000664445
 11
99.6955324476
 21
56.9328448828
  0
LINE
  5
41E
100
AcDbEntity
  8
0
100
AcDbLine
 62
7
  6
BYLAYER
 10
98.417138533
 20
56.0553470753
 11
97.8514554633
 21
55.7287517522
  0
LINE
  5
41F
100
AcDbEntity
  8
0
100
AcDbLine
 62
7
  6
BYLAYER
 10
94.881619347
 20
54.0141263059
 11
94.3159362772
 21
53.6875309828
  0
LINE
  5
420
100
AcDbEntity
  8
0
100
AcDbLine
 62
7
  6
BYLAYER
 10
91.3461001609
 20
51.9729055366
 11
90.7804170911
 21
51.6463102135
  0
LINE
  5
421
100
AcDbEntity
  8
0
100
AcDbLine
 62
7
  6
BYLAYER
 10
98.5303298104
 20
91.6410673726
 11
98.1249420247
 21
92.17895243
  0
LINE
  5
422
100
AcDbEntity
  8
0
100
AcDbLine
 62
7
  6
BYLAYER
 10
97.1450539422
 20
94.4553936763
 11
94.794739828
 21
97.5738863561
  0
LINE
  5
423
100
AcDbEntity
  8
0
100
AcDbLine
 62
7
  6
BYLAYER
 10
98.2476100197
 20
93.6164894848
 11
98.6589969416
 21
93.0706445288
  0
LINE
  5
424
100
AcDbEntity
  8
0
100
AcDbLine
 62
7
  6
BYLAYER
 10
99.6263407577
 20
92.2738458108
 11
98.9145980835
 21
93.2182150361
  0
LINE
  5
425
100
AcDbEntity
  8
0
100
AcDbLine
 62
7
  6
BYLAYER
 10
98.4401029674
 20
93.8477945196
 11
97.7283602933
 21
94.7921637448
  0
LINE
  5
426
100
AcDbEntity
  8
0
100
AcDbLine
 62
7
  6
BYLAYER
 10
99.0254242415
 20
94.0655580546
 11
99.4999193576
 21
93.4359785711
  0
LINE
  5
427
100
AcDbEntity
  8
0
100
AcDbLine
 62
7
  6
BYLAYER
 10
96.2030494814
 20
98.2067146118
 11
98.4685447128
 21
95.2007630871
  0
LINE
  5
428
100
AcDbEntity
  8
0
100
AcDbLine
 62
7
  6
BYLAYER
 10
100.4041549795
 20
92.7229143806
 11
99.6924123053
 21
93.6672836058
  0
LINE
  5
429
100
AcDbEntity
  8
0
100
AcDbLine
 62
7
  6
BYLAYER
 10
99.2179171892
 20
94.2968630893
 11
98.5061745151
 21
95.2412323146
  0
LINE
  5
42A
100
AcDbEntity
  8
0
100
AcDbLine
 62
7
  6
BYLAYER
 10
96.4917890373
 20
98.5536723254
 11
98.8421031516
 21
95.4351796456
  0
LINE
  5
42B
100
AcDbEntity
  8
0
100
AcDbLine
 62
7
  6
BYLAYER
 10
101.094778141
 20
93.8935778763
 11
101.5001659267
 21
93.3556928188
  0
LINE
  5
42C
100
AcDbEntity
  8
0
100
AcDbLine
 62
7
  6
BYLAYER
 10
102.3692660469
 20
92.5729147917
 11
102.1149563142
 21
92.9103433232
  0
LINE
  5
42D
100
AcDbEntity
  8
0
100
AcDbLine
 62
7
  6
BYLAYER
 10
99.7966933318
 20
95.9863092533
 11
97.4463792175
 21
99.1048019331
  0
LINE
  5
42E
100
AcDbEntity
  8
0
100
AcDbLine
 62
7
  6
BYLAYER
 10
101.8834660291
 20
93.4375687727
 11
101.467968263
 21
93.9888681646
  0
LINE
  5
42F
100
AcDbEntity
  8
0
100
AcDbLine
 62
7
  6
BYLAYER
 10
102.0658489965
 20
93.6822881419
 11
101.6604612107
 21
94.2201731994
  0
LINE
  5
430
100
AcDbEntity
  8
0
100
AcDbLine
 62
7
  6
BYLAYER
 10
101.7831292058
 20
95.6577102542
 11
102.1945161276
 21
95.1118652982
  0
LINE
  5
431
100
AcDbEntity
  8
0
100
AcDbLine
 62
7
  6
BYLAYER
 10
104.0125401597
 20
53.8744858759
 11
103.9085690875
 21
54.4987051611
  0
LINE
  5
432
100
AcDbEntity
  8
0
100
AcDbLine
 62
7
  6
BYLAYER
 10
101.6109353513
 20
101.77409546
 11
101.6109353513
 21
96.3728966205
  0
LINE
  5
433
100
AcDbEntity
  8
0
100
AcDbLine
 62
7
  6
BYLAYER
 10
101.6109353513
 20
84.0313649003
 11
101.6109353514
 21
78.7364444104
  0
LINE
  5
434
100
AcDbEntity
  8
0
100
AcDbLine
 62
7
  6
BYLAYER
 10
101.6109353514
 20
66.3949126902
 11
101.6109353514
 21
61.1237020501
  0
LINE
  5
435
100
AcDbEntity
  8
0
100
AcDbLine
 62
7
  6
BYLAYER
 10
102.1412632293
 20
26.7548000974
 11
102.1412632293
 21
29.1980075411
  0
LINE
  5
436
100
AcDbEntity
  8
0
100
AcDbLine
 62
7
  6
BYLAYER
 10
102.1412632291
 20
46.8344597509
 11
102.1412632291
 21
51.6259059638
  0
LINE
  5
437
100
AcDbEntity
  8
0
100
AcDbLine
 62
7
  6
BYLAYER
 10
102.1412632291
 20
59.9333288469
 11
102.1412632291
 21
69.412326473
  0
LINE
  5
438
100
AcDbEntity
  8
0
100
AcDbLine
 62
7
  6
BYLAYER
 10
102.1412632291
 20
75.2389860249
 11
102.1412632291
 21
75.307848055
  0
LINE
  5
439
100
AcDbEntity
  8
0
100
AcDbLine
 62
7
  6
BYLAYER
 10
102.1412632291
 20
77.5460712072
 11
102.1412632291
 21
87.0500496065
  0
LINE
  5
43A
100
AcDbEntity
  8
0
100
AcDbLine
 62
7
  6
BYLAYER
 10
102.141263229
 20
92.8754382349
 11
102.141263229
 21
92.9456416392
  0
LINE
  5
43B
100
AcDbEntity
  8
0
100
AcDbLine
 62
7
  6
BYLAYER
 10
102.141263229
 20
95.1825234172
 11
102.141263229
 21
104.6115541031
  0
LINE
  5
43C
100
AcDbEntity
  8
0
100
AcDbLine
 62
7
  6
BYLAYER
 10
90.7804170911
 20
51.6463102135
 11
90.9628000585
 21
51.8910295827
  0
LINE
  5
43D
100
AcDbEntity
  8
0
100
AcDbLine
 62
7
  6
BYLAYER
 10
91.5284831282
 20
52.2176249058
 11
91.3461001609
 21
51.9729055366
  0
LINE
  5
43E
100
AcDbEntity
  8
0
100
AcDbLine
 62
7
  6
BYLAYER
 10
92.1990813347
 20
52.2795894182
 11
92.6244940755
 21
52.8504033441
  0
LINE
  5
43F
100
AcDbEntity
  8
0
100
AcDbLine
 62
7
  6
BYLAYER
 10
93.4023082973
 20
53.2994719138
 11
91.3231424696
 21
50.5096711042
  0
LINE
  5
440
100
AcDbEntity
  8
0
100
AcDbLine
 62
7
  6
BYLAYER
 10
94.3159362772
 20
53.6875309828
 11
94.4983192445
 21
53.9322503521
  0
LINE
  5
441
100
AcDbEntity
  8
0
100
AcDbLine
 62
7
  6
BYLAYER
 10
95.0640023143
 20
54.2588456752
 11
94.881619347
 21
54.0141263059
  0
LINE
  5
442
100
AcDbEntity
  8
0
100
AcDbLine
 62
7
  6
BYLAYER
 10
94.0808474339
 20
52.1018233038
 11
96.1600132615
 21
54.8916241134
  0
LINE
  5
443
100
AcDbEntity
  8
0
100
AcDbLine
 62
7
  6
BYLAYER
 10
96.9378274833
 20
55.3406926832
 11
94.8586616557
 21
52.5508918736
  0
LINE
  5
444
100
AcDbEntity
  8
0
100
AcDbLine
 62
7
  6
BYLAYER
 10
97.8514554633
 20
55.7287517522
 11
98.0338384306
 21
55.9734711214
  0
LINE
  5
445
100
AcDbEntity
  8
0
100
AcDbLine
 62
7
  6
BYLAYER
 10
98.5995215004
 20
56.3000664445
 11
98.417138533
 21
56.0553470753
  0
LINE
  5
446
100
AcDbEntity
  8
0
100
AcDbLine
 62
7
  6
BYLAYER
 10
97.6163666199
 20
54.1430440732
 11
99.6955324476
 21
56.9328448828
  0
LINE
  5
447
100
AcDbEntity
  8
0
100
AcDbLine
 62
7
  6
BYLAYER
 10
91.2457633376
 20
54.1930470181
 11
91.4382562853
 21
54.4243520528
  0
LINE
  5
448
100
AcDbEntity
  8
0
100
AcDbLine
 62
7
  6
BYLAYER
 10
92.0235775594
 20
54.6421155879
 11
92.2160705071
 21
54.8734206226
  0
LINE
  5
449
100
AcDbEntity
  8
0
100
AcDbLine
 62
7
  6
BYLAYER
 10
90.9894773427
 20
53.141553382
 11
91.1819702904
 21
53.3728584167
  0
LINE
  5
44A
100
AcDbEntity
  8
0
100
AcDbLine
 62
7
  6
BYLAYER
 10
92.7543586694
 20
55.06402974
 11
92.9468516171
 21
55.2953347747
  0
LINE
  5
44B
100
AcDbEntity
  8
0
100
AcDbLine
 62
7
  6
BYLAYER
 10
91.1230953425
 20
52.7555099633
 11
90.9306023948
 21
52.5242049285
  0
LINE
  5
44C
100
AcDbEntity
  8
0
100
AcDbLine
 62
7
  6
BYLAYER
 10
92.6905656231
 20
54.2438411391
 11
92.4980726754
 21
54.0125361043
  0
LINE
  5
44D
100
AcDbEntity
  8
0
100
AcDbLine
 62
7
  6
BYLAYER
 10
94.2429943604
 20
56.0436586696
 11
94.0505014127
 21
55.8123536348
  0
LINE
  5
44E
100
AcDbEntity
  8
0
100
AcDbLine
 62
7
  6
BYLAYER
 10
94.7812825236
 20
56.2342677875
 11
94.9737754713
 21
56.4655728222
  0
LINE
  5
44F
100
AcDbEntity
  8
0
100
AcDbLine
 62
7
  6
BYLAYER
 10
95.5590967454
 20
56.6833363572
 11
95.7515896931
 21
56.914641392
  0
LINE
  5
450
100
AcDbEntity
  8
0
100
AcDbLine
 62
7
  6
BYLAYER
 10
94.5249965288
 20
55.1827741513
 11
94.7174894765
 21
55.4140791861
  0
LINE
  5
451
100
AcDbEntity
  8
0
100
AcDbLine
 62
7
  6
BYLAYER
 10
96.2898778555
 20
57.1052505094
 11
96.4823708032
 21
57.3365555441
  0
LINE
  5
452
100
AcDbEntity
  8
0
100
AcDbLine
 62
7
  6
BYLAYER
 10
94.6586145286
 20
54.7967307326
 11
94.4661215808
 21
54.5654256979
  0
LINE
  5
453
100
AcDbEntity
  8
0
100
AcDbLine
 62
7
  6
BYLAYER
 10
96.2260848092
 20
56.2850619084
 11
96.0335918615
 21
56.0537568737
  0
LINE
  5
454
100
AcDbEntity
  8
0
100
AcDbLine
 62
7
  6
BYLAYER
 10
97.7785135465
 20
58.0848794389
 11
97.5860205988
 21
57.8535744042
  0
LINE
  5
455
100
AcDbEntity
  8
0
100
AcDbLine
 62
7
  6
BYLAYER
 10
98.3168017097
 20
58.2754885568
 11
98.5092946574
 21
58.5067935915
  0
LINE
  5
456
100
AcDbEntity
  8
0
100
AcDbLine
 62
7
  6
BYLAYER
 10
98.0605157149
 20
57.2239949207
 11
98.2530086626
 21
57.4552999554
  0
LINE
  5
457
100
AcDbEntity
  8
0
100
AcDbLine
 62
7
  6
BYLAYER
 10
98.1941337146
 20
56.837951502
 11
98.0016407669
 21
56.6066464672
  0
LINE
  5
458
100
AcDbEntity
  8
0
100
AcDbLine
 62
7
  6
BYLAYER
 10
89.7997530318
 20
45.6687783831
 11
87.0445963049
 21
42.3581032127
  0
LINE
  5
459
100
AcDbEntity
  8
0
100
AcDbLine
 62
7
  6
BYLAYER
 10
94.423310498
 20
57.1959522125
 11
95.039847019
 21
57.8590106172
  0
LINE
  5
45A
100
AcDbEntity
  8
0
100
AcDbLine
 62
7
  6
BYLAYER
 10
97.9588296841
 20
59.2371729819
 11
98.5753662051
 21
59.9002313866
  0
LINE
  5
45B
100
AcDbEntity
  8
0
100
AcDbLine
 62
7
  6
BYLAYER
 10
88.225670609
 20
49.026206371
 11
102.4384577369
 21
57.2319138637
  0
LINE
  5
45C
100
AcDbEntity
  8
0
100
AcDbLine
 62
7
  6
BYLAYER
 10
91.3231424696
 20
50.5096711042
 11
94.0808474339
 21
52.1018233038
  0
LINE
  5
45D
100
AcDbEntity
  8
0
100
AcDbLine
 62
7
  6
BYLAYER
 10
94.8586616557
 20
52.5508918736
 11
97.6163666199
 21
54.1430440732
  0
LINE
  5
45E
100
AcDbEntity
  8
0
100
AcDbLine
 62
7
  6
BYLAYER
 10
89.6957819597
 20
46.2929976683
 11
103.9085690875
 21
54.4987051611
  0
LINE
  5
45F
100
AcDbEntity
  8
0
100
AcDbLine
 62
7
  6
BYLAYER
 10
89.7997530318
 20
45.6687783831
 11
104.0125401597
 21
53.8744858758
  0
LINE
  5
460
100
AcDbEntity
  8
0
100
AcDbLine
 62
7
  6
BYLAYER
 10
87.0445963048
 20
43.7139457162
 11
86.6910443862
 21
43.5098236392
  0
LINE
  5
461
100
AcDbEntity
  8
0
100
AcDbLine
 62
7
  6
BYLAYER
 10
92.4221013217
 20
114.8265116732
 11
89.4786539905
 21
116.5258733375
  0
LINE
  5
462
100
AcDbEntity
  8
0
100
AcDbLine
 62
7
  6
BYLAYER
 10
39.0173197387
 20
145.6590791704
 11
42.5372773994
 21
143.626876642
  0
LINE
  5
463
100
AcDbEntity
  8
0
100
AcDbLine
 62
7
  6
BYLAYER
 10
38.9963741944
 20
145.7528220542
 11
42.4467714819
 21
143.7607793175
  0
LINE
  5
464
100
AcDbEntity
  8
0
100
AcDbLine
 62
7
  6
BYLAYER
 10
89.5691599082
 20
116.5552711455
 11
93.0195571957
 21
114.5632284088
  0
LINE
  5
465
100
AcDbEntity
  8
0
100
AcDbLine
 62
7
  6
BYLAYER
 10
43.5979331551
 20
144.2392428727
 11
90.5393097463
 21
117.1382395683
  0
LINE
  5
466
100
AcDbEntity
  8
0
100
AcDbLine
 62
7
  6
BYLAYER
 10
94.150923335
 20
115.2164190549
 11
90.7005260475
 21
117.2084617916
  0
LINE
  5
467
100
AcDbEntity
  8
0
100
AcDbLine
 62
7
  6
BYLAYER
 10
40.1277403338
 20
146.4060127003
 11
43.5781376212
 21
144.4139699636
  0
LINE
  5
468
100
AcDbEntity
  8
0
100
AcDbLine
 62
7
  6
BYLAYER
 10
103.1618599437
 20
94.3150665802
 11
102.4501172696
 21
95.2594358054
  0
LINE
  5
469
100
AcDbEntity
  8
0
100
AcDbLine
 62
7
  6
BYLAYER
 10
101.9756221535
 20
95.8890152889
 11
101.2638794794
 21
96.8333845142
  0
LINE
  5
46A
100
AcDbEntity
  8
0
100
AcDbLine
 62
7
  6
BYLAYER
 10
101.2573834325
 20
101.569973383
 11
100.3627462982
 21
102.7573453992
  0
LINE
  5
46B
100
AcDbEntity
  8
0
100
AcDbLine
 62
7
  6
BYLAYER
 10
103.8393773976
 20
89.8397060891
 11
102.3692660469
 21
92.5729147917
  0
LINE
  5
46C
100
AcDbEntity
  8
0
100
AcDbLine
 62
7
  6
BYLAYER
 10
92.6408149519
 20
114.3445627777
 11
92.4221013217
 21
114.8265116733
  0
LINE
  5
46D
100
AcDbEntity
  8
0
100
AcDbLine
 62
7
  6
BYLAYER
 10
103.9438511151
 20
71.5783676634
 11
103.839880043
 21
72.2025869487
  0
LINE
  5
46E
100
AcDbEntity
  8
0
100
AcDbLine
 62
7
  6
BYLAYER
 10
103.9433484697
 20
89.2154868039
 11
103.8393773976
 21
89.8397060891
  0
LINE
  5
46F
100
AcDbEntity
  8
0
100
AcDbLine
 62
7
  6
BYLAYER
 10
100.472021968
 20
49.6200978938
 11
104.0125401597
 21
53.8744858759
  0
LINE
  5
470
100
AcDbEntity
  8
0
100
AcDbLine
 62
7
  6
BYLAYER
 10
87.0445963049
 20
41.8678163476
 11
100.472021968
 21
49.6200978938
  0
LINE
  5
471
100
AcDbEntity
  8
0
100
AcDbLine
 62
7
  6
BYLAYER
 10
63.5332053034
 20
27.042768306
 11
62.2604077981
 21
26.3079227101
  0
LINE
  5
472
100
AcDbEntity
  8
0
100
AcDbLine
 62
7
  6
BYLAYER
 10
101.2573834327
 20
48.5755695455
 11
87.0445963049
 21
40.3698620528
  0
LINE
  5
473
100
AcDbEntity
  8
0
100
AcDbLine
 62
7
  6
BYLAYER
 10
86.1607165081
 20
37.6081418734
 11
88.8143193483
 21
39.1401910424
  0
LINE
  5
474
100
AcDbEntity
  8
0
100
AcDbLine
 62
7
  6
BYLAYER
 10
99.4876603894
 20
45.3024105821
 11
102.1412632291
 21
46.8344597509
  0
LINE
  5
475
100
AcDbEntity
  8
0
100
AcDbLine
 62
7
  6
BYLAYER
 10
102.141263229
 20
104.6115541031
 11
94.150923335
 21
115.2164190549
  0
LINE
  5
476
100
AcDbEntity
  8
0
100
AcDbLine
 62
7
  6
BYLAYER
 10
16.1568537183
 20
135.8010709229
 11
24.1471936127
 21
137.1796948228
  0
LINE
  5
477
100
AcDbEntity
  8
0
100
AcDbLine
 62
7
  6
BYLAYER
 10
25.2785597525
 20
137.8328854691
 11
20.4293941465
 21
136.9962282446
  0
LINE
  5
478
100
AcDbEntity
  8
0
100
AcDbLine
 62
7
  6
BYLAYER
 10
102.1412632292
 20
29.198007541
 11
99.4876603894
 21
27.6659583723
  0
LINE
  5
479
100
AcDbEntity
  8
0
100
AcDbLine
 62
7
  6
BYLAYER
 10
88.8143193484
 20
21.5037388326
 11
86.1607165082
 21
19.9716896635
  0
LINE
  5
47A
100
AcDbEntity
  8
0
100
AcDbLine
 62
7
  6
BYLAYER
 10
39.0173197387
 20
145.6590791704
 11
36.3383874082
 21
145.1968660248
  0
LINE
  5
47B
100
AcDbEntity
  8
0
100
AcDbLine
 62
7
  6
BYLAYER
 10
34.1472085886
 20
144.9161648297
 11
34.4536327247
 21
144.9690341248
  0
LINE
  5
47C
100
AcDbEntity
  8
0
100
AcDbLine
 62
7
  6
BYLAYER
 10
36.2541812527
 20
145.279694155
 11
38.9963741944
 21
145.7528220542
  0
LINE
  5
47D
100
AcDbEntity
  8
0
100
AcDbLine
 62
7
  6
BYLAYER
 10
40.1277403338
 20
146.4060127003
 11
35.7670629962
 21
145.6536374476
  0
LINE
  5
47E
100
AcDbEntity
  8
0
100
AcDbLine
 62
7
  6
BYLAYER
 10
35.5849988641
 20
145.6222247709
 11
32.1374004393
 21
145.0273888004
  0
LINE
  5
47F
100
AcDbEntity
  8
0
100
AcDbLine
 62
7
  6
BYLAYER
 10
86.1607165082
 20
17.5284822199
 11
102.1412632293
 21
26.7548000974
  0
ARC
  5
480
100
AcDbEntity
  8
0
100
AcDbCircle
 62
7
  6
BYLAYER
 10
96.9150905504
 20
57.3741750937
 40
0.6665685035
100
AcDbArc
 50
119.9730471712
 51
126.9924097181
  0
ARC
  5
481
100
AcDbEntity
  8
0
100
AcDbCircle
 62
7
  6
BYLAYER
 10
93.3795713643
 20
55.3329543244
 40
0.6665685035
100
AcDbArc
 50
119.9730471711
 51
126.9924097181
  0
ARC
  5
482
100
AcDbEntity
  8
0
100
AcDbCircle
 62
7
  6
BYLAYER
 10
89.8440521782
 20
53.291733555
 40
0.6665685035
100
AcDbArc
 50
119.9730471712
 51
126.992409718
  0
ARC
  5
483
100
AcDbEntity
  8
0
100
AcDbCircle
 62
7
  6
BYLAYER
 10
100.3819206919
 20
77.1192776507
 40
0.6665685035
100
AcDbArc
 50
119.9730471712
 51
126.992409718
  0
ARC
  5
484
100
AcDbEntity
  8
0
100
AcDbCircle
 62
7
  6
BYLAYER
 10
96.8464015058
 20
75.0780568813
 40
0.6665685035
100
AcDbArc
 50
119.9730471711
 51
126.9924097181
  0
ARC
  5
485
100
AcDbEntity
  8
0
100
AcDbCircle
 62
7
  6
BYLAYER
 10
93.3108823198
 20
73.036836112
 40
0.6665685035
100
AcDbArc
 50
119.9730471712
 51
126.9924097181
  0
ARC
  5
486
100
AcDbEntity
  8
0
100
AcDbCircle
 62
7
  6
BYLAYER
 10
89.7753631337
 20
70.9956153426
 40
0.6665685035
100
AcDbArc
 50
119.9730471712
 51
126.9924097181
  0
ARC
  5
487
100
AcDbEntity
  8
0
100
AcDbCircle
 62
7
  6
BYLAYER
 10
100.3814180465
 20
94.7563967911
 40
0.6665685035
100
AcDbArc
 50
119.9730471711
 51
126.9924097181
  0
ARC
  5
488
100
AcDbEntity
  8
0
100
AcDbCircle
 62
7
  6
BYLAYER
 10
96.8458988604
 20
92.7151760218
 40
0.6665685035
100
AcDbArc
 50
119.9730471712
 51
126.992409718
  0
ARC
  5
489
100
AcDbEntity
  8
0
100
AcDbCircle
 62
7
  6
BYLAYER
 10
93.3103796743
 20
90.6739552524
 40
0.6665685035
100
AcDbArc
 50
119.9730471711
 51
126.9924097181
  0
SPLINE
  5
48A
100
AcDbEntity
  8
0
100
AcDbSpline
 62
7
  6
BYLAYER
 70
0
 71
3
 72
13
 73
9
 74
0
 42
0.0000001
 43
0.0000001
 44
0.0000000001
 40
0.0
 40
0.0
 40
0.0
 40
0.0
 40
0.1182421847
 40
0.2372813023
 40
0.3578418522
 40
0.4805656325
 40
0.7339045219
 40
1.0
 40
1.0
 40
1.0
 40
1.0
 10
96.5990419355
 20
58.0355994274
 30
0.0
 10
96.5804540094
 20
58.0132639456
 30
0.0
 10
96.5461865
 20
57.9658173307
 30
0.0
 10
96.5047176855
 20
57.8879819944
 30
0.0
 10
96.4735902616
 20
57.8042738994
 30
0.0
 10
96.4460719257
 20
57.6850686879
 30
0.0
 10
96.43989421
 20
57.5257843932
 30
0.0
 10
96.4638802465
 20
57.3992805157
 30
0.0
 10
96.4823708032
 20
57.3365555441
 30
0.0
  0
SPLINE
  5
48B
100
AcDbEntity
  8
0
100
AcDbSpline
 62
7
  6
BYLAYER
 70
0
 71
3
 72
11
 73
7
 74
0
 42
0.0000001
 43
0.0000001
 44
0.0000000001
 40
0.0
 40
0.0
 40
0.0
 40
0.0
 40
0.2601696781
 40
0.515077836
 40
0.7622249237
 40
1.0
 40
1.0
 40
1.0
 40
1.0
 10
96.9568659201
 20
56.7069760611
 30
0.0
 10
97.0079939189
 20
56.6724568322
 30
0.0
 10
97.1144854966
 20
56.6115457718
 30
0.0
 10
97.2839532172
 20
56.5466642431
 30
0.0
 10
97.4565106817
 20
56.5110013546
 30
0.0
 10
97.5721971358
 20
56.5075836459
 30
0.0
 10
97.6284506449
 20
56.5113561789
 30
0.0
  0
SPLINE
  5
48C
100
AcDbEntity
  8
0
100
AcDbSpline
 62
7
  6
BYLAYER
 70
0
 71
3
 72
11
 73
7
 74
0
 42
0.0000001
 43
0.0000001
 44
0.0000000001
 40
0.0
 40
0.0
 40
0.0
 40
0.0
 40
0.2371249324
 40
0.4812715792
 40
0.7351735563
 40
1.0
 40
1.0
 40
1.0
 40
1.0
 10
98.1941337146
 20
56.837951502
 30
0.0
 10
98.219921816
 20
56.8811981577
 30
0.0
 10
98.2620473082
 20
56.9754651607
 30
0.0
 10
98.2927618178
 20
57.1297053498
 30
0.0
 10
98.2910466504
 20
57.2927320731
 30
0.0
 10
98.2689092623
 20
57.4013608187
 30
0.0
 10
98.2530086626
 20
57.4552999554
 30
0.0
  0
SPLINE
  5
48D
100
AcDbEntity
  8
0
100
AcDbSpline
 62
7
  6
BYLAYER
 70
0
 71
3
 72
13
 73
9
 74
0
 42
0.0000001
 43
0.0000001
 44
0.0000000001
 40
0.0
 40
0.0
 40
0.0
 40
0.0
 40
0.112867296
 40
0.2289871248
 40
0.3488736646
 40
0.4727377396
 40
0.7309820975
 40
1.0
 40
1.0
 40
1.0
 40
1.0
 10
96.5820778901
 20
57.9515970694
 30
0.0
 10
96.6166030457
 20
57.9715300583
 30
0.0
 10
96.6903488892
 20
58.0058577098
 30
0.0
 10
96.8095825701
 20
58.0388871916
 30
0.0
 10
96.9363469932
 20
58.0535225857
 30
0.0
 10
97.1141059511
 20
58.0481446083
 30
0.0
 10
97.3403539075
 20
57.9936716337
 30
0.0
 10
97.5072685553
 20
57.9067440936
 30
0.0
 10
97.5860205988
 20
57.8535744042
 30
0.0
  0
SPLINE
  5
48E
100
AcDbEntity
  8
0
100
AcDbSpline
 62
7
  6
BYLAYER
 70
0
 71
3
 72
11
 73
7
 74
0
 42
0.0000001
 43
0.0000001
 44
0.0000000001
 40
0.0
 40
0.0
 40
0.0
 40
0.0
 40
0.2648264437
 40
0.5187284208
 40
0.7628750676
 40
1.0
 40
1.0
 40
1.0
 40
1.0
 10
98.0605157149
 20
57.2239949207
 30
0.0
 10
98.0764163146
 20
57.170055784
 30
0.0
 10
98.0985537027
 20
57.0614270384
 30
0.0
 10
98.1002688701
 20
56.8984003151
 30
0.0
 10
98.0695543605
 20
56.7441601259
 30
0.0
 10
98.0274288683
 20
56.649893123
 30
0.0
 10
98.0016407669
 20
56.6066464672
 30
0.0
  0
SPLINE
  5
48F
100
AcDbEntity
  8
0
100
AcDbSpline
 62
7
  6
BYLAYER
 70
0
 71
3
 72
9
 73
5
 74
0
 42
0.0000001
 43
0.0000001
 44
0.0000000001
 40
0.0
 40
0.0
 40
0.0
 40
0.0
 40
0.5027835396
 40
1.0
 40
1.0
 40
1.0
 40
1.0
 10
96.7745708378
 20
58.1829021041
 30
0.0
 10
96.7411814366
 20
58.1636248395
 30
0.0
 10
96.6779071009
 20
58.1195334757
 30
0.0
 10
96.6234314157
 20
58.0649061283
 30
0.0
 10
96.5990419355
 20
58.0355994274
 30
0.0
  0
SPLINE
  5
490
100
AcDbEntity
  8
0
100
AcDbSpline
 62
7
  6
BYLAYER
 70
0
 71
3
 72
13
 73
9
 74
0
 42
0.0000001
 43
0.0000001
 44
0.0000000001
 40
0.0
 40
0.0
 40
0.0
 40
0.0
 40
0.2690179025
 40
0.5272622604
 40
0.6511263354
 40
0.7710128752
 40
0.887132704
 40
1.0
 40
1.0
 40
1.0
 40
1.0
 10
97.7785135465
 20
58.0848794389
 30
0.0
 10
97.699761503
 20
58.1380491283
 30
0.0
 10
97.5328468552
 20
58.2249766684
 30
0.0
 10
97.3065988988
 20
58.2794496431
 30
0.0
 10
97.1288399409
 20
58.2848276205
 30
0.0
 10
97.0020755178
 20
58.2701922263
 30
0.0
 10
96.8828418369
 20
58.2371627446
 30
0.0
 10
96.8090959934
 20
58.2028350931
 30
0.0
 10
96.7745708378
 20
58.1829021041
 30
0.0
  0
SPLINE
  5
491
100
AcDbEntity
  8
0
100
AcDbSpline
 62
7
  6
BYLAYER
 70
0
 71
3
 72
13
 73
9
 74
0
 42
0.0000001
 43
0.0000001
 44
0.0000000001
 40
0.0
 40
0.0
 40
0.0
 40
0.0
 40
0.1182421847
 40
0.2372813023
 40
0.3578418522
 40
0.4805656325
 40
0.7339045219
 40
1.0
 40
1.0
 40
1.0
 40
1.0
 10
93.0635227494
 20
55.994378658
 30
0.0
 10
93.0449348233
 20
55.9720431762
 30
0.0
 10
93.0106673139
 20
55.9245965613
 30
0.0
 10
92.9691984994
 20
55.8467612251
 30
0.0
 10
92.9380710755
 20
55.76305313
 30
0.0
 10
92.9105527396
 20
55.6438479186
 30
0.0
 10
92.904375024
 20
55.4845636238
 30
0.0
 10
92.9283610604
 20
55.3580597464
 30
0.0
 10
92.9468516171
 20
55.2953347747
 30
0.0
  0
SPLINE
  5
492
100
AcDbEntity
  8
0
100
AcDbSpline
 62
7
  6
BYLAYER
 70
0
 71
3
 72
11
 73
7
 74
0
 42
0.0000001
 43
0.0000001
 44
0.0000000001
 40
0.0
 40
0.0
 40
0.0
 40
0.0
 40
0.2601696781
 40
0.515077836
 40
0.7622249237
 40
1.0
 40
1.0
 40
1.0
 40
1.0
 10
93.421346734
 20
54.6657552917
 30
0.0
 10
93.4724747328
 20
54.6312360629
 30
0.0
 10
93.5789663105
 20
54.5703250025
 30
0.0
 10
93.7484340311
 20
54.5054434738
 30
0.0
 10
93.9209914957
 20
54.4697805853
 30
0.0
 10
94.0366779497
 20
54.4663628765
 30
0.0
 10
94.0929314588
 20
54.4701354095
 30
0.0
  0
SPLINE
  5
493
100
AcDbEntity
  8
0
100
AcDbSpline
 62
7
  6
BYLAYER
 70
0
 71
3
 72
11
 73
7
 74
0
 42
0.0000001
 43
0.0000001
 44
0.0000000001
 40
0.0
 40
0.0
 40
0.0
 40
0.0
 40
0.2371249324
 40
0.4812715792
 40
0.7351735563
 40
1.0
 40
1.0
 40
1.0
 40
1.0
 10
94.6586145286
 20
54.7967307326
 30
0.0
 10
94.6844026299
 20
54.8399773883
 30
0.0
 10
94.7265281222
 20
54.9342443913
 30
0.0
 10
94.7572426317
 20
55.0884845804
 30
0.0
 10
94.7555274643
 20
55.2515113038
 30
0.0
 10
94.7333900762
 20
55.3601400494
 30
0.0
 10
94.7174894765
 20
55.4140791861
 30
0.0
  0
SPLINE
  5
494
100
AcDbEntity
  8
0
100
AcDbSpline
 62
7
  6
BYLAYER
 70
0
 71
3
 72
13
 73
9
 74
0
 42
0.0000001
 43
0.0000001
 44
0.0000000001
 40
0.0
 40
0.0
 40
0.0
 40
0.0
 40
0.112867296
 40
0.2289871248
 40
0.3488736646
 40
0.4727377396
 40
0.7309820975
 40
1.0
 40
1.0
 40
1.0
 40
1.0
 10
93.046558704
 20
55.9103763001
 30
0.0
 10
93.0810838596
 20
55.930309289
 30
0.0
 10
93.1548297031
 20
55.9646369405
 30
0.0
 10
93.2740633841
 20
55.9976664223
 30
0.0
 10
93.4008278071
 20
56.0123018164
 30
0.0
 10
93.578586765
 20
56.006923839
 30
0.0
 10
93.8048347214
 20
55.9524508643
 30
0.0
 10
93.9717493692
 20
55.8655233242
 30
0.0
 10
94.0505014127
 20
55.8123536348
 30
0.0
  0
SPLINE
  5
495
100
AcDbEntity
  8
0
100
AcDbSpline
 62
7
  6
BYLAYER
 70
0
 71
3
 72
11
 73
7
 74
0
 42
0.0000001
 43
0.0000001
 44
0.0000000001
 40
0.0
 40
0.0
 40
0.0
 40
0.0
 40
0.2648264437
 40
0.5187284208
 40
0.7628750676
 40
1.0
 40
1.0
 40
1.0
 40
1.0
 10
94.5249965288
 20
55.1827741513
 30
0.0
 10
94.5408971285
 20
55.1288350146
 30
0.0
 10
94.5630345166
 20
55.020206269
 30
0.0
 10
94.564749684
 20
54.8571795457
 30
0.0
 10
94.5340351745
 20
54.7029393566
 30
0.0
 10
94.4919096822
 20
54.6086723536
 30
0.0
 10
94.4661215808
 20
54.5654256979
 30
0.0
  0
SPLINE
  5
496
100
AcDbEntity
  8
0
100
AcDbSpline
 62
7
  6
BYLAYER
 70
0
 71
3
 72
9
 73
5
 74
0
 42
0.0000001
 43
0.0000001
 44
0.0000000001
 40
0.0
 40
0.0
 40
0.0
 40
0.0
 40
0.5027835396
 40
1.0
 40
1.0
 40
1.0
 40
1.0
 10
93.2390516517
 20
56.1416813348
 30
0.0
 10
93.2056622505
 20
56.1224040701
 30
0.0
 10
93.1423879148
 20
56.0783127063
 30
0.0
 10
93.0879122296
 20
56.023685359
 30
0.0
 10
93.0635227494
 20
55.994378658
 30
0.0
  0
SPLINE
  5
497
100
AcDbEntity
  8
0
100
AcDbSpline
 62
7
  6
BYLAYER
 70
0
 71
3
 72
13
 73
9
 74
0
 42
0.0000001
 43
0.0000001
 44
0.0000000001
 40
0.0
 40
0.0
 40
0.0
 40
0.0
 40
0.2690179025
 40
0.5272622604
 40
0.6511263354
 40
0.7710128752
 40
0.887132704
 40
1.0
 40
1.0
 40
1.0
 40
1.0
 10
94.2429943604
 20
56.0436586696
 30
0.0
 10
94.1642423169
 20
56.096828359
 30
0.0
 10
93.9973276691
 20
56.183755899
 30
0.0
 10
93.7710797127
 20
56.2382288737
 30
0.0
 10
93.5933207548
 20
56.2436068511
 30
0.0
 10
93.4665563318
 20
56.228971457
 30
0.0
 10
93.3473226508
 20
56.1959419752
 30
0.0
 10
93.2735768074
 20
56.1616143237
 30
0.0
 10
93.2390516517
 20
56.1416813348
 30
0.0
  0
SPLINE
  5
498
100
AcDbEntity
  8
0
100
AcDbSpline
 62
7
  6
BYLAYER
 70
0
 71
3
 72
13
 73
9
 74
0
 42
0.0000001
 43
0.0000001
 44
0.0000000001
 40
0.0
 40
0.0
 40
0.0
 40
0.0
 40
0.1182421847
 40
0.2372813023
 40
0.3578418522
 40
0.4805656325
 40
0.7339045219
 40
1.0
 40
1.0
 40
1.0
 40
1.0
 10
89.5280035633
 20
53.9531578886
 30
0.0
 10
89.5094156372
 20
53.9308224068
 30
0.0
 10
89.4751481278
 20
53.883375792
 30
0.0
 10
89.4336793133
 20
53.8055404557
 30
0.0
 10
89.4025518894
 20
53.7218323607
 30
0.0
 10
89.3750335536
 20
53.6026271492
 30
0.0
 10
89.3688558379
 20
53.4433428544
 30
0.0
 10
89.3928418744
 20
53.316838977
 30
0.0
 10
89.4113324311
 20
53.2541140054
 30
0.0
  0
SPLINE
  5
499
100
AcDbEntity
  8
0
100
AcDbSpline
 62
7
  6
BYLAYER
 70
0
 71
3
 72
11
 73
7
 74
0
 42
0.0000001
 43
0.0000001
 44
0.0000000001
 40
0.0
 40
0.0
 40
0.0
 40
0.0
 40
0.2601696781
 40
0.515077836
 40
0.7622249237
 40
1.0
 40
1.0
 40
1.0
 40
1.0
 10
89.885827548
 20
52.6245345223
 30
0.0
 10
89.9369555467
 20
52.5900152935
 30
0.0
 10
90.0434471245
 20
52.5291042331
 30
0.0
 10
90.212914845
 20
52.4642227044
 30
0.0
 10
90.3854723096
 20
52.4285598159
 30
0.0
 10
90.5011587637
 20
52.4251421072
 30
0.0
 10
90.5574122727
 20
52.4289146402
 30
0.0
  0
SPLINE
  5
49A
100
AcDbEntity
  8
0
100
AcDbSpline
 62
7
  6
BYLAYER
 70
0
 71
3
 72
11
 73
7
 74
0
 42
0.0000001
 43
0.0000001
 44
0.0000000001
 40
0.0
 40
0.0
 40
0.0
 40
0.0
 40
0.2371249324
 40
0.4812715792
 40
0.7351735563
 40
1.0
 40
1.0
 40
1.0
 40
1.0
 10
91.1230953425
 20
52.7555099633
 30
0.0
 10
91.1488834439
 20
52.798756619
 30
0.0
 10
91.1910089361
 20
52.893023622
 30
0.0
 10
91.2217234457
 20
53.0472638111
 30
0.0
 10
91.2200082783
 20
53.2102905344
 30
0.0
 10
91.1978708901
 20
53.31891928
 30
0.0
 10
91.1819702904
 20
53.3728584167
 30
0.0
  0
SPLINE
  5
49B
100
AcDbEntity
  8
0
100
AcDbSpline
 62
7
  6
BYLAYER
 70
0
 71
3
 72
13
 73
9
 74
0
 42
0.0000001
 43
0.0000001
 44
0.0000000001
 40
0.0
 40
0.0
 40
0.0
 40
0.0
 40
0.112867296
 40
0.2289871248
 40
0.3488736646
 40
0.4727377396
 40
0.7309820975
 40
1.0
 40
1.0
 40
1.0
 40
1.0
 10
89.5110395179
 20
53.8691555307
 30
0.0
 10
89.5455646736
 20
53.8890885196
 30
0.0
 10
89.6193105171
 20
53.9234161711
 30
0.0
 10
89.738544198
 20
53.9564456529
 30
0.0
 10
89.865308621
 20
53.971081047
 30
0.0
 10
90.0430675789
 20
53.9657030696
 30
0.0
 10
90.2693155353
 20
53.911230095
 30
0.0
 10
90.4362301831
 20
53.8243025549
 30
0.0
 10
90.5149822267
 20
53.7711328655
 30
0.0
  0
SPLINE
  5
49C
100
AcDbEntity
  8
0
100
AcDbSpline
 62
7
  6
BYLAYER
 70
0
 71
3
 72
11
 73
7
 74
0
 42
0.0000001
 43
0.0000001
 44
0.0000000001
 40
0.0
 40
0.0
 40
0.0
 40
0.0
 40
0.2648264437
 40
0.5187284208
 40
0.7628750676
 40
1.0
 40
1.0
 40
1.0
 40
1.0
 10
90.9894773427
 20
53.141553382
 30
0.0
 10
91.0053779424
 20
53.0876142453
 30
0.0
 10
91.0275153306
 20
52.9789854997
 30
0.0
 10
91.029230498
 20
52.8159587763
 30
0.0
 10
90.9985159884
 20
52.6617185872
 30
0.0
 10
90.9563904961
 20
52.5674515843
 30
0.0
 10
90.9306023948
 20
52.5242049285
 30
0.0
  0
SPLINE
  5
49D
100
AcDbEntity
  8
0
100
AcDbSpline
 62
7
  6
BYLAYER
 70
0
 71
3
 72
9
 73
5
 74
0
 42
0.0000001
 43
0.0000001
 44
0.0000000001
 40
0.0
 40
0.0
 40
0.0
 40
0.0
 40
0.5027835396
 40
1.0
 40
1.0
 40
1.0
 40
1.0
 10
89.7035324656
 20
54.1004605654
 30
0.0
 10
89.6701430645
 20
54.0811833007
 30
0.0
 10
89.6068687288
 20
54.037091937
 30
0.0
 10
89.5523930435
 20
53.9824645896
 30
0.0
 10
89.5280035633
 20
53.9531578886
 30
0.0
  0
SPLINE
  5
49E
100
AcDbEntity
  8
0
100
AcDbSpline
 62
7
  6
BYLAYER
 70
0
 71
3
 72
13
 73
9
 74
0
 42
0.0000001
 43
0.0000001
 44
0.0000000001
 40
0.0
 40
0.0
 40
0.0
 40
0.0
 40
0.2690179025
 40
0.5272622604
 40
0.6511263354
 40
0.7710128752
 40
0.887132704
 40
1.0
 40
1.0
 40
1.0
 40
1.0
 10
90.7074751744
 20
54.0024379002
 30
0.0
 10
90.6287231308
 20
54.0556075896
 30
0.0
 10
90.461808483
 20
54.1425351297
 30
0.0
 10
90.2355605266
 20
54.1970081044
 30
0.0
 10
90.0578015687
 20
54.2023860817
 30
0.0
 10
89.9310371457
 20
54.1877506876
 30
0.0
 10
89.8118034648
 20
54.1547212059
 30
0.0
 10
89.7380576213
 20
54.1203935544
 30
0.0
 10
89.7035324656
 20
54.1004605654
 30
0.0
  0
SPLINE
  5
49F
100
AcDbEntity
  8
0
100
AcDbSpline
 62
7
  6
BYLAYER
 70
0
 71
3
 72
13
 73
9
 74
0
 42
0.0000001
 43
0.0000001
 44
0.0000000001
 40
0.0
 40
0.0
 40
0.0
 40
0.0
 40
0.1182421847
 40
0.2372813023
 40
0.3578418522
 40
0.4805656325
 40
0.7339045219
 40
1.0
 40
1.0
 40
1.0
 40
1.0
 10
100.065872077
 20
77.7807019843
 30
0.0
 10
100.0472841509
 20
77.7583665025
 30
0.0
 10
100.0130166415
 20
77.7109198876
 30
0.0
 10
99.971547827
 20
77.6330845514
 30
0.0
 10
99.9404204031
 20
77.5493764563
 30
0.0
 10
99.9129020672
 20
77.4301712449
 30
0.0
 10
99.9067243516
 20
77.2708869501
 30
0.0
 10
99.930710388
 20
77.1443830727
 30
0.0
 10
99.9492009447
 20
77.081658101
 30
0.0
  0
SPLINE
  5
4A0
100
AcDbEntity
  8
0
100
AcDbSpline
 62
7
  6
BYLAYER
 70
0
 71
3
 72
11
 73
7
 74
0
 42
0.0000001
 43
0.0000001
 44
0.0000000001
 40
0.0
 40
0.0
 40
0.0
 40
0.0
 40
0.2601696781
 40
0.515077836
 40
0.7622249237
 40
1.0
 40
1.0
 40
1.0
 40
1.0
 10
100.4236960616
 20
76.452078618
 30
0.0
 10
100.4748240604
 20
76.4175593892
 30
0.0
 10
100.5813156381
 20
76.3566483288
 30
0.0
 10
100.7507833587
 20
76.2917668001
 30
0.0
 10
100.9233408233
 20
76.2561039116
 30
0.0
 10
101.0390272773
 20
76.2526862028
 30
0.0
 10
101.0952807864
 20
76.2564587358
 30
0.0
  0
SPLINE
  5
4A1
100
AcDbEntity
  8
0
100
AcDbSpline
 62
7
  6
BYLAYER
 70
0
 71
3
 72
11
 73
7
 74
0
 42
0.0000001
 43
0.0000001
 44
0.0000000001
 40
0.0
 40
0.0
 40
0.0
 40
0.0
 40
0.2371249324
 40
0.4812715792
 40
0.7351735563
 40
1.0
 40
1.0
 40
1.0
 40
1.0
 10
101.6609638561
 20
76.5830540589
 30
0.0
 10
101.6867519575
 20
76.6263007147
 30
0.0
 10
101.7288774498
 20
76.7205677176
 30
0.0
 10
101.7595919593
 20
76.8748079067
 30
0.0
 10
101.7578767919
 20
77.0378346301
 30
0.0
 10
101.7357394038
 20
77.1464633757
 30
0.0
 10
101.7198388041
 20
77.2004025124
 30
0.0
  0
SPLINE
  5
4A2
100
AcDbEntity
  8
0
100
AcDbSpline
 62
7
  6
BYLAYER
 70
0
 71
3
 72
13
 73
9
 74
0
 42
0.0000001
 43
0.0000001
 44
0.0000000001
 40
0.0
 40
0.0
 40
0.0
 40
0.0
 40
0.112867296
 40
0.2289871248
 40
0.3488736646
 40
0.4727377396
 40
0.7309820975
 40
1.0
 40
1.0
 40
1.0
 40
1.0
 10
100.0489080316
 20
77.6966996264
 30
0.0
 10
100.0834331872
 20
77.7166326153
 30
0.0
 10
100.1571790307
 20
77.7509602668
 30
0.0
 10
100.2764127116
 20
77.7839897486
 30
0.0
 10
100.4031771347
 20
77.7986251427
 30
0.0
 10
100.5809360926
 20
77.7932471653
 30
0.0
 10
100.807184049
 20
77.7387741906
 30
0.0
 10
100.9740986968
 20
77.6518466505
 30
0.0
 10
101.0528507403
 20
77.5986769612
 30
0.0
  0
SPLINE
  5
4A3
100
AcDbEntity
  8
0
100
AcDbSpline
 62
7
  6
BYLAYER
 70
0
 71
3
 72
11
 73
7
 74
0
 42
0.0000001
 43
0.0000001
 44
0.0000000001
 40
0.0
 40
0.0
 40
0.0
 40
0.0
 40
0.2648264437
 40
0.5187284208
 40
0.7628750676
 40
1.0
 40
1.0
 40
1.0
 40
1.0
 10
101.5273458564
 20
76.9690974777
 30
0.0
 10
101.5432464561
 20
76.915158341
 30
0.0
 10
101.5653838442
 20
76.8065295954
 30
0.0
 10
101.5670990116
 20
76.643502872
 30
0.0
 10
101.5363845021
 20
76.4892626829
 30
0.0
 10
101.4942590098
 20
76.3949956799
 30
0.0
 10
101.4684709084
 20
76.3517490242
 30
0.0
  0
SPLINE
  5
4A4
100
AcDbEntity
  8
0
100
AcDbSpline
 62
7
  6
BYLAYER
 70
0
 71
3
 72
9
 73
5
 74
0
 42
0.0000001
 43
0.0000001
 44
0.0000000001
 40
0.0
 40
0.0
 40
0.0
 40
0.0
 40
0.5027835396
 40
1.0
 40
1.0
 40
1.0
 40
1.0
 10
100.2414009793
 20
77.9280046611
 30
0.0
 10
100.2080115781
 20
77.9087273964
 30
0.0
 10
100.1447372424
 20
77.8646360326
 30
0.0
 10
100.0902615572
 20
77.8100086853
 30
0.0
 10
100.065872077
 20
77.7807019843
 30
0.0
  0
SPLINE
  5
4A5
100
AcDbEntity
  8
0
100
AcDbSpline
 62
7
  6
BYLAYER
 70
0
 71
3
 72
13
 73
9
 74
0
 42
0.0000001
 43
0.0000001
 44
0.0000000001
 40
0.0
 40
0.0
 40
0.0
 40
0.0
 40
0.2690179025
 40
0.5272622604
 40
0.6511263354
 40
0.7710128752
 40
0.887132704
 40
1.0
 40
1.0
 40
1.0
 40
1.0
 10
101.245343688
 20
77.8299819959
 30
0.0
 10
101.1665916445
 20
77.8831516853
 30
0.0
 10
100.9996769967
 20
77.9700792254
 30
0.0
 10
100.7734290403
 20
78.0245522
 30
0.0
 10
100.5956700824
 20
78.0299301774
 30
0.0
 10
100.4689056594
 20
78.0152947833
 30
0.0
 10
100.3496719784
 20
77.9822653015
 30
0.0
 10
100.2759261349
 20
77.94793765
 30
0.0
 10
100.2414009793
 20
77.9280046611
 30
0.0
  0
SPLINE
  5
4A6
100
AcDbEntity
  8
0
100
AcDbSpline
 62
7
  6
BYLAYER
 70
0
 71
3
 72
13
 73
9
 74
0
 42
0.0000001
 43
0.0000001
 44
0.0000000001
 40
0.0
 40
0.0
 40
0.0
 40
0.0
 40
0.1182421847
 40
0.2372813023
 40
0.3578418522
 40
0.4805656325
 40
0.7339045219
 40
1.0
 40
1.0
 40
1.0
 40
1.0
 10
96.5303528909
 20
75.7394812149
 30
0.0
 10
96.5117649648
 20
75.7171457331
 30
0.0
 10
96.4774974554
 20
75.6696991183
 30
0.0
 10
96.4360286409
 20
75.591863782
 30
0.0
 10
96.404901217
 20
75.508155687
 30
0.0
 10
96.3773828812
 20
75.3889504755
 30
0.0
 10
96.3712051655
 20
75.2296661808
 30
0.0
 10
96.395191202
 20
75.1031623033
 30
0.0
 10
96.4136817587
 20
75.0404373317
 30
0.0
  0
SPLINE
  5
4A7
100
AcDbEntity
  8
0
100
AcDbSpline
 62
7
  6
BYLAYER
 70
0
 71
3
 72
11
 73
7
 74
0
 42
0.0000001
 43
0.0000001
 44
0.0000000001
 40
0.0
 40
0.0
 40
0.0
 40
0.0
 40
0.2601696781
 40
0.515077836
 40
0.7622249237
 40
1.0
 40
1.0
 40
1.0
 40
1.0
 10
96.8881768756
 20
74.4108578487
 30
0.0
 10
96.9393048743
 20
74.3763386198
 30
0.0
 10
97.0457964521
 20
74.3154275594
 30
0.0
 10
97.2152641726
 20
74.2505460307
 30
0.0
 10
97.3878216372
 20
74.2148831422
 30
0.0
 10
97.5035080913
 20
74.2114654335
 30
0.0
 10
97.5597616003
 20
74.2152379665
 30
0.0
  0
SPLINE
  5
4A8
100
AcDbEntity
  8
0
100
AcDbSpline
 62
7
  6
BYLAYER
 70
0
 71
3
 72
11
 73
7
 74
0
 42
0.0000001
 43
0.0000001
 44
0.0000000001
 40
0.0
 40
0.0
 40
0.0
 40
0.0
 40
0.2371249324
 40
0.4812715792
 40
0.7351735563
 40
1.0
 40
1.0
 40
1.0
 40
1.0
 10
98.1254446701
 20
74.5418332896
 30
0.0
 10
98.1512327714
 20
74.5850799453
 30
0.0
 10
98.1933582637
 20
74.6793469483
 30
0.0
 10
98.2240727733
 20
74.8335871374
 30
0.0
 10
98.2223576059
 20
74.9966138607
 30
0.0
 10
98.2002202177
 20
75.1052426063
 30
0.0
 10
98.184319618
 20
75.159181743
 30
0.0
  0
SPLINE
  5
4A9
100
AcDbEntity
  8
0
100
AcDbSpline
 62
7
  6
BYLAYER
 70
0
 71
3
 72
13
 73
9
 74
0
 42
0.0000001
 43
0.0000001
 44
0.0000000001
 40
0.0
 40
0.0
 40
0.0
 40
0.0
 40
0.112867296
 40
0.2289871248
 40
0.3488736646
 40
0.4727377396
 40
0.7309820975
 40
1.0
 40
1.0
 40
1.0
 40
1.0
 10
96.5133888455
 20
75.655478857
 30
0.0
 10
96.5479140012
 20
75.6754118459
 30
0.0
 10
96.6216598446
 20
75.7097394974
 30
0.0
 10
96.7408935256
 20
75.7427689792
 30
0.0
 10
96.8676579486
 20
75.7574043733
 30
0.0
 10
97.0454169065
 20
75.7520263959
 30
0.0
 10
97.2716648629
 20
75.6975534213
 30
0.0
 10
97.4385795107
 20
75.6106258812
 30
0.0
 10
97.5173315543
 20
75.5574561918
 30
0.0
  0
SPLINE
  5
4AA
100
AcDbEntity
  8
0
100
AcDbSpline
 62
7
  6
BYLAYER
 70
0
 71
3
 72
11
 73
7
 74
0
 42
0.0000001
 43
0.0000001
 44
0.0000000001
 40
0.0
 40
0.0
 40
0.0
 40
0.0
 40
0.2648264437
 40
0.5187284208
 40
0.7628750676
 40
1.0
 40
1.0
 40
1.0
 40
1.0
 10
97.9918266703
 20
74.9278767083
 30
0.0
 10
98.00772727
 20
74.8739375716
 30
0.0
 10
98.0298646581
 20
74.765308826
 30
0.0
 10
98.0315798255
 20
74.6022821026
 30
0.0
 10
98.000865316
 20
74.4480419135
 30
0.0
 10
97.9587398237
 20
74.3537749106
 30
0.0
 10
97.9329517224
 20
74.3105282548
 30
0.0
  0
SPLINE
  5
4AB
100
AcDbEntity
  8
0
100
AcDbSpline
 62
7
  6
BYLAYER
 70
0
 71
3
 72
9
 73
5
 74
0
 42
0.0000001
 43
0.0000001
 44
0.0000000001
 40
0.0
 40
0.0
 40
0.0
 40
0.0
 40
0.5027835396
 40
1.0
 40
1.0
 40
1.0
 40
1.0
 10
96.7058817932
 20
75.8867838917
 30
0.0
 10
96.6724923921
 20
75.8675066271
 30
0.0
 10
96.6092180564
 20
75.8234152633
 30
0.0
 10
96.5547423711
 20
75.7687879159
 30
0.0
 10
96.5303528909
 20
75.7394812149
 30
0.0
  0
SPLINE
  5
4AC
100
AcDbEntity
  8
0
100
AcDbSpline
 62
7
  6
BYLAYER
 70
0
 71
3
 72
13
 73
9
 74
0
 42
0.0000001
 43
0.0000001
 44
0.0000000001
 40
0.0
 40
0.0
 40
0.0
 40
0.0
 40
0.2690179025
 40
0.5272622604
 40
0.6511263354
 40
0.7710128752
 40
0.887132704
 40
1.0
 40
1.0
 40
1.0
 40
1.0
 10
97.7098245019
 20
75.7887612265
 30
0.0
 10
97.6310724584
 20
75.8419309159
 30
0.0
 10
97.4641578106
 20
75.928858456
 30
0.0
 10
97.2379098542
 20
75.9833314307
 30
0.0
 10
97.0601508963
 20
75.9887094081
 30
0.0
 10
96.9333864733
 20
75.9740740139
 30
0.0
 10
96.8141527924
 20
75.9410445322
 30
0.0
 10
96.7404069489
 20
75.9067168807
 30
0.0
 10
96.7058817932
 20
75.8867838917
 30
0.0
  0
SPLINE
  5
4AD
100
AcDbEntity
  8
0
100
AcDbSpline
 62
7
  6
BYLAYER
 70
0
 71
3
 72
13
 73
9
 74
0
 42
0.0000001
 43
0.0000001
 44
0.0000000001
 40
0.0
 40
0.0
 40
0.0
 40
0.0
 40
0.1182421847
 40
0.2372813023
 40
0.3578418522
 40
0.4805656325
 40
0.7339045219
 40
1.0
 40
1.0
 40
1.0
 40
1.0
 10
92.9948337048
 20
73.6982604456
 30
0.0
 10
92.9762457787
 20
73.6759249638
 30
0.0
 10
92.9419782694
 20
73.6284783489
 30
0.0
 10
92.9005094549
 20
73.5506430127
 30
0.0
 10
92.8693820309
 20
73.4669349176
 30
0.0
 10
92.8418636951
 20
73.3477297062
 30
0.0
 10
92.8356859794
 20
73.1884454114
 30
0.0
 10
92.8596720159
 20
73.0619415339
 30
0.0
 10
92.8781625726
 20
72.9992165623
 30
0.0
  0
SPLINE
  5
4AE
100
AcDbEntity
  8
0
100
AcDbSpline
 62
7
  6
BYLAYER
 70
0
 71
3
 72
11
 73
7
 74
0
 42
0.0000001
 43
0.0000001
 44
0.0000000001
 40
0.0
 40
0.0
 40
0.0
 40
0.0
 40
0.2601696781
 40
0.515077836
 40
0.7622249237
 40
1.0
 40
1.0
 40
1.0
 40
1.0
 10
93.3526576895
 20
72.3696370793
 30
0.0
 10
93.4037856883
 20
72.3351178504
 30
0.0
 10
93.510277266
 20
72.2742067901
 30
0.0
 10
93.6797449866
 20
72.2093252614
 30
0.0
 10
93.8523024511
 20
72.1736623729
 30
0.0
 10
93.9679889052
 20
72.1702446641
 30
0.0
 10
94.0242424142
 20
72.1740171971
 30
0.0
  0
SPLINE
  5
4AF
100
AcDbEntity
  8
0
100
AcDbSpline
 62
7
  6
BYLAYER
 70
0
 71
3
 72
11
 73
7
 74
0
 42
0.0000001
 43
0.0000001
 44
0.0000000001
 40
0.0
 40
0.0
 40
0.0
 40
0.0
 40
0.2371249324
 40
0.4812715792
 40
0.7351735563
 40
1.0
 40
1.0
 40
1.0
 40
1.0
 10
94.589925484
 20
72.5006125202
 30
0.0
 10
94.6157135854
 20
72.5438591759
 30
0.0
 10
94.6578390776
 20
72.6381261789
 30
0.0
 10
94.6885535872
 20
72.792366368
 30
0.0
 10
94.6868384198
 20
72.9553930914
 30
0.0
 10
94.6647010317
 20
73.064021837
 30
0.0
 10
94.648800432
 20
73.1179609737
 30
0.0
  0
SPLINE
  5
4B0
100
AcDbEntity
  8
0
100
AcDbSpline
 62
7
  6
BYLAYER
 70
0
 71
3
 72
13
 73
9
 74
0
 42
0.0000001
 43
0.0000001
 44
0.0000000001
 40
0.0
 40
0.0
 40
0.0
 40
0.0
 40
0.112867296
 40
0.2289871248
 40
0.3488736646
 40
0.4727377396
 40
0.7309820975
 40
1.0
 40
1.0
 40
1.0
 40
1.0
 10
92.9778696594
 20
73.6142580876
 30
0.0
 10
93.0123948151
 20
73.6341910766
 30
0.0
 10
93.0861406586
 20
73.6685187281
 30
0.0
 10
93.2053743395
 20
73.7015482098
 30
0.0
 10
93.3321387626
 20
73.716183604
 30
0.0
 10
93.5098977204
 20
73.7108056266
 30
0.0
 10
93.7361456768
 20
73.6563326519
 30
0.0
 10
93.9030603246
 20
73.5694051118
 30
0.0
 10
93.9818123682
 20
73.5162354224
 30
0.0
  0
SPLINE
  5
4B1
100
AcDbEntity
  8
0
100
AcDbSpline
 62
7
  6
BYLAYER
 70
0
 71
3
 72
11
 73
7
 74
0
 42
0.0000001
 43
0.0000001
 44
0.0000000001
 40
0.0
 40
0.0
 40
0.0
 40
0.0
 40
0.2648264437
 40
0.5187284208
 40
0.7628750676
 40
1.0
 40
1.0
 40
1.0
 40
1.0
 10
94.4563074843
 20
72.8866559389
 30
0.0
 10
94.472208084
 20
72.8327168022
 30
0.0
 10
94.4943454721
 20
72.7240880566
 30
0.0
 10
94.4960606395
 20
72.5610613333
 30
0.0
 10
94.4653461299
 20
72.4068211442
 30
0.0
 10
94.4232206377
 20
72.3125541412
 30
0.0
 10
94.3974325363
 20
72.2693074855
 30
0.0
  0
SPLINE
  5
4B2
100
AcDbEntity
  8
0
100
AcDbSpline
 62
7
  6
BYLAYER
 70
0
 71
3
 72
9
 73
5
 74
0
 42
0.0000001
 43
0.0000001
 44
0.0000000001
 40
0.0
 40
0.0
 40
0.0
 40
0.0
 40
0.5027835396
 40
1.0
 40
1.0
 40
1.0
 40
1.0
 10
93.1703626072
 20
73.8455631224
 30
0.0
 10
93.136973206
 20
73.8262858577
 30
0.0
 10
93.0736988703
 20
73.7821944939
 30
0.0
 10
93.0192231851
 20
73.7275671466
 30
0.0
 10
92.9948337048
 20
73.6982604456
 30
0.0
  0
SPLINE
  5
4B3
100
AcDbEntity
  8
0
100
AcDbSpline
 62
7
  6
BYLAYER
 70
0
 71
3
 72
13
 73
9
 74
0
 42
0.0000001
 43
0.0000001
 44
0.0000000001
 40
0.0
 40
0.0
 40
0.0
 40
0.0
 40
0.2690179025
 40
0.5272622604
 40
0.6511263354
 40
0.7710128752
 40
0.887132704
 40
1.0
 40
1.0
 40
1.0
 40
1.0
 10
94.1743053159
 20
73.7475404572
 30
0.0
 10
94.0955532723
 20
73.8007101466
 30
0.0
 10
93.9286386245
 20
73.8876376866
 30
0.0
 10
93.7023906681
 20
73.9421106613
 30
0.0
 10
93.5246317103
 20
73.9474886387
 30
0.0
 10
93.3978672872
 20
73.9328532446
 30
0.0
 10
93.2786336063
 20
73.8998237628
 30
0.0
 10
93.2048877628
 20
73.8654961113
 30
0.0
 10
93.1703626072
 20
73.8455631224
 30
0.0
  0
SPLINE
  5
4B4
100
AcDbEntity
  8
0
100
AcDbSpline
 62
7
  6
BYLAYER
 70
0
 71
3
 72
13
 73
9
 74
0
 42
0.0000001
 43
0.0000001
 44
0.0000000001
 40
0.0
 40
0.0
 40
0.0
 40
0.0
 40
0.1182421847
 40
0.2372813023
 40
0.3578418522
 40
0.4805656325
 40
0.7339045219
 40
1.0
 40
1.0
 40
1.0
 40
1.0
 10
89.4593145188
 20
71.6570396762
 30
0.0
 10
89.4407265927
 20
71.6347041944
 30
0.0
 10
89.4064590833
 20
71.5872575796
 30
0.0
 10
89.3649902688
 20
71.5094222433
 30
0.0
 10
89.3338628449
 20
71.4257141483
 30
0.0
 10
89.306344509
 20
71.3065089368
 30
0.0
 10
89.3001667933
 20
71.147224642
 30
0.0
 10
89.3241528298
 20
71.0207207646
 30
0.0
 10
89.3426433865
 20
70.957995793
 30
0.0
  0
SPLINE
  5
4B5
100
AcDbEntity
  8
0
100
AcDbSpline
 62
7
  6
BYLAYER
 70
0
 71
3
 72
11
 73
7
 74
0
 42
0.0000001
 43
0.0000001
 44
0.0000000001
 40
0.0
 40
0.0
 40
0.0
 40
0.0
 40
0.2601696781
 40
0.515077836
 40
0.7622249237
 40
1.0
 40
1.0
 40
1.0
 40
1.0
 10
89.8171385034
 20
70.3284163099
 30
0.0
 10
89.8682665022
 20
70.2938970811
 30
0.0
 10
89.9747580799
 20
70.2329860207
 30
0.0
 10
90.1442258005
 20
70.168104492
 30
0.0
 10
90.316783265
 20
70.1324416035
 30
0.0
 10
90.4324697191
 20
70.1290238948
 30
0.0
 10
90.4887232282
 20
70.1327964278
 30
0.0
  0
SPLINE
  5
4B6
100
AcDbEntity
  8
0
100
AcDbSpline
 62
7
  6
BYLAYER
 70
0
 71
3
 72
11
 73
7
 74
0
 42
0.0000001
 43
0.0000001
 44
0.0000000001
 40
0.0
 40
0.0
 40
0.0
 40
0.0
 40
0.2371249324
 40
0.4812715792
 40
0.7351735563
 40
1.0
 40
1.0
 40
1.0
 40
1.0
 10
91.0544062979
 20
70.4593917509
 30
0.0
 10
91.0801943993
 20
70.5026384066
 30
0.0
 10
91.1223198916
 20
70.5969054096
 30
0.0
 10
91.1530344011
 20
70.7511455987
 30
0.0
 10
91.1513192337
 20
70.914172322
 30
0.0
 10
91.1291818456
 20
71.0228010676
 30
0.0
 10
91.1132812459
 20
71.0767402043
 30
0.0
  0
SPLINE
  5
4B7
100
AcDbEntity
  8
0
100
AcDbSpline
 62
7
  6
BYLAYER
 70
0
 71
3
 72
13
 73
9
 74
0
 42
0.0000001
 43
0.0000001
 44
0.0000000001
 40
0.0
 40
0.0
 40
0.0
 40
0.0
 40
0.112867296
 40
0.2289871248
 40
0.3488736646
 40
0.4727377396
 40
0.7309820975
 40
1.0
 40
1.0
 40
1.0
 40
1.0
 10
89.4423504734
 20
71.5730373183
 30
0.0
 10
89.476875629
 20
71.5929703072
 30
0.0
 10
89.5506214725
 20
71.6272979587
 30
0.0
 10
89.6698551534
 20
71.6603274405
 30
0.0
 10
89.7966195765
 20
71.6749628346
 30
0.0
 10
89.9743785344
 20
71.6695848572
 30
0.0
 10
90.2006264908
 20
71.6151118825
 30
0.0
 10
90.3675411386
 20
71.5281843425
 30
0.0
 10
90.4462931821
 20
71.4750146531
 30
0.0
  0
SPLINE
  5
4B8
100
AcDbEntity
  8
0
100
AcDbSpline
 62
7
  6
BYLAYER
 70
0
 71
3
 72
11
 73
7
 74
0
 42
0.0000001
 43
0.0000001
 44
0.0000000001
 40
0.0
 40
0.0
 40
0.0
 40
0.0
 40
0.2648264437
 40
0.5187284208
 40
0.7628750676
 40
1.0
 40
1.0
 40
1.0
 40
1.0
 10
90.9207882982
 20
70.8454351696
 30
0.0
 10
90.9366888979
 20
70.7914960329
 30
0.0
 10
90.958826286
 20
70.6828672873
 30
0.0
 10
90.9605414534
 20
70.5198405639
 30
0.0
 10
90.9298269439
 20
70.3656003748
 30
0.0
 10
90.8877014516
 20
70.2713333718
 30
0.0
 10
90.8619133502
 20
70.2280867161
 30
0.0
  0
SPLINE
  5
4B9
100
AcDbEntity
  8
0
100
AcDbSpline
 62
7
  6
BYLAYER
 70
0
 71
3
 72
9
 73
5
 74
0
 42
0.0000001
 43
0.0000001
 44
0.0000000001
 40
0.0
 40
0.0
 40
0.0
 40
0.0
 40
0.5027835396
 40
1.0
 40
1.0
 40
1.0
 40
1.0
 10
89.6348434211
 20
71.804342353
 30
0.0
 10
89.6014540199
 20
71.7850650883
 30
0.0
 10
89.5381796842
 20
71.7409737246
 30
0.0
 10
89.483703999
 20
71.6863463772
 30
0.0
 10
89.4593145188
 20
71.6570396762
 30
0.0
  0
SPLINE
  5
4BA
100
AcDbEntity
  8
0
100
AcDbSpline
 62
7
  6
BYLAYER
 70
0
 71
3
 72
13
 73
9
 74
0
 42
0.0000001
 43
0.0000001
 44
0.0000000001
 40
0.0
 40
0.0
 40
0.0
 40
0.0
 40
0.2690179025
 40
0.5272622604
 40
0.6511263354
 40
0.7710128752
 40
0.887132704
 40
1.0
 40
1.0
 40
1.0
 40
1.0
 10
90.6387861298
 20
71.7063196878
 30
0.0
 10
90.5600340863
 20
71.7594893772
 30
0.0
 10
90.3931194385
 20
71.8464169173
 30
0.0
 10
90.1668714821
 20
71.900889892
 30
0.0
 10
89.9891125242
 20
71.9062678693
 30
0.0
 10
89.8623481011
 20
71.8916324752
 30
0.0
 10
89.7431144202
 20
71.8586029935
 30
0.0
 10
89.6693685767
 20
71.8242753419
 30
0.0
 10
89.6348434211
 20
71.804342353
 30
0.0
  0
SPLINE
  5
4BB
100
AcDbEntity
  8
0
100
AcDbSpline
 62
7
  6
BYLAYER
 70
0
 71
3
 72
13
 73
9
 74
0
 42
0.0000001
 43
0.0000001
 44
0.0000000001
 40
0.0
 40
0.0
 40
0.0
 40
0.0
 40
0.1182421847
 40
0.2372813023
 40
0.3578418522
 40
0.4805656325
 40
0.7339045219
 40
1.0
 40
1.0
 40
1.0
 40
1.0
 10
100.0653694316
 20
95.4178211247
 30
0.0
 10
100.0467815055
 20
95.3954856429
 30
0.0
 10
100.0125139961
 20
95.3480390281
 30
0.0
 10
99.9710451816
 20
95.2702036918
 30
0.0
 10
99.9399177577
 20
95.1864955968
 30
0.0
 10
99.9123994218
 20
95.0672903853
 30
0.0
 10
99.9062217061
 20
94.9080060906
 30
0.0
 10
99.9302077426
 20
94.7815022131
 30
0.0
 10
99.9486982993
 20
94.7187772415
 30
0.0
  0
SPLINE
  5
4BC
100
AcDbEntity
  8
0
100
AcDbSpline
 62
7
  6
BYLAYER
 70
0
 71
3
 72
11
 73
7
 74
0
 42
0.0000001
 43
0.0000001
 44
0.0000000001
 40
0.0
 40
0.0
 40
0.0
 40
0.0
 40
0.2601696781
 40
0.515077836
 40
0.7622249237
 40
1.0
 40
1.0
 40
1.0
 40
1.0
 10
100.4231934162
 20
94.0891977585
 30
0.0
 10
100.474321415
 20
94.0546785296
 30
0.0
 10
100.5808129927
 20
93.9937674692
 30
0.0
 10
100.7502807133
 20
93.9288859405
 30
0.0
 10
100.9228381778
 20
93.893223052
 30
0.0
 10
101.0385246319
 20
93.8898053433
 30
0.0
 10
101.094778141
 20
93.8935778763
 30
0.0
  0
SPLINE
  5
4BD
100
AcDbEntity
  8
0
100
AcDbSpline
 62
7
  6
BYLAYER
 70
0
 71
3
 72
11
 73
7
 74
0
 42
0.0000001
 43
0.0000001
 44
0.0000000001
 40
0.0
 40
0.0
 40
0.0
 40
0.0
 40
0.2371249324
 40
0.4812715792
 40
0.7351735563
 40
1.0
 40
1.0
 40
1.0
 40
1.0
 10
101.6604612107
 20
94.2201731994
 30
0.0
 10
101.6862493121
 20
94.2634198551
 30
0.0
 10
101.7283748044
 20
94.3576868581
 30
0.0
 10
101.7590893139
 20
94.5119270472
 30
0.0
 10
101.7573741465
 20
94.6749537705
 30
0.0
 10
101.7352367584
 20
94.7835825161
 30
0.0
 10
101.7193361587
 20
94.8375216528
 30
0.0
  0
SPLINE
  5
4BE
100
AcDbEntity
  8
0
100
AcDbSpline
 62
7
  6
BYLAYER
 70
0
 71
3
 72
13
 73
9
 74
0
 42
0.0000001
 43
0.0000001
 44
0.0000000001
 40
0.0
 40
0.0
 40
0.0
 40
0.0
 40
0.112867296
 40
0.2289871248
 40
0.3488736646
 40
0.4727377396
 40
0.7309820975
 40
1.0
 40
1.0
 40
1.0
 40
1.0
 10
100.0484053862
 20
95.3338187668
 30
0.0
 10
100.0829305418
 20
95.3537517557
 30
0.0
 10
100.1566763853
 20
95.3880794072
 30
0.0
 10
100.2759100662
 20
95.421108889
 30
0.0
 10
100.4026744893
 20
95.4357442831
 30
0.0
 10
100.5804334472
 20
95.4303663057
 30
0.0
 10
100.8066814036
 20
95.3758933311
 30
0.0
 10
100.9735960514
 20
95.288965791
 30
0.0
 10
101.0523480949
 20
95.2357961016
 30
0.0
  0
SPLINE
  5
4BF
100
AcDbEntity
  8
0
100
AcDbSpline
 62
7
  6
BYLAYER
 70
0
 71
3
 72
11
 73
7
 74
0
 42
0.0000001
 43
0.0000001
 44
0.0000000001
 40
0.0
 40
0.0
 40
0.0
 40
0.0
 40
0.2648264437
 40
0.5187284208
 40
0.7628750676
 40
1.0
 40
1.0
 40
1.0
 40
1.0
 10
101.526843211
 20
94.6062166181
 30
0.0
 10
101.5427438107
 20
94.5522774814
 30
0.0
 10
101.5648811988
 20
94.4436487358
 30
0.0
 10
101.5665963662
 20
94.2806220124
 30
0.0
 10
101.5358818566
 20
94.1263818233
 30
0.0
 10
101.4937563644
 20
94.0321148204
 30
0.0
 10
101.467968263
 20
93.9888681646
 30
0.0
  0
SPLINE
  5
4C0
100
AcDbEntity
  8
0
100
AcDbSpline
 62
7
  6
BYLAYER
 70
0
 71
3
 72
9
 73
5
 74
0
 42
0.0000001
 43
0.0000001
 44
0.0000000001
 40
0.0
 40
0.0
 40
0.0
 40
0.0
 40
0.5027835396
 40
1.0
 40
1.0
 40
1.0
 40
1.0
 10
100.2408983339
 20
95.5651238015
 30
0.0
 10
100.2075089327
 20
95.5458465369
 30
0.0
 10
100.144234597
 20
95.5017551731
 30
0.0
 10
100.0897589118
 20
95.4471278257
 30
0.0
 10
100.0653694316
 20
95.4178211247
 30
0.0
  0
SPLINE
  5
4C1
100
AcDbEntity
  8
0
100
AcDbSpline
 62
7
  6
BYLAYER
 70
0
 71
3
 72
13
 73
9
 74
0
 42
0.0000001
 43
0.0000001
 44
0.0000000001
 40
0.0
 40
0.0
 40
0.0
 40
0.0
 40
0.2690179025
 40
0.5272622604
 40
0.6511263354
 40
0.7710128752
 40
0.887132704
 40
1.0
 40
1.0
 40
1.0
 40
1.0
 10
101.2448410426
 20
95.4671011363
 30
0.0
 10
101.1660889991
 20
95.5202708257
 30
0.0
 10
100.9991743513
 20
95.6071983658
 30
0.0
 10
100.7729263949
 20
95.6616713405
 30
0.0
 10
100.595167437
 20
95.6670493179
 30
0.0
 10
100.4684030139
 20
95.6524139237
 30
0.0
 10
100.349169333
 20
95.619384442
 30
0.0
 10
100.2754234895
 20
95.5850567905
 30
0.0
 10
100.2408983339
 20
95.5651238015
 30
0.0
  0
SPLINE
  5
4C2
100
AcDbEntity
  8
0
100
AcDbSpline
 62
7
  6
BYLAYER
 70
0
 71
3
 72
13
 73
9
 74
0
 42
0.0000001
 43
0.0000001
 44
0.0000000001
 40
0.0
 40
0.0
 40
0.0
 40
0.0
 40
0.1182421847
 40
0.2372813023
 40
0.3578418522
 40
0.4805656325
 40
0.7339045219
 40
1.0
 40
1.0
 40
1.0
 40
1.0
 10
96.5298502455
 20
93.3766003554
 30
0.0
 10
96.5112623194
 20
93.3542648736
 30
0.0
 10
96.47699481
 20
93.3068182587
 30
0.0
 10
96.4355259955
 20
93.2289829225
 30
0.0
 10
96.4043985716
 20
93.1452748274
 30
0.0
 10
96.3768802358
 20
93.026069616
 30
0.0
 10
96.3707025201
 20
92.8667853212
 30
0.0
 10
96.3946885566
 20
92.7402814437
 30
0.0
 10
96.4131791132
 20
92.6775564721
 30
0.0
  0
SPLINE
  5
4C3
100
AcDbEntity
  8
0
100
AcDbSpline
 62
7
  6
BYLAYER
 70
0
 71
3
 72
11
 73
7
 74
0
 42
0.0000001
 43
0.0000001
 44
0.0000000001
 40
0.0
 40
0.0
 40
0.0
 40
0.0
 40
0.2601696781
 40
0.515077836
 40
0.7622249237
 40
1.0
 40
1.0
 40
1.0
 40
1.0
 10
96.8876742302
 20
92.0479769891
 30
0.0
 10
96.9388022289
 20
92.0134577602
 30
0.0
 10
97.0452938066
 20
91.9525466999
 30
0.0
 10
97.2147615272
 20
91.8876651712
 30
0.0
 10
97.3873189918
 20
91.8520022827
 30
0.0
 10
97.5030054458
 20
91.8485845739
 30
0.0
 10
97.5592589549
 20
91.8523571069
 30
0.0
  0
SPLINE
  5
4C4
100
AcDbEntity
  8
0
100
AcDbSpline
 62
7
  6
BYLAYER
 70
0
 71
3
 72
11
 73
7
 74
0
 42
0.0000001
 43
0.0000001
 44
0.0000000001
 40
0.0
 40
0.0
 40
0.0
 40
0.0
 40
0.2371249324
 40
0.4812715792
 40
0.7351735563
 40
1.0
 40
1.0
 40
1.0
 40
1.0
 10
98.1249420247
 20
92.17895243
 30
0.0
 10
98.150730126
 20
92.2221990857
 30
0.0
 10
98.1928556183
 20
92.3164660887
 30
0.0
 10
98.2235701278
 20
92.4707062778
 30
0.0
 10
98.2218549604
 20
92.6337330012
 30
0.0
 10
98.1997175723
 20
92.7423617468
 30
0.0
 10
98.1838169726
 20
92.7963008835
 30
0.0
  0
SPLINE
  5
4C5
100
AcDbEntity
  8
0
100
AcDbSpline
 62
7
  6
BYLAYER
 70
0
 71
3
 72
13
 73
9
 74
0
 42
0.0000001
 43
0.0000001
 44
0.0000000001
 40
0.0
 40
0.0
 40
0.0
 40
0.0
 40
0.112867296
 40
0.2289871248
 40
0.3488736646
 40
0.4727377396
 40
0.7309820975
 40
1.0
 40
1.0
 40
1.0
 40
1.0
 10
96.5128862001
 20
93.2925979974
 30
0.0
 10
96.5474113558
 20
93.3125309864
 30
0.0
 10
96.6211571992
 20
93.3468586379
 30
0.0
 10
96.7403908802
 20
93.3798881196
 30
0.0
 10
96.8671553032
 20
93.3945235138
 30
0.0
 10
97.0449142611
 20
93.3891455364
 30
0.0
 10
97.2711622175
 20
93.3346725617
 30
0.0
 10
97.4380768653
 20
93.2477450216
 30
0.0
 10
97.5168289088
 20
93.1945753322
 30
0.0
  0
SPLINE
  5
4C6
100
AcDbEntity
  8
0
100
AcDbSpline
 62
7
  6
BYLAYER
 70
0
 71
3
 72
11
 73
7
 74
0
 42
0.0000001
 43
0.0000001
 44
0.0000000001
 40
0.0
 40
0.0
 40
0.0
 40
0.0
 40
0.2648264437
 40
0.5187284208
 40
0.7628750676
 40
1.0
 40
1.0
 40
1.0
 40
1.0
 10
97.9913240249
 20
92.5649958487
 30
0.0
 10
98.0072246246
 20
92.511056712
 30
0.0
 10
98.0293620127
 20
92.4024279664
 30
0.0
 10
98.0310771801
 20
92.2394012431
 30
0.0
 10
98.0003626706
 20
92.085161054
 30
0.0
 10
97.9582371783
 20
91.990894051
 30
0.0
 10
97.932449077
 20
91.9476473953
 30
0.0
  0
SPLINE
  5
4C7
100
AcDbEntity
  8
0
100
AcDbSpline
 62
7
  6
BYLAYER
 70
0
 71
3
 72
9
 73
5
 74
0
 42
0.0000001
 43
0.0000001
 44
0.0000000001
 40
0.0
 40
0.0
 40
0.0
 40
0.0
 40
0.5027835396
 40
1.0
 40
1.0
 40
1.0
 40
1.0
 10
96.7053791478
 20
93.5239030322
 30
0.0
 10
96.6719897466
 20
93.5046257675
 30
0.0
 10
96.6087154109
 20
93.4605344037
 30
0.0
 10
96.5542397257
 20
93.4059070564
 30
0.0
 10
96.5298502455
 20
93.3766003554
 30
0.0
  0
SPLINE
  5
4C8
100
AcDbEntity
  8
0
100
AcDbSpline
 62
7
  6
BYLAYER
 70
0
 71
3
 72
13
 73
9
 74
0
 42
0.0000001
 43
0.0000001
 44
0.0000000001
 40
0.0
 40
0.0
 40
0.0
 40
0.0
 40
0.2690179025
 40
0.5272622604
 40
0.6511263354
 40
0.7710128752
 40
0.887132704
 40
1.0
 40
1.0
 40
1.0
 40
1.0
 10
97.7093218565
 20
93.425880367
 30
0.0
 10
97.630569813
 20
93.4790500564
 30
0.0
 10
97.4636551652
 20
93.5659775964
 30
0.0
 10
97.2374072088
 20
93.6204505711
 30
0.0
 10
97.0596482509
 20
93.6258285485
 30
0.0
 10
96.9328838279
 20
93.6111931544
 30
0.0
 10
96.8136501469
 20
93.5781636726
 30
0.0
 10
96.7399043035
 20
93.5438360211
 30
0.0
 10
96.7053791478
 20
93.5239030322
 30
0.0
  0
SPLINE
  5
4C9
100
AcDbEntity
  8
0
100
AcDbSpline
 62
7
  6
BYLAYER
 70
0
 71
3
 72
13
 73
9
 74
0
 42
0.0000001
 43
0.0000001
 44
0.0000000001
 40
0.0
 40
0.0
 40
0.0
 40
0.0
 40
0.1182421847
 40
0.2372813023
 40
0.3578418522
 40
0.4805656325
 40
0.7339045219
 40
1.0
 40
1.0
 40
1.0
 40
1.0
 10
92.9943310594
 20
91.335379586
 30
0.0
 10
92.9757431333
 20
91.3130441042
 30
0.0
 10
92.9414756239
 20
91.2655974894
 30
0.0
 10
92.9000068095
 20
91.1877621531
 30
0.0
 10
92.8688793855
 20
91.1040540581
 30
0.0
 10
92.8413610497
 20
90.9848488466
 30
0.0
 10
92.835183334
 20
90.8255645518
 30
0.0
 10
92.8591693705
 20
90.6990606744
 30
0.0
 10
92.8776599272
 20
90.6363357028
 30
0.0
  0
SPLINE
  5
4CA
100
AcDbEntity
  8
0
100
AcDbSpline
 62
7
  6
BYLAYER
 70
0
 71
3
 72
11
 73
7
 74
0
 42
0.0000001
 43
0.0000001
 44
0.0000000001
 40
0.0
 40
0.0
 40
0.0
 40
0.0
 40
0.2601696781
 40
0.515077836
 40
0.7622249237
 40
1.0
 40
1.0
 40
1.0
 40
1.0
 10
93.3521550441
 20
90.0067562197
 30
0.0
 10
93.4032830429
 20
89.9722369909
 30
0.0
 10
93.5097746206
 20
89.9113259305
 30
0.0
 10
93.6792423412
 20
89.8464444018
 30
0.0
 10
93.8517998057
 20
89.8107815133
 30
0.0
 10
93.9674862598
 20
89.8073638046
 30
0.0
 10
94.0237397688
 20
89.8111363376
 30
0.0
  0
SPLINE
  5
4CB
100
AcDbEntity
  8
0
100
AcDbSpline
 62
7
  6
BYLAYER
 70
0
 71
3
 72
11
 73
7
 74
0
 42
0.0000001
 43
0.0000001
 44
0.0000000001
 40
0.0
 40
0.0
 40
0.0
 40
0.0
 40
0.2371249324
 40
0.4812715792
 40
0.7351735563
 40
1.0
 40
1.0
 40
1.0
 40
1.0
 10
94.5894228386
 20
90.1377316607
 30
0.0
 10
94.61521094
 20
90.1809783164
 30
0.0
 10
94.6573364322
 20
90.2752453194
 30
0.0
 10
94.6880509418
 20
90.4294855085
 30
0.0
 10
94.6863357744
 20
90.5925122318
 30
0.0
 10
94.6641983863
 20
90.7011409774
 30
0.0
 10
94.6482977866
 20
90.7550801141
 30
0.0
  0
SPLINE
  5
4CC
100
AcDbEntity
  8
0
100
AcDbSpline
 62
7
  6
BYLAYER
 70
0
 71
3
 72
13
 73
9
 74
0
 42
0.0000001
 43
0.0000001
 44
0.0000000001
 40
0.0
 40
0.0
 40
0.0
 40
0.0
 40
0.112867296
 40
0.2289871248
 40
0.3488736646
 40
0.4727377396
 40
0.7309820975
 40
1.0
 40
1.0
 40
1.0
 40
1.0
 10
92.977367014
 20
91.2513772281
 30
0.0
 10
93.0118921697
 20
91.271310217
 30
0.0
 10
93.0856380132
 20
91.3056378685
 30
0.0
 10
93.2048716941
 20
91.3386673503
 30
0.0
 10
93.3316361171
 20
91.3533027444
 30
0.0
 10
93.509395075
 20
91.347924767
 30
0.0
 10
93.7356430314
 20
91.2934517924
 30
0.0
 10
93.9025576792
 20
91.2065242523
 30
0.0
 10
93.9813097228
 20
91.1533545629
 30
0.0
  0
SPLINE
  5
4CD
100
AcDbEntity
  8
0
100
AcDbSpline
 62
7
  6
BYLAYER
 70
0
 71
3
 72
11
 73
7
 74
0
 42
0.0000001
 43
0.0000001
 44
0.0000000001
 40
0.0
 40
0.0
 40
0.0
 40
0.0
 40
0.2648264437
 40
0.5187284208
 40
0.7628750676
 40
1.0
 40
1.0
 40
1.0
 40
1.0
 10
94.4558048388
 20
90.5237750794
 30
0.0
 10
94.4717054385
 20
90.4698359427
 30
0.0
 10
94.4938428267
 20
90.3612071971
 30
0.0
 10
94.4955579941
 20
90.1981804737
 30
0.0
 10
94.4648434845
 20
90.0439402846
 30
0.0
 10
94.4227179923
 20
89.9496732816
 30
0.0
 10
94.3969298909
 20
89.9064266259
 30
0.0
  0
SPLINE
  5
4CE
100
AcDbEntity
  8
0
100
AcDbSpline
 62
7
  6
BYLAYER
 70
0
 71
3
 72
9
 73
5
 74
0
 42
0.0000001
 43
0.0000001
 44
0.0000000001
 40
0.0
 40
0.0
 40
0.0
 40
0.0
 40
0.5027835396
 40
1.0
 40
1.0
 40
1.0
 40
1.0
 10
93.1698599617
 20
91.4826822628
 30
0.0
 10
93.1364705606
 20
91.4634049981
 30
0.0
 10
93.0731962249
 20
91.4193136344
 30
0.0
 10
93.0187205397
 20
91.364686287
 30
0.0
 10
92.9943310594
 20
91.335379586
 30
0.0
  0
SPLINE
  5
4CF
100
AcDbEntity
  8
0
100
AcDbSpline
 62
7
  6
BYLAYER
 70
0
 71
3
 72
13
 73
9
 74
0
 42
0.0000001
 43
0.0000001
 44
0.0000000001
 40
0.0
 40
0.0
 40
0.0
 40
0.0
 40
0.2690179025
 40
0.5272622604
 40
0.6511263354
 40
0.7710128752
 40
0.887132704
 40
1.0
 40
1.0
 40
1.0
 40
1.0
 10
94.1738026705
 20
91.3846595976
 30
0.0
 10
94.0950506269
 20
91.437829287
 30
0.0
 10
93.9281359791
 20
91.5247568271
 30
0.0
 10
93.7018880227
 20
91.5792298018
 30
0.0
 10
93.5241290649
 20
91.5846077791
 30
0.0
 10
93.3973646418
 20
91.569972385
 30
0.0
 10
93.2781309609
 20
91.5369429033
 30
0.0
 10
93.2043851174
 20
91.5026152517
 30
0.0
 10
93.1698599617
 20
91.4826822628
 30
0.0
  0
SPLINE
  5
4D0
100
AcDbEntity
  8
0
100
AcDbSpline
 62
7
  6
BYLAYER
 70
0
 71
3
 72
12
 73
8
 74
0
 42
0.0000001
 43
0.0000001
 44
0.0000000001
 40
0.0
 40
0.0
 40
0.0
 40
0.0
 40
0.2895557227
 40
0.5486525747
 40
0.7816316463
 40
0.8918387372
 40
1.0
 40
1.0
 40
1.0
 40
1.0
 10
40.2339171915
 20
38.3626602107
 30
0.0
 10
40.1768607696
 20
38.3297188668
 30
0.0
 10
40.0633681292
 20
38.2757356944
 30
0.0
 10
39.8890634016
 20
38.2335662176
 30
0.0
 10
39.7498755259
 20
38.2372974533
 30
0.0
 10
39.6504997451
 20
38.2647783415
 30
0.0
 10
39.6052460638
 20
38.2859774095
 30
0.0
 10
39.583932998
 20
38.2982822365
 30
0.0
  0
SPLINE
  5
4D1
100
AcDbEntity
  8
0
100
AcDbSpline
 62
7
  6
BYLAYER
 70
0
 71
3
 72
12
 73
8
 74
0
 42
0.0000001
 43
0.0000001
 44
0.0000000001
 40
0.0
 40
0.0
 40
0.0
 40
0.0
 40
0.2895571842
 40
0.5486545569
 40
0.7816330299
 40
0.8918394861
 40
1.0
 40
1.0
 40
1.0
 40
1.0
 10
23.9704011674
 20
47.752220326
 30
0.0
 10
23.9704011674
 20
47.6863343979
 30
0.0
 10
23.9803968514
 20
47.5610498464
 30
0.0
 10
24.0310314378
 20
47.3890056134
 30
0.0
 10
24.1038600888
 20
47.2703266528
 30
0.0
 10
24.1773505668
 20
47.1980034186
 30
0.0
 10
24.2183381987
 20
47.1694118395
 30
0.0
 10
24.2396519623
 20
47.1571066096
 30
0.0
  0
SPLINE
  5
4D2
100
AcDbEntity
  8
0
100
AcDbSpline
 62
7
  6
BYLAYER
 70
0
 71
3
 72
12
 73
8
 74
0
 42
0.0000001
 43
0.0000001
 44
0.0000000001
 40
0.0
 40
0.0
 40
0.0
 40
0.0
 40
0.1081605139
 40
0.2183669701
 40
0.4513454431
 40
0.7104428158
 40
1.0
 40
1.0
 40
1.0
 40
1.0
 10
39.583932998
 20
38.2982822365
 30
0.0
 10
39.5626192344
 20
38.3105874664
 30
0.0
 10
39.5216316025
 20
38.3391790455
 30
0.0
 10
39.4481411245
 20
38.4115022797
 30
0.0
 10
39.3753124735
 20
38.5301812403
 30
0.0
 10
39.3246778871
 20
38.7022254733
 30
0.0
 10
39.3146822031
 20
38.8275100248
 30
0.0
 10
39.3146822031
 20
38.8933959529
 30
0.0
  0
SPLINE
  5
4D3
100
AcDbEntity
  8
0
100
AcDbSpline
 62
7
  6
BYLAYER
 70
0
 71
3
 72
18
 73
14
 74
0
 42
0.0000001
 43
0.0000001
 44
0.0000000001
 40
0.0
 40
0.0
 40
0.0
 40
0.0
 40
0.0225508243
 40
0.0475285013
 40
0.0767460922
 40
0.1112968054
 40
0.1517857986
 40
0.1985405118
 40
0.3111901947
 40
0.4491074383
 40
0.6111675818
 40
0.7956663559
 40
1.0
 40
1.0
 40
1.0
 40
1.0
 10
95.4871359228
 20
48.4367348712
 30
0.0
 10
95.4829481789
 20
48.4422892869
 30
0.0
 10
95.4719051504
 20
48.4524359097
 30
0.0
 10
95.4500594736
 20
48.4622763701
 30
0.0
 10
95.4229996799
 20
48.4674519433
 30
0.0
 10
95.3907482627
 20
48.4682101266
 30
0.0
 10
95.3532844421
 20
48.4646335706
 30
0.0
 10
95.2926077967
 20
48.4533333549
 30
0.0
 10
95.2044851761
 20
48.4271751055
 30
0.0
 10
95.0857685725
 20
48.3810745138
 30
0.0
 10
94.9498242433
 20
48.3188262911
 30
0.0
 10
94.798583531
 20
48.2412596269
 30
0.0
 10
94.6938421587
 20
48.1827669241
 30
0.0
 10
94.6392562098
 20
48.1512518999
 30
0.0
  0
SPLINE
  5
4D4
100
AcDbEntity
  8
0
100
AcDbSpline
 62
7
  6
BYLAYER
 70
0
 71
3
 72
18
 73
14
 74
0
 42
0.0000001
 43
0.0000001
 44
0.0000000001
 40
0.0
 40
0.0
 40
0.0
 40
0.0
 40
0.0225508243
 40
0.0475285013
 40
0.0767460922
 40
0.1112968054
 40
0.1517857986
 40
0.1985405118
 40
0.3111901947
 40
0.4491074383
 40
0.6111675818
 40
0.7956663559
 40
1.0
 40
1.0
 40
1.0
 40
1.0
 10
91.9516167367
 20
46.3955141018
 30
0.0
 10
91.9474289928
 20
46.4010685176
 30
0.0
 10
91.9363859643
 20
46.4112151404
 30
0.0
 10
91.9145402876
 20
46.4210556007
 30
0.0
 10
91.8874804938
 20
46.4262311739
 30
0.0
 10
91.8552290767
 20
46.4269893572
 30
0.0
 10
91.817765256
 20
46.4234128012
 30
0.0
 10
91.7570886106
 20
46.4121125856
 30
0.0
 10
91.66896599
 20
46.3859543361
 30
0.0
 10
91.5502493864
 20
46.3398537444
 30
0.0
 10
91.4143050572
 20
46.2776055217
 30
0.0
 10
91.2630643449
 20
46.2000388576
 30
0.0
 10
91.1583229726
 20
46.1415461547
 30
0.0
 10
91.1037370238
 20
46.1100311305
 30
0.0
  0
SPLINE
  5
4D5
100
AcDbEntity
  8
0
100
AcDbSpline
 62
7
  6
BYLAYER
 70
0
 71
3
 72
25
 73
21
 74
0
 42
0.0000001
 43
0.0000001
 44
0.0000000001
 40
0.0
 40
0.0
 40
0.0
 40
0.0
 40
0.1493033365
 40
0.3139599536
 40
0.3983554996
 40
0.4820682985
 40
0.5635734876
 40
0.6413893066
 40
0.7141084528
 40
0.780431603
 40
0.8392118422
 40
0.889479428
 40
0.9111876737
 40
0.9305233382
 40
0.9474601418
 40
0.9620034046
 40
0.974230211
 40
0.9843305463
 40
0.9926839994
 40
1.0
 40
1.0
 40
1.0
 40
1.0
 10
98.1747753959
 20
50.1924726693
 30
0.0
 10
98.0311514673
 20
50.1095518504
 30
0.0
 10
97.7354423733
 20
49.9242265949
 30
0.0
 10
97.372680987
 20
49.67058939
 30
0.0
 10
97.0771632274
 20
49.4485202435
 30
0.0
 10
96.8594244183
 20
49.2768225328
 30
0.0
 10
96.6515045235
 20
49.104601163
 30
0.0
 10
96.4572916322
 20
48.9351019376
 30
0.0
 10
96.2804225071
 20
48.7715213597
 30
0.0
 10
96.1241740778
 20
48.6169444627
 30
0.0
 10
95.9914326432
 20
48.4742966457
 30
0.0
 10
95.8982238117
 20
48.3627528797
 30
0.0
 10
95.8379878639
 20
48.2811119785
 30
0.0
 10
95.8023064442
 20
48.2274582916
 30
0.0
 10
95.773979648
 20
48.178582886
 30
0.0
 10
95.7531197006
 20
48.1346647847
 30
0.0
 10
95.7397781092
 20
48.09581829
 30
0.0
 10
95.7340009447
 20
48.06201984
 30
0.0
 10
95.7360635573
 20
48.0330671918
 30
0.0
 10
95.7435637163
 20
48.0167790733
 30
0.0
 10
95.7484547602
 20
48.0102893479
 30
0.0
  0
SPLINE
  5
4D6
100
AcDbEntity
  8
0
100
AcDbSpline
 62
7
  6
BYLAYER
 70
0
 71
3
 72
25
 73
21
 74
0
 42
0.0000001
 43
0.0000001
 44
0.0000000001
 40
0.0
 40
0.0
 40
0.0
 40
0.0
 40
0.1493033365
 40
0.3139599536
 40
0.3983554996
 40
0.4820682985
 40
0.5635734876
 40
0.6413893066
 40
0.7141084528
 40
0.780431603
 40
0.8392118422
 40
0.889479428
 40
0.9111876737
 40
0.9305233382
 40
0.9474601418
 40
0.9620034046
 40
0.974230211
 40
0.9843305463
 40
0.9926839994
 40
1.0
 40
1.0
 40
1.0
 40
1.0
 10
101.710294582
 20
52.2336934386
 30
0.0
 10
101.5666706534
 20
52.1507726198
 30
0.0
 10
101.2709615593
 20
51.9654473642
 30
0.0
 10
100.908200173
 20
51.7118101594
 30
0.0
 10
100.6126824135
 20
51.4897410129
 30
0.0
 10
100.3949436044
 20
51.3180433021
 30
0.0
 10
100.1870237095
 20
51.1458219324
 30
0.0
 10
99.9928108182
 20
50.9763227069
 30
0.0
 10
99.8159416931
 20
50.8127421291
 30
0.0
 10
99.6596932639
 20
50.658165232
 30
0.0
 10
99.5269518292
 20
50.5155174151
 30
0.0
 10
99.4337429978
 20
50.4039736491
 30
0.0
 10
99.37350705
 20
50.3223327479
 30
0.0
 10
99.3378256303
 20
50.2686790609
 30
0.0
 10
99.3094988341
 20
50.2198036553
 30
0.0
 10
99.2886388866
 20
50.175885554
 30
0.0
 10
99.2752972953
 20
50.1370390594
 30
0.0
 10
99.2695201307
 20
50.1032406093
 30
0.0
 10
99.2715827433
 20
50.0742879612
 30
0.0
 10
99.2790829024
 20
50.0579998427
 30
0.0
 10
99.2839739463
 20
50.0515101172
 30
0.0
  0
SPLINE
  5
4D7
100
AcDbEntity
  8
0
100
AcDbSpline
 62
7
  6
BYLAYER
 70
0
 71
3
 72
25
 73
21
 74
0
 42
0.0000001
 43
0.0000001
 44
0.0000000001
 40
0.0
 40
0.0
 40
0.0
 40
0.0
 40
0.1493033365
 40
0.3139599536
 40
0.3983554996
 40
0.4820682985
 40
0.5635734876
 40
0.6413893066
 40
0.7141084528
 40
0.780431603
 40
0.8392118422
 40
0.889479428
 40
0.9111876737
 40
0.9305233382
 40
0.9474601418
 40
0.9620034046
 40
0.974230211
 40
0.9843305463
 40
0.9926839994
 40
1.0
 40
1.0
 40
1.0
 40
1.0
 10
91.1037370238
 20
46.1100311305
 30
0.0
 10
90.9601130952
 20
46.0271103117
 30
0.0
 10
90.6644040011
 20
45.8417850562
 30
0.0
 10
90.3016426148
 20
45.5881478513
 30
0.0
 10
90.0061248553
 20
45.3660787048
 30
0.0
 10
89.7883860462
 20
45.1943809941
 30
0.0
 10
89.5804661513
 20
45.0221596243
 30
0.0
 10
89.38625326
 20
44.8526603989
 30
0.0
 10
89.2093841349
 20
44.689079821
 30
0.0
 10
89.0531357057
 20
44.534502924
 30
0.0
 10
88.920394271
 20
44.391855107
 30
0.0
 10
88.8271854396
 20
44.280311341
 30
0.0
 10
88.7669494918
 20
44.1986704398
 30
0.0
 10
88.7312680721
 20
44.1450167528
 30
0.0
 10
88.7029412759
 20
44.0961413473
 30
0.0
 10
88.6820813284
 20
44.052223246
 30
0.0
 10
88.668739737
 20
44.0133767513
 30
0.0
 10
88.6629625725
 20
43.9795783012
 30
0.0
 10
88.6650251851
 20
43.9506256531
 30
0.0
 10
88.6725253442
 20
43.9343375346
 30
0.0
 10
88.6774163881
 20
43.9278478092
 30
0.0
  0
SPLINE
  5
4D8
100
AcDbEntity
  8
0
100
AcDbSpline
 62
7
  6
BYLAYER
 70
0
 71
3
 72
25
 73
21
 74
0
 42
0.0000001
 43
0.0000001
 44
0.0000000001
 40
0.0
 40
0.0
 40
0.0
 40
0.0
 40
0.1493033365
 40
0.3139599536
 40
0.3983554996
 40
0.4820682985
 40
0.5635734876
 40
0.6413893066
 40
0.7141084528
 40
0.780431603
 40
0.8392118422
 40
0.889479428
 40
0.9111876737
 40
0.9305233382
 40
0.9474601418
 40
0.9620034046
 40
0.974230211
 40
0.9843305463
 40
0.9926839994
 40
1.0
 40
1.0
 40
1.0
 40
1.0
 10
94.6392562098
 20
48.1512518999
 30
0.0
 10
94.4956322812
 20
48.068331081
 30
0.0
 10
94.1999231872
 20
47.8830058255
 30
0.0
 10
93.8371618009
 20
47.6293686207
 30
0.0
 10
93.5416440413
 20
47.4072994742
 30
0.0
 10
93.3239052323
 20
47.2356017634
 30
0.0
 10
93.1159853374
 20
47.0633803937
 30
0.0
 10
92.9217724461
 20
46.8938811682
 30
0.0
 10
92.744903321
 20
46.7303005904
 30
0.0
 10
92.5886548918
 20
46.5757236933
 30
0.0
 10
92.4559134571
 20
46.4330758764
 30
0.0
 10
92.3627046256
 20
46.3215321103
 30
0.0
 10
92.3024686779
 20
46.2398912092
 30
0.0
 10
92.2667872582
 20
46.1862375222
 30
0.0
 10
92.238460462
 20
46.1373621166
 30
0.0
 10
92.2176005145
 20
46.0934440153
 30
0.0
 10
92.2042589231
 20
46.0545975207
 30
0.0
 10
92.1984817586
 20
46.0207990706
 30
0.0
 10
92.2005443712
 20
45.9918464225
 30
0.0
 10
92.2080445302
 20
45.9755583039
 30
0.0
 10
92.2129355741
 20
45.9690685785
 30
0.0
  0
SPLINE
  5
4D9
100
AcDbEntity
  8
0
100
AcDbSpline
 62
7
  6
BYLAYER
 70
0
 71
3
 72
18
 73
14
 74
0
 42
0.0000001
 43
0.0000001
 44
0.0000000001
 40
0.0
 40
0.0
 40
0.0
 40
0.0
 40
0.0225508243
 40
0.0475285013
 40
0.0767460922
 40
0.1112968054
 40
0.1517857986
 40
0.1985405118
 40
0.3111901947
 40
0.4491074383
 40
0.6111675818
 40
0.7956663559
 40
1.0
 40
1.0
 40
1.0
 40
1.0
 10
102.5581742949
 20
52.5191764099
 30
0.0
 10
102.553986551
 20
52.5247308256
 30
0.0
 10
102.5429435225
 20
52.5348774484
 30
0.0
 10
102.5210978458
 20
52.5447179088
 30
0.0
 10
102.494038052
 20
52.549893482
 30
0.0
 10
102.4617866349
 20
52.5506516653
 30
0.0
 10
102.4243228143
 20
52.5470751093
 30
0.0
 10
102.3636461688
 20
52.5357748936
 30
0.0
 10
102.2755235482
 20
52.5096166442
 30
0.0
 10
102.1568069446
 20
52.4635160525
 30
0.0
 10
102.0208626154
 20
52.4012678298
 30
0.0
 10
101.8696219031
 20
52.3237011656
 30
0.0
 10
101.7648805308
 20
52.2652084628
 30
0.0
 10
101.710294582
 20
52.2336934386
 30
0.0
  0
SPLINE
  5
4DA
100
AcDbEntity
  8
0
100
AcDbSpline
 62
7
  6
BYLAYER
 70
0
 71
3
 72
18
 73
14
 74
0
 42
0.0000001
 43
0.0000001
 44
0.0000000001
 40
0.0
 40
0.0
 40
0.0
 40
0.0
 40
0.0225508243
 40
0.0475285013
 40
0.0767460922
 40
0.1112968054
 40
0.1517857986
 40
0.1985405118
 40
0.3111901947
 40
0.4491074383
 40
0.6111675818
 40
0.7956663559
 40
1.0
 40
1.0
 40
1.0
 40
1.0
 10
99.0226551088
 20
50.4779556405
 30
0.0
 10
99.018467365
 20
50.4835100563
 30
0.0
 10
99.0074243364
 20
50.4936566791
 30
0.0
 10
98.9855786597
 20
50.5034971394
 30
0.0
 10
98.9585188659
 20
50.5086727127
 30
0.0
 10
98.9262674488
 20
50.5094308959
 30
0.0
 10
98.8888036282
 20
50.50585434
 30
0.0
 10
98.8281269827
 20
50.4945541243
 30
0.0
 10
98.7400043622
 20
50.4683958748
 30
0.0
 10
98.6212877585
 20
50.4222952831
 30
0.0
 10
98.4853434294
 20
50.3600470605
 30
0.0
 10
98.3341027171
 20
50.2824803963
 30
0.0
 10
98.2293613448
 20
50.2239876934
 30
0.0
 10
98.1747753959
 20
50.1924726693
 30
0.0
  0
SPLINE
  5
4DB
100
AcDbEntity
  8
0
100
AcDbSpline
 62
7
  6
BYLAYER
 70
0
 71
3
 72
9
 73
5
 74
0
 42
0.0000001
 43
0.0000001
 44
0.0000000001
 40
0.0
 40
0.0
 40
0.0
 40
0.0
 40
0.2367233443
 40
1.0
 40
1.0
 40
1.0
 40
1.0
 10
96.5963332247
 20
48.2957713844
 30
0.0
 10
96.6286508564
 20
48.3144298664
 30
0.0
 10
96.7644973131
 20
48.3944159395
 30
0.0
 10
96.8978304311
 20
48.4786348941
 30
0.0
 10
96.9983997579
 20
48.5446914411
 30
0.0
  0
SPLINE
  5
4DC
100
AcDbEntity
  8
0
100
AcDbSpline
 62
7
  6
BYLAYER
 70
0
 71
3
 72
23
 73
19
 74
0
 42
0.0000001
 43
0.0000001
 44
0.0000000001
 40
0.0
 40
0.0
 40
0.0
 40
0.0
 40
0.1680446132
 40
0.3410116291
 40
0.5091577884
 40
0.5884349391
 40
0.6630143287
 40
0.7318640808
 40
0.7940530866
 40
0.8487679429
 40
0.8953665744
 40
0.9334026619
 40
0.949175397
 40
0.9628135413
 40
0.9744211029
 40
0.984201769
 40
0.9925221059
 40
1.0
 40
1.0
 40
1.0
 40
1.0
 10
96.9983997579
 20
48.5446914411
 30
0.0
 10
97.1322765785
 20
48.6326252156
 30
0.0
 10
97.3997331223
 20
48.8175489732
 30
0.0
 10
97.7874450501
 20
49.1096329549
 30
0.0
 10
98.097552145
 20
49.3636133452
 30
0.0
 10
98.3280536586
 20
49.5663072875
 30
0.0
 10
98.4838138893
 20
49.7105655491
 30
0.0
 10
98.6236416314
 20
49.8479416891
 30
0.0
 10
98.7455254582
 20
49.9764194882
 30
0.0
 10
98.847766587
 20
50.0941342707
 30
0.0
 10
98.9289484807
 20
50.1993506905
 30
0.0
 10
98.9812157598
 20
50.2797745685
 30
0.0
 10
99.0105561394
 20
50.3370436871
 30
0.0
 10
99.0252826154
 20
50.3733323535
 30
0.0
 10
99.0341338428
 20
50.4056307101
 30
0.0
 10
99.0370490687
 20
50.433977525
 30
0.0
 10
99.0337864531
 20
50.4584446553
 30
0.0
 10
99.0269460414
 20
50.4722643604
 30
0.0
 10
99.0226551088
 20
50.4779556405
 30
0.0
  0
SPLINE
  5
4DD
100
AcDbEntity
  8
0
100
AcDbSpline
 62
7
  6
BYLAYER
 70
0
 71
3
 72
9
 73
5
 74
0
 42
0.0000001
 43
0.0000001
 44
0.0000000001
 40
0.0
 40
0.0
 40
0.0
 40
0.0
 40
0.2367233443
 40
1.0
 40
1.0
 40
1.0
 40
1.0
 10
100.1318524108
 20
50.3369921537
 30
0.0
 10
100.1641700425
 20
50.3556506358
 30
0.0
 10
100.3000164992
 20
50.4356367089
 30
0.0
 10
100.4333496172
 20
50.5198556634
 30
0.0
 10
100.533918944
 20
50.5859122105
 30
0.0
  0
SPLINE
  5
4DE
100
AcDbEntity
  8
0
100
AcDbSpline
 62
7
  6
BYLAYER
 70
0
 71
3
 72
23
 73
19
 74
0
 42
0.0000001
 43
0.0000001
 44
0.0000000001
 40
0.0
 40
0.0
 40
0.0
 40
0.0
 40
0.1680446132
 40
0.3410116291
 40
0.5091577884
 40
0.5884349391
 40
0.6630143287
 40
0.7318640808
 40
0.7940530866
 40
0.8487679429
 40
0.8953665744
 40
0.9334026619
 40
0.949175397
 40
0.9628135413
 40
0.9744211029
 40
0.984201769
 40
0.9925221059
 40
1.0
 40
1.0
 40
1.0
 40
1.0
 10
100.533918944
 20
50.5859122105
 30
0.0
 10
100.6677957645
 20
50.6738459849
 30
0.0
 10
100.9352523084
 20
50.8587697426
 30
0.0
 10
101.3229642361
 20
51.1508537242
 30
0.0
 10
101.6330713311
 20
51.4048341146
 30
0.0
 10
101.8635728447
 20
51.6075280569
 30
0.0
 10
102.0193330754
 20
51.7517863184
 30
0.0
 10
102.1591608175
 20
51.8891624585
 30
0.0
 10
102.2810446443
 20
52.0176402576
 30
0.0
 10
102.3832857731
 20
52.13535504
 30
0.0
 10
102.4644676668
 20
52.2405714599
 30
0.0
 10
102.5167349459
 20
52.3209953379
 30
0.0
 10
102.5460753255
 20
52.3782644565
 30
0.0
 10
102.5608018015
 20
52.4145531228
 30
0.0
 10
102.5696530289
 20
52.4468514795
 30
0.0
 10
102.5725682548
 20
52.4751982944
 30
0.0
 10
102.5693056392
 20
52.4996654247
 30
0.0
 10
102.5624652275
 20
52.5134851298
 30
0.0
 10
102.5581742949
 20
52.5191764099
 30
0.0
  0
SPLINE
  5
4DF
100
AcDbEntity
  8
0
100
AcDbSpline
 62
7
  6
BYLAYER
 70
0
 71
3
 72
9
 73
5
 74
0
 42
0.0000001
 43
0.0000001
 44
0.0000000001
 40
0.0
 40
0.0
 40
0.0
 40
0.0
 40
0.2367233443
 40
1.0
 40
1.0
 40
1.0
 40
1.0
 10
89.5252948526
 20
44.2133298457
 30
0.0
 10
89.5576124843
 20
44.2319883277
 30
0.0
 10
89.693458941
 20
44.3119744008
 30
0.0
 10
89.826792059
 20
44.3961933554
 30
0.0
 10
89.9273613858
 20
44.4622499024
 30
0.0
  0
SPLINE
  5
4E0
100
AcDbEntity
  8
0
100
AcDbSpline
 62
7
  6
BYLAYER
 70
0
 71
3
 72
23
 73
19
 74
0
 42
0.0000001
 43
0.0000001
 44
0.0000000001
 40
0.0
 40
0.0
 40
0.0
 40
0.0
 40
0.1680446132
 40
0.3410116291
 40
0.5091577884
 40
0.5884349391
 40
0.6630143287
 40
0.7318640808
 40
0.7940530866
 40
0.8487679429
 40
0.8953665744
 40
0.9334026619
 40
0.949175397
 40
0.9628135413
 40
0.9744211029
 40
0.984201769
 40
0.9925221059
 40
1.0
 40
1.0
 40
1.0
 40
1.0
 10
89.9273613858
 20
44.4622499024
 30
0.0
 10
90.0612382063
 20
44.5501836769
 30
0.0
 10
90.3286947502
 20
44.7351074345
 30
0.0
 10
90.7164066779
 20
45.0271914161
 30
0.0
 10
91.0265137729
 20
45.2811718065
 30
0.0
 10
91.2570152864
 20
45.4838657488
 30
0.0
 10
91.4127755172
 20
45.6281240104
 30
0.0
 10
91.5526032593
 20
45.7655001504
 30
0.0
 10
91.674487086
 20
45.8939779495
 30
0.0
 10
91.7767282149
 20
46.0116927319
 30
0.0
 10
91.8579101086
 20
46.1169091518
 30
0.0
 10
91.9101773877
 20
46.1973330298
 30
0.0
 10
91.9395177673
 20
46.2546021484
 30
0.0
 10
91.9542442433
 20
46.2908908148
 30
0.0
 10
91.9630954707
 20
46.3231891714
 30
0.0
 10
91.9660106966
 20
46.3515359863
 30
0.0
 10
91.962748081
 20
46.3760031166
 30
0.0
 10
91.9559076693
 20
46.3898228217
 30
0.0
 10
91.9516167367
 20
46.3955141018
 30
0.0
  0
SPLINE
  5
4E1
100
AcDbEntity
  8
0
100
AcDbSpline
 62
7
  6
BYLAYER
 70
0
 71
3
 72
9
 73
5
 74
0
 42
0.0000001
 43
0.0000001
 44
0.0000000001
 40
0.0
 40
0.0
 40
0.0
 40
0.0
 40
0.2367233443
 40
1.0
 40
1.0
 40
1.0
 40
1.0
 10
93.0608140386
 20
46.254550615
 30
0.0
 10
93.0931316704
 20
46.273209097
 30
0.0
 10
93.2289781271
 20
46.3531951702
 30
0.0
 10
93.362311245
 20
46.4374141247
 30
0.0
 10
93.4628805718
 20
46.5034706718
 30
0.0
  0
SPLINE
  5
4E2
100
AcDbEntity
  8
0
100
AcDbSpline
 62
7
  6
BYLAYER
 70
0
 71
3
 72
23
 73
19
 74
0
 42
0.0000001
 43
0.0000001
 44
0.0000000001
 40
0.0
 40
0.0
 40
0.0
 40
0.0
 40
0.1680446132
 40
0.3410116291
 40
0.5091577884
 40
0.5884349391
 40
0.6630143287
 40
0.7318640808
 40
0.7940530866
 40
0.8487679429
 40
0.8953665744
 40
0.9334026619
 40
0.949175397
 40
0.9628135413
 40
0.9744211029
 40
0.984201769
 40
0.9925221059
 40
1.0
 40
1.0
 40
1.0
 40
1.0
 10
93.4628805718
 20
46.5034706718
 30
0.0
 10
93.5967573924
 20
46.5914044462
 30
0.0
 10
93.8642139363
 20
46.7763282039
 30
0.0
 10
94.251925864
 20
47.0684121855
 30
0.0
 10
94.562032959
 20
47.3223925759
 30
0.0
 10
94.7925344725
 20
47.5250865182
 30
0.0
 10
94.9482947033
 20
47.6693447797
 30
0.0
 10
95.0881224454
 20
47.8067209197
 30
0.0
 10
95.2100062721
 20
47.9351987189
 30
0.0
 10
95.3122474009
 20
48.0529135013
 30
0.0
 10
95.3934292946
 20
48.1581299212
 30
0.0
 10
95.4456965738
 20
48.2385537991
 30
0.0
 10
95.4750369533
 20
48.2958229178
 30
0.0
 10
95.4897634293
 20
48.3321115841
 30
0.0
 10
95.4986146567
 20
48.3644099408
 30
0.0
 10
95.5015298827
 20
48.3927567557
 30
0.0
 10
95.4982672671
 20
48.417223886
 30
0.0
 10
95.4914268553
 20
48.431043591
 30
0.0
 10
95.4871359228
 20
48.4367348712
 30
0.0
  0
SPLINE
  5
4E3
100
AcDbEntity
  8
0
100
AcDbSpline
 62
7
  6
BYLAYER
 70
0
 71
3
 72
18
 73
14
 74
0
 42
0.0000001
 43
0.0000001
 44
0.0000000001
 40
0.0
 40
0.0
 40
0.0
 40
0.0
 40
0.0225501232
 40
0.0475286053
 40
0.0767470449
 40
0.1112956702
 40
0.1517840234
 40
0.198542008
 40
0.3111877744
 40
0.4491040205
 40
0.6111673845
 40
0.7956739711
 40
1.0
 40
1.0
 40
1.0
 40
1.0
 10
92.2129355741
 20
45.9690685785
 30
0.0
 10
92.2171221641
 20
45.9635135641
 30
0.0
 10
92.2281630366
 20
45.9533639124
 30
0.0
 10
92.2500112328
 20
45.943527045
 30
0.0
 10
92.2770705221
 20
45.9383524133
 30
0.0
 10
92.309321356
 20
45.9375915353
 30
0.0
 10
92.3467854855
 20
45.9411679923
 30
0.0
 10
92.4074609988
 20
45.9524718374
 30
0.0
 10
92.4955842819
 20
45.9786252111
 30
0.0
 10
92.6142997329
 20
46.0247280229
 30
0.0
 10
92.7502473204
 20
46.0869762511
 30
0.0
 10
92.9014883228
 20
46.1645447809
 30
0.0
 10
93.0062301259
 20
46.2230367665
 30
0.0
 10
93.0608140386
 20
46.254550615
 30
0.0
  0
SPLINE
  5
4E4
100
AcDbEntity
  8
0
100
AcDbSpline
 62
7
  6
BYLAYER
 70
0
 71
3
 72
18
 73
14
 74
0
 42
0.0000001
 43
0.0000001
 44
0.0000000001
 40
0.0
 40
0.0
 40
0.0
 40
0.0
 40
0.0225501232
 40
0.0475286053
 40
0.0767470449
 40
0.1112956702
 40
0.1517840234
 40
0.198542008
 40
0.3111877744
 40
0.4491040205
 40
0.6111673845
 40
0.7956739711
 40
1.0
 40
1.0
 40
1.0
 40
1.0
 10
99.2839739463
 20
50.0515101172
 30
0.0
 10
99.2881605363
 20
50.0459551028
 30
0.0
 10
99.2992014087
 20
50.0358054511
 30
0.0
 10
99.3210496049
 20
50.0259685837
 30
0.0
 10
99.3481088942
 20
50.0207939521
 30
0.0
 10
99.3803597281
 20
50.020033074
 30
0.0
 10
99.4178238577
 20
50.023609531
 30
0.0
 10
99.478499371
 20
50.0349133761
 30
0.0
 10
99.5666226541
 20
50.0610667498
 30
0.0
 10
99.6853381051
 20
50.1071695616
 30
0.0
 10
99.8212856926
 20
50.1694177898
 30
0.0
 10
99.9725266949
 20
50.2469863196
 30
0.0
 10
100.0772684981
 20
50.3054783052
 30
0.0
 10
100.1318524108
 20
50.3369921537
 30
0.0
  0
SPLINE
  5
4E5
100
AcDbEntity
  8
0
100
AcDbSpline
 62
7
  6
BYLAYER
 70
0
 71
3
 72
18
 73
14
 74
0
 42
0.0000001
 43
0.0000001
 44
0.0000000001
 40
0.0
 40
0.0
 40
0.0
 40
0.0
 40
0.0225501232
 40
0.0475286053
 40
0.0767470449
 40
0.1112956702
 40
0.1517840234
 40
0.198542008
 40
0.3111877744
 40
0.4491040205
 40
0.6111673845
 40
0.7956739711
 40
1.0
 40
1.0
 40
1.0
 40
1.0
 10
88.6774163881
 20
43.9278478092
 30
0.0
 10
88.6816029781
 20
43.9222927948
 30
0.0
 10
88.6926438505
 20
43.9121431431
 30
0.0
 10
88.7144920467
 20
43.9023062756
 30
0.0
 10
88.741551336
 20
43.897131644
 30
0.0
 10
88.7738021699
 20
43.896370766
 30
0.0
 10
88.8112662994
 20
43.899947223
 30
0.0
 10
88.8719418128
 20
43.9112510681
 30
0.0
 10
88.9600650959
 20
43.9374044418
 30
0.0
 10
89.0787805469
 20
43.9835072536
 30
0.0
 10
89.2147281344
 20
44.0457554818
 30
0.0
 10
89.3659691367
 20
44.1233240115
 30
0.0
 10
89.4707109399
 20
44.1818159971
 30
0.0
 10
89.5252948526
 20
44.2133298457
 30
0.0
  0
SPLINE
  5
4E6
100
AcDbEntity
  8
0
100
AcDbSpline
 62
7
  6
BYLAYER
 70
0
 71
3
 72
18
 73
14
 74
0
 42
0.0000001
 43
0.0000001
 44
0.0000000001
 40
0.0
 40
0.0
 40
0.0
 40
0.0
 40
0.0225501232
 40
0.0475286053
 40
0.0767470449
 40
0.1112956702
 40
0.1517840234
 40
0.198542008
 40
0.3111877744
 40
0.4491040205
 40
0.6111673845
 40
0.7956739711
 40
1.0
 40
1.0
 40
1.0
 40
1.0
 10
95.7484547602
 20
48.0102893479
 30
0.0
 10
95.7526413502
 20
48.0047343335
 30
0.0
 10
95.7636822226
 20
47.9945846818
 30
0.0
 10
95.7855304189
 20
47.9847478143
 30
0.0
 10
95.8125897081
 20
47.9795731827
 30
0.0
 10
95.844840542
 20
47.9788123047
 30
0.0
 10
95.8823046716
 20
47.9823887617
 30
0.0
 10
95.9429801849
 20
47.9936926068
 30
0.0
 10
96.031103468
 20
48.0198459805
 30
0.0
 10
96.149818919
 20
48.0659487923
 30
0.0
 10
96.2857665065
 20
48.1281970205
 30
0.0
 10
96.4370075088
 20
48.2057655503
 30
0.0
 10
96.541749312
 20
48.2642575358
 30
0.0
 10
96.5963332247
 20
48.2957713844
 30
0.0
  0
SPLINE
  5
4E7
100
AcDbEntity
  8
0
100
AcDbSpline
 62
7
  6
BYLAYER
 70
0
 71
3
 72
18
 73
14
 74
0
 42
0.0000001
 43
0.0000001
 44
0.0000000001
 40
0.0
 40
0.0
 40
0.0
 40
0.0
 40
0.0225508243
 40
0.0475285013
 40
0.0767460922
 40
0.1112968054
 40
0.1517857986
 40
0.1985405118
 40
0.3111901947
 40
0.4491074383
 40
0.6111675818
 40
0.7956663559
 40
1.0
 40
1.0
 40
1.0
 40
1.0
 10
95.4184468782
 20
66.1406166588
 30
0.0
 10
95.4142591344
 20
66.1461710745
 30
0.0
 10
95.4032161058
 20
66.1563176973
 30
0.0
 10
95.3813704291
 20
66.1661581577
 30
0.0
 10
95.3543106353
 20
66.1713337309
 30
0.0
 10
95.3220592182
 20
66.1720919142
 30
0.0
 10
95.2845953976
 20
66.1685153582
 30
0.0
 10
95.2239187521
 20
66.1572151425
 30
0.0
 10
95.1357961316
 20
66.1310568931
 30
0.0
 10
95.0170795279
 20
66.0849563014
 30
0.0
 10
94.8811351987
 20
66.0227080787
 30
0.0
 10
94.7298944865
 20
65.9451414145
 30
0.0
 10
94.6251531141
 20
65.8866487116
 30
0.0
 10
94.5705671653
 20
65.8551336875
 30
0.0
  0
SPLINE
  5
4E8
100
AcDbEntity
  8
0
100
AcDbSpline
 62
7
  6
BYLAYER
 70
0
 71
3
 72
18
 73
14
 74
0
 42
0.0000001
 43
0.0000001
 44
0.0000000001
 40
0.0
 40
0.0
 40
0.0
 40
0.0
 40
0.0225508243
 40
0.0475285013
 40
0.0767460922
 40
0.1112968054
 40
0.1517857986
 40
0.1985405118
 40
0.3111901947
 40
0.4491074383
 40
0.6111675818
 40
0.7956663559
 40
1.0
 40
1.0
 40
1.0
 40
1.0
 10
91.8829276922
 20
64.0993958894
 30
0.0
 10
91.8787399483
 20
64.1049503052
 30
0.0
 10
91.8676969198
 20
64.1150969279
 30
0.0
 10
91.845851243
 20
64.1249373883
 30
0.0
 10
91.8187914493
 20
64.1301129615
 30
0.0
 10
91.7865400321
 20
64.1308711448
 30
0.0
 10
91.7490762115
 20
64.1272945888
 30
0.0
 10
91.6883995661
 20
64.1159943732
 30
0.0
 10
91.6002769455
 20
64.0898361237
 30
0.0
 10
91.4815603419
 20
64.043735532
 30
0.0
 10
91.3456160127
 20
63.9814873093
 30
0.0
 10
91.1943753004
 20
63.9039206451
 30
0.0
 10
91.0896339281
 20
63.8454279423
 30
0.0
 10
91.0350479792
 20
63.8139129181
 30
0.0
  0
SPLINE
  5
4E9
100
AcDbEntity
  8
0
100
AcDbSpline
 62
7
  6
BYLAYER
 70
0
 71
3
 72
25
 73
21
 74
0
 42
0.0000001
 43
0.0000001
 44
0.0000000001
 40
0.0
 40
0.0
 40
0.0
 40
0.0
 40
0.1493033365
 40
0.3139599536
 40
0.3983554996
 40
0.4820682985
 40
0.5635734876
 40
0.6413893066
 40
0.7141084528
 40
0.780431603
 40
0.8392118422
 40
0.889479428
 40
0.9111876737
 40
0.9305233382
 40
0.9474601418
 40
0.9620034046
 40
0.974230211
 40
0.9843305463
 40
0.9926839994
 40
1.0
 40
1.0
 40
1.0
 40
1.0
 10
98.1060863513
 20
67.8963544569
 30
0.0
 10
97.9624624228
 20
67.813433638
 30
0.0
 10
97.6667533287
 20
67.6281083825
 30
0.0
 10
97.3039919424
 20
67.3744711776
 30
0.0
 10
97.0084741829
 20
67.1524020311
 30
0.0
 10
96.7907353738
 20
66.9807043204
 30
0.0
 10
96.5828154789
 20
66.8084829506
 30
0.0
 10
96.3886025876
 20
66.6389837252
 30
0.0
 10
96.2117334625
 20
66.4754031473
 30
0.0
 10
96.0554850333
 20
66.3208262503
 30
0.0
 10
95.9227435986
 20
66.1781784333
 30
0.0
 10
95.8295347672
 20
66.0666346673
 30
0.0
 10
95.7692988194
 20
65.9849937661
 30
0.0
 10
95.7336173997
 20
65.9313400791
 30
0.0
 10
95.7052906035
 20
65.8824646736
 30
0.0
 10
95.684430656
 20
65.8385465723
 30
0.0
 10
95.6710890646
 20
65.7997000776
 30
0.0
 10
95.6653119001
 20
65.7659016276
 30
0.0
 10
95.6673745127
 20
65.7369489794
 30
0.0
 10
95.6748746717
 20
65.7206608609
 30
0.0
 10
95.6797657157
 20
65.7141711355
 30
0.0
  0
SPLINE
  5
4EA
100
AcDbEntity
  8
0
100
AcDbSpline
 62
7
  6
BYLAYER
 70
0
 71
3
 72
25
 73
21
 74
0
 42
0.0000001
 43
0.0000001
 44
0.0000000001
 40
0.0
 40
0.0
 40
0.0
 40
0.0
 40
0.1493033365
 40
0.3139599536
 40
0.3983554996
 40
0.4820682985
 40
0.5635734876
 40
0.6413893066
 40
0.7141084528
 40
0.780431603
 40
0.8392118422
 40
0.889479428
 40
0.9111876737
 40
0.9305233382
 40
0.9474601418
 40
0.9620034046
 40
0.974230211
 40
0.9843305463
 40
0.9926839994
 40
1.0
 40
1.0
 40
1.0
 40
1.0
 10
101.6416055374
 20
69.9375752262
 30
0.0
 10
101.4979816088
 20
69.8546544073
 30
0.0
 10
101.2022725148
 20
69.6693291518
 30
0.0
 10
100.8395111285
 20
69.415691947
 30
0.0
 10
100.5439933689
 20
69.1936228005
 30
0.0
 10
100.3262545599
 20
69.0219250897
 30
0.0
 10
100.118334665
 20
68.84970372
 30
0.0
 10
99.9241217737
 20
68.6802044945
 30
0.0
 10
99.7472526486
 20
68.5166239167
 30
0.0
 10
99.5910042194
 20
68.3620470196
 30
0.0
 10
99.4582627847
 20
68.2193992027
 30
0.0
 10
99.3650539532
 20
68.1078554366
 30
0.0
 10
99.3048180055
 20
68.0262145355
 30
0.0
 10
99.2691365858
 20
67.9725608485
 30
0.0
 10
99.2408097896
 20
67.9236854429
 30
0.0
 10
99.2199498421
 20
67.8797673416
 30
0.0
 10
99.2066082507
 20
67.840920847
 30
0.0
 10
99.2008310862
 20
67.8071223969
 30
0.0
 10
99.2028936988
 20
67.7781697488
 30
0.0
 10
99.2103938578
 20
67.7618816303
 30
0.0
 10
99.2152849017
 20
67.7553919048
 30
0.0
  0
SPLINE
  5
4EB
100
AcDbEntity
  8
0
100
AcDbSpline
 62
7
  6
BYLAYER
 70
0
 71
3
 72
25
 73
21
 74
0
 42
0.0000001
 43
0.0000001
 44
0.0000000001
 40
0.0
 40
0.0
 40
0.0
 40
0.0
 40
0.1493033365
 40
0.3139599536
 40
0.3983554996
 40
0.4820682985
 40
0.5635734876
 40
0.6413893066
 40
0.7141084528
 40
0.780431603
 40
0.8392118422
 40
0.889479428
 40
0.9111876737
 40
0.9305233382
 40
0.9474601418
 40
0.9620034046
 40
0.974230211
 40
0.9843305463
 40
0.9926839994
 40
1.0
 40
1.0
 40
1.0
 40
1.0
 10
91.0350479792
 20
63.8139129181
 30
0.0
 10
90.8914240506
 20
63.7309920993
 30
0.0
 10
90.5957149566
 20
63.5456668438
 30
0.0
 10
90.2329535703
 20
63.2920296389
 30
0.0
 10
89.9374358107
 20
63.0699604924
 30
0.0
 10
89.7196970017
 20
62.8982627817
 30
0.0
 10
89.5117771068
 20
62.7260414119
 30
0.0
 10
89.3175642155
 20
62.5565421865
 30
0.0
 10
89.1406950904
 20
62.3929616086
 30
0.0
 10
88.9844466612
 20
62.2383847116
 30
0.0
 10
88.8517052265
 20
62.0957368946
 30
0.0
 10
88.758496395
 20
61.9841931286
 30
0.0
 10
88.6982604473
 20
61.9025522274
 30
0.0
 10
88.6625790275
 20
61.8488985404
 30
0.0
 10
88.6342522314
 20
61.8000231349
 30
0.0
 10
88.6133922839
 20
61.7561050336
 30
0.0
 10
88.6000506925
 20
61.7172585389
 30
0.0
 10
88.594273528
 20
61.6834600888
 30
0.0
 10
88.5963361406
 20
61.6545074407
 30
0.0
 10
88.6038362996
 20
61.6382193222
 30
0.0
 10
88.6087273435
 20
61.6317295968
 30
0.0
  0
SPLINE
  5
4EC
100
AcDbEntity
  8
0
100
AcDbSpline
 62
7
  6
BYLAYER
 70
0
 71
3
 72
25
 73
21
 74
0
 42
0.0000001
 43
0.0000001
 44
0.0000000001
 40
0.0
 40
0.0
 40
0.0
 40
0.0
 40
0.1493033365
 40
0.3139599536
 40
0.3983554996
 40
0.4820682985
 40
0.5635734876
 40
0.6413893066
 40
0.7141084528
 40
0.780431603
 40
0.8392118422
 40
0.889479428
 40
0.9111876737
 40
0.9305233382
 40
0.9474601418
 40
0.9620034046
 40
0.974230211
 40
0.9843305463
 40
0.9926839994
 40
1.0
 40
1.0
 40
1.0
 40
1.0
 10
94.5705671653
 20
65.8551336875
 30
0.0
 10
94.4269432367
 20
65.7722128686
 30
0.0
 10
94.1312341427
 20
65.5868876131
 30
0.0
 10
93.7684727564
 20
65.3332504083
 30
0.0
 10
93.4729549968
 20
65.1111812618
 30
0.0
 10
93.2552161877
 20
64.939483551
 30
0.0
 10
93.0472962929
 20
64.7672621813
 30
0.0
 10
92.8530834015
 20
64.5977629558
 30
0.0
 10
92.6762142764
 20
64.434182378
 30
0.0
 10
92.5199658472
 20
64.2796054809
 30
0.0
 10
92.3872244125
 20
64.1369576639
 30
0.0
 10
92.2940155811
 20
64.0254138979
 30
0.0
 10
92.2337796333
 20
63.9437729968
 30
0.0
 10
92.1980982136
 20
63.8901193098
 30
0.0
 10
92.1697714174
 20
63.8412439042
 30
0.0
 10
92.1489114699
 20
63.7973258029
 30
0.0
 10
92.1355698786
 20
63.7584793083
 30
0.0
 10
92.129792714
 20
63.7246808582
 30
0.0
 10
92.1318553266
 20
63.6957282101
 30
0.0
 10
92.1393554857
 20
63.6794400915
 30
0.0
 10
92.1442465296
 20
63.6729503661
 30
0.0
  0
SPLINE
  5
4ED
100
AcDbEntity
  8
0
100
AcDbSpline
 62
7
  6
BYLAYER
 70
0
 71
3
 72
18
 73
14
 74
0
 42
0.0000001
 43
0.0000001
 44
0.0000000001
 40
0.0
 40
0.0
 40
0.0
 40
0.0
 40
0.0225508243
 40
0.0475285013
 40
0.0767460922
 40
0.1112968054
 40
0.1517857986
 40
0.1985405118
 40
0.3111901947
 40
0.4491074383
 40
0.6111675818
 40
0.7956663559
 40
1.0
 40
1.0
 40
1.0
 40
1.0
 10
102.4894852504
 20
70.2230581975
 30
0.0
 10
102.4852975065
 20
70.2286126132
 30
0.0
 10
102.474254478
 20
70.238759236
 30
0.0
 10
102.4524088012
 20
70.2485996964
 30
0.0
 10
102.4253490075
 20
70.2537752696
 30
0.0
 10
102.3930975903
 20
70.2545334529
 30
0.0
 10
102.3556337697
 20
70.2509568969
 30
0.0
 10
102.2949571243
 20
70.2396566812
 30
0.0
 10
102.2068345037
 20
70.2134984318
 30
0.0
 10
102.0881179001
 20
70.1673978401
 30
0.0
 10
101.9521735709
 20
70.1051496174
 30
0.0
 10
101.8009328586
 20
70.0275829532
 30
0.0
 10
101.6961914863
 20
69.9690902504
 30
0.0
 10
101.6416055374
 20
69.9375752262
 30
0.0
  0
SPLINE
  5
4EE
100
AcDbEntity
  8
0
100
AcDbSpline
 62
7
  6
BYLAYER
 70
0
 71
3
 72
18
 73
14
 74
0
 42
0.0000001
 43
0.0000001
 44
0.0000000001
 40
0.0
 40
0.0
 40
0.0
 40
0.0
 40
0.0225508243
 40
0.0475285013
 40
0.0767460922
 40
0.1112968054
 40
0.1517857986
 40
0.1985405118
 40
0.3111901947
 40
0.4491074383
 40
0.6111675818
 40
0.7956663559
 40
1.0
 40
1.0
 40
1.0
 40
1.0
 10
98.9539660643
 20
68.1818374281
 30
0.0
 10
98.9497783204
 20
68.1873918439
 30
0.0
 10
98.9387352919
 20
68.1975384667
 30
0.0
 10
98.9168896151
 20
68.207378927
 30
0.0
 10
98.8898298214
 20
68.2125545003
 30
0.0
 10
98.8575784043
 20
68.2133126835
 30
0.0
 10
98.8201145836
 20
68.2097361276
 30
0.0
 10
98.7594379382
 20
68.1984359119
 30
0.0
 10
98.6713153176
 20
68.1722776624
 30
0.0
 10
98.552598714
 20
68.1261770707
 30
0.0
 10
98.4166543848
 20
68.0639288481
 30
0.0
 10
98.2654136725
 20
67.9863621839
 30
0.0
 10
98.1606723002
 20
67.927869481
 30
0.0
 10
98.1060863513
 20
67.8963544569
 30
0.0
  0
SPLINE
  5
4EF
100
AcDbEntity
  8
0
100
AcDbSpline
 62
7
  6
BYLAYER
 70
0
 71
3
 72
9
 73
5
 74
0
 42
0.0000001
 43
0.0000001
 44
0.0000000001
 40
0.0
 40
0.0
 40
0.0
 40
0.0
 40
0.2367233443
 40
1.0
 40
1.0
 40
1.0
 40
1.0
 10
96.5276441802
 20
65.999653172
 30
0.0
 10
96.5599618119
 20
66.018311654
 30
0.0
 10
96.6958082686
 20
66.0982977271
 30
0.0
 10
96.8291413865
 20
66.1825166817
 30
0.0
 10
96.9297107134
 20
66.2485732287
 30
0.0
  0
SPLINE
  5
4F0
100
AcDbEntity
  8
0
100
AcDbSpline
 62
7
  6
BYLAYER
 70
0
 71
3
 72
23
 73
19
 74
0
 42
0.0000001
 43
0.0000001
 44
0.0000000001
 40
0.0
 40
0.0
 40
0.0
 40
0.0
 40
0.1680446132
 40
0.3410116291
 40
0.5091577884
 40
0.5884349391
 40
0.6630143287
 40
0.7318640808
 40
0.7940530866
 40
0.8487679429
 40
0.8953665744
 40
0.9334026619
 40
0.949175397
 40
0.9628135413
 40
0.9744211029
 40
0.984201769
 40
0.9925221059
 40
1.0
 40
1.0
 40
1.0
 40
1.0
 10
96.9297107134
 20
66.2485732287
 30
0.0
 10
97.0635875339
 20
66.3365070032
 30
0.0
 10
97.3310440778
 20
66.5214307608
 30
0.0
 10
97.7187560055
 20
66.8135147425
 30
0.0
 10
98.0288631005
 20
67.0674951328
 30
0.0
 10
98.259364614
 20
67.2701890751
 30
0.0
 10
98.4151248448
 20
67.4144473367
 30
0.0
 10
98.5549525869
 20
67.5518234767
 30
0.0
 10
98.6768364136
 20
67.6803012758
 30
0.0
 10
98.7790775425
 20
67.7980160583
 30
0.0
 10
98.8602594361
 20
67.9032324781
 30
0.0
 10
98.9125267153
 20
67.9836563561
 30
0.0
 10
98.9418670948
 20
68.0409254747
 30
0.0
 10
98.9565935709
 20
68.0772141411
 30
0.0
 10
98.9654447983
 20
68.1095124977
 30
0.0
 10
98.9683600242
 20
68.1378593126
 30
0.0
 10
98.9650974086
 20
68.1623264429
 30
0.0
 10
98.9582569969
 20
68.176146148
 30
0.0
 10
98.9539660643
 20
68.1818374281
 30
0.0
  0
SPLINE
  5
4F1
100
AcDbEntity
  8
0
100
AcDbSpline
 62
7
  6
BYLAYER
 70
0
 71
3
 72
9
 73
5
 74
0
 42
0.0000001
 43
0.0000001
 44
0.0000000001
 40
0.0
 40
0.0
 40
0.0
 40
0.0
 40
0.2367233443
 40
1.0
 40
1.0
 40
1.0
 40
1.0
 10
100.0631633662
 20
68.0408739413
 30
0.0
 10
100.095480998
 20
68.0595324233
 30
0.0
 10
100.2313274547
 20
68.1395184965
 30
0.0
 10
100.3646605726
 20
68.223737451
 30
0.0
 10
100.4652298994
 20
68.2897939981
 30
0.0
  0
SPLINE
  5
4F2
100
AcDbEntity
  8
0
100
AcDbSpline
 62
7
  6
BYLAYER
 70
0
 71
3
 72
23
 73
19
 74
0
 42
0.0000001
 43
0.0000001
 44
0.0000000001
 40
0.0
 40
0.0
 40
0.0
 40
0.0
 40
0.1680446132
 40
0.3410116291
 40
0.5091577884
 40
0.5884349391
 40
0.6630143287
 40
0.7318640808
 40
0.7940530866
 40
0.8487679429
 40
0.8953665744
 40
0.9334026619
 40
0.949175397
 40
0.9628135413
 40
0.9744211029
 40
0.984201769
 40
0.9925221059
 40
1.0
 40
1.0
 40
1.0
 40
1.0
 10
100.4652298994
 20
68.2897939981
 30
0.0
 10
100.59910672
 20
68.3777277725
 30
0.0
 10
100.8665632639
 20
68.5626515302
 30
0.0
 10
101.2542751916
 20
68.8547355118
 30
0.0
 10
101.5643822865
 20
69.1087159022
 30
0.0
 10
101.7948838001
 20
69.3114098445
 30
0.0
 10
101.9506440309
 20
69.455668106
 30
0.0
 10
102.090471773
 20
69.593044246
 30
0.0
 10
102.2123555997
 20
69.7215220452
 30
0.0
 10
102.3145967285
 20
69.8392368276
 30
0.0
 10
102.3957786222
 20
69.9444532475
 30
0.0
 10
102.4480459013
 20
70.0248771255
 30
0.0
 10
102.4773862809
 20
70.0821462441
 30
0.0
 10
102.4921127569
 20
70.1184349104
 30
0.0
 10
102.5009639843
 20
70.1507332671
 30
0.0
 10
102.5038792102
 20
70.179080082
 30
0.0
 10
102.5006165947
 20
70.2035472123
 30
0.0
 10
102.4937761829
 20
70.2173669174
 30
0.0
 10
102.4894852504
 20
70.2230581975
 30
0.0
  0
SPLINE
  5
4F3
100
AcDbEntity
  8
0
100
AcDbSpline
 62
7
  6
BYLAYER
 70
0
 71
3
 72
9
 73
5
 74
0
 42
0.0000001
 43
0.0000001
 44
0.0000000001
 40
0.0
 40
0.0
 40
0.0
 40
0.0
 40
0.2367233443
 40
1.0
 40
1.0
 40
1.0
 40
1.0
 10
89.456605808
 20
61.9172116333
 30
0.0
 10
89.4889234398
 20
61.9358701153
 30
0.0
 10
89.6247698964
 20
62.0158561884
 30
0.0
 10
89.7581030144
 20
62.100075143
 30
0.0
 10
89.8586723412
 20
62.16613169
 30
0.0
  0
SPLINE
  5
4F4
100
AcDbEntity
  8
0
100
AcDbSpline
 62
7
  6
BYLAYER
 70
0
 71
3
 72
23
 73
19
 74
0
 42
0.0000001
 43
0.0000001
 44
0.0000000001
 40
0.0
 40
0.0
 40
0.0
 40
0.0
 40
0.1680446132
 40
0.3410116291
 40
0.5091577884
 40
0.5884349391
 40
0.6630143287
 40
0.7318640808
 40
0.7940530866
 40
0.8487679429
 40
0.8953665744
 40
0.9334026619
 40
0.949175397
 40
0.9628135413
 40
0.9744211029
 40
0.984201769
 40
0.9925221059
 40
1.0
 40
1.0
 40
1.0
 40
1.0
 10
89.8586723412
 20
62.16613169
 30
0.0
 10
89.9925491618
 20
62.2540654644
 30
0.0
 10
90.2600057057
 20
62.4389892221
 30
0.0
 10
90.6477176334
 20
62.7310732037
 30
0.0
 10
90.9578247283
 20
62.9850535941
 30
0.0
 10
91.1883262419
 20
63.1877475364
 30
0.0
 10
91.3440864727
 20
63.332005798
 30
0.0
 10
91.4839142148
 20
63.469381938
 30
0.0
 10
91.6057980415
 20
63.5978597371
 30
0.0
 10
91.7080391703
 20
63.7155745195
 30
0.0
 10
91.789221064
 20
63.8207909394
 30
0.0
 10
91.8414883431
 20
63.9012148174
 30
0.0
 10
91.8708287227
 20
63.958483936
 30
0.0
 10
91.8855551987
 20
63.9947726024
 30
0.0
 10
91.8944064261
 20
64.027070959
 30
0.0
 10
91.897321652
 20
64.0554177739
 30
0.0
 10
91.8940590364
 20
64.0798849042
 30
0.0
 10
91.8872186247
 20
64.0937046093
 30
0.0
 10
91.8829276922
 20
64.0993958894
 30
0.0
  0
SPLINE
  5
4F5
100
AcDbEntity
  8
0
100
AcDbSpline
 62
7
  6
BYLAYER
 70
0
 71
3
 72
9
 73
5
 74
0
 42
0.0000001
 43
0.0000001
 44
0.0000000001
 40
0.0
 40
0.0
 40
0.0
 40
0.0
 40
0.2367233443
 40
1.0
 40
1.0
 40
1.0
 40
1.0
 10
92.9921249941
 20
63.9584324026
 30
0.0
 10
93.0244426258
 20
63.9770908846
 30
0.0
 10
93.1602890825
 20
64.0570769578
 30
0.0
 10
93.2936222005
 20
64.1412959123
 30
0.0
 10
93.3941915273
 20
64.2073524594
 30
0.0
  0
SPLINE
  5
4F6
100
AcDbEntity
  8
0
100
AcDbSpline
 62
7
  6
BYLAYER
 70
0
 71
3
 72
23
 73
19
 74
0
 42
0.0000001
 43
0.0000001
 44
0.0000000001
 40
0.0
 40
0.0
 40
0.0
 40
0.0
 40
0.1680446132
 40
0.3410116291
 40
0.5091577884
 40
0.5884349391
 40
0.6630143287
 40
0.7318640808
 40
0.7940530866
 40
0.8487679429
 40
0.8953665744
 40
0.9334026619
 40
0.949175397
 40
0.9628135413
 40
0.9744211029
 40
0.984201769
 40
0.9925221059
 40
1.0
 40
1.0
 40
1.0
 40
1.0
 10
93.3941915273
 20
64.2073524594
 30
0.0
 10
93.5280683478
 20
64.2952862338
 30
0.0
 10
93.7955248917
 20
64.4802099914
 30
0.0
 10
94.1832368195
 20
64.7722939731
 30
0.0
 10
94.4933439144
 20
65.0262743635
 30
0.0
 10
94.723845428
 20
65.2289683058
 30
0.0
 10
94.8796056587
 20
65.3732265673
 30
0.0
 10
95.0194334008
 20
65.5106027073
 30
0.0
 10
95.1413172276
 20
65.6390805065
 30
0.0
 10
95.2435583564
 20
65.7567952889
 30
0.0
 10
95.3247402501
 20
65.8620117088
 30
0.0
 10
95.3770075292
 20
65.9424355867
 30
0.0
 10
95.4063479088
 20
65.9997047054
 30
0.0
 10
95.4210743848
 20
66.0359933717
 30
0.0
 10
95.4299256122
 20
66.0682917283
 30
0.0
 10
95.4328408381
 20
66.0966385433
 30
0.0
 10
95.4295782225
 20
66.1211056736
 30
0.0
 10
95.4227378108
 20
66.1349253786
 30
0.0
 10
95.4184468782
 20
66.1406166588
 30
0.0
  0
SPLINE
  5
4F7
100
AcDbEntity
  8
0
100
AcDbSpline
 62
7
  6
BYLAYER
 70
0
 71
3
 72
18
 73
14
 74
0
 42
0.0000001
 43
0.0000001
 44
0.0000000001
 40
0.0
 40
0.0
 40
0.0
 40
0.0
 40
0.0225501232
 40
0.0475286053
 40
0.0767470449
 40
0.1112956702
 40
0.1517840234
 40
0.198542008
 40
0.3111877744
 40
0.4491040205
 40
0.6111673845
 40
0.7956739711
 40
1.0
 40
1.0
 40
1.0
 40
1.0
 10
92.1442465296
 20
63.6729503661
 30
0.0
 10
92.1484331196
 20
63.6673953517
 30
0.0
 10
92.159473992
 20
63.6572457
 30
0.0
 10
92.1813221882
 20
63.6474088326
 30
0.0
 10
92.2083814775
 20
63.6422342009
 30
0.0
 10
92.2406323114
 20
63.6414733229
 30
0.0
 10
92.278096441
 20
63.6450497799
 30
0.0
 10
92.3387719543
 20
63.656353625
 30
0.0
 10
92.4268952374
 20
63.6825069987
 30
0.0
 10
92.5456106884
 20
63.7286098105
 30
0.0
 10
92.6815582759
 20
63.7908580387
 30
0.0
 10
92.8327992782
 20
63.8684265685
 30
0.0
 10
92.9375410814
 20
63.926918554
 30
0.0
 10
92.9921249941
 20
63.9584324026
 30
0.0
  0
SPLINE
  5
4F8
100
AcDbEntity
  8
0
100
AcDbSpline
 62
7
  6
BYLAYER
 70
0
 71
3
 72
18
 73
14
 74
0
 42
0.0000001
 43
0.0000001
 44
0.0000000001
 40
0.0
 40
0.0
 40
0.0
 40
0.0
 40
0.0225501232
 40
0.0475286053
 40
0.0767470449
 40
0.1112956702
 40
0.1517840234
 40
0.198542008
 40
0.3111877744
 40
0.4491040205
 40
0.6111673845
 40
0.7956739711
 40
1.0
 40
1.0
 40
1.0
 40
1.0
 10
99.2152849017
 20
67.7553919048
 30
0.0
 10
99.2194714917
 20
67.7498368904
 30
0.0
 10
99.2305123641
 20
67.7396872387
 30
0.0
 10
99.2523605604
 20
67.7298503713
 30
0.0
 10
99.2794198497
 20
67.7246757397
 30
0.0
 10
99.3116706836
 20
67.7239148616
 30
0.0
 10
99.3491348131
 20
67.7274913186
 30
0.0
 10
99.4098103264
 20
67.7387951637
 30
0.0
 10
99.4979336095
 20
67.7649485374
 30
0.0
 10
99.6166490605
 20
67.8110513492
 30
0.0
 10
99.752596648
 20
67.8732995774
 30
0.0
 10
99.9038376504
 20
67.9508681072
 30
0.0
 10
100.0085794535
 20
68.0093600928
 30
0.0
 10
100.0631633662
 20
68.0408739413
 30
0.0
  0
SPLINE
  5
4F9
100
AcDbEntity
  8
0
100
AcDbSpline
 62
7
  6
BYLAYER
 70
0
 71
3
 72
18
 73
14
 74
0
 42
0.0000001
 43
0.0000001
 44
0.0000000001
 40
0.0
 40
0.0
 40
0.0
 40
0.0
 40
0.0225501232
 40
0.0475286053
 40
0.0767470449
 40
0.1112956702
 40
0.1517840234
 40
0.198542008
 40
0.3111877744
 40
0.4491040205
 40
0.6111673845
 40
0.7956739711
 40
1.0
 40
1.0
 40
1.0
 40
1.0
 10
88.6087273435
 20
61.6317295968
 30
0.0
 10
88.6129139335
 20
61.6261745824
 30
0.0
 10
88.6239548059
 20
61.6160249306
 30
0.0
 10
88.6458030022
 20
61.6061880632
 30
0.0
 10
88.6728622915
 20
61.6010134316
 30
0.0
 10
88.7051131254
 20
61.6002525535
 30
0.0
 10
88.7425772549
 20
61.6038290106
 30
0.0
 10
88.8032527682
 20
61.6151328557
 30
0.0
 10
88.8913760513
 20
61.6412862294
 30
0.0
 10
89.0100915023
 20
61.6873890412
 30
0.0
 10
89.1460390898
 20
61.7496372694
 30
0.0
 10
89.2972800922
 20
61.8272057991
 30
0.0
 10
89.4020218953
 20
61.8856977847
 30
0.0
 10
89.456605808
 20
61.9172116333
 30
0.0
  0
SPLINE
  5
4FA
100
AcDbEntity
  8
0
100
AcDbSpline
 62
7
  6
BYLAYER
 70
0
 71
3
 72
18
 73
14
 74
0
 42
0.0000001
 43
0.0000001
 44
0.0000000001
 40
0.0
 40
0.0
 40
0.0
 40
0.0
 40
0.0225501232
 40
0.0475286053
 40
0.0767470449
 40
0.1112956702
 40
0.1517840234
 40
0.198542008
 40
0.3111877744
 40
0.4491040205
 40
0.6111673845
 40
0.7956739711
 40
1.0
 40
1.0
 40
1.0
 40
1.0
 10
95.6797657157
 20
65.7141711355
 30
0.0
 10
95.6839523057
 20
65.7086161211
 30
0.0
 10
95.6949931781
 20
65.6984664694
 30
0.0
 10
95.7168413743
 20
65.6886296019
 30
0.0
 10
95.7439006636
 20
65.6834549703
 30
0.0
 10
95.7761514975
 20
65.6826940923
 30
0.0
 10
95.813615627
 20
65.6862705493
 30
0.0
 10
95.8742911404
 20
65.6975743944
 30
0.0
 10
95.9624144235
 20
65.7237277681
 30
0.0
 10
96.0811298745
 20
65.7698305799
 30
0.0
 10
96.217077462
 20
65.8320788081
 30
0.0
 10
96.3683184643
 20
65.9096473378
 30
0.0
 10
96.4730602675
 20
65.9681393234
 30
0.0
 10
96.5276441802
 20
65.999653172
 30
0.0
  0
SPLINE
  5
4FB
100
AcDbEntity
  8
0
100
AcDbSpline
 62
7
  6
BYLAYER
 70
0
 71
3
 72
18
 73
14
 74
0
 42
0.0000001
 43
0.0000001
 44
0.0000000001
 40
0.0
 40
0.0
 40
0.0
 40
0.0
 40
0.0225508243
 40
0.0475285013
 40
0.0767460922
 40
0.1112968054
 40
0.1517857986
 40
0.1985405118
 40
0.3111901947
 40
0.4491074383
 40
0.6111675818
 40
0.7956663559
 40
1.0
 40
1.0
 40
1.0
 40
1.0
 10
95.4179442328
 20
83.7777357992
 30
0.0
 10
95.4137564889
 20
83.783290215
 30
0.0
 10
95.4027134604
 20
83.7934368377
 30
0.0
 10
95.3808677837
 20
83.8032772981
 30
0.0
 10
95.3538079899
 20
83.8084528713
 30
0.0
 10
95.3215565728
 20
83.8092110546
 30
0.0
 10
95.2840927522
 20
83.8056344986
 30
0.0
 10
95.2234161067
 20
83.794334283
 30
0.0
 10
95.1352934861
 20
83.7681760335
 30
0.0
 10
95.0165768825
 20
83.7220754418
 30
0.0
 10
94.8806325533
 20
83.6598272191
 30
0.0
 10
94.729391841
 20
83.582260555
 30
0.0
 10
94.6246504687
 20
83.5237678521
 30
0.0
 10
94.5700645199
 20
83.4922528279
 30
0.0
  0
SPLINE
  5
4FC
100
AcDbEntity
  8
0
100
AcDbSpline
 62
7
  6
BYLAYER
 70
0
 71
3
 72
18
 73
14
 74
0
 42
0.0000001
 43
0.0000001
 44
0.0000000001
 40
0.0
 40
0.0
 40
0.0
 40
0.0
 40
0.0225508243
 40
0.0475285013
 40
0.0767460922
 40
0.1112968054
 40
0.1517857986
 40
0.1985405118
 40
0.3111901947
 40
0.4491074383
 40
0.6111675818
 40
0.7956663559
 40
1.0
 40
1.0
 40
1.0
 40
1.0
 10
91.8824250467
 20
81.7365150299
 30
0.0
 10
91.8782373029
 20
81.7420694456
 30
0.0
 10
91.8671942743
 20
81.7522160684
 30
0.0
 10
91.8453485976
 20
81.7620565288
 30
0.0
 10
91.8182888038
 20
81.767232102
 30
0.0
 10
91.7860373867
 20
81.7679902853
 30
0.0
 10
91.7485735661
 20
81.7644137293
 30
0.0
 10
91.6878969206
 20
81.7531135136
 30
0.0
 10
91.5997743001
 20
81.7269552642
 30
0.0
 10
91.4810576964
 20
81.6808546725
 30
0.0
 10
91.3451133673
 20
81.6186064498
 30
0.0
 10
91.193872655
 20
81.5410397856
 30
0.0
 10
91.0891312827
 20
81.4825470827
 30
0.0
 10
91.0345453338
 20
81.4510320586
 30
0.0
  0
SPLINE
  5
4FD
100
AcDbEntity
  8
0
100
AcDbSpline
 62
7
  6
BYLAYER
 70
0
 71
3
 72
25
 73
21
 74
0
 42
0.0000001
 43
0.0000001
 44
0.0000000001
 40
0.0
 40
0.0
 40
0.0
 40
0.0
 40
0.1493033365
 40
0.3139599536
 40
0.3983554996
 40
0.4820682985
 40
0.5635734876
 40
0.6413893066
 40
0.7141084528
 40
0.780431603
 40
0.8392118422
 40
0.889479428
 40
0.9111876737
 40
0.9305233382
 40
0.9474601418
 40
0.9620034046
 40
0.974230211
 40
0.9843305463
 40
0.9926839994
 40
1.0
 40
1.0
 40
1.0
 40
1.0
 10
98.1055837059
 20
85.5334735973
 30
0.0
 10
97.9619597773
 20
85.4505527784
 30
0.0
 10
97.6662506833
 20
85.2652275229
 30
0.0
 10
97.303489297
 20
85.0115903181
 30
0.0
 10
97.0079715374
 20
84.7895211716
 30
0.0
 10
96.7902327284
 20
84.6178234608
 30
0.0
 10
96.5823128335
 20
84.4456020911
 30
0.0
 10
96.3880999422
 20
84.2761028656
 30
0.0
 10
96.2112308171
 20
84.1125222878
 30
0.0
 10
96.0549823879
 20
83.9579453907
 30
0.0
 10
95.9222409532
 20
83.8152975737
 30
0.0
 10
95.8290321217
 20
83.7037538077
 30
0.0
 10
95.768796174
 20
83.6221129066
 30
0.0
 10
95.7331147543
 20
83.5684592196
 30
0.0
 10
95.7047879581
 20
83.519583814
 30
0.0
 10
95.6839280106
 20
83.4756657127
 30
0.0
 10
95.6705864192
 20
83.4368192181
 30
0.0
 10
95.6648092547
 20
83.403020768
 30
0.0
 10
95.6668718673
 20
83.3740681199
 30
0.0
 10
95.6743720263
 20
83.3577800013
 30
0.0
 10
95.6792630703
 20
83.3512902759
 30
0.0
  0
SPLINE
  5
4FE
100
AcDbEntity
  8
0
100
AcDbSpline
 62
7
  6
BYLAYER
 70
0
 71
3
 72
25
 73
21
 74
0
 42
0.0000001
 43
0.0000001
 44
0.0000000001
 40
0.0
 40
0.0
 40
0.0
 40
0.0
 40
0.1493033365
 40
0.3139599536
 40
0.3983554996
 40
0.4820682985
 40
0.5635734876
 40
0.6413893066
 40
0.7141084528
 40
0.780431603
 40
0.8392118422
 40
0.889479428
 40
0.9111876737
 40
0.9305233382
 40
0.9474601418
 40
0.9620034046
 40
0.974230211
 40
0.9843305463
 40
0.9926839994
 40
1.0
 40
1.0
 40
1.0
 40
1.0
 10
101.641102892
 20
87.5746943667
 30
0.0
 10
101.4974789634
 20
87.4917735478
 30
0.0
 10
101.2017698694
 20
87.3064482923
 30
0.0
 10
100.8390084831
 20
87.0528110874
 30
0.0
 10
100.5434907235
 20
86.8307419409
 30
0.0
 10
100.3257519145
 20
86.6590442302
 30
0.0
 10
100.1178320196
 20
86.4868228604
 30
0.0
 10
99.9236191283
 20
86.317323635
 30
0.0
 10
99.7467500032
 20
86.1537430571
 30
0.0
 10
99.590501574
 20
85.9991661601
 30
0.0
 10
99.4577601393
 20
85.8565183431
 30
0.0
 10
99.3645513078
 20
85.7449745771
 30
0.0
 10
99.3043153601
 20
85.6633336759
 30
0.0
 10
99.2686339403
 20
85.6096799889
 30
0.0
 10
99.2403071441
 20
85.5608045834
 30
0.0
 10
99.2194471967
 20
85.5168864821
 30
0.0
 10
99.2061056053
 20
85.4780399874
 30
0.0
 10
99.2003284408
 20
85.4442415374
 30
0.0
 10
99.2023910534
 20
85.4152888892
 30
0.0
 10
99.2098912124
 20
85.3990007707
 30
0.0
 10
99.2147822563
 20
85.3925110453
 30
0.0
  0
SPLINE
  5
4FF
100
AcDbEntity
  8
0
100
AcDbSpline
 62
7
  6
BYLAYER
 70
0
 71
3
 72
25
 73
21
 74
0
 42
0.0000001
 43
0.0000001
 44
0.0000000001
 40
0.0
 40
0.0
 40
0.0
 40
0.0
 40
0.1493033365
 40
0.3139599536
 40
0.3983554996
 40
0.4820682985
 40
0.5635734876
 40
0.6413893066
 40
0.7141084528
 40
0.780431603
 40
0.8392118422
 40
0.889479428
 40
0.9111876737
 40
0.9305233382
 40
0.9474601418
 40
0.9620034046
 40
0.974230211
 40
0.9843305463
 40
0.9926839994
 40
1.0
 40
1.0
 40
1.0
 40
1.0
 10
91.0345453338
 20
81.4510320586
 30
0.0
 10
90.8909214052
 20
81.3681112397
 30
0.0
 10
90.5952123112
 20
81.1827859842
 30
0.0
 10
90.2324509249
 20
80.9291487794
 30
0.0
 10
89.9369331653
 20
80.7070796329
 30
0.0
 10
89.7191943562
 20
80.5353819221
 30
0.0
 10
89.5112744614
 20
80.3631605523
 30
0.0
 10
89.3170615701
 20
80.1936613269
 30
0.0
 10
89.140192445
 20
80.0300807491
 30
0.0
 10
88.9839440157
 20
79.875503852
 30
0.0
 10
88.8512025811
 20
79.732856035
 30
0.0
 10
88.7579937496
 20
79.621312269
 30
0.0
 10
88.6977578018
 20
79.5396713679
 30
0.0
 10
88.6620763821
 20
79.4860176809
 30
0.0
 10
88.6337495859
 20
79.4371422753
 30
0.0
 10
88.6128896385
 20
79.393224174
 30
0.0
 10
88.5995480471
 20
79.3543776794
 30
0.0
 10
88.5937708826
 20
79.3205792293
 30
0.0
 10
88.5958334952
 20
79.2916265812
 30
0.0
 10
88.6033336542
 20
79.2753384626
 30
0.0
 10
88.6082246981
 20
79.2688487372
 30
0.0
  0
SPLINE
  5
500
100
AcDbEntity
  8
0
100
AcDbSpline
 62
7
  6
BYLAYER
 70
0
 71
3
 72
25
 73
21
 74
0
 42
0.0000001
 43
0.0000001
 44
0.0000000001
 40
0.0
 40
0.0
 40
0.0
 40
0.0
 40
0.1493033365
 40
0.3139599536
 40
0.3983554996
 40
0.4820682985
 40
0.5635734876
 40
0.6413893066
 40
0.7141084528
 40
0.780431603
 40
0.8392118422
 40
0.889479428
 40
0.9111876737
 40
0.9305233382
 40
0.9474601418
 40
0.9620034046
 40
0.974230211
 40
0.9843305463
 40
0.9926839994
 40
1.0
 40
1.0
 40
1.0
 40
1.0
 10
94.5700645199
 20
83.4922528279
 30
0.0
 10
94.4264405913
 20
83.4093320091
 30
0.0
 10
94.1307314973
 20
83.2240067536
 30
0.0
 10
93.7679701109
 20
82.9703695487
 30
0.0
 10
93.4724523514
 20
82.7483004022
 30
0.0
 10
93.2547135423
 20
82.5766026915
 30
0.0
 10
93.0467936474
 20
82.4043813217
 30
0.0
 10
92.8525807561
 20
82.2348820963
 30
0.0
 10
92.675711631
 20
82.0713015184
 30
0.0
 10
92.5194632018
 20
81.9167246214
 30
0.0
 10
92.3867217671
 20
81.7740768044
 30
0.0
 10
92.2935129357
 20
81.6625330384
 30
0.0
 10
92.2332769879
 20
81.5808921372
 30
0.0
 10
92.1975955682
 20
81.5272384502
 30
0.0
 10
92.169268772
 20
81.4783630447
 30
0.0
 10
92.1484088245
 20
81.4344449434
 30
0.0
 10
92.1350672332
 20
81.3955984487
 30
0.0
 10
92.1292900686
 20
81.3617999986
 30
0.0
 10
92.1313526812
 20
81.3328473505
 30
0.0
 10
92.1388528403
 20
81.316559232
 30
0.0
 10
92.1437438842
 20
81.3100695066
 30
0.0
  0
SPLINE
  5
501
100
AcDbEntity
  8
0
100
AcDbSpline
 62
7
  6
BYLAYER
 70
0
 71
3
 72
18
 73
14
 74
0
 42
0.0000001
 43
0.0000001
 44
0.0000000001
 40
0.0
 40
0.0
 40
0.0
 40
0.0
 40
0.0225508243
 40
0.0475285013
 40
0.0767460922
 40
0.1112968054
 40
0.1517857986
 40
0.1985405118
 40
0.3111901947
 40
0.4491074383
 40
0.6111675818
 40
0.7956663559
 40
1.0
 40
1.0
 40
1.0
 40
1.0
 10
102.4889826049
 20
87.8601773379
 30
0.0
 10
102.4847948611
 20
87.8657317537
 30
0.0
 10
102.4737518326
 20
87.8758783765
 30
0.0
 10
102.4519061558
 20
87.8857188368
 30
0.0
 10
102.4248463621
 20
87.8908944101
 30
0.0
 10
102.3925949449
 20
87.8916525933
 30
0.0
 10
102.3551311243
 20
87.8880760374
 30
0.0
 10
102.2944544789
 20
87.8767758217
 30
0.0
 10
102.2063318583
 20
87.8506175722
 30
0.0
 10
102.0876152546
 20
87.8045169805
 30
0.0
 10
101.9516709255
 20
87.7422687579
 30
0.0
 10
101.8004302132
 20
87.6647020937
 30
0.0
 10
101.6956888409
 20
87.6062093908
 30
0.0
 10
101.641102892
 20
87.5746943667
 30
0.0
  0
SPLINE
  5
502
100
AcDbEntity
  8
0
100
AcDbSpline
 62
7
  6
BYLAYER
 70
0
 71
3
 72
18
 73
14
 74
0
 42
0.0000001
 43
0.0000001
 44
0.0000000001
 40
0.0
 40
0.0
 40
0.0
 40
0.0
 40
0.0225508243
 40
0.0475285013
 40
0.0767460922
 40
0.1112968054
 40
0.1517857986
 40
0.1985405118
 40
0.3111901947
 40
0.4491074383
 40
0.6111675818
 40
0.7956663559
 40
1.0
 40
1.0
 40
1.0
 40
1.0
 10
98.9534634189
 20
85.8189565686
 30
0.0
 10
98.949275675
 20
85.8245109843
 30
0.0
 10
98.9382326465
 20
85.8346576071
 30
0.0
 10
98.9163869697
 20
85.8444980675
 30
0.0
 10
98.889327176
 20
85.8496736407
 30
0.0
 10
98.8570757588
 20
85.850431824
 30
0.0
 10
98.8196119382
 20
85.846855268
 30
0.0
 10
98.7589352928
 20
85.8355550523
 30
0.0
 10
98.6708126722
 20
85.8093968029
 30
0.0
 10
98.5520960686
 20
85.7632962112
 30
0.0
 10
98.4161517394
 20
85.7010479885
 30
0.0
 10
98.2649110271
 20
85.6234813243
 30
0.0
 10
98.1601696548
 20
85.5649886215
 30
0.0
 10
98.1055837059
 20
85.5334735973
 30
0.0
  0
SPLINE
  5
503
100
AcDbEntity
  8
0
100
AcDbSpline
 62
7
  6
BYLAYER
 70
0
 71
3
 72
9
 73
5
 74
0
 42
0.0000001
 43
0.0000001
 44
0.0000000001
 40
0.0
 40
0.0
 40
0.0
 40
0.0
 40
0.2367233443
 40
1.0
 40
1.0
 40
1.0
 40
1.0
 10
96.5271415348
 20
83.6367723124
 30
0.0
 10
96.5594591665
 20
83.6554307944
 30
0.0
 10
96.6953056232
 20
83.7354168676
 30
0.0
 10
96.8286387411
 20
83.8196358221
 30
0.0
 10
96.929208068
 20
83.8856923692
 30
0.0
  0
SPLINE
  5
504
100
AcDbEntity
  8
0
100
AcDbSpline
 62
7
  6
BYLAYER
 70
0
 71
3
 72
23
 73
19
 74
0
 42
0.0000001
 43
0.0000001
 44
0.0000000001
 40
0.0
 40
0.0
 40
0.0
 40
0.0
 40
0.1680446132
 40
0.3410116291
 40
0.5091577884
 40
0.5884349391
 40
0.6630143287
 40
0.7318640808
 40
0.7940530866
 40
0.8487679429
 40
0.8953665744
 40
0.9334026619
 40
0.949175397
 40
0.9628135413
 40
0.9744211029
 40
0.984201769
 40
0.9925221059
 40
1.0
 40
1.0
 40
1.0
 40
1.0
 10
96.929208068
 20
83.8856923692
 30
0.0
 10
97.0630848885
 20
83.9736261436
 30
0.0
 10
97.3305414324
 20
84.1585499012
 30
0.0
 10
97.7182533601
 20
84.4506338829
 30
0.0
 10
98.0283604551
 20
84.7046142733
 30
0.0
 10
98.2588619686
 20
84.9073082156
 30
0.0
 10
98.4146221994
 20
85.0515664771
 30
0.0
 10
98.5544499415
 20
85.1889426171
 30
0.0
 10
98.6763337682
 20
85.3174204163
 30
0.0
 10
98.778574897
 20
85.4351351987
 30
0.0
 10
98.8597567907
 20
85.5403516186
 30
0.0
 10
98.9120240699
 20
85.6207754965
 30
0.0
 10
98.9413644494
 20
85.6780446152
 30
0.0
 10
98.9560909255
 20
85.7143332815
 30
0.0
 10
98.9649421529
 20
85.7466316381
 30
0.0
 10
98.9678573788
 20
85.7749784531
 30
0.0
 10
98.9645947632
 20
85.7994455834
 30
0.0
 10
98.9577543515
 20
85.8132652884
 30
0.0
 10
98.9534634189
 20
85.8189565686
 30
0.0
  0
SPLINE
  5
505
100
AcDbEntity
  8
0
100
AcDbSpline
 62
7
  6
BYLAYER
 70
0
 71
3
 72
9
 73
5
 74
0
 42
0.0000001
 43
0.0000001
 44
0.0000000001
 40
0.0
 40
0.0
 40
0.0
 40
0.0
 40
0.2367233443
 40
1.0
 40
1.0
 40
1.0
 40
1.0
 10
100.0626607208
 20
85.6779930818
 30
0.0
 10
100.0949783526
 20
85.6966515638
 30
0.0
 10
100.2308248092
 20
85.7766376369
 30
0.0
 10
100.3641579272
 20
85.8608565915
 30
0.0
 10
100.464727254
 20
85.9269131385
 30
0.0
  0
SPLINE
  5
506
100
AcDbEntity
  8
0
100
AcDbSpline
 62
7
  6
BYLAYER
 70
0
 71
3
 72
23
 73
19
 74
0
 42
0.0000001
 43
0.0000001
 44
0.0000000001
 40
0.0
 40
0.0
 40
0.0
 40
0.0
 40
0.1680446132
 40
0.3410116291
 40
0.5091577884
 40
0.5884349391
 40
0.6630143287
 40
0.7318640808
 40
0.7940530866
 40
0.8487679429
 40
0.8953665744
 40
0.9334026619
 40
0.949175397
 40
0.9628135413
 40
0.9744211029
 40
0.984201769
 40
0.9925221059
 40
1.0
 40
1.0
 40
1.0
 40
1.0
 10
100.464727254
 20
85.9269131385
 30
0.0
 10
100.5986040746
 20
86.014846913
 30
0.0
 10
100.8660606185
 20
86.1997706706
 30
0.0
 10
101.2537725462
 20
86.4918546523
 30
0.0
 10
101.5638796411
 20
86.7458350426
 30
0.0
 10
101.7943811547
 20
86.9485289849
 30
0.0
 10
101.9501413855
 20
87.0927872465
 30
0.0
 10
102.0899691275
 20
87.2301633865
 30
0.0
 10
102.2118529543
 20
87.3586411856
 30
0.0
 10
102.3140940831
 20
87.4763559681
 30
0.0
 10
102.3952759768
 20
87.5815723879
 30
0.0
 10
102.4475432559
 20
87.6619962659
 30
0.0
 10
102.4768836355
 20
87.7192653845
 30
0.0
 10
102.4916101115
 20
87.7555540509
 30
0.0
 10
102.5004613389
 20
87.7878524075
 30
0.0
 10
102.5033765648
 20
87.8161992224
 30
0.0
 10
102.5001139492
 20
87.8406663527
 30
0.0
 10
102.4932735375
 20
87.8544860578
 30
0.0
 10
102.4889826049
 20
87.8601773379
 30
0.0
  0
SPLINE
  5
507
100
AcDbEntity
  8
0
100
AcDbSpline
 62
7
  6
BYLAYER
 70
0
 71
3
 72
9
 73
5
 74
0
 42
0.0000001
 43
0.0000001
 44
0.0000000001
 40
0.0
 40
0.0
 40
0.0
 40
0.0
 40
0.2367233443
 40
1.0
 40
1.0
 40
1.0
 40
1.0
 10
89.4561031626
 20
79.5543307737
 30
0.0
 10
89.4884207943
 20
79.5729892557
 30
0.0
 10
89.624267251
 20
79.6529753289
 30
0.0
 10
89.757600369
 20
79.7371942834
 30
0.0
 10
89.8581696958
 20
79.8032508305
 30
0.0
  0
SPLINE
  5
508
100
AcDbEntity
  8
0
100
AcDbSpline
 62
7
  6
BYLAYER
 70
0
 71
3
 72
23
 73
19
 74
0
 42
0.0000001
 43
0.0000001
 44
0.0000000001
 40
0.0
 40
0.0
 40
0.0
 40
0.0
 40
0.1680446132
 40
0.3410116291
 40
0.5091577884
 40
0.5884349391
 40
0.6630143287
 40
0.7318640808
 40
0.7940530866
 40
0.8487679429
 40
0.8953665744
 40
0.9334026619
 40
0.949175397
 40
0.9628135413
 40
0.9744211029
 40
0.984201769
 40
0.9925221059
 40
1.0
 40
1.0
 40
1.0
 40
1.0
 10
89.8581696958
 20
79.8032508305
 30
0.0
 10
89.9920465164
 20
79.8911846049
 30
0.0
 10
90.2595030602
 20
80.0761083625
 30
0.0
 10
90.647214988
 20
80.3681923442
 30
0.0
 10
90.9573220829
 20
80.6221727346
 30
0.0
 10
91.1878235965
 20
80.8248666768
 30
0.0
 10
91.3435838273
 20
80.9691249384
 30
0.0
 10
91.4834115693
 20
81.1065010784
 30
0.0
 10
91.6052953961
 20
81.2349788775
 30
0.0
 10
91.7075365249
 20
81.35269366
 30
0.0
 10
91.7887184186
 20
81.4579100798
 30
0.0
 10
91.8409856977
 20
81.5383339578
 30
0.0
 10
91.8703260773
 20
81.5956030764
 30
0.0
 10
91.8850525533
 20
81.6318917428
 30
0.0
 10
91.8939037807
 20
81.6641900994
 30
0.0
 10
91.8968190066
 20
81.6925369144
 30
0.0
 10
91.893556391
 20
81.7170040447
 30
0.0
 10
91.8867159793
 20
81.7308237497
 30
0.0
 10
91.8824250467
 20
81.7365150299
 30
0.0
  0
SPLINE
  5
509
100
AcDbEntity
  8
0
100
AcDbSpline
 62
7
  6
BYLAYER
 70
0
 71
3
 72
9
 73
5
 74
0
 42
0.0000001
 43
0.0000001
 44
0.0000000001
 40
0.0
 40
0.0
 40
0.0
 40
0.0
 40
0.2367233443
 40
1.0
 40
1.0
 40
1.0
 40
1.0
 10
92.9916223487
 20
81.5955515431
 30
0.0
 10
93.0239399804
 20
81.6142100251
 30
0.0
 10
93.1597864371
 20
81.6941960982
 30
0.0
 10
93.2931195551
 20
81.7784150528
 30
0.0
 10
93.3936888819
 20
81.8444715998
 30
0.0
  0
SPLINE
  5
50A
100
AcDbEntity
  8
0
100
AcDbSpline
 62
7
  6
BYLAYER
 70
0
 71
3
 72
23
 73
19
 74
0
 42
0.0000001
 43
0.0000001
 44
0.0000000001
 40
0.0
 40
0.0
 40
0.0
 40
0.0
 40
0.1680446132
 40
0.3410116291
 40
0.5091577884
 40
0.5884349391
 40
0.6630143287
 40
0.7318640808
 40
0.7940530866
 40
0.8487679429
 40
0.8953665744
 40
0.9334026619
 40
0.949175397
 40
0.9628135413
 40
0.9744211029
 40
0.984201769
 40
0.9925221059
 40
1.0
 40
1.0
 40
1.0
 40
1.0
 10
93.3936888819
 20
81.8444715998
 30
0.0
 10
93.5275657024
 20
81.9324053742
 30
0.0
 10
93.7950222463
 20
82.1173291319
 30
0.0
 10
94.182734174
 20
82.4094131135
 30
0.0
 10
94.492841269
 20
82.6633935039
 30
0.0
 10
94.7233427826
 20
82.8660874462
 30
0.0
 10
94.8791030133
 20
83.0103457078
 30
0.0
 10
95.0189307554
 20
83.1477218478
 30
0.0
 10
95.1408145822
 20
83.2761996469
 30
0.0
 10
95.243055711
 20
83.3939144293
 30
0.0
 10
95.3242376047
 20
83.4991308492
 30
0.0
 10
95.3765048838
 20
83.5795547272
 30
0.0
 10
95.4058452634
 20
83.6368238458
 30
0.0
 10
95.4205717394
 20
83.6731125122
 30
0.0
 10
95.4294229668
 20
83.7054108688
 30
0.0
 10
95.4323381927
 20
83.7337576837
 30
0.0
 10
95.4290755771
 20
83.758224814
 30
0.0
 10
95.4222351654
 20
83.7720445191
 30
0.0
 10
95.4179442328
 20
83.7777357992
 30
0.0
  0
SPLINE
  5
50B
100
AcDbEntity
  8
0
100
AcDbSpline
 62
7
  6
BYLAYER
 70
0
 71
3
 72
18
 73
14
 74
0
 42
0.0000001
 43
0.0000001
 44
0.0000000001
 40
0.0
 40
0.0
 40
0.0
 40
0.0
 40
0.0225501232
 40
0.0475286053
 40
0.0767470449
 40
0.1112956702
 40
0.1517840234
 40
0.198542008
 40
0.3111877744
 40
0.4491040205
 40
0.6111673845
 40
0.7956739711
 40
1.0
 40
1.0
 40
1.0
 40
1.0
 10
92.1437438842
 20
81.3100695066
 30
0.0
 10
92.1479304742
 20
81.3045144922
 30
0.0
 10
92.1589713466
 20
81.2943648404
 30
0.0
 10
92.1808195428
 20
81.284527973
 30
0.0
 10
92.2078788321
 20
81.2793533414
 30
0.0
 10
92.240129666
 20
81.2785924633
 30
0.0
 10
92.2775937956
 20
81.2821689204
 30
0.0
 10
92.3382693089
 20
81.2934727655
 30
0.0
 10
92.426392592
 20
81.3196261392
 30
0.0
 10
92.545108043
 20
81.365728951
 30
0.0
 10
92.6810556305
 20
81.4279771792
 30
0.0
 10
92.8322966328
 20
81.5055457089
 30
0.0
 10
92.937038436
 20
81.5640376945
 30
0.0
 10
92.9916223487
 20
81.5955515431
 30
0.0
  0
SPLINE
  5
50C
100
AcDbEntity
  8
0
100
AcDbSpline
 62
7
  6
BYLAYER
 70
0
 71
3
 72
18
 73
14
 74
0
 42
0.0000001
 43
0.0000001
 44
0.0000000001
 40
0.0
 40
0.0
 40
0.0
 40
0.0
 40
0.0225501232
 40
0.0475286053
 40
0.0767470449
 40
0.1112956702
 40
0.1517840234
 40
0.198542008
 40
0.3111877744
 40
0.4491040205
 40
0.6111673845
 40
0.7956739711
 40
1.0
 40
1.0
 40
1.0
 40
1.0
 10
99.2147822563
 20
85.3925110453
 30
0.0
 10
99.2189688463
 20
85.3869560309
 30
0.0
 10
99.2300097187
 20
85.3768063792
 30
0.0
 10
99.251857915
 20
85.3669695117
 30
0.0
 10
99.2789172042
 20
85.3617948801
 30
0.0
 10
99.3111680381
 20
85.3610340021
 30
0.0
 10
99.3486321677
 20
85.3646104591
 30
0.0
 10
99.409307681
 20
85.3759143042
 30
0.0
 10
99.4974309641
 20
85.4020676779
 30
0.0
 10
99.6161464151
 20
85.4481704897
 30
0.0
 10
99.7520940026
 20
85.5104187179
 30
0.0
 10
99.9033350049
 20
85.5879872476
 30
0.0
 10
100.0080768081
 20
85.6464792332
 30
0.0
 10
100.0626607208
 20
85.6779930818
 30
0.0
  0
SPLINE
  5
50D
100
AcDbEntity
  8
0
100
AcDbSpline
 62
7
  6
BYLAYER
 70
0
 71
3
 72
18
 73
14
 74
0
 42
0.0000001
 43
0.0000001
 44
0.0000000001
 40
0.0
 40
0.0
 40
0.0
 40
0.0
 40
0.0225501232
 40
0.0475286053
 40
0.0767470449
 40
0.1112956702
 40
0.1517840234
 40
0.198542008
 40
0.3111877744
 40
0.4491040205
 40
0.6111673845
 40
0.7956739711
 40
1.0
 40
1.0
 40
1.0
 40
1.0
 10
88.6082246981
 20
79.2688487372
 30
0.0
 10
88.6124112881
 20
79.2632937228
 30
0.0
 10
88.6234521605
 20
79.2531440711
 30
0.0
 10
88.6453003568
 20
79.2433072037
 30
0.0
 10
88.672359646
 20
79.238132572
 30
0.0
 10
88.7046104799
 20
79.237371694
 30
0.0
 10
88.7420746095
 20
79.240948151
 30
0.0
 10
88.8027501228
 20
79.2522519961
 30
0.0
 10
88.8908734059
 20
79.2784053698
 30
0.0
 10
89.0095888569
 20
79.3245081816
 30
0.0
 10
89.1455364444
 20
79.3867564098
 30
0.0
 10
89.2967774467
 20
79.4643249396
 30
0.0
 10
89.4015192499
 20
79.5228169251
 30
0.0
 10
89.4561031626
 20
79.5543307737
 30
0.0
  0
SPLINE
  5
50E
100
AcDbEntity
  8
0
100
AcDbSpline
 62
7
  6
BYLAYER
 70
0
 71
3
 72
18
 73
14
 74
0
 42
0.0000001
 43
0.0000001
 44
0.0000000001
 40
0.0
 40
0.0
 40
0.0
 40
0.0
 40
0.0225501232
 40
0.0475286053
 40
0.0767470449
 40
0.1112956702
 40
0.1517840234
 40
0.198542008
 40
0.3111877744
 40
0.4491040205
 40
0.6111673845
 40
0.7956739711
 40
1.0
 40
1.0
 40
1.0
 40
1.0
 10
95.6792630703
 20
83.3512902759
 30
0.0
 10
95.6834496602
 20
83.3457352615
 30
0.0
 10
95.6944905327
 20
83.3355856098
 30
0.0
 10
95.7163387289
 20
83.3257487424
 30
0.0
 10
95.7433980182
 20
83.3205741107
 30
0.0
 10
95.7756488521
 20
83.3198132327
 30
0.0
 10
95.8131129816
 20
83.3233896897
 30
0.0
 10
95.873788495
 20
83.3346935348
 30
0.0
 10
95.9619117781
 20
83.3608469085
 30
0.0
 10
96.080627229
 20
83.4069497203
 30
0.0
 10
96.2165748166
 20
83.4691979485
 30
0.0
 10
96.3678158189
 20
83.5467664783
 30
0.0
 10
96.472557622
 20
83.6052584638
 30
0.0
 10
96.5271415348
 20
83.6367723124
 30
0.0
  0
SPLINE
  5
50F
100
AcDbEntity
  8
0
100
AcDbSpline
 62
7
  6
BYLAYER
 70
0
 71
3
 72
11
 73
7
 74
0
 42
0.0000001
 43
0.0000001
 44
0.0000000001
 40
0.0
 40
0.0
 40
0.0
 40
0.0
 40
0.304195077
 40
0.5714760722
 40
0.7990581916
 40
1.0
 40
1.0
 40
1.0
 40
1.0
 10
35.997204601
 20
145.5324654099
 30
0.0
 10
35.9675601743
 20
145.5616247086
 30
0.0
 10
35.9068750601
 20
145.6117590112
 30
0.0
 10
35.8084211842
 20
145.6616201422
 30
0.0
 10
35.712653125
 20
145.6778543014
 30
0.0
 10
35.6536651358
 20
145.6618180069
 30
0.0
 10
35.6298629217
 20
145.6481092245
 30
0.0
  0
SPLINE
  5
510
100
AcDbEntity
  8
0
100
AcDbSpline
 62
7
  6
BYLAYER
 70
0
 71
3
 72
9
 73
5
 74
0
 42
0.0000001
 43
0.0000001
 44
0.0000000001
 40
0.0
 40
0.0
 40
0.0
 40
0.0
 40
0.2668106347
 40
1.0
 40
1.0
 40
1.0
 40
1.0
 10
21.865526688
 20
137.2440139551
 30
0.0
 10
21.8564052767
 20
137.26550292
 30
0.0
 10
21.8256795737
 20
137.3473530446
 30
0.0
 10
21.8084848595
 20
137.4351421948
 30
0.0
 10
21.8084848595
 20
137.4992929261
 30
0.0
  0
SPLINE
  5
511
100
AcDbEntity
  8
0
100
AcDbSpline
 62
7
  6
BYLAYER
 70
0
 71
3
 72
11
 73
7
 74
0
 42
0.0000001
 43
0.0000001
 44
0.0000000001
 40
0.0
 40
0.0
 40
0.0
 40
0.0
 40
0.2892143962
 40
0.5490736067
 40
0.7823258803
 40
1.0
 40
1.0
 40
1.0
 40
1.0
 10
21.8084848595
 20
137.4992929261
 30
0.0
 10
21.8084848595
 20
137.5245831357
 30
0.0
 10
21.8124007147
 20
137.5727465932
 30
0.0
 10
21.8318016169
 20
137.6389831987
 30
0.0
 10
21.8647008403
 20
137.6927225396
 30
0.0
 10
21.89555418
 20
137.7186728151
 30
0.0
 10
21.9120484685
 20
137.7281726595
 30
0.0
  0
SPLINE
  5
512
100
AcDbEntity
  8
0
100
AcDbSpline
 62
7
  6
BYLAYER
 70
0
 71
3
 72
11
 73
7
 74
0
 42
0.0000001
 43
0.0000001
 44
0.0000000001
 40
0.0
 40
0.0
 40
0.0
 40
0.0
 40
0.2009420679
 40
0.4285243344
 40
0.6958049612
 40
1.0
 40
1.0
 40
1.0
 40
1.0
 10
21.9120484685
 20
137.7281726595
 30
0.0
 10
21.9358506946
 20
137.7418814925
 30
0.0
 10
21.9948388031
 20
137.7579176502
 30
0.0
 10
22.0906068318
 20
137.7416835286
 30
0.0
 10
22.1890607164
 20
137.6918224483
 30
0.0
 10
22.2497457359
 20
137.64168812
 30
0.0
 10
22.2793901591
 20
137.6125288247
 30
0.0
  0
SPLINE
  5
513
100
AcDbEntity
  8
0
100
AcDbSpline
 62
7
  6
BYLAYER
 70
0
 71
3
 72
11
 73
7
 74
0
 42
0.0000001
 43
0.0000001
 44
0.0000000001
 40
0.0
 40
0.0
 40
0.0
 40
0.0
 40
0.2272596879
 40
0.4689277425
 40
0.7263629059
 40
1.0
 40
1.0
 40
1.0
 40
1.0
 10
86.1607165082
 20
17.5284822199
 30
0.0
 10
84.2591000245
 20
17.5198833119
 30
0.0
 10
80.3293132941
 20
17.8237403137
 30
0.0
 10
74.3796534138
 20
19.1448566683
 30
0.0
 10
68.2758335384
 20
21.3220483471
 30
0.0
 10
64.2704332846
 20
23.2677168359
 30
0.0
 10
62.2604077981
 20
24.364328118
 30
0.0
  0
SPLINE
  5
514
100
AcDbEntity
  8
0
100
AcDbSpline
 62
7
  6
BYLAYER
 70
0
 71
3
 72
9
 73
5
 74
0
 42
0.0000001
 43
0.0000001
 44
0.0000000001
 40
0.0
 40
0.0
 40
0.0
 40
0.0
 40
0.2567135474
 40
1.0
 40
1.0
 40
1.0
 40
1.0
 10
34.3686981215
 20
144.9294388617
 30
0.0
 10
34.3497090315
 20
144.9302703632
 30
0.0
 10
34.2756784061
 20
144.9316820203
 30
0.0
 10
34.2014408465
 20
144.9255218643
 30
0.0
 10
34.1472085886
 20
144.9161648297
 30
0.0
  0
SPLINE
  5
515
100
AcDbEntity
  8
0
100
AcDbSpline
 62
7
  6
BYLAYER
 70
0
 71
3
 72
15
 73
11
 74
0
 42
0.0000001
 43
0.0000001
 44
0.0000000001
 40
0.0
 40
0.0
 40
0.0
 40
0.0
 40
0.0992368103
 40
0.2055021915
 40
0.3195957878
 40
0.4417318079
 40
0.5716419047
 40
0.7086695592
 40
0.8518519534
 40
1.0
 40
1.0
 40
1.0
 40
1.0
 10
69.7148327222
 20
106.4387056937
 30
0.0
 10
68.2641270905
 20
106.3735070539
 30
0.0
 10
65.2427081833
 20
106.5239116867
 30
0.0
 10
60.6540940988
 20
107.508341482
 30
0.0
 10
55.9340175415
 20
109.2358391423
 30
0.0
 10
51.1521032862
 20
111.6774866306
 30
0.0
 10
46.376812215
 20
114.795262034
 30
0.0
 10
41.6782749991
 20
118.5421564582
 30
0.0
 10
37.1263113167
 20
122.8615509619
 30
0.0
 10
34.2737004684
 20
126.0363899539
 30
0.0
 10
32.8855790397
 20
127.7016041903
 30
0.0
  0
SPLINE
  5
516
100
AcDbEntity
  8
0
100
AcDbSpline
 62
7
  6
BYLAYER
 70
0
 71
3
 72
15
 73
11
 74
0
 42
0.0000001
 43
0.0000001
 44
0.0000000001
 40
0.0
 40
0.0
 40
0.0
 40
0.0
 40
0.1483154874
 40
0.2916570684
 40
0.4288020273
 40
0.5587663944
 40
0.6808796399
 40
0.7948710238
 40
0.9009685894
 40
1.0
 40
1.0
 40
1.0
 40
1.0
 10
32.58840009
 20
127.8073370036
 30
0.0
 10
33.9864234341
 20
126.1206912296
 30
0.0
 10
36.8610798997
 20
122.9052506396
 30
0.0
 10
41.4523356927
 20
118.5320654615
 30
0.0
 10
46.1943348464
 20
114.7411889381
 30
0.0
 10
51.0152077344
 20
111.5910175461
 30
0.0
 10
55.8428550696
 20
109.1299595378
 30
0.0
 10
60.6069159284
 20
107.3970876087
 30
0.0
 10
65.2357957257
 20
106.4221396047
 30
0.0
 10
68.2813947455
 20
106.2887966299
 30
0.0
 10
69.7421538599
 20
106.3652644771
 30
0.0
  0
ENDSEC
  0
SECTION
  2
OBJECTS
  0
DICTIONARY
  5
C
100
AcDbDictionary
280
0
281
1
  3
ACAD_GROUP
350
D
  3
ACAD_MLINESTYLE
350
17
  3
ACAD_LAYOUT
350
1A
  3
ACAD_PLOTSETTINGS
350
19
  3
ACAD_PLOTSTYLENAME
350
E
  0
DICTIONARY
  5
D
102
{ACAD_REACTORS
330
C
102
}
100
AcDbDictionary
280
0
281
1
  0
ACDBDICTIONARYWDFLT
  5
E
102
{ACAD_REACTORS
330
C
102
}
100
AcDbDictionary
281
1
  3
Normal
350
F
100
AcDbDictionaryWithDefault
340
F
  0
DICTIONARY
  5
17
102
{ACAD_REACTORS
330
C
102
}
100
AcDbDictionary
280
0
281
1
  3
Standard
350
18
  0
DICTIONARY
  5
19
102
{ACAD_REACTORS
330
C
102
}
100
AcDbDictionary
281
1
  0
DICTIONARY
  5
1A
102
{ACAD_REACTORS
330
C
102
}
100
AcDbDictionary
281
1
  3
Model
350
517
  3
Layout1
350
518
  0
ACDBPLACEHOLDER
  5
F
102
{ACAD_REACTORS
330
E
102
}
  0
MLINESTYLE
  5
18
102
{ACAD_REACTORS
330
17
102
}
100
AcDbMlineStyle
  2
STANDARD
 70
0
  3

 62
256
 51
90.0
 52
90.0
 71
2
 49
0.5
 62
256
  6
BYLAYER
 49
-0.5
 62
256
  6
BYLAYER
  0
LAYOUT
  5
517
102
{ACAD_REACTORS
330
1A
102
}
100
AcDbPlotSettings
  1

  2
none_device
  4

  6

 40
0.0
 41
0.0
 42
0.0
 43
0.0
 44
210.0
 45
297.0
 46
0.0
 47
0.0
 48
0.0
 49
0.0
140
0.0
141
0.0
142
1.0
143
1.0
 70
1024
 72
1
 73
0
 74
0
  7

 75
0
147
1.0
148
0.0
149
0.0
100
AcDbLayout
  1
Model
 70
0
 71
0
 10
0.0
 20
0.0
 11
210.0
 21
297.0
 12
0.0
 22
0.0
 32
0.0
 14
0.0
 24
0.0
 34
0.0
 15
0.0
 25
0.0
 35
0.0
146
0.0
 13
0.0
 23
0.0
 33
0.0
 16
1.0
 26
0.0
 36
0.0
 17
0.0
 27
1.0
 37
0.0
 76
0
330
210
345
0
346
0
  0
LAYOUT
  5
518
102
{ACAD_REACTORS
330
1A
102
}
100
AcDbPlotSettings
  1

  2
none_device
  4

  6

 40
0.0
 41
0.0
 42
0.0
 43
0.0
 44
210.0
 45
297.0
 46
0.0
 47
0.0
 48
0.0
 49
0.0
140
0.0
141
0.0
142
1.0
143
1.0
 70
0
 72
1
 73
0
 74
0
  7

 75
0
147
1.0
148
0.0
149
0.0
100
AcDbLayout
  1
Layout1
 70
0
 71
1
 10
0.0
 20
0.0
 11
210.0
 21
297.0
 12
0.0
 22
0.0
 32
0.0
 14
0.0
 24
0.0
 34
0.0
 15
0.0
 25
0.0
 35
0.0
146
0.0
 13
0.0
 23
0.0
 33
0.0
 16
1.0
 26
0.0
 36
0.0
 17
0.0
 27
1.0
 37
0.0
 76
0
330
211
345
0
346
0
  0
ENDSEC
  0
EOF
