999
DXF file: C:\Users\sesa63760\Dev\_Creo\CAD\MCADUE0001474_3D-CAD\drw0001_1.dxf
999
Pro/ENGINEER 2019471 by Parametric Technology Corporation
  0
SECTION
  2
HEADER
  9
$ACADVER
  1
AC1024
  9
$DWGCODEPAGE
  3
ANSI_1252
  9
$EXTMAX
 10
1491.4436126424
 20
2109.3273950228
 30
0.0
  9
$EXTMIN
 10
0.0
 20
0.0
 30
0.0
  9
$LIMMIN
 10
0.0
 20
0.0
  9
$LIMMAX
 10
1491.4436126424
 20
2109.3273950228
  9
$VIEWCTR
 10
745.7218063212
 20
1054.6636975114
  9
$VIEWSIZE
 40
2109.3273950228
  9
$CLAYER
  8
0
  9
$LTSCALE
 40
137.4968968607
  9
$CELTYPE
  6
BYLAYER
  9
$DIMSCALE
 40
1.0
  9
$DIMASZ
 40
17.7552811029
  9
$DIMEXO
 40
1.0
  9
$DIMDLI
 40
94.9978560129
  9
$DIMEXE
 40
1.0
  9
$DIMCEN
 40
22.4994922136
  9
$DIMLFAC
 40
1.0
  9
$DIMBLK
  1
_FILLED
  9
$DIMALT
 70
0
  9
$DIMALTF
 40
0.0393700787
  9
$DIMTXT
 40
24.857393544
  9
$DIMTOL
 70
1
  9
$DIMLIM
 70
0
  9
$DIMTFAC
 40
1.0
  9
$DIMTP
 40
0.01
  9
$DIMTM
 40
0.01
  9
$DIMGAP
 40
0.625
  9
$DIMDSEP
 70
46
  9
$AUNITS
 70
0
  9
$PDMODE
 70
3
  9
$PDSIZE
 40
0.3125
  9
$HANDSEED
  5
357
  9
$TILEMODE
 70
1
  9
$MEASUREMENT
 70
1
  9
$INSUNITS
 70
4
  0
ENDSEC
  0
SECTION
  2
CLASSES
  0
CLASS
  1
ACDBDICTIONARYWDFLT
  2
AcDbDictionaryWithDefault
  3
AutoCAD 2000
 90
0
 91
1
280
0
281
0
  0
CLASS
  1
ACDBPLACEHOLDER
  2
AcDbPlaceHolder
  3
AutoCAD 2000
 90
0
 91
1
280
0
281
0
  0
CLASS
  1
LAYOUT
  2
AcDbLayout
  3
AutoCAD 2000
 90
0
 91
0
280
0
281
0
  0
ENDSEC
  0
SECTION
  2
TABLES
  0
TABLE
  2
VPORT
  5
8
100
AcDbSymbolTable
 70
2
  0
VPORT
  5
1F4
100
AcDbSymbolTableRecord
100
AcDbViewportTableRecord
  2
*ACTIVE
 70
0
 10
0.0
 20
0.0
 11
1.0
 21
1.0
 12
745.7218063212
 22
1054.6636975114
 13
0.0
 23
0.0
 14
1.0
 24
1.0
 15
0.0
 25
0.0
 16
0.0
 26
0.0
 36
1.0
 17
0.0
 27
0.0
 37
0.0
 40
2109.3273950228
 41
0.7070707071
 42
50.0
 43
0.0
 44
0.0
 50
0.0
 51
0.0
 71
0
 72
100
 73
1
 74
1
 75
0
 76
0
 77
0
 78
0
  0
ENDTAB
  0
TABLE
  2
LTYPE
  5
5
100
AcDbSymbolTable
 70
6
  0
LTYPE
  5
14
100
AcDbSymbolTableRecord
100
AcDbLinetypeTableRecord
  2
BYBLOCK
 70
0
  3

 72
65
 73
0
 40
0.0
  0
LTYPE
  5
15
100
AcDbSymbolTableRecord
100
AcDbLinetypeTableRecord
  2
BYLAYER
 70
0
  3

 72
65
 73
0
 40
0.0
  0
LTYPE
  5
16
100
AcDbSymbolTableRecord
100
AcDbLinetypeTableRecord
  2
CONTINUOUS
 70
64
  3
Solid line
 72
65
 73
0
 40
0.0
  0
LTYPE
  5
1F5
100
AcDbSymbolTableRecord
100
AcDbLinetypeTableRecord
  2
CENTER
 70
64
  3
____ _ ____ _ ____ _ ____ _ ____ _ ____ _ ____
 72
65
 73
4
 40
0.6
 49
0.375
 74
0
 49
-0.075
 74
0
 49
0.075
 74
0
 49
-0.075
 74
0
  0
LTYPE
  5
1F6
100
AcDbSymbolTableRecord
100
AcDbLinetypeTableRecord
  2
HIDDEN
 70
64
  3
- - - - - - - - - - - - - - - - - - - -
 72
65
 73
2
 40
0.2
 49
0.1
 74
0
 49
-0.1
 74
0
  0
LTYPE
  5
1F7
100
AcDbSymbolTableRecord
100
AcDbLinetypeTableRecord
  2
PHANTOM
 70
64
  3
_____ _ _ _____ _ _ _____ _ _ _____
 72
65
 73
6
 40
0.8
 49
0.45
 74
0
 49
-0.05
 74
0
 49
0.1
 74
0
 49
-0.05
 74
0
 49
0.1
 74
0
 49
-0.05
 74
0
  0
LTYPE
  5
1F8
100
AcDbSymbolTableRecord
100
AcDbLinetypeTableRecord
  2
DOT
 70
64
  3
. . . . . . . . . . . . . . . . . . . .
 72
65
 73
2
 40
0.2
 49
0.1
 74
0
 49
-0.1
 74
0
  0
LTYPE
  5
1F9
100
AcDbSymbolTableRecord
100
AcDbLinetypeTableRecord
  2
DASHED
 70
64
  3
- - - - - - - - - - - - - - - - - - - -
 72
65
 73
2
 40
0.2
 49
0.1
 74
0
 49
-0.1
 74
0
  0
ENDTAB
  0
TABLE
  2
LAYER
  5
2
100
AcDbSymbolTable
 70
36
  0
LAYER
  5
10
100
AcDbSymbolTableRecord
100
AcDbLayerTableRecord
  2
0
 70
0
 62
7
  6
CONTINUOUS
370
-3
390
F
  0
LAYER
  5
1FA
100
AcDbSymbolTableRecord
100
AcDbLayerTableRecord
  2
DEFAULT_1
 70
0
 62
7
  6
CENTER
370
-3
390
F
  0
LAYER
  5
1FB
100
AcDbSymbolTableRecord
100
AcDbLayerTableRecord
  2
DEFAULT_2
 70
0
 62
8
  6
HIDDEN
370
-3
390
F
  0
LAYER
  5
1FC
100
AcDbSymbolTableRecord
100
AcDbLayerTableRecord
  2
DEFAULT_3
 70
0
 62
7
  6
PHANTOM
370
-3
390
F
  0
LAYER
  5
1FD
100
AcDbSymbolTableRecord
100
AcDbLayerTableRecord
  2
00_COMPONENTS
 70
0
 62
7
  6
CONTINUOUS
370
-3
390
F
  0
LAYER
  5
1FE
100
AcDbSymbolTableRecord
100
AcDbLayerTableRecord
  2
01_1_DEFAULT_DATUMS
 70
0
 62
7
  6
CONTINUOUS
370
-3
390
F
  0
LAYER
  5
1FF
100
AcDbSymbolTableRecord
100
AcDbLayerTableRecord
  2
01_PLANES
 70
0
 62
7
  6
CONTINUOUS
370
-3
390
F
  0
LAYER
  5
200
100
AcDbSymbolTableRecord
100
AcDbLayerTableRecord
  2
02_COORD_SYS
 70
0
 62
7
  6
CONTINUOUS
370
-3
390
F
  0
LAYER
  5
201
100
AcDbSymbolTableRecord
100
AcDbLayerTableRecord
  2
03_AXES
 70
0
 62
7
  6
CONTINUOUS
370
-3
390
F
  0
LAYER
  5
202
100
AcDbSymbolTableRecord
100
AcDbLayerTableRecord
  2
04_POINTS
 70
0
 62
7
  6
CONTINUOUS
370
-3
390
F
  0
LAYER
  5
203
100
AcDbSymbolTableRecord
100
AcDbLayerTableRecord
  2
05_CURVES
 70
0
 62
7
  6
CONTINUOUS
370
-3
390
F
  0
LAYER
  5
204
100
AcDbSymbolTableRecord
100
AcDbLayerTableRecord
  2
06_SURFS
 70
0
 62
7
  6
CONTINUOUS
370
-3
390
F
  0
LAYER
  5
205
100
AcDbSymbolTableRecord
100
AcDbLayerTableRecord
  2
07_COSMETICS
 70
0
 62
7
  6
CONTINUOUS
370
-3
390
F
  0
LAYER
  5
206
100
AcDbSymbolTableRecord
100
AcDbLayerTableRecord
  2
10_NOTES
 70
0
 62
7
  6
CONTINUOUS
370
-3
390
F
  0
LAYER
  5
207
100
AcDbSymbolTableRecord
100
AcDbLayerTableRecord
  2
11_NOTES_PUB
 70
0
 62
7
  6
CONTINUOUS
370
-3
390
F
  0
LAYER
  5
208
100
AcDbSymbolTableRecord
100
AcDbLayerTableRecord
  2
13_REF_GTOL
 70
0
 62
7
  6
CONTINUOUS
370
-3
390
F
  0
LAYER
  5
209
100
AcDbSymbolTableRecord
100
AcDbLayerTableRecord
  2
16_MISC
 70
0
 62
7
  6
CONTINUOUS
370
-3
390
F
  0
LAYER
  5
20A
100
AcDbSymbolTableRecord
100
AcDbLayerTableRecord
  2
17_NO_PRINT
 70
0
 62
7
  6
CONTINUOUS
370
-3
390
F
  0
LAYER
  5
20B
100
AcDbSymbolTableRecord
100
AcDbLayerTableRecord
  2
18_DATUM_CAMS_JOINTS
 70
0
 62
7
  6
CONTINUOUS
370
-3
390
F
  0
LAYER
  5
20C
100
AcDbSymbolTableRecord
100
AcDbLayerTableRecord
  2
19_DATUM_FUNCTIONAL
 70
0
 62
7
  6
CONTINUOUS
370
-3
390
F
  0
LAYER
  5
20D
100
AcDbSymbolTableRecord
100
AcDbLayerTableRecord
  2
20_DATUM_KINEMATIC_SCHEME
 70
0
 62
7
  6
CONTINUOUS
370
-3
390
F
  0
ENDTAB
  0
TABLE
  2
STYLE
  5
3
100
AcDbSymbolTable
 70
1
  0
STYLE
  5
11
100
AcDbSymbolTableRecord
100
AcDbTextStyleTableRecord
  2
STANDARD
 70
0
 40
0.0
 41
0.8
 50
0.0
 71
0
 42
0.2
  3
txt
  4

  0
STYLE
  5
20E
100
AcDbSymbolTableRecord
100
AcDbTextStyleTableRecord
  2
TEXTSTYLE_1
 70
0
 40
0.0
 41
0.8
 50
0.0
 71
0
 42
0.2
  3
gdt
  4

  0
ENDTAB
  0
TABLE
  2
VIEW
  5
6
100
AcDbSymbolTable
 70
0
  0
ENDTAB
  0
TABLE
  2
UCS
  5
7
100
AcDbSymbolTable
 70
0
  0
ENDTAB
  0
TABLE
  2
APPID
  5
9
100
AcDbSymbolTable
 70
1
  0
APPID
  5
20F
100
AcDbSymbolTableRecord
100
AcDbRegAppTableRecord
  2
ACAD
 70
0
  0
ENDTAB
  0
TABLE
  2
BLOCK_RECORD
  5
1
100
AcDbSymbolTable
 70
0
  0
BLOCK_RECORD
  5
210
100
AcDbSymbolTableRecord
100
AcDbBlockTableRecord
  2
*Model_Space
  0
BLOCK_RECORD
  5
211
100
AcDbSymbolTableRecord
100
AcDbBlockTableRecord
  2
*Paper_Space
  0
BLOCK_RECORD
  5
212
100
AcDbSymbolTableRecord
100
AcDbBlockTableRecord
  2
_FILLED
  0
ENDTAB
  0
TABLE
  2
DIMSTYLE
  5
A
100
AcDbSymbolTable
 70
1
100
AcDbDimStyleTable
 71
0
  0
DIMSTYLE
105
213
100
AcDbSymbolTableRecord
100
AcDbDimStyleTableRecord
  2
STANDARD
 70
0
  3

  4

 40
1.0
 41
17.7552811029
 42
1.0
 43
0.38
 44
1.0
 45
0.0
 46
0.0
 47
0.01
 48
0.01
140
24.857393544
141
0.09
142
0.0
143
25.4
144
1.0
145
0.0
146
1.0
147
0.625
 71
1
 72
0
 73
0
 74
0
 75
0
 76
0
 77
1
 78
8
 79
2
170
0
171
1
172
0
173
0
174
0
175
0
176
0
177
0
178
0
270
2
179
2
271
2
272
2
273
2
274
2
275
0
280
0
281
0
282
0
283
1
284
8
285
0
286
0
287
3
288
0
340
11
278
46
341
212
342
212
343
212
344
212
  0
ENDTAB
  0
ENDSEC
  0
SECTION
  2
BLOCKS
  0
BLOCK
  5
20
100
AcDbEntity
  8
0
100
AcDbBlockBegin
  2
*Model_Space
 70
0
 10
0.0
 20
0.0
 30
0.0
  3
*Model_Space
  1

  0
ENDBLK
  5
21
100
AcDbEntity
  8
0
100
AcDbBlockEnd
  0
BLOCK
  5
1C
100
AcDbEntity
  8
0
100
AcDbBlockBegin
  2
*Paper_Space
 70
0
 10
0.0
 20
0.0
 30
0.0
  3
*Paper_Space
  1

  0
ENDBLK
  5
1D
100
AcDbEntity
  8
0
100
AcDbBlockEnd
  0
BLOCK
  5
214
100
AcDbEntity
  8
0
100
AcDbBlockBegin
  2
_FILLED
 70
64
 10
0.0
 20
0.0
  3
_FILLED
  1

  0
SOLID
  5
215
100
AcDbEntity
  8
0
  6
BYBLOCK
 62
0
100
AcDbTrace
 10
0.0
 20
0.0
 11
-1.0
 21
0.25
 12
-1.0
 22
-0.25
 13
-1.0
 23
-0.25
  0
ENDBLK
  5
216
100
AcDbEntity
  8
0
  6
BYBLOCK
 62
0
100
AcDbBlockEnd
  0
ENDSEC
  0
SECTION
  2
ENTITIES
  0
LINE
  5
217
100
AcDbEntity
  8
0
100
AcDbLine
 62
7
  6
CONTINUOUS
 10
276.4709014661
 20
1794.9476916028
 11
261.0989280765
 21
1784.785898796
  0
LINE
  5
218
100
AcDbEntity
  8
0
100
AcDbLine
 62
7
  6
CONTINUOUS
 10
526.8309056535
 20
1944.799077894
 11
280.6597757658
 21
1802.6729581652
  0
LINE
  5
219
100
AcDbEntity
  8
0
100
AcDbLine
 62
7
  6
CONTINUOUS
 10
549.6334274091
 20
1951.3703752809
 11
533.1495943747
 21
1943.1403194582
  0
LINE
  5
21A
100
AcDbEntity
  8
0
100
AcDbLine
 62
7
  6
CONTINUOUS
 10
987.7737555062
 20
169.6810205046
 11
986.3629673064
 21
169.823251952
  0
LINE
  5
21B
100
AcDbEntity
  8
0
100
AcDbLine
 62
7
  6
CONTINUOUS
 10
963.4295712624
 20
162.8376833281
 11
962.9731025072
 21
163.020551952
  0
LINE
  5
21C
100
AcDbEntity
  8
0
100
AcDbLine
 62
7
  6
CONTINUOUS
 10
280.6590566858
 20
1802.6733733169
 11
280.0725123426
 21
1801.3722671754
  0
LINE
  5
21D
100
AcDbEntity
  8
0
100
AcDbLine
 62
7
  6
CONTINUOUS
 10
609.8747086889
 20
366.9580605882
 11
609.4182399337
 21
367.1409292121
  0
LINE
  5
21E
100
AcDbEntity
  8
0
100
AcDbLine
 62
7
  6
CONTINUOUS
 10
981.4592974376
 20
242.6330681025
 11
984.9941069822
 21
240.7293874158
  0
LINE
  5
21F
100
AcDbEntity
  8
0
100
AcDbLine
 62
7
  6
CONTINUOUS
 10
259.2937223903
 20
569.2808404946
 11
609.4241065223
 21
367.137542057
  0
LINE
  5
220
100
AcDbEntity
  8
0
100
AcDbLine
 62
7
  6
CONTINUOUS
 10
612.8485849638
 20
365.1604632345
 11
962.9789690958
 21
163.0171647968
  0
LINE
  5
221
100
AcDbEntity
  8
0
100
AcDbLine
 62
7
  6
CONTINUOUS
 10
961.868359378
 20
164.8446292891
 11
612.3100608622
 21
366.6576414143
  0
LINE
  5
222
100
AcDbEntity
  8
0
100
AcDbLine
 62
7
  6
CONTINUOUS
 10
608.3134968045
 20
368.9650065493
 11
258.7551982887
 21
570.7780186744
  0
LINE
  5
223
100
AcDbEntity
  8
0
100
AcDbLine
 62
7
  6
CONTINUOUS
 10
981.4592974376
 20
172.6543230231
 11
986.3629832789
 21
169.8232427302
  0
LINE
  5
224
100
AcDbEntity
  8
0
100
AcDbLine
 62
7
  6
CONTINUOUS
 10
984.9941069822
 20
171.2368666939
 11
981.4592974376
 21
173.2776437675
  0
LINE
  5
225
100
AcDbEntity
  8
0
100
AcDbLine
 62
7
  6
CONTINUOUS
 10
921.9237079185
 20
218.3822222202
 11
649.3329088744
 21
375.7590330878
  0
LINE
  5
226
100
AcDbEntity
  8
0
100
AcDbLine
 62
7
  6
CONTINUOUS
 10
568.368845345
 20
422.5025994803
 11
295.7780463009
 21
579.8794103479
  0
LINE
  5
227
100
AcDbEntity
  8
0
100
AcDbLine
 62
7
  6
CONTINUOUS
 10
957.8735878074
 20
198.4246863096
 11
921.8854709001
 21
219.2019652488
  0
LINE
  5
228
100
AcDbEntity
  8
0
100
AcDbLine
 62
7
  6
CONTINUOUS
 10
649.2946718559
 20
376.5787761164
 11
613.3065549465
 21
397.3560550568
  0
LINE
  5
229
100
AcDbEntity
  8
0
100
AcDbLine
 62
7
  6
CONTINUOUS
 10
604.318725234
 20
402.5450635697
 11
568.3306083266
 21
423.322342509
  0
LINE
  5
22A
100
AcDbEntity
  8
0
100
AcDbLine
 62
7
  6
CONTINUOUS
 10
295.7398092824
 20
580.6991533766
 11
259.751692373
 21
601.476432317
  0
LINE
  5
22B
100
AcDbEntity
  8
0
100
AcDbLine
 62
7
  6
CONTINUOUS
 10
903.1882899825
 20
1747.2499980208
 11
886.7044569482
 21
1739.019942198
  0
LINE
  5
22C
100
AcDbEntity
  8
0
100
AcDbLine
 62
7
  6
CONTINUOUS
 10
984.9941069822
 20
261.8768000195
 11
981.4592974376
 21
263.7804807061
  0
LINE
  5
22D
100
AcDbEntity
  8
0
100
AcDbLine
 62
7
  6
CONTINUOUS
 10
981.4592974376
 20
244.0520404586
 11
987.436295546
 21
240.601297058
  0
LINE
  5
22E
100
AcDbEntity
  8
0
100
AcDbLine
 62
7
  6
CONTINUOUS
 10
295.7780463009
 20
579.8794103479
 11
295.7398092824
 21
580.6991533766
  0
LINE
  5
22F
100
AcDbEntity
  8
0
100
AcDbLine
 62
7
  6
CONTINUOUS
 10
258.580823293
 20
1764.4486158523
 11
258.580823293
 21
584.8798749524
  0
LINE
  5
230
100
AcDbEntity
  8
0
100
AcDbLine
 62
7
  6
CONTINUOUS
 10
259.7485436289
 20
601.4782502041
 11
259.7485436289
 21
1744.5897992097
  0
LINE
  5
231
100
AcDbEntity
  8
0
100
AcDbLine
 62
7
  6
CONTINUOUS
 10
280.0725554195
 20
1801.3722746615
 11
280.0725554195
 21
1792.8683227649
  0
LINE
  5
232
100
AcDbEntity
  8
0
100
AcDbLine
 62
7
  6
CONTINUOUS
 10
280.610289861
 20
1792.5578686638
 11
280.610289861
 21
1799.484550512
  0
LINE
  5
233
100
AcDbEntity
  8
0
100
AcDbLine
 62
7
  6
CONTINUOUS
 10
295.7398092824
 20
1723.8107023821
 11
295.778379358
 21
1724.6821222662
  0
LINE
  5
234
100
AcDbEntity
  8
0
100
AcDbLine
 62
7
  6
CONTINUOUS
 10
630.0257640396
 20
1590.8273143427
 11
614.65379065
 21
1580.6655215359
  0
LINE
  5
235
100
AcDbEntity
  8
0
100
AcDbLine
 62
7
  6
CONTINUOUS
 10
611.4206018298
 20
1582.5321617425
 11
627.9044348641
 21
1592.0520366062
  0
LINE
  5
236
100
AcDbEntity
  8
0
100
AcDbLine
 62
7
  6
CONTINUOUS
 10
884.5831277728
 20
1740.2446644616
 11
899.9551011624
 21
1749.1166382274
  0
LINE
  5
237
100
AcDbEntity
  8
0
100
AcDbLine
 62
7
  6
CONTINUOUS
 10
625.4314008699
 20
1593.479811148
 11
631.4399515184
 21
1596.9424320292
  0
LINE
  5
238
100
AcDbEntity
  8
0
100
AcDbLine
 62
7
  6
CONTINUOUS
 10
880.39072993
 20
1740.6807349471
 11
880.9771795312
 21
1741.0144248447
  0
LINE
  5
239
100
AcDbEntity
  8
0
100
AcDbLine
 62
7
  6
CONTINUOUS
 10
986.3629673064
 20
169.823251952
 11
984.9941089086
 21
171.2368655817
  0
LINE
  5
23A
100
AcDbEntity
  8
0
100
AcDbLine
 62
7
  6
CONTINUOUS
 10
634.2132121496
 20
1598.5534042975
 11
633.6266678064
 21
1597.252298156
  0
LINE
  5
23B
100
AcDbEntity
  8
0
100
AcDbLine
 62
7
  6
CONTINUOUS
 10
1234.5313866601
 20
321.6179121811
 11
1238.1379903463
 21
319.5356856783
  0
LINE
  5
23C
100
AcDbEntity
  8
0
100
AcDbLine
 62
7
  6
CONTINUOUS
 10
1234.5313866601
 20
324.4682450839
 11
1235.3058116343
 21
324.0211407315
  0
LINE
  5
23D
100
AcDbEntity
  8
0
100
AcDbLine
 62
7
  6
CONTINUOUS
 10
1234.5313866601
 20
342.5486889823
 11
1235.3058116343
 21
342.1015846299
  0
LINE
  5
23E
100
AcDbEntity
  8
0
100
AcDbLine
 62
7
  6
CONTINUOUS
 10
1234.5313866601
 20
344.1081883182
 11
1235.3058116343
 21
343.6610839658
  0
LINE
  5
23F
100
AcDbEntity
  8
0
100
AcDbLine
 62
7
  6
CONTINUOUS
 10
1234.5313866601
 20
376.6919633772
 11
1235.3058116343
 21
376.2448590247
  0
LINE
  5
240
100
AcDbEntity
  8
0
100
AcDbLine
 62
7
  6
CONTINUOUS
 10
568.3306083266
 20
423.322342509
 11
568.368845345
 21
422.5025994803
  0
LINE
  5
241
100
AcDbEntity
  8
0
100
AcDbLine
 62
7
  6
CONTINUOUS
 10
533.1495943747
 20
1943.1403194582
 11
533.1495943747
 21
1941.8233328622
  0
LINE
  5
242
100
AcDbEntity
  8
0
100
AcDbLine
 62
7
  6
CONTINUOUS
 10
568.3691784022
 20
1567.3053113986
 11
568.3306083266
 21
1566.4338915146
  0
LINE
  5
243
100
AcDbEntity
  8
0
100
AcDbLine
 62
7
  6
CONTINUOUS
 10
981.4592974376
 20
650.8842766673
 11
984.9941069822
 21
648.9805959806
  0
LINE
  5
244
100
AcDbEntity
  8
0
100
AcDbLine
 62
7
  6
CONTINUOUS
 10
984.9941069822
 20
670.1280085843
 11
981.4592974376
 21
672.0316892709
  0
LINE
  5
245
100
AcDbEntity
  8
0
100
AcDbLine
 62
7
  6
CONTINUOUS
 10
577.9728050336
 20
879.7087951097
 11
600.6003162383
 21
866.645090965
  0
LINE
  5
246
100
AcDbEntity
  8
0
100
AcDbLine
 62
7
  6
CONTINUOUS
 10
608.3785232149
 20
862.1544426653
 11
631.0060344196
 21
849.0907385206
  0
LINE
  5
247
100
AcDbEntity
  8
0
100
AcDbLine
 62
7
  6
CONTINUOUS
 10
630.0620383009
 20
850.509282196
 11
607.4345270962
 21
863.5729863406
  0
LINE
  5
248
100
AcDbEntity
  8
0
100
AcDbLine
 62
7
  6
CONTINUOUS
 10
599.6563201196
 20
868.0636346403
 11
577.0288089149
 21
881.127338785
  0
LINE
  5
249
100
AcDbEntity
  8
0
100
AcDbLine
 62
7
  6
CONTINUOUS
 10
981.4592974376
 20
652.3032490234
 11
987.436295546
 21
648.8525056228
  0
LINE
  5
24A
100
AcDbEntity
  8
0
100
AcDbLine
 62
7
  6
CONTINUOUS
 10
984.9941069822
 20
171.2368666939
 11
981.4592974376
 21
177.0811901503
  0
LINE
  5
24B
100
AcDbEntity
  8
0
100
AcDbLine
 62
7
  6
CONTINUOUS
 10
280.0725123426
 20
1801.3722671754
 11
280.6102879345
 21
1799.4845516242
  0
LINE
  5
24C
100
AcDbEntity
  8
0
100
AcDbLine
 62
7
  6
CONTINUOUS
 10
649.3329088744
 20
375.7590330878
 11
649.2946718559
 21
376.5787761164
  0
LINE
  5
24D
100
AcDbEntity
  8
0
100
AcDbLine
 62
7
  6
CONTINUOUS
 10
604.3218739831
 20
1545.6547946853
 11
604.3218739831
 21
1080.2153455713
  0
LINE
  5
24E
100
AcDbEntity
  8
0
100
AcDbLine
 62
7
  6
CONTINUOUS
 10
604.3218739831
 20
867.3588164175
 11
604.3218739831
 21
402.5432456797
  0
LINE
  5
24F
100
AcDbEntity
  8
0
100
AcDbLine
 62
7
  6
CONTINUOUS
 10
604.989008386
 20
1079.9057832802
 11
604.989008386
 21
1054.4764387152
  0
LINE
  5
250
100
AcDbEntity
  8
0
100
AcDbLine
 62
7
  6
CONTINUOUS
 10
604.989008386
 20
875.155241838
 11
604.989008386
 21
867.6804750198
  0
LINE
  5
251
100
AcDbEntity
  8
0
100
AcDbLine
 62
7
  6
CONTINUOUS
 10
609.8732819516
 20
366.9583790182
 11
609.8732819516
 21
861.2914628295
  0
LINE
  5
252
100
AcDbEntity
  8
0
100
AcDbLine
 62
7
  6
CONTINUOUS
 10
609.8732819516
 20
1073.1931642483
 11
609.8732819516
 21
1581.1328317098
  0
LINE
  5
253
100
AcDbEntity
  8
0
100
AcDbLine
 62
7
  6
CONTINUOUS
 10
612.1356858665
 20
1560.3282385921
 11
612.1356858665
 21
1074.9928086225
  0
LINE
  5
254
100
AcDbEntity
  8
0
100
AcDbLine
 62
7
  6
CONTINUOUS
 10
612.1356858665
 20
859.9852928697
 11
612.1356858665
 21
380.7594976922
  0
LINE
  5
255
100
AcDbEntity
  8
0
100
AcDbLine
 62
7
  6
CONTINUOUS
 10
613.3041133062
 20
397.3582811881
 11
613.3041133062
 21
859.3107162338
  0
LINE
  5
256
100
AcDbEntity
  8
0
100
AcDbLine
 62
7
  6
CONTINUOUS
 10
613.3041133062
 20
1075.0303810798
 11
613.3041133062
 21
1540.4698301937
  0
LINE
  5
257
100
AcDbEntity
  8
0
100
AcDbLine
 62
7
  6
CONTINUOUS
 10
627.9044348641
 20
1592.0520366062
 11
627.9044348641
 21
1589.4249890192
  0
LINE
  5
258
100
AcDbEntity
  8
0
100
AcDbLine
 62
7
  6
CONTINUOUS
 10
649.2946718559
 20
1519.690325122
 11
649.3332419315
 21
1520.561745006
  0
LINE
  5
259
100
AcDbEntity
  8
0
100
AcDbLine
 62
7
  6
CONTINUOUS
 10
579.977431916
 20
1091.2501239031
 11
582.0846013509
 21
1092.8096224969
  0
LINE
  5
25A
100
AcDbEntity
  8
0
100
AcDbLine
 62
7
  6
CONTINUOUS
 10
964.9754644033
 20
1378.4117844823
 11
981.4592974376
 21
1387.9316593461
  0
LINE
  5
25B
100
AcDbEntity
  8
0
100
AcDbLine
 62
7
  6
CONTINUOUS
 10
987.7730364261
 20
1394.4350613506
 11
1233.9441663138
 21
1536.5611810794
  0
LINE
  5
25C
100
AcDbEntity
  8
0
100
AcDbLine
 62
7
  6
CONTINUOUS
 10
1238.1379903463
 20
1536.1242872014
 11
1253.5099637359
 21
1544.9962609673
  0
LINE
  5
25D
100
AcDbEntity
  8
0
100
AcDbLine
 62
7
  6
CONTINUOUS
 10
978.9855563336
 20
1389.3598421286
 11
984.9941069822
 21
1392.8224630098
  0
LINE
  5
25E
100
AcDbEntity
  8
0
100
AcDbLine
 62
7
  6
CONTINUOUS
 10
1233.9448853938
 20
1536.5607659277
 11
1234.531334995
 21
1536.8944558253
  0
LINE
  5
25F
100
AcDbEntity
  8
0
100
AcDbLine
 62
7
  6
CONTINUOUS
 10
631.4399515184
 20
1596.9424320292
 11
631.4399515184
 21
1590.0108512919
  0
LINE
  5
260
100
AcDbEntity
  8
0
100
AcDbLine
 62
7
  6
CONTINUOUS
 10
633.6267108833
 20
1597.2523056421
 11
633.6267108833
 21
1588.7483537455
  0
LINE
  5
261
100
AcDbEntity
  8
0
100
AcDbLine
 62
7
  6
CONTINUOUS
 10
634.1644453247
 20
1588.4378996444
 11
634.1644453247
 21
1595.3645814926
  0
LINE
  5
262
100
AcDbEntity
  8
0
100
AcDbLine
 62
7
  6
CONTINUOUS
 10
635.3292547843
 20
850.0883226495
 11
635.3292547843
 21
1062.3136309098
  0
LINE
  5
263
100
AcDbEntity
  8
0
100
AcDbLine
 62
7
  6
CONTINUOUS
 10
604.7121125556
 20
1079.7459183522
 11
602.6049431207
 21
1078.1864197585
  0
LINE
  5
264
100
AcDbEntity
  8
0
100
AcDbLine
 62
7
  6
CONTINUOUS
 10
610.3831500974
 20
1073.6957714588
 11
612.4903195323
 21
1075.2552700525
  0
LINE
  5
265
100
AcDbEntity
  8
0
100
AcDbLine
 62
7
  6
CONTINUOUS
 10
635.117830737
 20
1062.1915659078
 11
633.0106613021
 21
1060.6320673141
  0
LINE
  5
266
100
AcDbEntity
  8
0
100
AcDbLine
 62
7
  6
CONTINUOUS
 10
582.2960253983
 20
1092.9316874989
 11
582.0846013509
 21
1092.8096224969
  0
LINE
  5
267
100
AcDbEntity
  8
0
100
AcDbLine
 62
7
  6
CONTINUOUS
 10
1234.2482209638
 20
1461.6185036896
 11
1233.9441663138
 21
1461.4429587035
  0
LINE
  5
268
100
AcDbEntity
  8
0
100
AcDbLine
 62
7
  6
CONTINUOUS
 10
987.7730364261
 20
1319.3168389747
 11
987.4689817761
 21
1319.1412939885
  0
LINE
  5
269
100
AcDbEntity
  8
0
100
AcDbLine
 62
7
  6
CONTINUOUS
 10
987.4689817761
 20
1306.0772553144
 11
987.7730364261
 21
1306.2528003006
  0
LINE
  5
26A
100
AcDbEntity
  8
0
100
AcDbLine
 62
7
  6
CONTINUOUS
 10
1233.9441663138
 20
1448.3789200294
 11
1234.2482209638
 21
1448.5544650156
  0
LINE
  5
26B
100
AcDbEntity
  8
0
100
AcDbLine
 62
7
  6
CONTINUOUS
 10
604.989008386
 20
1079.9057832802
 11
604.7121125556
 21
1079.7459183522
  0
LINE
  5
26C
100
AcDbEntity
  8
0
100
AcDbLine
 62
7
  6
CONTINUOUS
 10
612.7680470395
 20
1075.4156151464
 11
612.4903195323
 21
1075.2552700525
  0
LINE
  5
26D
100
AcDbEntity
  8
0
100
AcDbLine
 62
7
  6
CONTINUOUS
 10
635.3292547843
 20
1062.3136309098
 11
635.117830737
 21
1062.1915659078
  0
LINE
  5
26E
100
AcDbEntity
  8
0
100
AcDbLine
 62
7
  6
CONTINUOUS
 10
630.0620383009
 20
1055.8188149832
 11
607.4345270962
 21
1068.8825191278
  0
LINE
  5
26F
100
AcDbEntity
  8
0
100
AcDbLine
 62
7
  6
CONTINUOUS
 10
599.6563201196
 20
1073.3731674276
 11
577.0288089149
 21
1086.4368715722
  0
LINE
  5
270
100
AcDbEntity
  8
0
100
AcDbLine
 62
7
  6
CONTINUOUS
 10
633.0106613021
 20
1060.6320673141
 11
610.3831500974
 21
1073.6957714588
  0
LINE
  5
271
100
AcDbEntity
  8
0
100
AcDbLine
 62
7
  6
CONTINUOUS
 10
602.6049431207
 20
1078.1864197585
 11
579.977431916
 21
1091.2501239031
  0
LINE
  5
272
100
AcDbEntity
  8
0
100
AcDbLine
 62
7
  6
CONTINUOUS
 10
280.610289861
 20
1799.484550512
 11
286.2113548972
 21
1789.3241654135
  0
LINE
  5
273
100
AcDbEntity
  8
0
100
AcDbLine
 62
7
  6
CONTINUOUS
 10
981.4592974376
 20
895.8350018062
 11
984.9941069822
 21
893.9313211195
  0
LINE
  5
274
100
AcDbEntity
  8
0
100
AcDbLine
 62
7
  6
CONTINUOUS
 10
984.9941069822
 20
915.0787337231
 11
981.4592974376
 21
916.9824144098
  0
LINE
  5
275
100
AcDbEntity
  8
0
100
AcDbLine
 62
7
  6
CONTINUOUS
 10
635.117830737
 20
1062.1915659078
 11
612.4903195323
 21
1075.2552700525
  0
LINE
  5
276
100
AcDbEntity
  8
0
100
AcDbLine
 62
7
  6
CONTINUOUS
 10
604.7121125556
 20
1079.7459183522
 11
582.0846013509
 21
1092.8096224969
  0
LINE
  5
277
100
AcDbEntity
  8
0
100
AcDbLine
 62
7
  6
CONTINUOUS
 10
635.3292547843
 20
1062.3136309098
 11
613.3065828816
 21
1075.0281388206
  0
LINE
  5
278
100
AcDbEntity
  8
0
100
AcDbLine
 62
7
  6
CONTINUOUS
 10
604.3186973011
 20
1080.2171795881
 11
582.2960253983
 21
1092.9316874989
  0
LINE
  5
279
100
AcDbEntity
  8
0
100
AcDbLine
 62
7
  6
CONTINUOUS
 10
981.4592974376
 20
897.2539741623
 11
987.436295546
 21
893.8032307617
  0
LINE
  5
27A
100
AcDbEntity
  8
0
100
AcDbLine
 62
7
  6
CONTINUOUS
 10
633.6266678064
 20
1597.252298156
 11
634.1644433983
 21
1595.3645826048
  0
LINE
  5
27B
100
AcDbEntity
  8
0
100
AcDbLine
 62
7
  6
CONTINUOUS
 10
921.8854709001
 20
219.2019652488
 11
921.9237079185
 21
218.3822222202
  0
LINE
  5
27C
100
AcDbEntity
  8
0
100
AcDbLine
 62
7
  6
CONTINUOUS
 10
884.5831277728
 20
1738.9276778656
 11
884.5831277728
 21
1740.2446644616
  0
LINE
  5
27D
100
AcDbEntity
  8
0
100
AcDbLine
 62
7
  6
CONTINUOUS
 10
886.7044569482
 20
1739.019942198
 11
886.7044569482
 21
1737.7029556021
  0
LINE
  5
27E
100
AcDbEntity
  8
0
100
AcDbLine
 62
7
  6
CONTINUOUS
 10
901.3980519581
 20
1749.4437314679
 11
901.3980519581
 21
1746.3561671474
  0
LINE
  5
27F
100
AcDbEntity
  8
0
100
AcDbLine
 62
7
  6
CONTINUOUS
 10
604.7121125556
 20
867.5206100919
 11
604.989008386
 21
867.6804750198
  0
LINE
  5
280
100
AcDbEntity
  8
0
100
AcDbLine
 62
7
  6
CONTINUOUS
 10
635.117830737
 20
849.9662576475
 11
635.3292547843
 21
850.0883226495
  0
LINE
  5
281
100
AcDbEntity
  8
0
100
AcDbLine
 62
7
  6
CONTINUOUS
 10
602.6049431207
 20
866.6469735285
 11
604.7121125556
 21
867.5206100919
  0
LINE
  5
282
100
AcDbEntity
  8
0
100
AcDbLine
 62
7
  6
CONTINUOUS
 10
633.0106613021
 20
849.0926210842
 11
635.117830737
 21
849.9662576475
  0
LINE
  5
283
100
AcDbEntity
  8
0
100
AcDbLine
 62
7
  6
CONTINUOUS
 10
902.2988309119
 20
1747.8175727004
 11
902.3204717561
 21
1746.8139683051
  0
LINE
  5
284
100
AcDbEntity
  8
0
100
AcDbLine
 62
7
  6
CONTINUOUS
 10
902.2988309119
 20
1747.8175727004
 11
902.3179952999
 21
1746.8154768869
  0
LINE
  5
285
100
AcDbEntity
  8
0
100
AcDbLine
 62
7
  6
CONTINUOUS
 10
957.8774436605
 20
1341.5348256693
 11
957.8774436605
 21
198.4232766637
  0
LINE
  5
286
100
AcDbEntity
  8
0
100
AcDbLine
 62
7
  6
CONTINUOUS
 10
963.4281445251
 20
162.8380017581
 11
963.4281445251
 21
1377.0124544496
  0
LINE
  5
287
100
AcDbEntity
  8
0
100
AcDbLine
 62
7
  6
CONTINUOUS
 10
921.9240409757
 20
1363.1849341384
 11
921.8854709001
 21
1362.3135142544
  0
LINE
  5
288
100
AcDbEntity
  8
0
100
AcDbLine
 62
7
  6
CONTINUOUS
 10
634.1644453247
 20
1595.3645814926
 11
639.7655103609
 21
1585.2041963941
  0
LINE
  5
289
100
AcDbEntity
  8
0
100
AcDbLine
 62
7
  6
CONTINUOUS
 10
987.436295546
 20
261.7487096617
 11
987.4526386611
 21
257.6975872085
  0
LINE
  5
28A
100
AcDbEntity
  8
0
100
AcDbLine
 62
7
  6
CONTINUOUS
 10
987.436295546
 20
669.9999182265
 11
987.4526386611
 21
665.9487957733
  0
LINE
  5
28B
100
AcDbEntity
  8
0
100
AcDbLine
 62
7
  6
CONTINUOUS
 10
987.436295546
 20
914.9506433653
 11
987.4526386611
 21
910.8995209121
  0
LINE
  5
28C
100
AcDbEntity
  8
0
100
AcDbLine
 62
7
  6
CONTINUOUS
 10
987.436295546
 20
1323.2018519301
 11
987.4526386611
 21
1319.1507294769
  0
LINE
  5
28D
100
AcDbEntity
  8
0
100
AcDbLine
 62
7
  6
CONTINUOUS
 10
981.4592974376
 20
1387.9316593461
 11
981.4592974376
 21
171.343057823
  0
LINE
  5
28E
100
AcDbEntity
  8
0
100
AcDbLine
 62
7
  6
CONTINUOUS
 10
984.9941069822
 20
1392.8224630098
 11
984.9941069822
 21
1323.3299422879
  0
LINE
  5
28F
100
AcDbEntity
  8
0
100
AcDbLine
 62
7
  6
CONTINUOUS
 10
984.9941069822
 20
1302.1825296843
 11
984.9941069822
 21
915.0787337231
  0
LINE
  5
290
100
AcDbEntity
  8
0
100
AcDbLine
 62
7
  6
CONTINUOUS
 10
984.9941069822
 20
893.9313211195
 11
984.9941069822
 21
670.1280085843
  0
LINE
  5
291
100
AcDbEntity
  8
0
100
AcDbLine
 62
7
  6
CONTINUOUS
 10
984.9941069822
 20
648.9805959806
 11
984.9941069822
 21
261.8768000195
  0
LINE
  5
292
100
AcDbEntity
  8
0
100
AcDbLine
 62
7
  6
CONTINUOUS
 10
984.9941069822
 20
240.7293874158
 11
984.9941069822
 21
171.2368666939
  0
LINE
  5
293
100
AcDbEntity
  8
0
100
AcDbLine
 62
7
  6
CONTINUOUS
 10
987.4526386611
 20
244.6335485344
 11
987.4526386611
 21
257.6975872085
  0
LINE
  5
294
100
AcDbEntity
  8
0
100
AcDbLine
 62
7
  6
CONTINUOUS
 10
987.4526386611
 20
652.8847570992
 11
987.4526386611
 21
665.9487957733
  0
LINE
  5
295
100
AcDbEntity
  8
0
100
AcDbLine
 62
7
  6
CONTINUOUS
 10
987.4526386611
 20
897.8354822381
 11
987.4526386611
 21
910.8995209121
  0
LINE
  5
296
100
AcDbEntity
  8
0
100
AcDbLine
 62
7
  6
CONTINUOUS
 10
987.4526386611
 20
1306.0866908028
 11
987.4526386611
 21
1319.1507294769
  0
LINE
  5
297
100
AcDbEntity
  8
0
100
AcDbLine
 62
7
  6
CONTINUOUS
 10
987.7730364261
 20
1306.2528003006
 11
987.7730364261
 21
911.0656304099
  0
LINE
  5
298
100
AcDbEntity
  8
0
100
AcDbLine
 62
7
  6
CONTINUOUS
 10
987.7730364261
 20
898.0015917358
 11
987.7730364261
 21
666.114905271
  0
LINE
  5
299
100
AcDbEntity
  8
0
100
AcDbLine
 62
7
  6
CONTINUOUS
 10
987.7730364261
 20
653.0508665969
 11
987.7730364261
 21
257.8636967062
  0
LINE
  5
29A
100
AcDbEntity
  8
0
100
AcDbLine
 62
7
  6
CONTINUOUS
 10
987.7730364261
 20
1319.3168389747
 11
987.7693002269
 21
1394.4329042678
  0
LINE
  5
29B
100
AcDbEntity
  8
0
100
AcDbLine
 62
7
  6
CONTINUOUS
 10
987.7693002283
 20
169.6792785742
 11
987.7730364261
 21
244.7996580321
  0
LINE
  5
29C
100
AcDbEntity
  8
0
100
AcDbLine
 62
7
  6
CONTINUOUS
 10
987.4526386611
 20
1306.0866908028
 11
987.436295546
 21
1302.0544393265
  0
LINE
  5
29D
100
AcDbEntity
  8
0
100
AcDbLine
 62
7
  6
CONTINUOUS
 10
987.4526386611
 20
897.8354822381
 11
987.436295546
 21
893.8032307617
  0
LINE
  5
29E
100
AcDbEntity
  8
0
100
AcDbLine
 62
7
  6
CONTINUOUS
 10
987.4526386611
 20
652.8847570992
 11
987.436295546
 21
648.8525056228
  0
LINE
  5
29F
100
AcDbEntity
  8
0
100
AcDbLine
 62
7
  6
CONTINUOUS
 10
987.4526386611
 20
244.6335485344
 11
987.436295546
 21
240.601297058
  0
LINE
  5
2A0
100
AcDbEntity
  8
0
100
AcDbLine
 62
7
  6
CONTINUOUS
 10
1234.2482209638
 20
1053.3672951249
 11
1233.9441663138
 21
1053.1917501387
  0
LINE
  5
2A1
100
AcDbEntity
  8
0
100
AcDbLine
 62
7
  6
CONTINUOUS
 10
987.7730364261
 20
911.0656304099
 11
987.4689817761
 21
910.8900854237
  0
LINE
  5
2A2
100
AcDbEntity
  8
0
100
AcDbLine
 62
7
  6
CONTINUOUS
 10
987.4689817761
 20
897.8260467496
 11
987.7730364261
 21
898.0015917358
  0
LINE
  5
2A3
100
AcDbEntity
  8
0
100
AcDbLine
 62
7
  6
CONTINUOUS
 10
1233.9441663138
 20
1040.1277114646
 11
1234.2482209638
 21
1040.3032564508
  0
LINE
  5
2A4
100
AcDbEntity
  8
0
100
AcDbLine
 62
7
  6
CONTINUOUS
 10
981.4592974376
 20
1304.0862103709
 11
984.9941069822
 21
1302.1825296843
  0
LINE
  5
2A5
100
AcDbEntity
  8
0
100
AcDbLine
 62
7
  6
CONTINUOUS
 10
984.9941069822
 20
1323.3299422879
 11
981.4592974376
 21
1325.2336229746
  0
LINE
  5
2A6
100
AcDbEntity
  8
0
100
AcDbLine
 62
7
  6
CONTINUOUS
 10
981.4592974376
 20
1305.505182727
 11
987.436295546
 21
1302.0544393265
  0
LINE
  5
2A7
100
AcDbEntity
  8
0
100
AcDbLine
 62
7
  6
CONTINUOUS
 10
604.3218739831
 20
1545.6547946853
 11
568.3306083266
 21
1566.4338915146
  0
LINE
  5
2A8
100
AcDbEntity
  8
0
100
AcDbLine
 62
7
  6
CONTINUOUS
 10
295.7398092824
 20
1723.8107023821
 11
259.7485436289
 21
1744.5897992097
  0
LINE
  5
2A9
100
AcDbEntity
  8
0
100
AcDbLine
 62
7
  6
CONTINUOUS
 10
957.8774436605
 20
1341.5348256693
 11
921.8861780039
 21
1362.3139224986
  0
LINE
  5
2AA
100
AcDbEntity
  8
0
100
AcDbLine
 62
7
  6
CONTINUOUS
 10
649.2953789598
 20
1519.6907333661
 11
613.3041133062
 21
1540.4698301937
  0
LINE
  5
2AB
100
AcDbEntity
  8
0
100
AcDbLine
 62
7
  6
CONTINUOUS
 10
568.3306083266
 20
1567.2841792043
 11
295.7398092824
 21
1724.6609900719
  0
LINE
  5
2AC
100
AcDbEntity
  8
0
100
AcDbLine
 62
7
  6
CONTINUOUS
 10
921.8861780039
 20
1363.1642101883
 11
649.2953789598
 21
1520.5410210559
  0
LINE
  5
2AD
100
AcDbEntity
  8
0
100
AcDbLine
 62
7
  6
CONTINUOUS
 10
258.7551983288
 20
1779.8990863392
 11
608.3134969441
 21
1578.0860741566
  0
LINE
  5
2AE
100
AcDbEntity
  8
0
100
AcDbLine
 62
7
  6
CONTINUOUS
 10
612.3100609023
 20
1575.7787090791
 11
961.8683595176
 21
1373.9656968965
  0
LINE
  5
2AF
100
AcDbEntity
  8
0
100
AcDbLine
 62
7
  6
CONTINUOUS
 10
964.9754644033
 20
1378.4117844823
 11
614.65379065
 21
1580.6655215359
  0
LINE
  5
2B0
100
AcDbEntity
  8
0
100
AcDbLine
 62
7
  6
CONTINUOUS
 10
611.4206018298
 20
1582.5321617425
 11
261.0989280765
 21
1784.785898796
  0
LINE
  5
2B1
100
AcDbEntity
  8
0
100
AcDbLine
 62
7
  6
CONTINUOUS
 10
981.4592974376
 20
1387.9316593461
 11
630.0257640396
 21
1590.8273143427
  0
LINE
  5
2B2
100
AcDbEntity
  8
0
100
AcDbLine
 62
7
  6
CONTINUOUS
 10
627.9044348641
 20
1592.0520366062
 11
276.4709014661
 21
1794.9476916028
  0
LINE
  5
2B3
100
AcDbEntity
  8
0
100
AcDbLine
 62
7
  6
CONTINUOUS
 10
280.610289861
 20
1799.484550512
 11
309.0855984926
 21
1783.0446953275
  0
LINE
  5
2B4
100
AcDbEntity
  8
0
100
AcDbLine
 62
7
  6
CONTINUOUS
 10
634.1644453247
 20
1595.3645814926
 11
662.6397539564
 21
1578.9247263081
  0
LINE
  5
2B5
100
AcDbEntity
  8
0
100
AcDbLine
 62
7
  6
CONTINUOUS
 10
309.0898411156
 20
1783.0471447924
 11
631.4399515184
 21
1596.9424320292
  0
LINE
  5
2B6
100
AcDbEntity
  8
0
100
AcDbLine
 62
7
  6
CONTINUOUS
 10
662.6439965794
 20
1578.927175773
 11
984.9941069822
 21
1392.8224630098
  0
LINE
  5
2B7
100
AcDbEntity
  8
0
100
AcDbLine
 62
7
  6
CONTINUOUS
 10
987.7730364261
 20
1394.4350613506
 11
310.5019274786
 21
1785.4464230569
  0
LINE
  5
2B8
100
AcDbEntity
  8
0
100
AcDbLine
 62
7
  6
CONTINUOUS
 10
310.5019274786
 20
1785.4464230569
 11
280.6597757658
 21
1802.6729581652
  0
LINE
  5
2B9
100
AcDbEntity
  8
0
100
AcDbLine
 62
7
  6
CONTINUOUS
 10
1234.2318778487
 20
400.1747969096
 11
1234.2155347337
 21
404.2259193628
  0
LINE
  5
2BA
100
AcDbEntity
  8
0
100
AcDbLine
 62
7
  6
CONTINUOUS
 10
1234.2318778487
 20
808.4260054744
 11
1234.2155347337
 21
812.4771279276
  0
LINE
  5
2BB
100
AcDbEntity
  8
0
100
AcDbLine
 62
7
  6
CONTINUOUS
 10
1234.2318778487
 20
1053.3767306133
 11
1234.2155347337
 21
1057.4278530665
  0
LINE
  5
2BC
100
AcDbEntity
  8
0
100
AcDbLine
 62
7
  6
CONTINUOUS
 10
1234.2318778487
 20
1461.6279391781
 11
1234.2155347337
 21
1465.6790616313
  0
LINE
  5
2BD
100
AcDbEntity
  8
0
100
AcDbLine
 62
7
  6
CONTINUOUS
 10
1233.9441663138
 20
386.925777761
 11
1233.947902513
 21
311.8097124678
  0
LINE
  5
2BE
100
AcDbEntity
  8
0
100
AcDbLine
 62
7
  6
CONTINUOUS
 10
1233.9441663138
 20
1448.3789200294
 11
1233.9441663138
 21
1053.1917501387
  0
LINE
  5
2BF
100
AcDbEntity
  8
0
100
AcDbLine
 62
7
  6
CONTINUOUS
 10
1233.9441663138
 20
1040.1277114646
 11
1233.9441663138
 21
808.2410249998
  0
LINE
  5
2C0
100
AcDbEntity
  8
0
100
AcDbLine
 62
7
  6
CONTINUOUS
 10
1233.9441663138
 20
795.1769863257
 11
1233.9441663138
 21
399.989816435
  0
LINE
  5
2C1
100
AcDbEntity
  8
0
100
AcDbLine
 62
7
  6
CONTINUOUS
 10
1234.2318778487
 20
1461.6279391781
 11
1234.2318778487
 21
1448.563900504
  0
LINE
  5
2C2
100
AcDbEntity
  8
0
100
AcDbLine
 62
7
  6
CONTINUOUS
 10
1234.2318778487
 20
1053.3767306133
 11
1234.2318778487
 21
1040.3126919392
  0
LINE
  5
2C3
100
AcDbEntity
  8
0
100
AcDbLine
 62
7
  6
CONTINUOUS
 10
1234.2318778487
 20
808.4260054744
 11
1234.2318778487
 21
795.3619668003
  0
LINE
  5
2C4
100
AcDbEntity
  8
0
100
AcDbLine
 62
7
  6
CONTINUOUS
 10
1234.2318778487
 20
400.1747969096
 11
1234.2318778487
 21
387.1107582355
  0
LINE
  5
2C5
100
AcDbEntity
  8
0
100
AcDbLine
 62
7
  6
CONTINUOUS
 10
1234.5313866601
 20
1536.8944188424
 11
1234.5313866601
 21
1466.3016063016
  0
LINE
  5
2C6
100
AcDbEntity
  8
0
100
AcDbLine
 62
7
  6
CONTINUOUS
 10
1234.5313866601
 20
1445.154193698
 11
1234.5313866601
 21
1058.0503977368
  0
LINE
  5
2C7
100
AcDbEntity
  8
0
100
AcDbLine
 62
7
  6
CONTINUOUS
 10
1234.5313866601
 20
1036.9029851332
 11
1234.5313866601
 21
813.099672598
  0
LINE
  5
2C8
100
AcDbEntity
  8
0
100
AcDbLine
 62
7
  6
CONTINUOUS
 10
1234.5313866601
 20
791.9522599943
 11
1234.5313866601
 21
404.8484640332
  0
LINE
  5
2C9
100
AcDbEntity
  8
0
100
AcDbLine
 62
7
  6
CONTINUOUS
 10
1234.5313866601
 20
383.7010514295
 11
1234.5313866601
 21
313.1082388887
  0
LINE
  5
2CA
100
AcDbEntity
  8
0
100
AcDbLine
 62
7
  6
CONTINUOUS
 10
1235.3058116343
 20
324.0211407315
 11
1235.3058116343
 21
1534.0653864863
  0
LINE
  5
2CB
100
AcDbEntity
  8
0
100
AcDbLine
 62
7
  6
CONTINUOUS
 10
1238.1379903463
 20
319.5356856783
 11
1238.1379903463
 21
1536.1242872014
  0
LINE
  5
2CC
100
AcDbEntity
  8
0
100
AcDbLine
 62
7
  6
CONTINUOUS
 10
1233.9479025116
 20
1536.5633381614
 11
1233.9441663138
 21
1461.4429587035
  0
LINE
  5
2CD
100
AcDbEntity
  8
0
100
AcDbLine
 62
7
  6
CONTINUOUS
 10
1234.2155347337
 20
1444.5316490276
 11
1234.2318778487
 21
1448.563900504
  0
LINE
  5
2CE
100
AcDbEntity
  8
0
100
AcDbLine
 62
7
  6
CONTINUOUS
 10
1234.2155347337
 20
1036.2804404628
 11
1234.2318778487
 21
1040.3126919392
  0
LINE
  5
2CF
100
AcDbEntity
  8
0
100
AcDbLine
 62
7
  6
CONTINUOUS
 10
1234.2155347337
 20
791.329715324
 11
1234.2318778487
 21
795.3619668003
  0
LINE
  5
2D0
100
AcDbEntity
  8
0
100
AcDbLine
 62
7
  6
CONTINUOUS
 10
1234.2155347337
 20
383.0785067592
 11
1234.2318778487
 21
387.1107582355
  0
LINE
  5
2D1
100
AcDbEntity
  8
0
100
AcDbLine
 62
7
  6
CONTINUOUS
 10
1234.2482209638
 20
808.416569986
 11
1233.9441663138
 21
808.2410249998
  0
LINE
  5
2D2
100
AcDbEntity
  8
0
100
AcDbLine
 62
7
  6
CONTINUOUS
 10
987.7730364261
 20
666.114905271
 11
987.4689817761
 21
665.9393602848
  0
LINE
  5
2D3
100
AcDbEntity
  8
0
100
AcDbLine
 62
7
  6
CONTINUOUS
 10
987.4689817761
 20
652.8753216108
 11
987.7730364261
 21
653.0508665969
  0
LINE
  5
2D4
100
AcDbEntity
  8
0
100
AcDbLine
 62
7
  6
CONTINUOUS
 10
1233.9441663138
 20
795.1769863257
 11
1234.2482209638
 21
795.3525313119
  0
LINE
  5
2D5
100
AcDbEntity
  8
0
100
AcDbLine
 62
7
  6
CONTINUOUS
 10
1254.9529145316
 20
1545.3233542078
 11
1254.9529145316
 21
331.1489015162
  0
LINE
  5
2D6
100
AcDbEntity
  8
0
100
AcDbLine
 62
7
  6
CONTINUOUS
 10
1256.0280685194
 20
1529.5953373046
 11
1256.0280685194
 21
350.0265964047
  0
LINE
  5
2D7
100
AcDbEntity
  8
0
100
AcDbLine
 62
7
  6
CONTINUOUS
 10
612.2908882526
 20
367.6601638571
 11
611.4218985931
 21
367.2258639395
  0
LINE
  5
2D8
100
AcDbEntity
  8
0
100
AcDbLine
 62
7
  6
CONTINUOUS
 10
1254.9515894164
 20
1545.3236139753
 11
1255.3082655959
 21
1545.1983592785
  0
LINE
  5
2D9
100
AcDbEntity
  8
0
100
AcDbLine
 62
7
  6
CONTINUOUS
 10
1235.3058116343
 20
1521.6043176846
 11
1234.5313866601
 21
1522.0514220371
  0
LINE
  5
2DA
100
AcDbEntity
  8
0
100
AcDbLine
 62
7
  6
CONTINUOUS
 10
1235.3058116343
 20
1534.0653864863
 11
1234.5313866601
 21
1534.5124908387
  0
LINE
  5
2DB
100
AcDbEntity
  8
0
100
AcDbLine
 62
7
  6
CONTINUOUS
 10
556.6730573662
 20
1927.5725427857
 11
1233.9441663138
 21
1536.5611810794
  0
LINE
  5
2DC
100
AcDbEntity
  8
0
100
AcDbLine
 62
7
  6
CONTINUOUS
 10
526.8309056535
 20
1944.799077894
 11
556.6730573662
 21
1927.5725427857
  0
LINE
  5
2DD
100
AcDbEntity
  8
0
100
AcDbLine
 62
7
  6
CONTINUOUS
 10
528.2409588007
 20
1944.65727082
 11
557.6695696997
 21
1927.667038766
  0
LINE
  5
2DE
100
AcDbEntity
  8
0
100
AcDbLine
 62
7
  6
CONTINUOUS
 10
881.7951142645
 20
1740.5373018006
 11
911.2237251635
 21
1723.5470697466
  0
LINE
  5
2DF
100
AcDbEntity
  8
0
100
AcDbLine
 62
7
  6
CONTINUOUS
 10
1234.5313804567
 20
1536.8944295788
 11
911.2279677865
 21
1723.5495192115
  0
LINE
  5
2E0
100
AcDbEntity
  8
0
100
AcDbLine
 62
7
  6
CONTINUOUS
 10
880.9772249929
 20
1741.0143985982
 11
557.6738123228
 21
1927.6694882309
  0
LINE
  5
2E1
100
AcDbEntity
  8
0
100
AcDbLine
 62
7
  6
CONTINUOUS
 10
533.1495943747
 20
1943.1403194582
 11
884.5831277728
 21
1740.2446644616
  0
LINE
  5
2E2
100
AcDbEntity
  8
0
100
AcDbLine
 62
7
  6
CONTINUOUS
 10
886.7044569482
 20
1739.019942198
 11
1238.1379903463
 21
1536.1242872014
  0
LINE
  5
2E3
100
AcDbEntity
  8
0
100
AcDbLine
 62
7
  6
CONTINUOUS
 10
549.6334274091
 20
1951.3703752809
 11
899.9551011624
 21
1749.1166382274
  0
LINE
  5
2E4
100
AcDbEntity
  8
0
100
AcDbLine
 62
7
  6
CONTINUOUS
 10
903.1882899825
 20
1747.2499980208
 11
1253.5099637359
 21
1544.9962609673
  0
LINE
  5
2E5
100
AcDbEntity
  8
0
100
AcDbLine
 62
7
  6
CONTINUOUS
 10
1255.31516935
 20
1545.1943736395
 11
905.1847851861
 21
1747.3376720955
  0
LINE
  5
2E6
100
AcDbEntity
  8
0
100
AcDbLine
 62
7
  6
CONTINUOUS
 10
901.7603067765
 20
1749.3147508997
 11
551.6299226126
 21
1951.4580493557
  0
LINE
  5
2E7
100
AcDbEntity
  8
0
100
AcDbLine
 62
7
  6
CONTINUOUS
 10
1234.5314777534
 20
313.1082547662
 11
1233.9448842998
 21
311.807140865
  0
LINE
  5
2E8
100
AcDbEntity
  8
0
100
AcDbLine
 62
7
  6
CONTINUOUS
 10
901.3967268429
 20
1749.4439912355
 11
901.7534030224
 21
1749.3187365386
  0
LINE
  5
2E9
100
AcDbEntity
  8
0
100
AcDbLine
 62
7
  6
CONTINUOUS
 10
905.1906518044
 20
1747.3342849233
 11
904.7341831485
 21
1747.5171535304
  0
LINE
  5
2EA
100
AcDbEntity
  8
0
100
AcDbLine
 62
7
  6
CONTINUOUS
 10
551.6357892309
 20
1951.4546621835
 11
551.179320575
 21
1951.6375307905
  0
LINE
  5
2EB
100
AcDbEntity
  8
0
100
AcDbLine
 62
7
  6
CONTINUOUS
 10
1234.2482209638
 20
400.1653614212
 11
1233.9441663138
 21
399.989816435
  0
LINE
  5
2EC
100
AcDbEntity
  8
0
100
AcDbLine
 62
7
  6
CONTINUOUS
 10
987.7730364261
 20
257.8636967062
 11
987.4689817761
 21
257.68815172
  0
LINE
  5
2ED
100
AcDbEntity
  8
0
100
AcDbLine
 62
7
  6
CONTINUOUS
 10
987.4689817761
 20
244.624113046
 11
987.7730364261
 21
244.7996580321
  0
LINE
  5
2EE
100
AcDbEntity
  8
0
100
AcDbLine
 62
7
  6
CONTINUOUS
 10
1233.9441663138
 20
386.925777761
 11
1234.2482209638
 21
387.1013227471
  0
LINE
  5
2EF
100
AcDbEntity
  8
0
100
AcDbLine
 62
7
  6
CONTINUOUS
 10
1253.5087544412
 20
329.6885162997
 11
1238.1379903463
 21
319.5356856783
  0
LINE
  5
2F0
100
AcDbEntity
  8
0
100
AcDbLine
 62
7
  6
CONTINUOUS
 10
1233.9441663138
 20
311.807555385
 11
987.7730364261
 21
169.6814356562
  0
LINE
  5
2F1
100
AcDbEntity
  8
0
100
AcDbLine
 62
7
  6
CONTINUOUS
 10
981.4592974376
 20
171.343057823
 11
964.9767611666
 21
163.1054866794
  0
LINE
  5
2F2
100
AcDbEntity
  8
0
100
AcDbLine
 62
7
  6
CONTINUOUS
 10
528.240957118
 20
1944.6572717915
 11
526.8301876674
 21
1944.7994924141
  0
ARC
  5
2F3
100
AcDbEntity
  8
0
100
AcDbCircle
 62
7
  6
CONTINUOUS
 10
499.7548630758
 20
350.8357409397
 40
756.2736385876
100
AcDbArc
 50
358.7680662932
 51
359.9386986632
  0
ARC
  5
2F4
100
AcDbEntity
  8
0
100
AcDbCircle
 62
7
  6
CONTINUOUS
 10
1368.387105212
 20
1559.5193543146
 40
756.2518519312
100
AcDbArc
 50
178.768050367
 51
179.9387166264
  0
ARC
  5
2F5
100
AcDbEntity
  8
0
100
AcDbCircle
 62
7
  6
CONTINUOUS
 10
1014.8322426344
 20
1763.6397315748
 40
756.2518519272
100
AcDbArc
 50
178.768050367
 51
179.9387166264
  0
ARC
  5
2F6
100
AcDbEntity
  8
0
100
AcDbCircle
 62
7
  6
CONTINUOUS
 10
1206.49360192
 20
959.8930696879
 40
642.0586105866
100
AcDbArc
 50
168.6331156824
 51
169.3796375197
  0
ARC
  5
2F7
100
AcDbEntity
  8
0
100
AcDbCircle
 62
7
  6
CONTINUOUS
 10
895.5497533056
 20
585.7042528625
 40
636.9694637627
100
AcDbArc
 50
180.0741532855
 51
181.3427464881
  0
ARC
  5
2F8
100
AcDbEntity
  8
0
100
AcDbCircle
 62
7
  6
CONTINUOUS
 10
1249.1046158756
 20
381.5838756023
 40
636.9694637593
100
AcDbArc
 50
180.0741532855
 51
181.3427464881
  0
ARC
  5
2F9
100
AcDbEntity
  8
0
100
AcDbCircle
 62
7
  6
CONTINUOUS
 10
619.0780418775
 20
1528.7712065568
 40
636.9505597963
100
AcDbArc
 50
0.0741332698
 51
1.3427642745
  0
ARC
  5
2FA
100
AcDbEntity
  8
0
100
AcDbCircle
 62
7
  6
CONTINUOUS
 10
1188.0287522285
 20
963.3097024958
 40
623.2803793106
100
AcDbArc
 50
169.3755028165
 51
170.916905021
  0
ARC
  5
2FB
100
AcDbEntity
  8
0
100
AcDbCircle
 62
7
  6
CONTINUOUS
 10
1017.3973014487
 20
977.0669106745
 40
451.8460170651
100
AcDbArc
 50
179.9887541276
 51
182.1453675575
  0
SPLINE
  5
2FC
100
AcDbEntity
  8
0
100
AcDbSpline
 62
7
  6
CONTINUOUS
 70
0
 71
3
 72
8
 73
4
 74
0
 42
0.0000001
 43
0.0000001
 44
0.0000000001
 40
0.0
 40
0.0
 40
0.0
 40
0.0
 40
1.0
 40
1.0
 40
1.0
 40
1.0
 10
551.1807472873
 20
1951.6372123667
 30
0.0
 10
550.8540444373
 20
1951.7097454932
 30
0.0
 10
550.499936141
 20
1951.6766991305
 30
0.0
 10
550.1781429304
 20
1951.5848027964
 30
0.0
  0
SPLINE
  5
2FD
100
AcDbEntity
  8
0
100
AcDbSpline
 62
7
  6
CONTINUOUS
 70
0
 71
3
 72
8
 73
4
 74
0
 42
0.0000001
 43
0.0000001
 44
0.0000000001
 40
0.0
 40
0.0
 40
0.0
 40
0.0
 40
1.0
 40
1.0
 40
1.0
 40
1.0
 10
550.1781429304
 20
1951.5848027964
 30
0.0
 10
549.9905104188
 20
1951.5312195031
 30
0.0
 10
549.808010441
 20
1951.4575411783
 30
0.0
 10
549.6334274091
 20
1951.3703752809
 30
0.0
  0
SPLINE
  5
2FE
100
AcDbEntity
  8
0
100
AcDbSpline
 62
7
  6
CONTINUOUS
 70
0
 71
3
 72
9
 73
5
 74
0
 42
0.0000001
 43
0.0000001
 44
0.0000000001
 40
0.0
 40
0.0
 40
0.0
 40
0.0
 40
0.2035195642
 40
1.0
 40
1.0
 40
1.0
 40
1.0
 10
901.7600689131
 20
1749.3144595248
 30
0.0
 10
901.8565604029
 20
1749.2587881156
 30
0.0
 10
902.2765446627
 20
1748.876833755
 30
0.0
 10
902.2891904475
 20
1748.2534254613
 30
0.0
 10
902.2988431612
 20
1747.8175656284
 30
0.0
  0
SPLINE
  5
2FF
100
AcDbEntity
  8
0
100
AcDbSpline
 62
7
  6
CONTINUOUS
 70
0
 71
3
 72
9
 73
5
 74
0
 42
0.0000001
 43
0.0000001
 44
0.0000000001
 40
0.0
 40
0.0
 40
0.0
 40
0.0
 40
0.2847860453
 40
1.0
 40
1.0
 40
1.0
 40
1.0
 10
899.9551011624
 20
1749.1166382274
 30
0.0
 10
900.0780839672
 20
1749.1876180679
 30
0.0
 10
900.5212320057
 20
1749.4106112232
 30
0.0
 10
901.0481210306
 20
1749.5124281813
 30
0.0
 10
901.3980519581
 20
1749.4437314679
 30
0.0
  0
SPLINE
  5
300
100
AcDbEntity
  8
0
100
AcDbSpline
 62
7
  6
CONTINUOUS
 70
0
 71
3
 72
9
 73
5
 74
0
 42
0.0000001
 43
0.0000001
 44
0.0000000001
 40
0.0
 40
0.0
 40
0.0
 40
0.0
 40
0.7155082591
 40
1.0
 40
1.0
 40
1.0
 40
1.0
 10
600.6002210817
 20
866.6449302617
 30
0.0
 10
601.0220191103
 20
866.4013802323
 30
0.0
 10
601.7841960021
 20
866.358002731
 30
0.0
 10
602.426006169
 20
866.5729075153
 30
0.0
 10
602.6049431207
 20
866.6469735285
 30
0.0
  0
SPLINE
  5
301
100
AcDbEntity
  8
0
100
AcDbSpline
 62
7
  6
CONTINUOUS
 70
0
 71
3
 72
9
 73
5
 74
0
 42
0.0000001
 43
0.0000001
 44
0.0000000001
 40
0.0
 40
0.0
 40
0.0
 40
0.0
 40
0.7223922695
 40
1.0
 40
1.0
 40
1.0
 40
1.0
 10
577.972709852
 20
879.7086343998
 30
0.0
 10
577.6119215963
 20
879.916956823
 30
0.0
 10
577.2303453014
 20
880.4208437471
 30
0.0
 10
577.0643228205
 20
880.9712273901
 30
0.0
 10
577.0288089149
 20
881.127338785
 30
0.0
  0
SPLINE
  5
302
100
AcDbEntity
  8
0
100
AcDbSpline
 62
7
  6
CONTINUOUS
 70
0
 71
3
 72
9
 73
5
 74
0
 42
0.0000001
 43
0.0000001
 44
0.0000000001
 40
0.0
 40
0.0
 40
0.0
 40
0.0
 40
0.7646247423
 40
1.0
 40
1.0
 40
1.0
 40
1.0
 10
259.6573023958
 20
1783.328219792
 30
0.0
 10
259.1373221055
 20
1782.5827385311
 30
0.0
 10
258.8371654276
 20
1781.3587787295
 30
0.0
 10
258.7609025941
 20
1780.1788265014
 30
0.0
 10
258.7551860777
 20
1779.8990934122
 30
0.0
  0
SPLINE
  5
303
100
AcDbEntity
  8
0
100
AcDbSpline
 62
7
  6
CONTINUOUS
 70
0
 71
3
 72
8
 73
4
 74
0
 42
0.0000001
 43
0.0000001
 44
0.0000000001
 40
0.0
 40
0.0
 40
0.0
 40
0.0
 40
1.0
 40
1.0
 40
1.0
 40
1.0
 10
261.0989280765
 20
1784.785898796
 30
0.0
 10
260.5282117977
 20
1784.4086212384
 30
0.0
 10
260.0472136502
 20
1783.8875518887
 30
0.0
 10
259.6559772808
 20
1783.3263126086
 30
0.0
  0
SPLINE
  5
304
100
AcDbEntity
  8
0
100
AcDbSpline
 62
7
  6
CONTINUOUS
 70
0
 71
3
 72
9
 73
5
 74
0
 42
0.0000001
 43
0.0000001
 44
0.0000000001
 40
0.0
 40
0.0
 40
0.0
 40
0.0
 40
0.7589811699
 40
1.0
 40
1.0
 40
1.0
 40
1.0
 10
577.0288089149
 20
1086.4368715722
 30
0.0
 10
577.2861363505
 20
1087.8592052607
 30
0.0
 10
578.2182708656
 20
1089.6673823603
 30
0.0
 10
579.608273924
 20
1090.9773495481
 30
0.0
 10
579.977431916
 20
1091.2501239031
 30
0.0
  0
SPLINE
  5
305
100
AcDbEntity
  8
0
100
AcDbSpline
 62
7
  6
CONTINUOUS
 70
0
 71
3
 72
9
 73
5
 74
0
 42
0.0000001
 43
0.0000001
 44
0.0000000001
 40
0.0
 40
0.0
 40
0.0
 40
0.0
 40
0.2415947009
 40
1.0
 40
1.0
 40
1.0
 40
1.0
 10
565.5512930873
 20
977.1555978808
 30
0.0
 10
565.5512930873
 20
983.9919602152
 30
0.0
 10
566.1735785711
 20
1012.2874395485
 30
0.0
 10
569.1781334033
 20
1040.5132630148
 30
0.0
 10
572.5640420878
 20
1061.7049351291
 30
0.0
  0
SPLINE
  5
306
100
AcDbEntity
  8
0
100
AcDbSpline
 62
7
  6
CONTINUOUS
 70
0
 71
3
 72
9
 73
5
 74
0
 42
0.0000001
 43
0.0000001
 44
0.0000000001
 40
0.0
 40
0.0
 40
0.0
 40
0.0
 40
0.2425466967
 40
1.0
 40
1.0
 40
1.0
 40
1.0
 10
577.0288089149
 20
881.127338785
 30
0.0
 10
575.9711445921
 20
885.1677303438
 30
0.0
 10
571.9522968137
 20
901.9146186457
 30
0.0
 10
569.2639970263
 20
918.9719152825
 30
0.0
 10
567.8813597416
 20
931.9413879132
 30
0.0
  0
SPLINE
  5
307
100
AcDbEntity
  8
0
100
AcDbSpline
 62
7
  6
CONTINUOUS
 70
0
 71
3
 72
9
 73
5
 74
0
 42
0.0000001
 43
0.0000001
 44
0.0000000001
 40
0.0
 40
0.0
 40
0.0
 40
0.0
 40
0.2463348895
 40
1.0
 40
1.0
 40
1.0
 40
1.0
 10
567.8813597416
 20
931.9413879132
 30
0.0
 10
567.6351520101
 20
934.250876071
 30
0.0
 10
566.7196575131
 20
943.6351008145
 30
0.0
 10
566.135427379
 20
953.0511479248
 30
0.0
 10
565.8679988303
 20
960.1520646945
 30
0.0
  0
SPLINE
  5
308
100
AcDbEntity
  8
0
100
AcDbSpline
 62
7
  6
CONTINUOUS
 70
0
 71
3
 72
9
 73
5
 74
0
 42
0.0000001
 43
0.0000001
 44
0.0000000001
 40
0.0
 40
0.0
 40
0.0
 40
0.0
 40
0.327204024
 40
1.0
 40
1.0
 40
1.0
 40
1.0
 10
258.7551860365
 20
570.7780257481
 30
0.0
 10
258.7590998855
 20
570.6012993091
 30
0.0
 10
258.7795581045
 20
570.0779232568
 30
0.0
 10
258.9791293283
 20
569.4627756776
 30
0.0
 10
259.2939602546
 20
569.2811318708
 30
0.0
  0
SPLINE
  5
309
100
AcDbEntity
  8
0
100
AcDbSpline
 62
7
  6
CONTINUOUS
 70
0
 71
3
 72
8
 73
4
 74
0
 42
0.0000001
 43
0.0000001
 44
0.0000000001
 40
0.0
 40
0.0
 40
0.0
 40
0.0
 40
1.0
 40
1.0
 40
1.0
 40
1.0
 10
611.4218985931
 20
367.2258639395
 30
0.0
 10
611.2471799517
 20
367.1385438078
 30
0.0
 10
611.0645281554
 20
367.0647253315
 30
0.0
 10
610.8767299319
 20
367.011029556
 30
0.0
  0
SPLINE
  5
30A
100
AcDbEntity
  8
0
100
AcDbSpline
 62
7
  6
CONTINUOUS
 70
0
 71
3
 72
8
 73
4
 74
0
 42
0.0000001
 43
0.0000001
 44
0.0000000001
 40
0.0
 40
0.0
 40
0.0
 40
0.0
 40
1.0
 40
1.0
 40
1.0
 40
1.0
 10
610.8767299319
 20
367.011029556
 30
0.0
 10
610.5546921734
 20
366.9189516498
 30
0.0
 10
610.2002630556
 20
366.8857841402
 30
0.0
 10
609.8732819516
 20
366.9583790182
 30
0.0
  0
SPLINE
  5
30B
100
AcDbEntity
  8
0
100
AcDbSpline
 62
7
  6
CONTINUOUS
 70
0
 71
3
 72
8
 73
4
 74
0
 42
0.0000001
 43
0.0000001
 44
0.0000000001
 40
0.0
 40
0.0
 40
0.0
 40
0.0
 40
1.0
 40
1.0
 40
1.0
 40
1.0
 10
609.4241427104
 20
367.1379498669
 30
0.0
 10
609.0732891233
 20
367.3404180053
 30
0.0
 10
608.7785046635
 20
367.6620941104
 30
0.0
 10
608.5874401617
 20
368.0192858556
 30
0.0
  0
SPLINE
  5
30C
100
AcDbEntity
  8
0
100
AcDbSpline
 62
7
  6
CONTINUOUS
 70
0
 71
3
 72
8
 73
4
 74
0
 42
0.0000001
 43
0.0000001
 44
0.0000000001
 40
0.0
 40
0.0
 40
0.0
 40
0.0
 40
1.0
 40
1.0
 40
1.0
 40
1.0
 10
608.5874401617
 20
368.0192858556
 30
0.0
 10
608.4326405376
 20
368.3086810459
 30
0.0
 10
608.3365738766
 20
368.6376151225
 30
0.0
 10
608.3135090585
 20
368.9649994746
 30
0.0
  0
SPLINE
  5
30D
100
AcDbEntity
  8
0
100
AcDbSpline
 62
7
  6
CONTINUOUS
 70
0
 71
3
 72
14
 73
10
 74
0
 42
0.0000001
 43
0.0000001
 44
0.0000000001
 40
0.0
 40
0.0
 40
0.0
 40
0.0
 40
0.2603684655
 40
0.5182213737
 40
0.6456692952
 40
0.7714494301
 40
0.8940361139
 40
0.952490989
 40
1.0
 40
1.0
 40
1.0
 40
1.0
 10
258.5808230056
 20
584.8798751212
 30
0.0
 10
258.5808216602
 20
586.3354716046
 30
0.0
 10
258.5957505118
 20
589.2346902645
 30
0.0
 10
258.6628511941
 20
592.8362145486
 30
0.0
 10
258.7759812148
 20
595.7066333997
 30
0.0
 10
258.88640304
 20
597.7591892053
 30
0.0
 10
259.080353986
 20
599.6039710999
 30
0.0
 10
259.2215791113
 20
600.6127410349
 30
0.0
 10
259.519313892
 20
601.6050549236
 30
0.0
 10
259.751692373
 20
601.476432317
 30
0.0
  0
SPLINE
  5
30E
100
AcDbEntity
  8
0
100
AcDbSpline
 62
7
  6
CONTINUOUS
 70
0
 71
3
 72
16
 73
12
 74
0
 42
0.0000001
 43
0.0000001
 44
0.0000000001
 40
0.0
 40
0.0
 40
0.0
 40
0.0
 40
0.2443173618
 40
0.4903164363
 40
0.6142903946
 40
0.7393352932
 40
0.8024932317
 40
0.8663580073
 40
0.9315096248
 40
0.9649472957
 40
1.0
 40
1.0
 40
1.0
 40
1.0
 10
258.5808232973
 20
1764.448615865
 30
0.0
 10
258.5808229055
 20
1762.8218026971
 30
0.0
 10
258.5955312439
 20
1759.5569203049
 30
0.0
 10
258.6652703711
 20
1755.4671406603
 30
0.0
 10
258.7745611236
 20
1752.1724103532
 30
0.0
 10
258.8772422274
 20
1750.0969873516
 30
0.0
 10
258.9944134082
 20
1748.4207517406
 30
0.0
 10
259.1148235927
 20
1747.1523263742
 30
0.0
 10
259.2458855499
 20
1746.0602592556
 30
0.0
 10
259.4392206147
 20
1745.226599524
 30
0.0
 10
259.5518881152
 20
1744.7086247122
 30
0.0
 10
259.7516923752
 20
1744.5879813213
 30
0.0
  0
SPLINE
  5
30F
100
AcDbEntity
  8
0
100
AcDbSpline
 62
7
  6
CONTINUOUS
 70
0
 71
3
 72
8
 73
4
 74
0
 42
0.0000001
 43
0.0000001
 44
0.0000000001
 40
0.0
 40
0.0
 40
0.0
 40
0.0
 40
1.0
 40
1.0
 40
1.0
 40
1.0
 10
609.8732819516
 20
1581.1328317098
 30
0.0
 10
610.2975203974
 20
1581.6838428022
 30
0.0
 10
610.8184076821
 20
1582.1843777703
 30
0.0
 10
611.4206018298
 20
1582.5321617425
 30
0.0
  0
SPLINE
  5
310
100
AcDbEntity
  8
0
100
AcDbSpline
 62
7
  6
CONTINUOUS
 70
0
 71
3
 72
9
 73
5
 74
0
 42
0.0000001
 43
0.0000001
 44
0.0000000001
 40
0.0
 40
0.0
 40
0.0
 40
0.0
 40
0.228613301
 40
1.0
 40
1.0
 40
1.0
 40
1.0
 10
608.3135091933
 20
1578.0860670847
 30
0.0
 10
608.3315941453
 20
1578.3491457946
 30
0.0
 10
608.5988075984
 20
1579.488856231
 30
0.0
 10
609.3320902157
 20
1580.4295104517
 30
0.0
 10
609.8747086637
 20
1581.134680235
 30
0.0
  0
SPLINE
  5
311
100
AcDbEntity
  8
0
100
AcDbSpline
 62
7
  6
CONTINUOUS
 70
0
 71
3
 72
17
 73
13
 74
0
 42
0.0000001
 43
0.0000001
 44
0.0000000001
 40
0.0
 40
0.0
 40
0.0
 40
0.0
 40
0.256584958
 40
0.3842891592
 40
0.51147586
 40
0.6379708765
 40
0.7634325276
 40
0.8255514868
 40
0.8869751779
 40
0.9470567178
 40
0.9759086993
 40
1.0
 40
1.0
 40
1.0
 40
1.0
 10
608.3134969441
 20
1578.0860741566
 30
0.0
 10
608.1208882379
 20
1575.2842281774
 30
0.0
 10
607.8139756449
 20
1571.0891590956
 30
0.0
 10
607.3543766615
 20
1565.5094554248
 30
0.0
 10
606.9801171965
 20
1561.352310111
 30
0.0
 10
606.5652592078
 20
1557.2209577377
 30
0.0
 10
606.1741954675
 20
1553.8119229253
 30
0.0
 10
605.8055092227
 20
1551.0979207165
 30
0.0
 10
605.5071526648
 20
1549.1504848992
 30
0.0
 10
605.160285774
 20
1547.416715011
 30
0.0
 10
604.9052873161
 20
1546.4410932427
 30
0.0
 10
604.5496859701
 20
1545.529370108
 30
0.0
 10
604.3187252362
 20
1545.6566125741
 30
0.0
  0
SPLINE
  5
312
100
AcDbEntity
  8
0
100
AcDbSpline
 62
7
  6
CONTINUOUS
 70
0
 71
3
 72
8
 73
4
 74
0
 42
0.0000001
 43
0.0000001
 44
0.0000000001
 40
0.0
 40
0.0
 40
0.0
 40
0.0
 40
1.0
 40
1.0
 40
1.0
 40
1.0
 10
604.9898400628
 20
1079.9062634461
 30
0.0
 10
604.7689959714
 20
1079.9879436451
 30
0.0
 10
604.5266337331
 20
1080.0623601945
 30
0.0
 10
604.362724041
 20
1080.2314086504
 30
0.0
  0
SPLINE
  5
313
100
AcDbEntity
  8
0
100
AcDbSpline
 62
7
  6
CONTINUOUS
 70
0
 71
3
 72
9
 73
5
 74
0
 42
0.0000001
 43
0.0000001
 44
0.0000000001
 40
0.0
 40
0.0
 40
0.0
 40
0.0
 40
0.2776082325
 40
1.0
 40
1.0
 40
1.0
 40
1.0
 10
599.6563201196
 20
868.0636346403
 30
0.0
 10
599.6918340939
 20
867.9075229434
 30
0.0
 10
599.8578556345
 20
867.357138878
 30
0.0
 10
600.2394330341
 20
866.8532525716
 30
0.0
 10
600.6002210817
 20
866.6449302617
 30
0.0
  0
SPLINE
  5
314
100
AcDbEntity
  8
0
100
AcDbSpline
 62
7
  6
CONTINUOUS
 70
0
 71
3
 72
9
 73
5
 74
0
 42
0.0000001
 43
0.0000001
 44
0.0000000001
 40
0.0
 40
0.0
 40
0.0
 40
0.0
 40
0.2635217452
 40
1.0
 40
1.0
 40
1.0
 40
1.0
 10
588.178804292
 20
964.0918937362
 30
0.0
 10
588.178804292
 20
955.5841713278
 30
0.0
 10
589.0604297312
 20
923.3166219027
 30
0.0
 10
593.6350398103
 20
891.0655735468
 30
0.0
 10
599.6563201196
 20
868.0636346403
 30
0.0
  0
SPLINE
  5
315
100
AcDbEntity
  8
0
100
AcDbSpline
 62
7
  6
CONTINUOUS
 70
0
 71
3
 72
9
 73
5
 74
0
 42
0.0000001
 43
0.0000001
 44
0.0000000001
 40
0.0
 40
0.0
 40
0.0
 40
0.0
 40
0.2602438651
 40
1.0
 40
1.0
 40
1.0
 40
1.0
 10
599.6563201196
 20
1073.3731674276
 30
0.0
 10
597.7761524794
 20
1064.0197070358
 30
0.0
 10
591.3469453545
 20
1027.9293326969
 30
0.0
 10
588.178804292
 20
991.2114052412
 30
0.0
 10
588.178804292
 20
964.0918937362
 30
0.0
  0
SPLINE
  5
316
100
AcDbEntity
  8
0
100
AcDbSpline
 62
7
  6
CONTINUOUS
 70
0
 71
3
 72
9
 73
5
 74
0
 42
0.0000001
 43
0.0000001
 44
0.0000000001
 40
0.0
 40
0.0
 40
0.0
 40
0.0
 40
0.2410182015
 40
1.0
 40
1.0
 40
1.0
 40
1.0
 10
602.6049431207
 20
1078.1864197585
 30
0.0
 10
602.2357860837
 20
1077.9136461092
 30
0.0
 10
600.845781461
 20
1076.603680588
 30
0.0
 10
599.9136477737
 20
1074.7955023237
 30
0.0
 10
599.6563201196
 20
1073.3731674276
 30
0.0
  0
SPLINE
  5
317
100
AcDbEntity
  8
0
100
AcDbSpline
 62
7
  6
CONTINUOUS
 70
0
 71
3
 72
18
 73
14
 74
0
 42
0.0000001
 43
0.0000001
 44
0.0000000001
 40
0.0
 40
0.0
 40
0.0
 40
0.0
 40
0.243829815
 40
0.3663869041
 40
0.4895025329
 40
0.6133568717
 40
0.7382973161
 40
0.8014013282
 40
0.8652066504
 40
0.9303101122
 40
0.9639823232
 40
0.981336686
 40
1.0
 40
1.0
 40
1.0
 40
1.0
 10
608.3134968045
 20
368.9650065493
 30
0.0
 10
608.1198095991
 20
371.7142222597
 30
0.0
 10
607.8114238853
 20
375.8441215947
 30
0.0
 10
607.3528866738
 20
381.3579961097
 30
0.0
 10
606.9777724879
 20
385.517996013
 30
0.0
 10
606.5621703316
 20
389.7010727023
 30
0.0
 10
606.1689100928
 20
393.2050721721
 30
0.0
 10
605.8047029768
 20
396.0276452833
 30
0.0
 10
605.4918964058
 20
398.1779373358
 30
0.0
 10
605.1744259127
 20
399.9804947955
 30
0.0
 10
604.8860987275
 20
401.2765939042
 30
0.0
 10
604.6466728752
 20
402.0036796745
 30
0.0
 10
604.4995269992
 20
402.4363808624
 30
0.0
 10
604.318725234
 20
402.5450635697
 30
0.0
  0
SPLINE
  5
318
100
AcDbEntity
  8
0
100
AcDbSpline
 62
7
  6
CONTINUOUS
 70
0
 71
3
 72
8
 73
4
 74
0
 42
0.0000001
 43
0.0000001
 44
0.0000000001
 40
0.0
 40
0.0
 40
0.0
 40
0.0
 40
1.0
 40
1.0
 40
1.0
 40
1.0
 10
904.7356098608
 20
1747.5168351066
 30
0.0
 10
904.4089070108
 20
1747.5893682331
 30
0.0
 10
904.0547987145
 20
1747.5563218703
 30
0.0
 10
903.7330055039
 20
1747.4644255362
 30
0.0
  0
SPLINE
  5
319
100
AcDbEntity
  8
0
100
AcDbSpline
 62
7
  6
CONTINUOUS
 70
0
 71
3
 72
8
 73
4
 74
0
 42
0.0000001
 43
0.0000001
 44
0.0000000001
 40
0.0
 40
0.0
 40
0.0
 40
0.0
 40
1.0
 40
1.0
 40
1.0
 40
1.0
 10
903.7330055039
 20
1747.4644255362
 30
0.0
 10
903.5453729923
 20
1747.4108422429
 30
0.0
 10
903.3628730145
 20
1747.3371639182
 30
0.0
 10
903.1882899825
 20
1747.2499980208
 30
0.0
  0
SPLINE
  5
31A
100
AcDbEntity
  8
0
100
AcDbSpline
 62
7
  6
CONTINUOUS
 70
0
 71
3
 72
9
 73
5
 74
0
 42
0.0000001
 43
0.0000001
 44
0.0000000001
 40
0.0
 40
0.0
 40
0.0
 40
0.0
 40
0.2353752571
 40
1.0
 40
1.0
 40
1.0
 40
1.0
 10
1255.8537057758
 20
334.5761208597
 30
0.0
 10
1255.8479892597
 20
334.2963877567
 30
0.0
 10
1255.7717264249
 20
333.1164354677
 30
0.0
 10
1255.471569737
 20
331.8924755909
 30
0.0
 10
1254.9515893992
 20
331.1469943039
 30
0.0
  0
SPLINE
  5
31B
100
AcDbEntity
  8
0
100
AcDbSpline
 62
7
  6
CONTINUOUS
 70
0
 71
3
 72
8
 73
4
 74
0
 42
0.0000001
 43
0.0000001
 44
0.0000000001
 40
0.0
 40
0.0
 40
0.0
 40
0.0
 40
1.0
 40
1.0
 40
1.0
 40
1.0
 10
1254.9529145316
 20
331.1489015162
 30
0.0
 10
1254.5614077646
 20
330.5872743752
 30
0.0
 10
1254.080004659
 20
330.0658434558
 30
0.0
 10
1253.5087544412
 20
329.6885162997
 30
0.0
  0
SPLINE
  5
31C
100
AcDbEntity
  8
0
100
AcDbSpline
 62
7
  6
CONTINUOUS
 70
0
 71
3
 72
9
 73
5
 74
0
 42
0.0000001
 43
0.0000001
 44
0.0000000001
 40
0.0
 40
0.0
 40
0.0
 40
0.0
 40
0.2035195642
 40
1.0
 40
1.0
 40
1.0
 40
1.0
 10
1255.3149314866
 20
1545.1940822647
 30
0.0
 10
1255.4114229764
 20
1545.1384108555
 30
0.0
 10
1255.8314072362
 20
1544.7564564949
 30
0.0
 10
1255.844053021
 20
1544.1330482012
 30
0.0
 10
1255.8537057347
 20
1543.6971883682
 30
0.0
  0
SPLINE
  5
31D
100
AcDbEntity
  8
0
100
AcDbSpline
 62
7
  6
CONTINUOUS
 70
0
 71
3
 72
9
 73
5
 74
0
 42
0.0000001
 43
0.0000001
 44
0.0000000001
 40
0.0
 40
0.0
 40
0.0
 40
0.0
 40
0.2847860453
 40
1.0
 40
1.0
 40
1.0
 40
1.0
 10
1253.5099637359
 20
1544.9962609673
 30
0.0
 10
1253.6329465407
 20
1545.0672408077
 30
0.0
 10
1254.0760945792
 20
1545.2902339631
 30
0.0
 10
1254.6029836041
 20
1545.3920509212
 30
0.0
 10
1254.9529145316
 20
1545.3233542078
 30
0.0
  0
SPLINE
  5
31E
100
AcDbEntity
  8
0
100
AcDbSpline
 62
7
  6
CONTINUOUS
 70
0
 71
3
 72
9
 73
5
 74
0
 42
0.0000001
 43
0.0000001
 44
0.0000000001
 40
0.0
 40
0.0
 40
0.0
 40
0.0
 40
0.7155082591
 40
1.0
 40
1.0
 40
1.0
 40
1.0
 10
631.0059392631
 20
849.0905778173
 30
0.0
 10
631.4277372917
 20
848.8470277879
 30
0.0
 10
632.1899141834
 20
848.8036502867
 30
0.0
 10
632.8317243504
 20
849.018555071
 30
0.0
 10
633.0106613021
 20
849.0926210842
 30
0.0
  0
SPLINE
  5
31F
100
AcDbEntity
  8
0
100
AcDbSpline
 62
7
  6
CONTINUOUS
 70
0
 71
3
 72
9
 73
5
 74
0
 42
0.0000001
 43
0.0000001
 44
0.0000000001
 40
0.0
 40
0.0
 40
0.0
 40
0.0
 40
0.7223922695
 40
1.0
 40
1.0
 40
1.0
 40
1.0
 10
608.3784280333
 20
862.1542819554
 30
0.0
 10
608.0176397776
 20
862.3626043786
 30
0.0
 10
607.6360634827
 20
862.8664913027
 30
0.0
 10
607.4700410018
 20
863.4168749458
 30
0.0
 10
607.4345270962
 20
863.5729863406
 30
0.0
  0
SPLINE
  5
320
100
AcDbEntity
  8
0
100
AcDbSpline
 62
7
  6
CONTINUOUS
 70
0
 71
3
 72
9
 73
5
 74
0
 42
0.0000001
 43
0.0000001
 44
0.0000000001
 40
0.0
 40
0.0
 40
0.0
 40
0.0
 40
0.7646247423
 40
1.0
 40
1.0
 40
1.0
 40
1.0
 10
613.2121649693
 20
1579.2078425319
 30
0.0
 10
612.692184679
 20
1578.4623612709
 30
0.0
 10
612.3920280011
 20
1577.2384014694
 30
0.0
 10
612.3157651676
 20
1576.0584492412
 30
0.0
 10
612.3100486512
 20
1575.7787161521
 30
0.0
  0
SPLINE
  5
321
100
AcDbEntity
  8
0
100
AcDbSpline
 62
7
  6
CONTINUOUS
 70
0
 71
3
 72
8
 73
4
 74
0
 42
0.0000001
 43
0.0000001
 44
0.0000000001
 40
0.0
 40
0.0
 40
0.0
 40
0.0
 40
1.0
 40
1.0
 40
1.0
 40
1.0
 10
614.65379065
 20
1580.6655215358
 30
0.0
 10
614.0830743712
 20
1580.2882439782
 30
0.0
 10
613.6020762237
 20
1579.7671746286
 30
0.0
 10
613.2108398543
 20
1579.2059353484
 30
0.0
  0
SPLINE
  5
322
100
AcDbEntity
  8
0
100
AcDbSpline
 62
7
  6
CONTINUOUS
 70
0
 71
3
 72
9
 73
5
 74
0
 42
0.0000001
 43
0.0000001
 44
0.0000000001
 40
0.0
 40
0.0
 40
0.0
 40
0.0
 40
0.327204024
 40
1.0
 40
1.0
 40
1.0
 40
1.0
 10
612.31004861
 20
366.6576484879
 30
0.0
 10
612.313962459
 20
366.4809220489
 30
0.0
 10
612.334420678
 20
365.9575459966
 30
0.0
 10
612.5339919018
 20
365.3423984174
 30
0.0
 10
612.8488228281
 20
365.1607546107
 30
0.0
  0
SPLINE
  5
323
100
AcDbEntity
  8
0
100
AcDbSpline
 62
7
  6
CONTINUOUS
 70
0
 71
3
 72
9
 73
5
 74
0
 42
0.0000001
 43
0.0000001
 44
0.0000000001
 40
0.0
 40
0.0
 40
0.0
 40
0.0
 40
0.2803165812
 40
1.0
 40
1.0
 40
1.0
 40
1.0
 10
964.9767611666
 20
163.1054866794
 30
0.0
 10
964.8440853604
 20
163.0391785351
 30
0.0
 10
964.3597092277
 20
162.8311783483
 30
0.0
 10
963.7998958637
 20
162.7554671934
 30
0.0
 10
963.4281445251
 20
162.8380017581
 30
0.0
  0
SPLINE
  5
324
100
AcDbEntity
  8
0
100
AcDbSpline
 62
7
  6
CONTINUOUS
 70
0
 71
3
 72
9
 73
5
 74
0
 42
0.0000001
 43
0.0000001
 44
0.0000000001
 40
0.0
 40
0.0
 40
0.0
 40
0.0
 40
0.7589811699
 40
1.0
 40
1.0
 40
1.0
 40
1.0
 10
607.4345270962
 20
1068.8825191278
 30
0.0
 10
607.6918545318
 20
1070.3048528163
 30
0.0
 10
608.6239890469
 20
1072.1130299159
 30
0.0
 10
610.0139921053
 20
1073.4229971038
 30
0.0
 10
610.3831500974
 20
1073.6957714588
 30
0.0
  0
SPLINE
  5
325
100
AcDbEntity
  8
0
100
AcDbSpline
 62
7
  6
CONTINUOUS
 70
0
 71
3
 72
9
 73
5
 74
0
 42
0.0000001
 43
0.0000001
 44
0.0000000001
 40
0.0
 40
0.0
 40
0.0
 40
0.0
 40
0.2396265238
 40
1.0
 40
1.0
 40
1.0
 40
1.0
 10
595.9570112686
 20
959.6012454365
 30
0.0
 10
595.9570112686
 20
968.3864140661
 30
0.0
 10
596.9929659611
 20
1005.0461238135
 30
0.0
 10
601.9408268406
 20
1041.5524520378
 30
0.0
 10
607.4345270962
 20
1068.8825191278
 30
0.0
  0
SPLINE
  5
326
100
AcDbEntity
  8
0
100
AcDbSpline
 62
7
  6
CONTINUOUS
 70
0
 71
3
 72
9
 73
5
 74
0
 42
0.0000001
 43
0.0000001
 44
0.0000000001
 40
0.0
 40
0.0
 40
0.0
 40
0.0
 40
0.2369601761
 40
1.0
 40
1.0
 40
1.0
 40
1.0
 10
607.4345270962
 20
863.5729863406
 30
0.0
 10
605.4969841387
 20
870.9746089935
 30
0.0
 10
598.4940116102
 20
902.5158673255
 30
0.0
 10
595.9570112686
 20
934.9640585952
 30
0.0
 10
595.9570112686
 20
959.6012454365
 30
0.0
  0
SPLINE
  5
327
100
AcDbEntity
  8
0
100
AcDbSpline
 62
7
  6
CONTINUOUS
 70
0
 71
3
 72
8
 73
4
 74
0
 42
0.0000001
 43
0.0000001
 44
0.0000000001
 40
0.0
 40
0.0
 40
0.0
 40
0.0
 40
1.0
 40
1.0
 40
1.0
 40
1.0
 10
962.9790052839
 20
163.0175726067
 30
0.0
 10
962.6281516968
 20
163.2200407452
 30
0.0
 10
962.333367237
 20
163.5417168503
 30
0.0
 10
962.1423027352
 20
163.8989085954
 30
0.0
  0
SPLINE
  5
328
100
AcDbEntity
  8
0
100
AcDbSpline
 62
7
  6
CONTINUOUS
 70
0
 71
3
 72
8
 73
4
 74
0
 42
0.0000001
 43
0.0000001
 44
0.0000000001
 40
0.0
 40
0.0
 40
0.0
 40
0.0
 40
1.0
 40
1.0
 40
1.0
 40
1.0
 10
962.1423027352
 20
163.8989085954
 30
0.0
 10
961.9875031111
 20
164.1883037858
 30
0.0
 10
961.8914364501
 20
164.5172378623
 30
0.0
 10
961.868371632
 20
164.8446222144
 30
0.0
  0
SPLINE
  5
329
100
AcDbEntity
  8
0
100
AcDbSpline
 62
7
  6
CONTINUOUS
 70
0
 71
3
 72
14
 73
10
 74
0
 42
0.0000001
 43
0.0000001
 44
0.0000000001
 40
0.0
 40
0.0
 40
0.0
 40
0.0
 40
0.2603684655
 40
0.5182213737
 40
0.6456692952
 40
0.7714494301
 40
0.8940361139
 40
0.952490989
 40
1.0
 40
1.0
 40
1.0
 40
1.0
 10
612.1356855791
 20
380.7594978611
 30
0.0
 10
612.1356842337
 20
382.2150943445
 30
0.0
 10
612.1506130853
 20
385.1143130043
 30
0.0
 10
612.2177137676
 20
388.7158372884
 30
0.0
 10
612.3308437883
 20
391.5862561396
 30
0.0
 10
612.4412656135
 20
393.6388119451
 30
0.0
 10
612.6352165595
 20
395.4835938398
 30
0.0
 10
612.7764416847
 20
396.4923637747
 30
0.0
 10
613.0741764655
 20
397.4846776635
 30
0.0
 10
613.3065549465
 20
397.3560550568
 30
0.0
  0
SPLINE
  5
32A
100
AcDbEntity
  8
0
100
AcDbSpline
 62
7
  6
CONTINUOUS
 70
0
 71
3
 72
16
 73
12
 74
0
 42
0.0000001
 43
0.0000001
 44
0.0000000001
 40
0.0
 40
0.0
 40
0.0
 40
0.0
 40
0.2443173618
 40
0.4903164363
 40
0.6142903946
 40
0.7393352932
 40
0.8024932317
 40
0.8663580073
 40
0.9315096248
 40
0.9649472957
 40
1.0
 40
1.0
 40
1.0
 40
1.0
 10
612.1356858708
 20
1560.3282386049
 30
0.0
 10
612.135685479
 20
1558.7014254369
 30
0.0
 10
612.1503938174
 20
1555.4365430448
 30
0.0
 10
612.2201329446
 20
1551.3467634002
 30
0.0
 10
612.329423697
 20
1548.052033093
 30
0.0
 10
612.4321048009
 20
1545.9766100915
 30
0.0
 10
612.5492759817
 20
1544.3003744804
 30
0.0
 10
612.6696861662
 20
1543.031949114
 30
0.0
 10
612.8007481234
 20
1541.9398819955
 30
0.0
 10
612.9940831882
 20
1541.1062222638
 30
0.0
 10
613.1067506887
 20
1540.588247452
 30
0.0
 10
613.3065549487
 20
1540.4676040611
 30
0.0
  0
SPLINE
  5
32B
100
AcDbEntity
  8
0
100
AcDbSpline
 62
7
  6
CONTINUOUS
 70
0
 71
3
 72
8
 73
4
 74
0
 42
0.0000001
 43
0.0000001
 44
0.0000000001
 40
0.0
 40
0.0
 40
0.0
 40
0.0
 40
1.0
 40
1.0
 40
1.0
 40
1.0
 10
963.4281445251
 20
1377.0124544496
 30
0.0
 10
963.8523829709
 20
1377.5634655421
 30
0.0
 10
964.3732702556
 20
1378.0640005101
 30
0.0
 10
964.9754644033
 20
1378.4117844823
 30
0.0
  0
SPLINE
  5
32C
100
AcDbEntity
  8
0
100
AcDbSpline
 62
7
  6
CONTINUOUS
 70
0
 71
3
 72
9
 73
5
 74
0
 42
0.0000001
 43
0.0000001
 44
0.0000000001
 40
0.0
 40
0.0
 40
0.0
 40
0.0
 40
0.228613301
 40
1.0
 40
1.0
 40
1.0
 40
1.0
 10
961.8683717668
 20
1373.9656898245
 30
0.0
 10
961.8864567188
 20
1374.2287685345
 30
0.0
 10
962.1536701719
 20
1375.3684789708
 30
0.0
 10
962.8869527892
 20
1376.3091331915
 30
0.0
 10
963.4295712371
 20
1377.0143029749
 30
0.0
  0
SPLINE
  5
32D
100
AcDbEntity
  8
0
100
AcDbSpline
 62
7
  6
CONTINUOUS
 70
0
 71
3
 72
8
 73
4
 74
0
 42
0.0000001
 43
0.0000001
 44
0.0000000001
 40
0.0
 40
0.0
 40
0.0
 40
0.0
 40
1.0
 40
1.0
 40
1.0
 40
1.0
 10
613.3065828816
 20
1075.0281388206
 30
0.0
 10
613.1214158149
 20
1075.1352869204
 30
0.0
 10
612.9165738639
 20
1075.2430017346
 30
0.0
 10
612.8002945899
 20
1075.4225753639
 30
0.0
  0
SPLINE
  5
32E
100
AcDbEntity
  8
0
100
AcDbSpline
 62
7
  6
CONTINUOUS
 70
0
 71
3
 72
17
 73
13
 74
0
 42
0.0000001
 43
0.0000001
 44
0.0000000001
 40
0.0
 40
0.0
 40
0.0
 40
0.0
 40
0.256584958
 40
0.3842891592
 40
0.51147586
 40
0.6379708765
 40
0.7634325276
 40
0.8255514868
 40
0.8869751779
 40
0.9470567178
 40
0.9759086993
 40
1.0
 40
1.0
 40
1.0
 40
1.0
 10
961.8683595176
 20
1373.9656968965
 30
0.0
 10
961.6757508114
 20
1371.1638509173
 30
0.0
 10
961.3688382184
 20
1366.9687818354
 30
0.0
 10
960.909239235
 20
1361.3890781646
 30
0.0
 10
960.53497977
 20
1357.2319328508
 30
0.0
 10
960.1201217813
 20
1353.1005804776
 30
0.0
 10
959.729058041
 20
1349.6915456651
 30
0.0
 10
959.3603717962
 20
1346.9775434563
 30
0.0
 10
959.0620152383
 20
1345.030107639
 30
0.0
 10
958.7151483475
 20
1343.2963377508
 30
0.0
 10
958.4601498896
 20
1342.3207159825
 30
0.0
 10
958.1045485436
 20
1341.4089928479
 30
0.0
 10
957.8735878096
 20
1341.5362353139
 30
0.0
  0
SPLINE
  5
32F
100
AcDbEntity
  8
0
100
AcDbSpline
 62
7
  6
CONTINUOUS
 70
0
 71
3
 72
18
 73
14
 74
0
 42
0.0000001
 43
0.0000001
 44
0.0000000001
 40
0.0
 40
0.0
 40
0.0
 40
0.0
 40
0.243829815
 40
0.3663869041
 40
0.4895025329
 40
0.6133568717
 40
0.7382973161
 40
0.8014013282
 40
0.8652066504
 40
0.9303101122
 40
0.9639823232
 40
0.981336686
 40
1.0
 40
1.0
 40
1.0
 40
1.0
 10
961.868359378
 20
164.8446292891
 30
0.0
 10
961.6746721726
 20
167.5938449995
 30
0.0
 10
961.3662864588
 20
171.7237443345
 30
0.0
 10
960.9077492473
 20
177.2376188496
 30
0.0
 10
960.5326350614
 20
181.3976187528
 30
0.0
 10
960.1170329051
 20
185.5806954422
 30
0.0
 10
959.7237726662
 20
189.084694912
 30
0.0
 10
959.3595655503
 20
191.9072680232
 30
0.0
 10
959.0467589793
 20
194.0575600756
 30
0.0
 10
958.7292884862
 20
195.8601175353
 30
0.0
 10
958.440961301
 20
197.1562166441
 30
0.0
 10
958.2015354487
 20
197.8833024144
 30
0.0
 10
958.0543895727
 20
198.3160036022
 30
0.0
 10
957.8735878074
 20
198.4246863096
 30
0.0
  0
SPLINE
  5
330
100
AcDbEntity
  8
0
100
AcDbSpline
 62
7
  6
CONTINUOUS
 70
0
 71
3
 72
9
 73
5
 74
0
 42
0.0000001
 43
0.0000001
 44
0.0000000001
 40
0.0
 40
0.0
 40
0.0
 40
0.0
 40
0.2776082325
 40
1.0
 40
1.0
 40
1.0
 40
1.0
 10
630.0620383009
 20
850.509282196
 30
0.0
 10
630.0975522752
 20
850.353170499
 30
0.0
 10
630.2635738159
 20
849.8027864336
 30
0.0
 10
630.6451512155
 20
849.2989001272
 30
0.0
 10
631.0059392631
 20
849.0905778173
 30
0.0
  0
SPLINE
  5
331
100
AcDbEntity
  8
0
100
AcDbSpline
 62
7
  6
CONTINUOUS
 70
0
 71
3
 72
9
 73
5
 74
0
 42
0.0000001
 43
0.0000001
 44
0.0000000001
 40
0.0
 40
0.0
 40
0.0
 40
0.0
 40
0.2635217452
 40
1.0
 40
1.0
 40
1.0
 40
1.0
 10
618.5845224733
 20
946.5375412918
 30
0.0
 10
618.5845224733
 20
938.0298188835
 30
0.0
 10
619.4661479125
 20
905.7622694584
 30
0.0
 10
624.0407579916
 20
873.5112211024
 30
0.0
 10
630.0620383009
 20
850.509282196
 30
0.0
  0
SPLINE
  5
332
100
AcDbEntity
  8
0
100
AcDbSpline
 62
7
  6
CONTINUOUS
 70
0
 71
3
 72
9
 73
5
 74
0
 42
0.0000001
 43
0.0000001
 44
0.0000000001
 40
0.0
 40
0.0
 40
0.0
 40
0.0
 40
0.2602438651
 40
1.0
 40
1.0
 40
1.0
 40
1.0
 10
630.0620383009
 20
1055.8188149832
 30
0.0
 10
628.1818706608
 20
1046.4653545914
 30
0.0
 10
621.7526635358
 20
1010.3749802525
 30
0.0
 10
618.5845224733
 20
973.6570527968
 30
0.0
 10
618.5845224733
 20
946.5375412918
 30
0.0
  0
SPLINE
  5
333
100
AcDbEntity
  8
0
100
AcDbSpline
 62
7
  6
CONTINUOUS
 70
0
 71
3
 72
9
 73
5
 74
0
 42
0.0000001
 43
0.0000001
 44
0.0000000001
 40
0.0
 40
0.0
 40
0.0
 40
0.0
 40
0.2410182015
 40
1.0
 40
1.0
 40
1.0
 40
1.0
 10
633.0106613021
 20
1060.6320673141
 30
0.0
 10
632.641504265
 20
1060.3592936648
 30
0.0
 10
631.2514996423
 20
1059.0493281436
 30
0.0
 10
630.319365955
 20
1057.2411498794
 30
0.0
 10
630.0620383009
 20
1055.8188149832
 30
0.0
  0
SPLINE
  5
334
100
AcDbEntity
  8
0
100
AcDbSpline
 62
7
  6
CONTINUOUS
 70
0
 71
3
 72
8
 73
4
 74
0
 42
0.0000001
 43
0.0000001
 44
0.0000000001
 40
0.0
 40
0.0
 40
0.0
 40
0.0
 40
1.0
 40
1.0
 40
1.0
 40
1.0
 10
881.7951254816
 20
1740.5373039172
 30
0.0
 10
881.5280981834
 20
1740.691627307
 30
0.0
 10
881.2191186698
 20
1740.8076749967
 30
0.0
 10
880.9107078648
 20
1740.8091109419
 30
0.0
  0
SPLINE
  5
335
100
AcDbEntity
  8
0
100
AcDbSpline
 62
7
  6
CONTINUOUS
 70
0
 71
3
 72
8
 73
4
 74
0
 42
0.0000001
 43
0.0000001
 44
0.0000000001
 40
0.0
 40
0.0
 40
0.0
 40
0.0
 40
1.0
 40
1.0
 40
1.0
 40
1.0
 10
880.9107078648
 20
1740.8091109419
 30
0.0
 10
880.7282284746
 20
1740.8099605567
 30
0.0
 10
880.5381585002
 20
1740.7705602892
 30
0.0
 10
880.3779346091
 20
1740.683223273
 30
0.0
  0
SPLINE
  5
336
100
AcDbEntity
  8
0
100
AcDbSpline
 62
7
  6
CONTINUOUS
 70
0
 71
3
 72
9
 73
5
 74
0
 42
0.0000001
 43
0.0000001
 44
0.0000000001
 40
0.0
 40
0.0
 40
0.0
 40
0.0
 40
0.4886684811
 40
1.0
 40
1.0
 40
1.0
 40
1.0
 10
1234.5314844489
 20
383.7010495003
 30
0.0
 10
1234.5314975081
 20
383.7608469321
 30
0.0
 10
1234.5146403433
 20
383.8837281814
 30
0.0
 10
1234.4667893127
 20
383.9978329839
 30
0.0
 10
1234.4363670881
 20
384.0525100039
 30
0.0
  0
SPLINE
  5
337
100
AcDbEntity
  8
0
100
AcDbSpline
 62
7
  6
CONTINUOUS
 70
0
 71
3
 72
9
 73
5
 74
0
 42
0.0000001
 43
0.0000001
 44
0.0000000001
 40
0.0
 40
0.0
 40
0.0
 40
0.0
 40
0.4850979183
 40
1.0
 40
1.0
 40
1.0
 40
1.0
 10
1234.4363670881
 20
384.0525100039
 30
0.0
 10
1234.4138272015
 20
384.0930203168
 30
0.0
 10
1234.3604722502
 20
384.1727991332
 30
0.0
 10
1234.2967080026
 20
384.2443636168
 30
0.0
 10
1234.2618729329
 20
384.2791176888
 30
0.0
  0
SPLINE
  5
338
100
AcDbEntity
  8
0
100
AcDbSpline
 62
7
  6
CONTINUOUS
 70
0
 71
3
 72
9
 73
5
 74
0
 42
0.0000001
 43
0.0000001
 44
0.0000000001
 40
0.0
 40
0.0
 40
0.0
 40
0.0
 40
0.4854556556
 40
1.0
 40
1.0
 40
1.0
 40
1.0
 10
1234.2618729329
 20
384.2791176888
 30
0.0
 10
1234.2228299243
 20
384.3180699154
 30
0.0
 10
1234.1370534006
 20
384.3930489188
 30
0.0
 10
1234.0433702595
 20
384.4577399592
 30
0.0
 10
1233.9936522187
 20
384.4884837601
 30
0.0
  0
SPLINE
  5
339
100
AcDbEntity
  8
0
100
AcDbSpline
 62
7
  6
CONTINUOUS
 70
0
 71
3
 72
8
 73
4
 74
0
 42
0.0000001
 43
0.0000001
 44
0.0000000001
 40
0.0
 40
0.0
 40
0.0
 40
0.0
 40
1.0
 40
1.0
 40
1.0
 40
1.0
 10
1234.5314844519
 20
404.848462109
 30
0.0
 10
1234.5314334793
 20
404.6157525447
 30
0.0
 10
1234.3884252288
 20
404.3816839949
 30
0.0
 10
1234.2155347337
 20
404.2259193628
 30
0.0
  0
SPLINE
  5
33A
100
AcDbEntity
  8
0
100
AcDbSpline
 62
7
  6
CONTINUOUS
 70
0
 71
3
 72
9
 73
5
 74
0
 42
0.0000001
 43
0.0000001
 44
0.0000000001
 40
0.0
 40
0.0
 40
0.0
 40
0.0
 40
0.4886684811
 40
1.0
 40
1.0
 40
1.0
 40
1.0
 10
1234.5314844489
 20
791.952258065
 30
0.0
 10
1234.5314975081
 20
792.0120554969
 30
0.0
 10
1234.5146403433
 20
792.1349367462
 30
0.0
 10
1234.4667893127
 20
792.2490415487
 30
0.0
 10
1234.4363670881
 20
792.3037185687
 30
0.0
  0
SPLINE
  5
33B
100
AcDbEntity
  8
0
100
AcDbSpline
 62
7
  6
CONTINUOUS
 70
0
 71
3
 72
9
 73
5
 74
0
 42
0.0000001
 43
0.0000001
 44
0.0000000001
 40
0.0
 40
0.0
 40
0.0
 40
0.0
 40
0.4850979183
 40
1.0
 40
1.0
 40
1.0
 40
1.0
 10
1234.4363670881
 20
792.3037185687
 30
0.0
 10
1234.4138272015
 20
792.3442288816
 30
0.0
 10
1234.3604722502
 20
792.424007698
 30
0.0
 10
1234.2967080026
 20
792.4955721816
 30
0.0
 10
1234.2618729329
 20
792.5303262536
 30
0.0
  0
SPLINE
  5
33C
100
AcDbEntity
  8
0
100
AcDbSpline
 62
7
  6
CONTINUOUS
 70
0
 71
3
 72
9
 73
5
 74
0
 42
0.0000001
 43
0.0000001
 44
0.0000000001
 40
0.0
 40
0.0
 40
0.0
 40
0.0
 40
0.4854556556
 40
1.0
 40
1.0
 40
1.0
 40
1.0
 10
1234.2618729329
 20
792.5303262536
 30
0.0
 10
1234.2228299243
 20
792.5692784802
 30
0.0
 10
1234.1370534006
 20
792.6442574836
 30
0.0
 10
1234.0433702595
 20
792.708948524
 30
0.0
 10
1233.9936522187
 20
792.7396923249
 30
0.0
  0
SPLINE
  5
33D
100
AcDbEntity
  8
0
100
AcDbSpline
 62
7
  6
CONTINUOUS
 70
0
 71
3
 72
8
 73
4
 74
0
 42
0.0000001
 43
0.0000001
 44
0.0000000001
 40
0.0
 40
0.0
 40
0.0
 40
0.0
 40
1.0
 40
1.0
 40
1.0
 40
1.0
 10
1234.5314844519
 20
813.0996706738
 30
0.0
 10
1234.5314334793
 20
812.8669611095
 30
0.0
 10
1234.3884252288
 20
812.6328925597
 30
0.0
 10
1234.2155347337
 20
812.4771279276
 30
0.0
  0
SPLINE
  5
33E
100
AcDbEntity
  8
0
100
AcDbSpline
 62
7
  6
CONTINUOUS
 70
0
 71
3
 72
9
 73
5
 74
0
 42
0.0000001
 43
0.0000001
 44
0.0000000001
 40
0.0
 40
0.0
 40
0.0
 40
0.0
 40
0.4886684811
 40
1.0
 40
1.0
 40
1.0
 40
1.0
 10
1234.5314844489
 20
1036.9029832039
 30
0.0
 10
1234.5314975081
 20
1036.9627806358
 30
0.0
 10
1234.5146403433
 20
1037.0856618851
 30
0.0
 10
1234.4667893127
 20
1037.1997666876
 30
0.0
 10
1234.4363670881
 20
1037.2544437076
 30
0.0
  0
SPLINE
  5
33F
100
AcDbEntity
  8
0
100
AcDbSpline
 62
7
  6
CONTINUOUS
 70
0
 71
3
 72
9
 73
5
 74
0
 42
0.0000001
 43
0.0000001
 44
0.0000000001
 40
0.0
 40
0.0
 40
0.0
 40
0.0
 40
0.4850979183
 40
1.0
 40
1.0
 40
1.0
 40
1.0
 10
1234.4363670881
 20
1037.2544437076
 30
0.0
 10
1234.4138272015
 20
1037.2949540204
 30
0.0
 10
1234.3604722502
 20
1037.3747328369
 30
0.0
 10
1234.2967080026
 20
1037.4462973205
 30
0.0
 10
1234.2618729329
 20
1037.4810513924
 30
0.0
  0
SPLINE
  5
340
100
AcDbEntity
  8
0
100
AcDbSpline
 62
7
  6
CONTINUOUS
 70
0
 71
3
 72
9
 73
5
 74
0
 42
0.0000001
 43
0.0000001
 44
0.0000000001
 40
0.0
 40
0.0
 40
0.0
 40
0.0
 40
0.4854556556
 40
1.0
 40
1.0
 40
1.0
 40
1.0
 10
1234.2618729329
 20
1037.4810513924
 30
0.0
 10
1234.2228299243
 20
1037.5200036191
 30
0.0
 10
1234.1370534006
 20
1037.5949826224
 30
0.0
 10
1234.0433702595
 20
1037.6596736629
 30
0.0
 10
1233.9936522187
 20
1037.6904174638
 30
0.0
  0
SPLINE
  5
341
100
AcDbEntity
  8
0
100
AcDbSpline
 62
7
  6
CONTINUOUS
 70
0
 71
3
 72
8
 73
4
 74
0
 42
0.0000001
 43
0.0000001
 44
0.0000000001
 40
0.0
 40
0.0
 40
0.0
 40
0.0
 40
1.0
 40
1.0
 40
1.0
 40
1.0
 10
1234.5314844519
 20
1058.0503958126
 30
0.0
 10
1234.5314334793
 20
1057.8176862483
 30
0.0
 10
1234.3884252288
 20
1057.5836176986
 30
0.0
 10
1234.2155347337
 20
1057.4278530665
 30
0.0
  0
SPLINE
  5
342
100
AcDbEntity
  8
0
100
AcDbSpline
 62
7
  6
CONTINUOUS
 70
0
 71
3
 72
9
 73
5
 74
0
 42
0.0000001
 43
0.0000001
 44
0.0000000001
 40
0.0
 40
0.0
 40
0.0
 40
0.0
 40
0.4886684811
 40
1.0
 40
1.0
 40
1.0
 40
1.0
 10
1234.5314844489
 20
1445.1541917687
 30
0.0
 10
1234.5314975081
 20
1445.2139892005
 30
0.0
 10
1234.5146403433
 20
1445.3368704499
 30
0.0
 10
1234.4667893127
 20
1445.4509752524
 30
0.0
 10
1234.4363670881
 20
1445.5056522724
 30
0.0
  0
SPLINE
  5
343
100
AcDbEntity
  8
0
100
AcDbSpline
 62
7
  6
CONTINUOUS
 70
0
 71
3
 72
9
 73
5
 74
0
 42
0.0000001
 43
0.0000001
 44
0.0000000001
 40
0.0
 40
0.0
 40
0.0
 40
0.0
 40
0.4850979183
 40
1.0
 40
1.0
 40
1.0
 40
1.0
 10
1234.4363670881
 20
1445.5056522724
 30
0.0
 10
1234.4138272015
 20
1445.5461625852
 30
0.0
 10
1234.3604722502
 20
1445.6259414017
 30
0.0
 10
1234.2967080026
 20
1445.6975058853
 30
0.0
 10
1234.2618729329
 20
1445.7322599572
 30
0.0
  0
SPLINE
  5
344
100
AcDbEntity
  8
0
100
AcDbSpline
 62
7
  6
CONTINUOUS
 70
0
 71
3
 72
9
 73
5
 74
0
 42
0.0000001
 43
0.0000001
 44
0.0000000001
 40
0.0
 40
0.0
 40
0.0
 40
0.0
 40
0.4854556556
 40
1.0
 40
1.0
 40
1.0
 40
1.0
 10
1234.2618729329
 20
1445.7322599572
 30
0.0
 10
1234.2228299243
 20
1445.7712121839
 30
0.0
 10
1234.1370534006
 20
1445.8461911872
 30
0.0
 10
1234.0433702595
 20
1445.9108822276
 30
0.0
 10
1233.9936522187
 20
1445.9416260286
 30
0.0
  0
SPLINE
  5
345
100
AcDbEntity
  8
0
100
AcDbSpline
 62
7
  6
CONTINUOUS
 70
0
 71
3
 72
8
 73
4
 74
0
 42
0.0000001
 43
0.0000001
 44
0.0000000001
 40
0.0
 40
0.0
 40
0.0
 40
0.0
 40
1.0
 40
1.0
 40
1.0
 40
1.0
 10
1234.5314844519
 20
1466.3016043774
 30
0.0
 10
1234.5314334793
 20
1466.0688948131
 30
0.0
 10
1234.3884252288
 20
1465.8348262634
 30
0.0
 10
1234.2155347337
 20
1465.6790616313
 30
0.0
  0
SPLINE
  5
346
100
AcDbEntity
  8
0
100
AcDbSpline
 62
7
  6
CONTINUOUS
 70
0
 71
3
 72
8
 73
4
 74
0
 42
0.0000001
 43
0.0000001
 44
0.0000000001
 40
0.0
 40
0.0
 40
0.0
 40
0.0
 40
1.0
 40
1.0
 40
1.0
 40
1.0
 10
987.436295546
 20
914.9506433653
 30
0.0
 10
986.6717623171
 20
914.6677824654
 30
0.0
 10
985.7116796789
 20
914.6919382064
 30
0.0
 10
984.9941069822
 20
915.0787337231
 30
0.0
  0
SPLINE
  5
347
100
AcDbEntity
  8
0
100
AcDbSpline
 62
7
  6
CONTINUOUS
 70
0
 71
3
 72
8
 73
4
 74
0
 42
0.0000001
 43
0.0000001
 44
0.0000000001
 40
0.0
 40
0.0
 40
0.0
 40
0.0
 40
1.0
 40
1.0
 40
1.0
 40
1.0
 10
987.436295546
 20
669.9999182265
 30
0.0
 10
986.6717623171
 20
669.7170573265
 30
0.0
 10
985.7116796789
 20
669.7412130676
 30
0.0
 10
984.9941069822
 20
670.1280085843
 30
0.0
  0
SPLINE
  5
348
100
AcDbEntity
  8
0
100
AcDbSpline
 62
7
  6
CONTINUOUS
 70
0
 71
3
 72
8
 73
4
 74
0
 42
0.0000001
 43
0.0000001
 44
0.0000000001
 40
0.0
 40
0.0
 40
0.0
 40
0.0
 40
1.0
 40
1.0
 40
1.0
 40
1.0
 10
987.436295546
 20
261.7487096617
 30
0.0
 10
986.6717623171
 20
261.4658487617
 30
0.0
 10
985.7116796789
 20
261.4900045028
 30
0.0
 10
984.9941069822
 20
261.8768000195
 30
0.0
  0
SPLINE
  5
349
100
AcDbEntity
  8
0
100
AcDbSpline
 62
7
  6
CONTINUOUS
 70
0
 71
3
 72
8
 73
4
 74
0
 42
0.0000001
 43
0.0000001
 44
0.0000000001
 40
0.0
 40
0.0
 40
0.0
 40
0.0
 40
1.0
 40
1.0
 40
1.0
 40
1.0
 10
987.436295546
 20
1323.2018519301
 30
0.0
 10
986.6717623171
 20
1322.9189910302
 30
0.0
 10
985.7116796789
 20
1322.9431467712
 30
0.0
 10
984.9941069822
 20
1323.3299422879
 30
0.0
  0
SPLINE
  5
34A
100
AcDbEntity
  8
0
100
AcDbSpline
 62
7
  6
CONTINUOUS
 70
0
 71
3
 72
9
 73
5
 74
0
 42
0.0000001
 43
0.0000001
 44
0.0000000001
 40
0.0
 40
0.0
 40
0.0
 40
0.0
 40
0.2011294234
 40
1.0
 40
1.0
 40
1.0
 40
1.0
 10
631.4399534453
 20
1596.9424309167
 30
0.0
 10
631.5590724395
 20
1597.0078344421
 30
0.0
 10
632.1427111381
 20
1597.3484102751
 30
0.0
 10
632.7269906941
 20
1597.687586298
 30
0.0
 10
633.1936703628
 20
1597.9587835709
 30
0.0
  0
SPLINE
  5
34B
100
AcDbEntity
  8
0
100
AcDbSpline
 62
7
  6
CONTINUOUS
 70
0
 71
3
 72
8
 73
4
 74
0
 42
0.0000001
 43
0.0000001
 44
0.0000000001
 40
0.0
 40
0.0
 40
0.0
 40
0.0
 40
1.0
 40
1.0
 40
1.0
 40
1.0
 10
633.1936703628
 20
1597.9587835709
 30
0.0
 10
633.5366615947
 20
1598.1581029176
 30
0.0
 10
633.879261009
 20
1598.3582035472
 30
0.0
 10
634.2260074705
 20
1598.5509159716
 30
0.0
  0
SPLINE
  5
34C
100
AcDbEntity
  8
0
100
AcDbSpline
 62
7
  6
CONTINUOUS
 70
0
 71
3
 72
8
 73
4
 74
0
 42
0.0000001
 43
0.0000001
 44
0.0000000001
 40
0.0
 40
0.0
 40
0.0
 40
0.0
 40
1.0
 40
1.0
 40
1.0
 40
1.0
 10
984.9941069822
 20
893.9313211195
 30
0.0
 10
985.7116796789
 20
893.5445256028
 30
0.0
 10
986.6717623171
 20
893.5203698617
 30
0.0
 10
987.436295546
 20
893.8032307617
 30
0.0
  0
SPLINE
  5
34D
100
AcDbEntity
  8
0
100
AcDbSpline
 62
7
  6
CONTINUOUS
 70
0
 71
3
 72
8
 73
4
 74
0
 42
0.0000001
 43
0.0000001
 44
0.0000000001
 40
0.0
 40
0.0
 40
0.0
 40
0.0
 40
1.0
 40
1.0
 40
1.0
 40
1.0
 10
1234.2155347337
 20
1444.5316490276
 30
0.0
 10
1234.3884252273
 20
1444.6874136584
 30
0.0
 10
1234.5314336273
 20
1444.9214822063
 30
0.0
 10
1234.5314844489
 20
1445.1541917687
 30
0.0
  0
SPLINE
  5
34E
100
AcDbEntity
  8
0
100
AcDbSpline
 62
7
  6
CONTINUOUS
 70
0
 71
3
 72
9
 73
5
 74
0
 42
0.0000001
 43
0.0000001
 44
0.0000000001
 40
0.0
 40
0.0
 40
0.0
 40
0.0
 40
0.1982947493
 40
1.0
 40
1.0
 40
1.0
 40
1.0
 10
984.9941089083
 20
1392.8224618978
 30
0.0
 10
985.1802878837
 20
1392.9246854049
 30
0.0
 10
986.1017961655
 20
1393.4711129043
 30
0.0
 10
987.0313497472
 20
1394.0030999979
 30
0.0
 10
987.7737544122
 20
1394.4346468305
 30
0.0
  0
SPLINE
  5
34F
100
AcDbEntity
  8
0
100
AcDbSpline
 62
7
  6
CONTINUOUS
 70
0
 71
3
 72
8
 73
4
 74
0
 42
0.0000001
 43
0.0000001
 44
0.0000000001
 40
0.0
 40
0.0
 40
0.0
 40
0.0
 40
1.0
 40
1.0
 40
1.0
 40
1.0
 10
1234.2155347337
 20
791.329715324
 30
0.0
 10
1234.3884252273
 20
791.4854799547
 30
0.0
 10
1234.5314336273
 20
791.7195485027
 30
0.0
 10
1234.5314844489
 20
791.952258065
 30
0.0
  0
SPLINE
  5
350
100
AcDbEntity
  8
0
100
AcDbSpline
 62
7
  6
CONTINUOUS
 70
0
 71
3
 72
8
 73
4
 74
0
 42
0.0000001
 43
0.0000001
 44
0.0000000001
 40
0.0
 40
0.0
 40
0.0
 40
0.0
 40
1.0
 40
1.0
 40
1.0
 40
1.0
 10
984.9941069822
 20
240.7293874158
 30
0.0
 10
985.7116796789
 20
240.3425918991
 30
0.0
 10
986.6717623171
 20
240.3184361581
 30
0.0
 10
987.436295546
 20
240.601297058
 30
0.0
  0
SPLINE
  5
351
100
AcDbEntity
  8
0
100
AcDbSpline
 62
7
  6
CONTINUOUS
 70
0
 71
3
 72
8
 73
4
 74
0
 42
0.0000001
 43
0.0000001
 44
0.0000000001
 40
0.0
 40
0.0
 40
0.0
 40
0.0
 40
1.0
 40
1.0
 40
1.0
 40
1.0
 10
984.9941069822
 20
648.9805959806
 30
0.0
 10
985.7116796789
 20
648.5938004639
 30
0.0
 10
986.6717623171
 20
648.5696447228
 30
0.0
 10
987.436295546
 20
648.8525056228
 30
0.0
  0
SPLINE
  5
352
100
AcDbEntity
  8
0
100
AcDbSpline
 62
7
  6
CONTINUOUS
 70
0
 71
3
 72
8
 73
4
 74
0
 42
0.0000001
 43
0.0000001
 44
0.0000000001
 40
0.0
 40
0.0
 40
0.0
 40
0.0
 40
1.0
 40
1.0
 40
1.0
 40
1.0
 10
984.9941069822
 20
1302.1825296843
 30
0.0
 10
985.7116796789
 20
1301.7957341676
 30
0.0
 10
986.6717623171
 20
1301.7715784265
 30
0.0
 10
987.436295546
 20
1302.0544393265
 30
0.0
  0
SPLINE
  5
353
100
AcDbEntity
  8
0
100
AcDbSpline
 62
7
  6
CONTINUOUS
 70
0
 71
3
 72
8
 73
4
 74
0
 42
0.0000001
 43
0.0000001
 44
0.0000000001
 40
0.0
 40
0.0
 40
0.0
 40
0.0
 40
1.0
 40
1.0
 40
1.0
 40
1.0
 10
1234.2155347337
 20
383.0785067592
 30
0.0
 10
1234.3884252273
 20
383.2342713899
 30
0.0
 10
1234.5314336273
 20
383.4683399379
 30
0.0
 10
1234.5314844489
 20
383.7010495003
 30
0.0
  0
SPLINE
  5
354
100
AcDbEntity
  8
0
100
AcDbSpline
 62
7
  6
CONTINUOUS
 70
0
 71
3
 72
8
 73
4
 74
0
 42
0.0000001
 43
0.0000001
 44
0.0000000001
 40
0.0
 40
0.0
 40
0.0
 40
0.0
 40
1.0
 40
1.0
 40
1.0
 40
1.0
 10
1234.2155347337
 20
1036.2804404628
 30
0.0
 10
1234.3884252273
 20
1036.4362050936
 30
0.0
 10
1234.5314336273
 20
1036.6702736415
 30
0.0
 10
1234.5314844489
 20
1036.9029832039
 30
0.0
  0
ENDSEC
  0
SECTION
  2
OBJECTS
  0
DICTIONARY
  5
C
100
AcDbDictionary
280
0
281
1
  3
ACAD_GROUP
350
D
  3
ACAD_MLINESTYLE
350
17
  3
ACAD_LAYOUT
350
1A
  3
ACAD_PLOTSETTINGS
350
19
  3
ACAD_PLOTSTYLENAME
350
E
  0
DICTIONARY
  5
D
102
{ACAD_REACTORS
330
C
102
}
100
AcDbDictionary
280
0
281
1
  0
ACDBDICTIONARYWDFLT
  5
E
102
{ACAD_REACTORS
330
C
102
}
100
AcDbDictionary
281
1
  3
Normal
350
F
100
AcDbDictionaryWithDefault
340
F
  0
DICTIONARY
  5
17
102
{ACAD_REACTORS
330
C
102
}
100
AcDbDictionary
280
0
281
1
  3
Standard
350
18
  0
DICTIONARY
  5
19
102
{ACAD_REACTORS
330
C
102
}
100
AcDbDictionary
281
1
  0
DICTIONARY
  5
1A
102
{ACAD_REACTORS
330
C
102
}
100
AcDbDictionary
281
1
  3
Model
350
355
  3
Layout1
350
356
  0
ACDBPLACEHOLDER
  5
F
102
{ACAD_REACTORS
330
E
102
}
  0
MLINESTYLE
  5
18
102
{ACAD_REACTORS
330
17
102
}
100
AcDbMlineStyle
  2
STANDARD
 70
0
  3

 62
256
 51
90.0
 52
90.0
 71
2
 49
0.5
 62
256
  6
BYLAYER
 49
-0.5
 62
256
  6
BYLAYER
  0
LAYOUT
  5
355
102
{ACAD_REACTORS
330
1A
102
}
100
AcDbPlotSettings
  1

  2
none_device
  4

  6

 40
0.0
 41
0.0
 42
0.0
 43
0.0
 44
210.0
 45
297.0
 46
0.0
 47
0.0
 48
0.0
 49
0.0
140
0.0
141
0.0
142
1.0
143
1.0
 70
1024
 72
1
 73
0
 74
0
  7

 75
0
147
1.0
148
0.0
149
0.0
100
AcDbLayout
  1
Model
 70
0
 71
0
 10
0.0
 20
0.0
 11
210.0
 21
297.0
 12
0.0
 22
0.0
 32
0.0
 14
0.0
 24
0.0
 34
0.0
 15
0.0
 25
0.0
 35
0.0
146
0.0
 13
0.0
 23
0.0
 33
0.0
 16
1.0
 26
0.0
 36
0.0
 17
0.0
 27
1.0
 37
0.0
 76
0
330
210
345
0
346
0
  0
LAYOUT
  5
356
102
{ACAD_REACTORS
330
1A
102
}
100
AcDbPlotSettings
  1

  2
none_device
  4

  6

 40
0.0
 41
0.0
 42
0.0
 43
0.0
 44
210.0
 45
297.0
 46
0.0
 47
0.0
 48
0.0
 49
0.0
140
0.0
141
0.0
142
1.0
143
1.0
 70
0
 72
1
 73
0
 74
0
  7

 75
0
147
1.0
148
0.0
149
0.0
100
AcDbLayout
  1
Layout1
 70
0
 71
1
 10
0.0
 20
0.0
 11
210.0
 21
297.0
 12
0.0
 22
0.0
 32
0.0
 14
0.0
 24
0.0
 34
0.0
 15
0.0
 25
0.0
 35
0.0
146
0.0
 13
0.0
 23
0.0
 33
0.0
 16
1.0
 26
0.0
 36
0.0
 17
0.0
 27
1.0
 37
0.0
 76
0
330
211
345
0
346
0
  0
ENDSEC
  0
EOF
