999
DXF file: C:\Users\sesa63760\Dev\_Creo\CAD\MCADID0002306_3D-CAD\drw0001_5.dxf
999
Pro/ENGINEER 2019471 by Parametric Technology Corporation
  0
SECTION
  2
HEADER
  9
$ACADVER
  1
AC1024
  9
$DWGCODEPAGE
  3
ANSI_1252
  9
$EXTMAX
 10
125.4720676149
 20
177.4533527697
 30
0.0
  9
$EXTMIN
 10
0.0
 20
0.0
 30
0.0
  9
$LIMMIN
 10
0.0
 20
0.0
  9
$LIMMAX
 10
125.4720676149
 20
177.4533527697
  9
$VIEWCTR
 10
62.7360338075
 20
88.7266763848
  9
$VIEWSIZE
 40
177.4533527697
  9
$CLAYER
  8
0
  9
$LTSCALE
 40
11.567329662
  9
$CELTYPE
  6
BYLAYER
  9
$DIMSCALE
 40
1.0
  9
$DIMASZ
 40
1.4937150907
  9
$DIMEXO
 40
1.0
  9
$DIMDLI
 40
7.991973221
  9
$DIMEXE
 40
1.0
  9
$DIMCEN
 40
1.8928357629
  9
$DIMLFAC
 40
1.0
  9
$DIMBLK
  1
_FILLED
  9
$DIMALT
 70
0
  9
$DIMALTF
 40
0.0393700787
  9
$DIMTXT
 40
2.0912011269
  9
$DIMTOL
 70
1
  9
$DIMLIM
 70
0
  9
$DIMTFAC
 40
1.0
  9
$DIMTP
 40
0.01
  9
$DIMTM
 40
0.01
  9
$DIMGAP
 40
0.625
  9
$DIMDSEP
 70
46
  9
$AUNITS
 70
0
  9
$PDMODE
 70
3
  9
$PDSIZE
 40
0.3125
  9
$HANDSEED
  5
34C
  9
$TILEMODE
 70
1
  9
$MEASUREMENT
 70
1
  9
$INSUNITS
 70
4
  0
ENDSEC
  0
SECTION
  2
CLASSES
  0
CLASS
  1
ACDBDICTIONARYWDFLT
  2
AcDbDictionaryWithDefault
  3
AutoCAD 2000
 90
0
 91
1
280
0
281
0
  0
CLASS
  1
ACDBPLACEHOLDER
  2
AcDbPlaceHolder
  3
AutoCAD 2000
 90
0
 91
1
280
0
281
0
  0
CLASS
  1
LAYOUT
  2
AcDbLayout
  3
AutoCAD 2000
 90
0
 91
0
280
0
281
0
  0
ENDSEC
  0
SECTION
  2
TABLES
  0
TABLE
  2
VPORT
  5
8
100
AcDbSymbolTable
 70
2
  0
VPORT
  5
1F4
100
AcDbSymbolTableRecord
100
AcDbViewportTableRecord
  2
*ACTIVE
 70
0
 10
0.0
 20
0.0
 11
1.0
 21
1.0
 12
62.7360338075
 22
88.7266763848
 13
0.0
 23
0.0
 14
1.0
 24
1.0
 15
0.0
 25
0.0
 16
0.0
 26
0.0
 36
1.0
 17
0.0
 27
0.0
 37
0.0
 40
177.4533527697
 41
0.7070707071
 42
50.0
 43
0.0
 44
0.0
 50
0.0
 51
0.0
 71
0
 72
100
 73
1
 74
1
 75
0
 76
0
 77
0
 78
0
  0
ENDTAB
  0
TABLE
  2
LTYPE
  5
5
100
AcDbSymbolTable
 70
6
  0
LTYPE
  5
14
100
AcDbSymbolTableRecord
100
AcDbLinetypeTableRecord
  2
BYBLOCK
 70
0
  3

 72
65
 73
0
 40
0.0
  0
LTYPE
  5
15
100
AcDbSymbolTableRecord
100
AcDbLinetypeTableRecord
  2
BYLAYER
 70
0
  3

 72
65
 73
0
 40
0.0
  0
LTYPE
  5
16
100
AcDbSymbolTableRecord
100
AcDbLinetypeTableRecord
  2
CONTINUOUS
 70
64
  3
Solid line
 72
65
 73
0
 40
0.0
  0
LTYPE
  5
1F5
100
AcDbSymbolTableRecord
100
AcDbLinetypeTableRecord
  2
CENTER
 70
64
  3
____ _ ____ _ ____ _ ____ _ ____ _ ____ _ ____
 72
65
 73
4
 40
0.6
 49
0.375
 74
0
 49
-0.075
 74
0
 49
0.075
 74
0
 49
-0.075
 74
0
  0
LTYPE
  5
1F6
100
AcDbSymbolTableRecord
100
AcDbLinetypeTableRecord
  2
HIDDEN
 70
64
  3
- - - - - - - - - - - - - - - - - - - -
 72
65
 73
2
 40
0.2
 49
0.1
 74
0
 49
-0.1
 74
0
  0
LTYPE
  5
1F7
100
AcDbSymbolTableRecord
100
AcDbLinetypeTableRecord
  2
PHANTOM
 70
64
  3
_____ _ _ _____ _ _ _____ _ _ _____
 72
65
 73
6
 40
0.8
 49
0.45
 74
0
 49
-0.05
 74
0
 49
0.1
 74
0
 49
-0.05
 74
0
 49
0.1
 74
0
 49
-0.05
 74
0
  0
LTYPE
  5
1F8
100
AcDbSymbolTableRecord
100
AcDbLinetypeTableRecord
  2
DOT
 70
64
  3
. . . . . . . . . . . . . . . . . . . .
 72
65
 73
2
 40
0.2
 49
0.1
 74
0
 49
-0.1
 74
0
  0
LTYPE
  5
1F9
100
AcDbSymbolTableRecord
100
AcDbLinetypeTableRecord
  2
DASHED
 70
64
  3
- - - - - - - - - - - - - - - - - - - -
 72
65
 73
2
 40
0.2
 49
0.1
 74
0
 49
-0.1
 74
0
  0
ENDTAB
  0
TABLE
  2
LAYER
  5
2
100
AcDbSymbolTable
 70
36
  0
LAYER
  5
10
100
AcDbSymbolTableRecord
100
AcDbLayerTableRecord
  2
0
 70
0
 62
7
  6
CONTINUOUS
370
-3
390
F
  0
LAYER
  5
1FA
100
AcDbSymbolTableRecord
100
AcDbLayerTableRecord
  2
DEFAULT_1
 70
0
 62
7
  6
CENTER
370
-3
390
F
  0
LAYER
  5
1FB
100
AcDbSymbolTableRecord
100
AcDbLayerTableRecord
  2
DEFAULT_2
 70
0
 62
8
  6
HIDDEN
370
-3
390
F
  0
LAYER
  5
1FC
100
AcDbSymbolTableRecord
100
AcDbLayerTableRecord
  2
DEFAULT_3
 70
0
 62
7
  6
PHANTOM
370
-3
390
F
  0
LAYER
  5
1FD
100
AcDbSymbolTableRecord
100
AcDbLayerTableRecord
  2
00_COMPONENTS
 70
0
 62
7
  6
CONTINUOUS
370
-3
390
F
  0
LAYER
  5
1FE
100
AcDbSymbolTableRecord
100
AcDbLayerTableRecord
  2
01_1_DEFAULT_DATUMS
 70
0
 62
7
  6
CONTINUOUS
370
-3
390
F
  0
LAYER
  5
1FF
100
AcDbSymbolTableRecord
100
AcDbLayerTableRecord
  2
01_PLANES
 70
0
 62
7
  6
CONTINUOUS
370
-3
390
F
  0
LAYER
  5
200
100
AcDbSymbolTableRecord
100
AcDbLayerTableRecord
  2
02_COORD_SYS
 70
0
 62
7
  6
CONTINUOUS
370
-3
390
F
  0
LAYER
  5
201
100
AcDbSymbolTableRecord
100
AcDbLayerTableRecord
  2
03_AXES
 70
0
 62
7
  6
CONTINUOUS
370
-3
390
F
  0
LAYER
  5
202
100
AcDbSymbolTableRecord
100
AcDbLayerTableRecord
  2
04_POINTS
 70
0
 62
7
  6
CONTINUOUS
370
-3
390
F
  0
LAYER
  5
203
100
AcDbSymbolTableRecord
100
AcDbLayerTableRecord
  2
05_CURVES
 70
0
 62
7
  6
CONTINUOUS
370
-3
390
F
  0
LAYER
  5
204
100
AcDbSymbolTableRecord
100
AcDbLayerTableRecord
  2
06_SURFS
 70
0
 62
7
  6
CONTINUOUS
370
-3
390
F
  0
LAYER
  5
205
100
AcDbSymbolTableRecord
100
AcDbLayerTableRecord
  2
07_COSMETICS
 70
0
 62
7
  6
CONTINUOUS
370
-3
390
F
  0
LAYER
  5
206
100
AcDbSymbolTableRecord
100
AcDbLayerTableRecord
  2
10_NOTES
 70
0
 62
7
  6
CONTINUOUS
370
-3
390
F
  0
LAYER
  5
207
100
AcDbSymbolTableRecord
100
AcDbLayerTableRecord
  2
11_NOTES_PUB
 70
0
 62
7
  6
CONTINUOUS
370
-3
390
F
  0
LAYER
  5
208
100
AcDbSymbolTableRecord
100
AcDbLayerTableRecord
  2
13_REF_GTOL
 70
0
 62
7
  6
CONTINUOUS
370
-3
390
F
  0
LAYER
  5
209
100
AcDbSymbolTableRecord
100
AcDbLayerTableRecord
  2
16_MISC
 70
0
 62
7
  6
CONTINUOUS
370
-3
390
F
  0
LAYER
  5
20A
100
AcDbSymbolTableRecord
100
AcDbLayerTableRecord
  2
17_NO_PRINT
 70
0
 62
7
  6
CONTINUOUS
370
-3
390
F
  0
LAYER
  5
20B
100
AcDbSymbolTableRecord
100
AcDbLayerTableRecord
  2
18_DATUM_CAMS_JOINTS
 70
0
 62
7
  6
CONTINUOUS
370
-3
390
F
  0
LAYER
  5
20C
100
AcDbSymbolTableRecord
100
AcDbLayerTableRecord
  2
19_DATUM_FUNCTIONAL
 70
0
 62
7
  6
CONTINUOUS
370
-3
390
F
  0
LAYER
  5
20D
100
AcDbSymbolTableRecord
100
AcDbLayerTableRecord
  2
20_DATUM_KINEMATIC_SCHEME
 70
0
 62
7
  6
CONTINUOUS
370
-3
390
F
  0
ENDTAB
  0
TABLE
  2
STYLE
  5
3
100
AcDbSymbolTable
 70
1
  0
STYLE
  5
11
100
AcDbSymbolTableRecord
100
AcDbTextStyleTableRecord
  2
STANDARD
 70
0
 40
0.0
 41
0.8
 50
0.0
 71
0
 42
0.2
  3
txt
  4

  0
STYLE
  5
20E
100
AcDbSymbolTableRecord
100
AcDbTextStyleTableRecord
  2
TEXTSTYLE_1
 70
0
 40
0.0
 41
0.8
 50
0.0
 71
0
 42
0.2
  3
gdt
  4

  0
ENDTAB
  0
TABLE
  2
VIEW
  5
6
100
AcDbSymbolTable
 70
0
  0
ENDTAB
  0
TABLE
  2
UCS
  5
7
100
AcDbSymbolTable
 70
0
  0
ENDTAB
  0
TABLE
  2
APPID
  5
9
100
AcDbSymbolTable
 70
1
  0
APPID
  5
20F
100
AcDbSymbolTableRecord
100
AcDbRegAppTableRecord
  2
ACAD
 70
0
  0
ENDTAB
  0
TABLE
  2
BLOCK_RECORD
  5
1
100
AcDbSymbolTable
 70
0
  0
BLOCK_RECORD
  5
210
100
AcDbSymbolTableRecord
100
AcDbBlockTableRecord
  2
*Model_Space
  0
BLOCK_RECORD
  5
211
100
AcDbSymbolTableRecord
100
AcDbBlockTableRecord
  2
*Paper_Space
  0
BLOCK_RECORD
  5
212
100
AcDbSymbolTableRecord
100
AcDbBlockTableRecord
  2
_FILLED
  0
ENDTAB
  0
TABLE
  2
DIMSTYLE
  5
A
100
AcDbSymbolTable
 70
1
100
AcDbDimStyleTable
 71
0
  0
DIMSTYLE
105
213
100
AcDbSymbolTableRecord
100
AcDbDimStyleTableRecord
  2
STANDARD
 70
0
  3

  4

 40
1.0
 41
1.4937150907
 42
1.0
 43
0.38
 44
1.0
 45
0.0
 46
0.0
 47
0.01
 48
0.01
140
2.0912011269
141
0.09
142
0.0
143
25.4
144
1.0
145
0.0
146
1.0
147
0.625
 71
1
 72
0
 73
0
 74
0
 75
0
 76
0
 77
1
 78
8
 79
2
170
0
171
1
172
0
173
0
174
0
175
0
176
0
177
0
178
0
270
2
179
2
271
2
272
2
273
2
274
2
275
0
280
0
281
0
282
0
283
1
284
8
285
0
286
0
287
3
288
0
340
11
278
46
341
212
342
212
343
212
344
212
  0
ENDTAB
  0
ENDSEC
  0
SECTION
  2
BLOCKS
  0
BLOCK
  5
20
100
AcDbEntity
  8
0
100
AcDbBlockBegin
  2
*Model_Space
 70
0
 10
0.0
 20
0.0
 30
0.0
  3
*Model_Space
  1

  0
ENDBLK
  5
21
100
AcDbEntity
  8
0
100
AcDbBlockEnd
  0
BLOCK
  5
1C
100
AcDbEntity
  8
0
100
AcDbBlockBegin
  2
*Paper_Space
 70
0
 10
0.0
 20
0.0
 30
0.0
  3
*Paper_Space
  1

  0
ENDBLK
  5
1D
100
AcDbEntity
  8
0
100
AcDbBlockEnd
  0
BLOCK
  5
214
100
AcDbEntity
  8
0
100
AcDbBlockBegin
  2
_FILLED
 70
64
 10
0.0
 20
0.0
  3
_FILLED
  1

  0
SOLID
  5
215
100
AcDbEntity
  8
0
  6
BYBLOCK
 62
0
100
AcDbTrace
 10
0.0
 20
0.0
 11
-1.0
 21
0.25
 12
-1.0
 22
-0.25
 13
-1.0
 23
-0.25
  0
ENDBLK
  5
216
100
AcDbEntity
  8
0
  6
BYBLOCK
 62
0
100
AcDbBlockEnd
  0
ENDSEC
  0
SECTION
  2
ENTITIES
  0
LINE
  5
217
100
AcDbEntity
  8
0
100
AcDbLine
 62
7
  6
CONTINUOUS
 10
91.0736431369
 20
14.443877551
 11
87.8736431369
 21
14.443877551
  0
LINE
  5
218
100
AcDbEntity
  8
0
100
AcDbLine
 62
7
  6
CONTINUOUS
 10
53.5736431369
 20
14.443877551
 11
50.3736431369
 21
14.443877551
  0
LINE
  5
219
100
AcDbEntity
  8
0
100
AcDbLine
 62
7
  6
CONTINUOUS
 10
91.4736431369
 20
14.843877551
 11
87.4736431369
 21
14.843877551
  0
LINE
  5
21A
100
AcDbEntity
  8
0
100
AcDbLine
 62
7
  6
CONTINUOUS
 10
53.9736431369
 20
14.843877551
 11
49.9736431369
 21
14.843877551
  0
LINE
  5
21B
100
AcDbEntity
  8
0
100
AcDbLine
 62
7
  6
CONTINUOUS
 10
100.8408609184
 20
34.443877551
 11
101.0889303416
 21
34.5097559789
  0
LINE
  5
21C
100
AcDbEntity
  8
0
100
AcDbLine
 62
7
  6
CONTINUOUS
 10
28.1064253554
 20
34.443877551
 11
27.8583559323
 21
34.5097559789
  0
LINE
  5
21D
100
AcDbEntity
  8
0
100
AcDbLine
 62
7
  6
CONTINUOUS
 10
27.8583558863
 20
34.5097560052
 11
24.1780974414
 21
36.612760811
  0
LINE
  5
21E
100
AcDbEntity
  8
0
100
AcDbLine
 62
7
  6
CONTINUOUS
 10
23.3556528725
 20
37.1870745257
 11
23.3194552569
 21
37.2091105534
  0
LINE
  5
21F
100
AcDbEntity
  8
0
100
AcDbLine
 62
7
  6
CONTINUOUS
 10
24.1380565032
 20
36.6382788029
 11
24.1780974465
 21
36.6127608051
  0
LINE
  5
220
100
AcDbEntity
  8
0
100
AcDbLine
 62
7
  6
CONTINUOUS
 10
23.3189853606
 20
37.2094337272
 11
23.7206073491
 21
36.9311851542
  0
LWPOLYLINE
  5
221
100
AcDbEntity
  8
0
100
AcDbPolyline
 62
7
  6
CONTINUOUS
 90
3
 70
0
 10
24.1393390025
 20
36.6401163784
 10
24.1442079991
 20
36.6367181591
 10
24.1776779335
 20
36.6130005298
  0
LINE
  5
222
100
AcDbEntity
  8
0
100
AcDbLine
 62
7
  6
CONTINUOUS
 10
23.7206073491
 20
36.9311851542
 11
24.1781461304
 21
36.6127329894
  0
LINE
  5
223
100
AcDbEntity
  8
0
100
AcDbLine
 62
7
  6
CONTINUOUS
 10
50.3736431369
 20
14.443877551
 11
49.9736431369
 21
14.843877551
  0
LINE
  5
224
100
AcDbEntity
  8
0
100
AcDbLine
 62
7
  6
CONTINUOUS
 10
95.5082006908
 20
27.443877551
 11
83.439085583
 21
27.443877551
  0
LINE
  5
225
100
AcDbEntity
  8
0
100
AcDbLine
 62
7
  6
CONTINUOUS
 10
58.0077716313
 20
27.443877551
 11
45.9395146425
 21
27.443877551
  0
LINE
  5
226
100
AcDbEntity
  8
0
100
AcDbLine
 62
7
  6
CONTINUOUS
 10
96.0069210823
 20
27.9081288289
 11
82.9403651915
 21
27.9081288289
  0
LINE
  5
227
100
AcDbEntity
  8
0
100
AcDbLine
 62
7
  6
CONTINUOUS
 10
58.5069210823
 20
27.9081288289
 11
45.4403651915
 21
27.9081288289
  0
LINE
  5
228
100
AcDbEntity
  8
0
100
AcDbLine
 62
7
  6
CONTINUOUS
 10
45.0051548432
 20
33.9796262732
 11
58.9421314306
 21
33.9796262732
  0
LINE
  5
229
100
AcDbEntity
  8
0
100
AcDbLine
 62
7
  6
CONTINUOUS
 10
82.5051548432
 20
33.9796262732
 11
96.4421314306
 21
33.9796262732
  0
LINE
  5
22A
100
AcDbEntity
  8
0
100
AcDbLine
 62
7
  6
CONTINUOUS
 10
100.8403846386
 20
34.443877551
 11
28.1069016353
 21
34.443877551
  0
LINE
  5
22B
100
AcDbEntity
  8
0
100
AcDbLine
 62
7
  6
CONTINUOUS
 10
101.0889303875
 20
34.5097560052
 11
27.8583558863
 21
34.5097560052
  0
LINE
  5
22C
100
AcDbEntity
  8
0
100
AcDbLine
 62
7
  6
CONTINUOUS
 10
23.3556528725
 20
37.1870745257
 11
24.5085269059
 21
37.1870745257
  0
LINE
  5
22D
100
AcDbEntity
  8
0
100
AcDbLine
 62
7
  6
CONTINUOUS
 10
27.1622153022
 20
37.1870745257
 11
30.4817837791
 21
37.1870745257
  0
LINE
  5
22E
100
AcDbEntity
  8
0
100
AcDbLine
 62
7
  6
CONTINUOUS
 10
35.4690865868
 20
37.1870745257
 11
40.5549605573
 21
37.1870745257
  0
LINE
  5
22F
100
AcDbEntity
  8
0
100
AcDbLine
 62
7
  6
CONTINUOUS
 10
47.274335453
 20
37.1870745257
 11
53.5130834568
 21
37.1870745257
  0
LINE
  5
230
100
AcDbEntity
  8
0
100
AcDbLine
 62
7
  6
CONTINUOUS
 10
61.1540746606
 20
37.1870745257
 11
67.7932116143
 21
37.1870745257
  0
LINE
  5
231
100
AcDbEntity
  8
0
100
AcDbLine
 62
7
  6
CONTINUOUS
 10
75.4342028181
 20
37.1870745257
 11
81.6729508218
 21
37.1870745257
  0
LINE
  5
232
100
AcDbEntity
  8
0
100
AcDbLine
 62
7
  6
CONTINUOUS
 10
88.3923257174
 20
37.1870745257
 11
93.4781996878
 21
37.1870745257
  0
LINE
  5
233
100
AcDbEntity
  8
0
100
AcDbLine
 62
7
  6
CONTINUOUS
 10
98.4655024953
 20
37.1870745257
 11
101.7850709721
 21
37.1870745257
  0
LINE
  5
234
100
AcDbEntity
  8
0
100
AcDbLine
 62
7
  6
CONTINUOUS
 10
104.4387593682
 20
37.1870745257
 11
105.5916334014
 21
37.1870745257
  0
LINE
  5
235
100
AcDbEntity
  8
0
100
AcDbLine
 62
7
  6
CONTINUOUS
 10
105.8424311123
 20
37.6168337525
 11
104.6825251649
 21
37.6168337525
  0
LINE
  5
236
100
AcDbEntity
  8
0
100
AcDbLine
 62
7
  6
CONTINUOUS
 10
102.0126506916
 20
37.6168337525
 11
98.6728346251
 21
37.6168337525
  0
LINE
  5
237
100
AcDbEntity
  8
0
100
AcDbLine
 62
7
  6
CONTINUOUS
 10
93.6551119431
 20
37.6168337525
 11
88.5382168654
 21
37.6168337525
  0
LINE
  5
238
100
AcDbEntity
  8
0
100
AcDbLine
 62
7
  6
CONTINUOUS
 10
81.7778573839
 20
37.6168337525
 11
75.5010563588
 21
37.6168337525
  0
LINE
  5
239
100
AcDbEntity
  8
0
100
AcDbLine
 62
7
  6
CONTINUOUS
 10
67.8134592035
 20
37.6168337525
 11
61.1338270703
 21
37.6168337525
  0
LINE
  5
23A
100
AcDbEntity
  8
0
100
AcDbLine
 62
7
  6
CONTINUOUS
 10
53.4462299151
 20
37.6168337525
 11
47.16942889
 21
37.6168337525
  0
LINE
  5
23B
100
AcDbEntity
  8
0
100
AcDbLine
 62
7
  6
CONTINUOUS
 10
40.4090694085
 20
37.6168337525
 11
35.2921743308
 21
37.6168337525
  0
LINE
  5
23C
100
AcDbEntity
  8
0
100
AcDbLine
 62
7
  6
CONTINUOUS
 10
30.2744516488
 20
37.6168337525
 11
26.9346355822
 21
37.6168337525
  0
LINE
  5
23D
100
AcDbEntity
  8
0
100
AcDbLine
 62
7
  6
CONTINUOUS
 10
24.2647611089
 20
37.6168337525
 11
23.1048551615
 21
37.6168337525
  0
LINE
  5
23E
100
AcDbEntity
  8
0
100
AcDbLine
 62
7
  6
CONTINUOUS
 10
105.8446382995
 20
37.6167682552
 11
105.8424311123
 21
37.6168337525
  0
LINE
  5
23F
100
AcDbEntity
  8
0
100
AcDbLine
 62
7
  6
CONTINUOUS
 10
26.9018737798
 20
37.4974710394
 11
26.901788085
 21
37.4978070258
  0
LINE
  5
240
100
AcDbEntity
  8
0
100
AcDbLine
 62
7
  6
CONTINUOUS
 10
26.9019953527
 20
37.4975208979
 11
26.9099152611
 21
37.4563948493
  0
LINE
  5
241
100
AcDbEntity
  8
0
100
AcDbLine
 62
7
  6
CONTINUOUS
 10
22.6074996912
 20
73.5634028305
 11
22.6206774158
 21
73.3993449997
  0
LINE
  5
242
100
AcDbEntity
  8
0
100
AcDbLine
 62
7
  6
CONTINUOUS
 10
22.6075010834
 20
73.5633423
 11
22.6571817901
 21
72.9692541653
  0
LINE
  5
243
100
AcDbEntity
  8
0
100
AcDbLine
 62
7
  6
CONTINUOUS
 10
26.9099152611
 20
37.4563948493
 11
26.9106731193
 21
37.4461171549
  0
LWPOLYLINE
  5
244
100
AcDbEntity
  8
0
100
AcDbPolyline
 62
7
  6
CONTINUOUS
 90
3
 70
0
 10
22.6571817901
 20
72.9692541653
 10
22.761999431
 20
71.3509942875
 10
22.8203952458
 20
69.3295666478
  0
LWPOLYLINE
  5
245
100
AcDbEntity
  8
0
100
AcDbPolyline
 62
7
  6
CONTINUOUS
 90
4
 70
0
 10
22.7627428888
 20
71.3252587734
 10
22.7789921235
 20
70.9748076027
 10
22.7995389003
 20
70.399817114
 10
22.8149485753
 20
69.7471490289
  0
LINE
  5
246
100
AcDbEntity
  8
0
100
AcDbLine
 62
7
  6
CONTINUOUS
 10
22.8149485753
 20
69.7471490289
 11
23.1023890445
 21
37.6167460244
  0
LINE
  5
247
100
AcDbEntity
  8
0
100
AcDbLine
 62
7
  6
CONTINUOUS
 10
22.6075004142
 20
73.5634189948
 11
22.5736431369
 21
77.443877551
  0
LINE
  5
248
100
AcDbEntity
  8
0
100
AcDbLine
 62
7
  6
CONTINUOUS
 10
24.2647611089
 20
37.6168337525
 11
24.0157544152
 21
69.3296535951
  0
LINE
  5
249
100
AcDbEntity
  8
0
100
AcDbLine
 62
7
  6
CONTINUOUS
 10
24.1422130172
 20
69.3296535951
 11
24.3887264668
 21
37.6168337271
  0
LINE
  5
24A
100
AcDbEntity
  8
0
100
AcDbLine
 62
7
  6
CONTINUOUS
 10
22.4736431369
 20
91.2584673544
 11
22.4736431369
 21
79.4438775616
  0
LINE
  5
24B
100
AcDbEntity
  8
0
100
AcDbLine
 62
7
  6
CONTINUOUS
 10
24.4736431369
 20
123.443877551
 11
24.4736431369
 21
92.6292877476
  0
LINE
  5
24C
100
AcDbEntity
  8
0
100
AcDbLine
 62
7
  6
CONTINUOUS
 10
26.2733391341
 20
71.7691001515
 11
26.2639717138
 21
71.8009415555
  0
LWPOLYLINE
  5
24D
100
AcDbEntity
  8
0
100
AcDbPolyline
 62
7
  6
CONTINUOUS
 90
3
 70
0
 10
26.2641543595
 20
71.8003842031
 10
26.4443894828
 20
71.0428663191
 10
26.6050821339
 20
69.3295785253
  0
LINE
  5
24E
100
AcDbEntity
  8
0
100
AcDbLine
 62
7
  6
CONTINUOUS
 10
26.9105987455
 20
37.4451899727
 11
26.9105912175
 21
37.4459841428
  0
LINE
  5
24F
100
AcDbEntity
  8
0
100
AcDbLine
 62
7
  6
CONTINUOUS
 10
26.6049625178
 20
69.3295793458
 11
26.8864883565
 21
37.6167652957
  0
LINE
  5
250
100
AcDbEntity
  8
0
100
AcDbLine
 62
7
  6
CONTINUOUS
 10
26.6529716398
 20
69.3296535951
 11
26.9346355822
 21
37.6168337525
  0
LINE
  5
251
100
AcDbEntity
  8
0
100
AcDbLine
 62
7
  6
CONTINUOUS
 10
30.2744516488
 20
37.6168337525
 11
30.0888360913
 21
69.3296535951
  0
LINE
  5
252
100
AcDbEntity
  8
0
100
AcDbLine
 62
7
  6
CONTINUOUS
 10
30.2839181999
 20
69.3296535951
 11
30.4665277946
 21
37.6168337271
  0
LINE
  5
253
100
AcDbEntity
  8
0
100
AcDbLine
 62
7
  6
CONTINUOUS
 10
87.8736431369
 20
14.443877551
 11
87.4736431369
 21
14.843877551
  0
LINE
  5
254
100
AcDbEntity
  8
0
100
AcDbLine
 62
7
  6
CONTINUOUS
 10
35.1627644788
 20
37.6168337271
 11
34.9153410154
 21
69.3296535951
  0
LINE
  5
255
100
AcDbEntity
  8
0
100
AcDbLine
 62
7
  6
CONTINUOUS
 10
35.0451832221
 20
69.3296535951
 11
35.2921743308
 21
37.6168337525
  0
LINE
  5
256
100
AcDbEntity
  8
0
100
AcDbLine
 62
7
  6
CONTINUOUS
 10
45.4403651915
 20
27.9081288289
 11
45.0051548432
 21
33.9796262732
  0
LINE
  5
257
100
AcDbEntity
  8
0
100
AcDbLine
 62
7
  6
CONTINUOUS
 10
40.4090694085
 20
37.6168337525
 11
40.3092329628
 21
69.3296535951
  0
LINE
  5
258
100
AcDbEntity
  8
0
100
AcDbLine
 62
7
  6
CONTINUOUS
 10
40.5494087966
 20
69.3296535951
 11
40.6460891242
 21
37.6168337271
  0
LINE
  5
259
100
AcDbEntity
  8
0
100
AcDbLine
 62
7
  6
CONTINUOUS
 10
46.9733116926
 20
37.6168337271
 11
46.7893078759
 21
69.3296535951
  0
LINE
  5
25A
100
AcDbEntity
  8
0
100
AcDbLine
 62
7
  6
CONTINUOUS
 10
46.9869013879
 20
69.3296535951
 11
47.16942889
 21
37.6168337525
  0
LINE
  5
25B
100
AcDbEntity
  8
0
100
AcDbLine
 62
7
  6
CONTINUOUS
 10
24.3078072156
 20
92.3609595903
 11
22.6394790583
 21
91.5267955117
  0
LINE
  5
25C
100
AcDbEntity
  8
0
100
AcDbLine
 62
7
  6
CONTINUOUS
 10
24.1422130172
 20
69.3296535951
 11
26.605075093
 21
69.3296535951
  0
LINE
  5
25D
100
AcDbEntity
  8
0
100
AcDbLine
 62
7
  6
CONTINUOUS
 10
30.2839181999
 20
69.3296535951
 11
34.9153410154
 21
69.3296535951
  0
LINE
  5
25E
100
AcDbEntity
  8
0
100
AcDbLine
 62
7
  6
CONTINUOUS
 10
40.5494087966
 20
69.3296535951
 11
46.7893078759
 21
69.3296535951
  0
LINE
  5
25F
100
AcDbEntity
  8
0
100
AcDbLine
 62
7
  6
CONTINUOUS
 10
53.7005151388
 20
69.3296535951
 11
60.7962665618
 21
69.3296535951
  0
LINE
  5
260
100
AcDbEntity
  8
0
100
AcDbLine
 62
7
  6
CONTINUOUS
 10
68.151019712
 20
69.3296535951
 11
75.246771135
 21
69.3296535951
  0
LINE
  5
261
100
AcDbEntity
  8
0
100
AcDbLine
 62
7
  6
CONTINUOUS
 10
82.157978398
 20
69.3296535951
 11
88.3978774772
 21
69.3296535951
  0
LINE
  5
262
100
AcDbEntity
  8
0
100
AcDbLine
 62
7
  6
CONTINUOUS
 10
94.0319452584
 20
69.3296535951
 11
98.6633680739
 21
69.3296535951
  0
LINE
  5
263
100
AcDbEntity
  8
0
100
AcDbLine
 62
7
  6
CONTINUOUS
 10
102.3422111875
 20
69.3296535951
 11
104.8050732566
 21
69.3296535951
  0
LINE
  5
264
100
AcDbEntity
  8
0
100
AcDbLine
 62
7
  6
CONTINUOUS
 10
106.1266009533
 20
69.3295691456
 11
106.1244174218
 21
69.3296566606
  0
LINE
  5
265
100
AcDbEntity
  8
0
100
AcDbLine
 62
7
  6
CONTINUOUS
 10
49.9736431369
 20
27.443877551
 11
49.9736431369
 21
14.843877551
  0
LINE
  5
266
100
AcDbEntity
  8
0
100
AcDbLine
 62
7
  6
CONTINUOUS
 10
53.4462299151
 20
37.6168337525
 11
53.44421433
 21
69.3296535951
  0
LINE
  5
267
100
AcDbEntity
  8
0
100
AcDbLine
 62
7
  6
CONTINUOUS
 10
53.7005151388
 20
69.3296535951
 11
53.699605125
 21
37.6168337271
  0
LINE
  5
268
100
AcDbEntity
  8
0
100
AcDbLine
 62
7
  6
CONTINUOUS
 10
22.5736663278
 20
77.443877551
 11
106.373619946
 21
77.443877551
  0
LINE
  5
269
100
AcDbEntity
  8
0
100
AcDbLine
 62
7
  6
CONTINUOUS
 10
53.9736431369
 20
27.443877551
 11
53.9736431369
 21
14.843877551
  0
LINE
  5
26A
100
AcDbEntity
  8
0
100
AcDbLine
 62
7
  6
CONTINUOUS
 10
106.473619896
 20
79.4438775563
 11
22.4736663778
 21
79.4438775563
  0
LINE
  5
26B
100
AcDbEntity
  8
0
100
AcDbLine
 62
7
  6
CONTINUOUS
 10
60.894657156
 20
37.6168337271
 11
60.7962665618
 21
69.3296535951
  0
LINE
  5
26C
100
AcDbEntity
  8
0
100
AcDbLine
 62
7
  6
CONTINUOUS
 10
61.0377786854
 20
69.3296535951
 11
61.1338270703
 21
37.6168337525
  0
LINE
  5
26D
100
AcDbEntity
  8
0
100
AcDbLine
 62
7
  6
CONTINUOUS
 10
58.5069210823
 20
27.9081288289
 11
58.9421314306
 21
33.9796262732
  0
LINE
  5
26E
100
AcDbEntity
  8
0
100
AcDbLine
 62
7
  6
CONTINUOUS
 10
67.8134592035
 20
37.6168337525
 11
67.9095075884
 21
69.3296535951
  0
LINE
  5
26F
100
AcDbEntity
  8
0
100
AcDbLine
 62
7
  6
CONTINUOUS
 10
68.151019712
 20
69.3296535951
 11
68.0526291179
 21
37.6168337271
  0
LINE
  5
270
100
AcDbEntity
  8
0
100
AcDbLine
 62
7
  6
CONTINUOUS
 10
22.4736431369
 20
91.2584673544
 11
106.4736431369
 21
91.2584673544
  0
LINE
  5
271
100
AcDbEntity
  8
0
100
AcDbLine
 62
7
  6
CONTINUOUS
 10
106.3078072156
 20
91.5267955117
 11
22.6394790583
 21
91.5267955117
  0
LINE
  5
272
100
AcDbEntity
  8
0
100
AcDbLine
 62
7
  6
CONTINUOUS
 10
24.3078072156
 20
92.3609595903
 11
104.6394790583
 21
92.3609595903
  0
LINE
  5
273
100
AcDbEntity
  8
0
100
AcDbLine
 62
7
  6
CONTINUOUS
 10
104.4736431369
 20
92.6292877476
 11
24.4736431369
 21
92.6292877476
  0
LINE
  5
274
100
AcDbEntity
  8
0
100
AcDbLine
 62
7
  6
CONTINUOUS
 10
75.2476811488
 20
37.6168337271
 11
75.246771135
 21
69.3296535951
  0
LINE
  5
275
100
AcDbEntity
  8
0
100
AcDbLine
 62
7
  6
CONTINUOUS
 10
75.5030719438
 20
69.3296535951
 11
75.5010563588
 21
37.6168337525
  0
LINE
  5
276
100
AcDbEntity
  8
0
100
AcDbLine
 62
7
  6
CONTINUOUS
 10
82.9403651915
 20
27.9081288289
 11
82.5051548432
 21
33.9796262732
  0
LINE
  5
277
100
AcDbEntity
  8
0
100
AcDbLine
 62
7
  6
CONTINUOUS
 10
81.7778573839
 20
37.6168337525
 11
81.9603848859
 21
69.3296535951
  0
LINE
  5
278
100
AcDbEntity
  8
0
100
AcDbLine
 62
7
  6
CONTINUOUS
 10
82.157978398
 20
69.3296535951
 11
81.9739745812
 21
37.6168337271
  0
LINE
  5
279
100
AcDbEntity
  8
0
100
AcDbLine
 62
7
  6
CONTINUOUS
 10
87.4736431369
 20
14.843877551
 11
87.4736431369
 21
27.443877551
  0
LINE
  5
27A
100
AcDbEntity
  8
0
100
AcDbLine
 62
7
  6
CONTINUOUS
 10
104.6394790583
 20
92.3609595903
 11
106.3078072156
 21
91.5267955117
  0
LINE
  5
27B
100
AcDbEntity
  8
0
100
AcDbLine
 62
7
  6
CONTINUOUS
 10
91.4736431369
 20
27.443877551
 11
91.4736431369
 21
14.843877551
  0
LINE
  5
27C
100
AcDbEntity
  8
0
100
AcDbLine
 62
7
  6
CONTINUOUS
 10
88.3011971496
 20
37.6168337271
 11
88.3978774772
 21
69.3296535951
  0
LINE
  5
27D
100
AcDbEntity
  8
0
100
AcDbLine
 62
7
  6
CONTINUOUS
 10
88.638053311
 20
69.3296535951
 11
88.5382168654
 21
37.6168337525
  0
LINE
  5
27E
100
AcDbEntity
  8
0
100
AcDbLine
 62
7
  6
CONTINUOUS
 10
98.4807584792
 20
37.6168337271
 11
98.6633680739
 21
69.3296535951
  0
LINE
  5
27F
100
AcDbEntity
  8
0
100
AcDbLine
 62
7
  6
CONTINUOUS
 10
98.8584501825
 20
69.3296535951
 11
98.6728346251
 21
37.6168337525
  0
LINE
  5
280
100
AcDbEntity
  8
0
100
AcDbLine
 62
7
  6
CONTINUOUS
 10
93.6551119431
 20
37.6168337525
 11
93.9021030517
 21
69.3296535951
  0
LINE
  5
281
100
AcDbEntity
  8
0
100
AcDbLine
 62
7
  6
CONTINUOUS
 10
94.0319452584
 20
69.3296535951
 11
93.784521795
 21
37.6168337271
  0
LINE
  5
282
100
AcDbEntity
  8
0
100
AcDbLine
 62
7
  6
CONTINUOUS
 10
104.4736431369
 20
123.443877551
 11
24.4736431369
 21
123.443877551
  0
LINE
  5
283
100
AcDbEntity
  8
0
100
AcDbLine
 62
7
  6
CONTINUOUS
 10
104.4736431369
 20
123.443877551
 11
104.4736431369
 21
92.6292877476
  0
LINE
  5
284
100
AcDbEntity
  8
0
100
AcDbLine
 62
7
  6
CONTINUOUS
 10
104.558559807
 20
37.6168337271
 11
104.8050732566
 21
69.3296535951
  0
LINE
  5
285
100
AcDbEntity
  8
0
100
AcDbLine
 62
7
  6
CONTINUOUS
 10
104.9315318586
 20
69.3296535951
 11
104.6825251649
 21
37.6168337525
  0
LINE
  5
286
100
AcDbEntity
  8
0
100
AcDbLine
 62
7
  6
CONTINUOUS
 10
102.0126506916
 20
37.6168337525
 11
102.294314634
 21
69.3296535951
  0
LINE
  5
287
100
AcDbEntity
  8
0
100
AcDbLine
 62
7
  6
CONTINUOUS
 10
102.0607978506
 20
37.6167577807
 11
102.3423237559
 21
69.329579336
  0
LINE
  5
288
100
AcDbEntity
  8
0
100
AcDbLine
 62
7
  6
CONTINUOUS
 10
102.0366940492
 20
37.4458826519
 11
102.0366874228
 21
37.4451778807
  0
LINE
  5
289
100
AcDbEntity
  8
0
100
AcDbLine
 62
7
  6
CONTINUOUS
 10
96.4421314306
 20
33.9796262732
 11
96.0069210823
 21
27.9081288289
  0
LWPOLYLINE
  5
28A
100
AcDbEntity
  8
0
100
AcDbPolyline
 62
7
  6
CONTINUOUS
 90
3
 70
0
 10
102.3422041461
 20
69.3295784819
 10
102.5028140473
 20
71.0428606135
 10
102.6779243024
 20
71.7826852511
  0
LINE
  5
28B
100
AcDbEntity
  8
0
100
AcDbLine
 62
7
  6
CONTINUOUS
 10
106.4736431369
 20
91.2584673544
 11
106.4736431369
 21
79.4438775616
  0
LINE
  5
28C
100
AcDbEntity
  8
0
100
AcDbLine
 62
7
  6
CONTINUOUS
 10
106.3397858596
 20
73.5634189948
 11
106.3736431369
 21
77.443877551
  0
LWPOLYLINE
  5
28D
100
AcDbEntity
  8
0
100
AcDbPolyline
 62
7
  6
CONTINUOUS
 90
6
 70
0
 10
105.8424311123
 20
37.6168337525
 10
106.1323376986
 20
69.7471490289
 10
106.1477473735
 20
70.399817114
 10
106.1682941503
 20
70.9748076027
 10
106.1915428507
 20
71.4762179418
 10
106.2155950406
 20
71.9089028328
  0
LINE
  5
28E
100
AcDbEntity
  8
0
100
AcDbLine
 62
7
  6
CONTINUOUS
 10
106.1845433896
 20
71.3252588736
 11
106.1852868472
 21
71.3509943765
  0
LINE
  5
28F
100
AcDbEntity
  8
0
100
AcDbLine
 62
7
  6
CONTINUOUS
 10
106.1852868472
 20
71.3509943765
 11
106.2900660752
 21
72.968661159
  0
LWPOLYLINE
  5
290
100
AcDbEntity
  8
0
100
AcDbPolyline
 62
7
  6
CONTINUOUS
 90
3
 70
0
 10
102.0366105561
 20
37.4460265572
 10
102.0372565534
 20
37.4553442319
 10
102.0453006476
 20
37.4975589222
  0
LINE
  5
291
100
AcDbEntity
  8
0
100
AcDbLine
 62
7
  6
CONTINUOUS
 10
106.2391062046
 20
72.2792871496
 11
106.2610427443
 21
72.5917741661
  0
LINE
  5
292
100
AcDbEntity
  8
0
100
AcDbLine
 62
7
  6
CONTINUOUS
 10
102.0366131545
 20
37.4461171545
 11
102.0373168911
 21
37.4556608784
  0
LINE
  5
293
100
AcDbEntity
  8
0
100
AcDbLine
 62
7
  6
CONTINUOUS
 10
106.2610427443
 20
72.5917741661
 11
106.2894722582
 21
72.9614511292
  0
LINE
  5
294
100
AcDbEntity
  8
0
100
AcDbLine
 62
7
  6
CONTINUOUS
 10
106.2894722582
 20
72.9614511292
 11
106.3377030955
 21
73.5221973418
  0
LINE
  5
295
100
AcDbEntity
  8
0
100
AcDbLine
 62
7
  6
CONTINUOUS
 10
106.3172336373
 20
73.2929210953
 11
106.3397851904
 21
73.5633423
  0
LINE
  5
296
100
AcDbEntity
  8
0
100
AcDbLine
 62
7
  6
CONTINUOUS
 10
106.3394790757
 20
73.5600904042
 11
106.3397867223
 21
73.5634045029
  0
LINE
  5
297
100
AcDbEntity
  8
0
100
AcDbLine
 62
7
  6
CONTINUOUS
 10
102.6779585184
 20
71.7828084742
 11
102.6738928346
 21
71.7689137909
  0
LINE
  5
298
100
AcDbEntity
  8
0
100
AcDbLine
 62
7
  6
CONTINUOUS
 10
53.9736431369
 20
14.843877551
 11
53.5736431369
 21
14.443877551
  0
LINE
  5
299
100
AcDbEntity
  8
0
100
AcDbLine
 62
7
  6
CONTINUOUS
 10
102.0454981956
 20
37.497807052
 11
102.0454222063
 21
37.4975090657
  0
LINE
  5
29A
100
AcDbEntity
  8
0
100
AcDbLine
 62
7
  6
CONTINUOUS
 10
104.7696083437
 20
36.6130005325
 11
104.9096158448
 21
36.7090532014
  0
LWPOLYLINE
  5
29B
100
AcDbEntity
  8
0
100
AcDbPolyline
 62
7
  6
CONTINUOUS
 90
3
 70
0
 10
104.9096158448
 20
36.7090532014
 10
105.2205666326
 20
36.9269231606
 10
105.6277886561
 20
37.2091335815
  0
LINE
  5
29C
100
AcDbEntity
  8
0
100
AcDbLine
 62
7
  6
CONTINUOUS
 10
104.8030998922
 20
36.6367351226
 11
104.8079463992
 21
36.6401176343
  0
LINE
  5
29D
100
AcDbEntity
  8
0
100
AcDbLine
 62
7
  6
CONTINUOUS
 10
104.7691888273
 20
36.6127608051
 11
104.8092297706
 21
36.6382788029
  0
LINE
  5
29E
100
AcDbEntity
  8
0
100
AcDbLine
 62
7
  6
CONTINUOUS
 10
105.6278293764
 20
37.2091094269
 11
105.5916334014
 21
37.1870745257
  0
LINE
  5
29F
100
AcDbEntity
  8
0
100
AcDbLine
 62
7
  6
CONTINUOUS
 10
101.0889303875
 20
34.5097560052
 11
104.7691888324
 21
36.612760811
  0
LINE
  5
2A0
100
AcDbEntity
  8
0
100
AcDbLine
 62
7
  6
CONTINUOUS
 10
91.4736431369
 20
14.843877551
 11
91.0736431369
 21
14.443877551
  0
ARC
  5
2A1
100
AcDbEntity
  8
0
100
AcDbCircle
 62
7
  6
CONTINUOUS
 10
-24.8643345571
 20
-32.7424730465
 40
84.9429797599
100
AcDbArc
 50
54.7644523057
 51
55.4117220427
  0
ARC
  5
2A2
100
AcDbEntity
  8
0
100
AcDbCircle
 62
7
  6
CONTINUOUS
 10
27.488035176
 20
37.6215381671
 40
0.5534195166
100
AcDbArc
 50
180.4747343165
 51
192.22827315
  0
ARC
  5
2A3
100
AcDbEntity
  8
0
100
AcDbCircle
 62
7
  6
CONTINUOUS
 10
27.4775392156
 20
37.619148876
 40
0.5426556365
100
AcDbArc
 50
192.2164516554
 51
197.7026936601
  0
ARC
  5
2A4
100
AcDbEntity
  8
0
100
AcDbCircle
 62
7
  6
CONTINUOUS
 10
27.3863240869
 20
37.6211960967
 40
0.5
100
AcDbArc
 50
180.5077582611
 51
194.2869407643
  0
ARC
  5
2A5
100
AcDbEntity
  8
0
100
AcDbCircle
 62
7
  6
CONTINUOUS
 10
23.6026255395
 20
37.6211960967
 40
0.5
100
AcDbArc
 50
180.5099835717
 51
235.4392062606
  0
ARC
  5
2A6
100
AcDbEntity
  8
0
100
AcDbCircle
 62
7
  6
CONTINUOUS
 10
58.0082006908
 20
27.943877551
 40
0.5
100
AcDbArc
 50
270.0
 51
355.9
  0
ARC
  5
2A7
100
AcDbEntity
  8
0
100
AcDbCircle
 62
7
  6
CONTINUOUS
 10
45.939085583
 20
27.943877551
 40
0.5
100
AcDbArc
 50
184.1
 51
270.0
  0
ARC
  5
2A8
100
AcDbEntity
  8
0
100
AcDbCircle
 62
7
  6
CONTINUOUS
 10
44.5064344518
 20
33.943877551
 40
0.5
100
AcDbArc
 50
4.1
 51
90.0
  0
ARC
  5
2A9
100
AcDbEntity
  8
0
100
AcDbCircle
 62
7
  6
CONTINUOUS
 10
59.440851822
 20
33.943877551
 40
0.5
100
AcDbArc
 50
90.0
 51
175.9
  0
ARC
  5
2AA
100
AcDbEntity
  8
0
100
AcDbCircle
 62
7
  6
CONTINUOUS
 10
53.5764167864
 20
123.9074912313
 40
54.5779874956
100
AcDbArc
 50
269.8614808476
 51
270.1303312795
  0
ARC
  5
2AB
100
AcDbEntity
  8
0
100
AcDbCircle
 62
7
  6
CONTINUOUS
 10
53.5782090079
 20
91.3578289674
 40
53.7411361606
100
AcDbArc
 50
270.0007552069
 51
270.1293721979
  0
ARC
  5
2AC
100
AcDbEntity
  8
0
100
AcDbCircle
 62
7
  6
CONTINUOUS
 10
53.5749965929
 20
90.7995724653
 40
53.1828920033
100
AcDbArc
 50
269.8611635835
 51
270.0042239807
  0
ARC
  5
2AD
100
AcDbEntity
  8
0
100
AcDbCircle
 62
7
  6
CONTINUOUS
 10
-28.2370605126
 20
68.8537344977
 40
51.062174157
100
AcDbArc
 50
2.88266075
 51
4.7069133507
  0
ARC
  5
2AE
100
AcDbEntity
  8
0
100
AcDbCircle
 62
7
  6
CONTINUOUS
 10
-28.1819753326
 20
68.8596035654
 40
51.0068636147
100
AcDbArc
 50
1.7708732632
 51
2.8791882291
  0
ARC
  5
2AF
100
AcDbEntity
  8
0
100
AcDbCircle
 62
7
  6
CONTINUOUS
 10
-28.058816056
 20
68.8731158048
 40
50.8829406412
100
AcDbArc
 50
4.701632913
 51
5.1752376707
  0
ARC
  5
2B0
100
AcDbEntity
  8
0
100
AcDbCircle
 62
7
  6
CONTINUOUS
 10
60.9130685559
 20
120.1202362726
 40
50.7907258506
100
AcDbArc
 50
269.8679591683
 51
270.1407180866
  0
ARC
  5
2B1
100
AcDbEntity
  8
0
100
AcDbCircle
 62
7
  6
CONTINUOUS
 10
-27.8295288219
 20
68.8773353097
 40
50.6540379357
100
AcDbArc
 50
0.5116328696
 51
1.763145742
  0
ARC
  5
2B2
100
AcDbEntity
  8
0
100
AcDbCircle
 62
7
  6
CONTINUOUS
 10
40.4332969723
 20
119.2460781552
 40
49.9165682156
100
AcDbArc
 50
269.8580022603
 51
270.1332534312
  0
ARC
  5
2B3
100
AcDbEntity
  8
0
100
AcDbCircle
 62
7
  6
CONTINUOUS
 10
40.5314722751
 20
87.5201738243
 40
49.9034821061
100
AcDbArc
 50
269.8592046494
 51
270.131619773
  0
ARC
  5
2B4
100
AcDbEntity
  8
0
100
AcDbCircle
 62
7
  6
CONTINUOUS
 10
61.0095777631
 20
86.7852808738
 40
49.1685898573
100
AcDbArc
 50
269.8662187006
 51
270.1044931035
  0
ARC
  5
2B5
100
AcDbEntity
  8
0
100
AcDbCircle
 62
7
  6
CONTINUOUS
 10
47.0585634225
 20
78.7086022297
 40
41.0919121841
100
AcDbArc
 50
269.941925752
 51
270.1543540475
  0
ARC
  5
2B6
100
AcDbEntity
  8
0
100
AcDbCircle
 62
7
  6
CONTINUOUS
 10
64.4736431369
 20
123.443877551
 40
40.0
100
AcDbArc
 50
0.0
 51
180.0
  0
ARC
  5
2B7
100
AcDbEntity
  8
0
100
AcDbCircle
 62
7
  6
CONTINUOUS
 10
46.8847294307
 20
105.3142613906
 40
35.9847433012
100
AcDbArc
 50
269.8476536691
 51
270.1629417918
  0
ARC
  5
2B8
100
AcDbEntity
  8
0
100
AcDbCircle
 62
7
  6
CONTINUOUS
 10
30.3737737777
 20
72.0567982827
 40
34.4400999127
100
AcDbArc
 50
269.8342264477
 51
270.1545096324
  0
ARC
  5
2B9
100
AcDbEntity
  8
0
100
AcDbCircle
 62
7
  6
CONTINUOUS
 10
30.1897281387
 20
103.7136260787
 40
34.3841096881
100
AcDbArc
 50
269.8325657653
 51
270.1551039557
  0
ARC
  5
2BA
100
AcDbEntity
  8
0
100
AcDbCircle
 62
7
  6
CONTINUOUS
 10
47.0444371906
 20
57.2370828442
 40
19.6203788088
100
AcDbArc
 50
269.7927860421
 51
269.9196237444
  0
ARC
  5
2BB
100
AcDbEntity
  8
0
100
AcDbCircle
 62
7
  6
CONTINUOUS
 10
19.2224145226
 20
69.8248495073
 40
7.3743030955
100
AcDbArc
 50
13.4896164143
 51
15.68709438
  0
ARC
  5
2BC
100
AcDbEntity
  8
0
100
AcDbCircle
 62
7
  6
CONTINUOUS
 10
19.574761793
 20
69.9225949148
 40
7.0086511607
100
AcDbArc
 50
15.6966122959
 51
15.9984628562
  0
ARC
  5
2BD
100
AcDbEntity
  8
0
100
AcDbCircle
 62
7
  6
CONTINUOUS
 10
23.6736431369
 20
78.443877551
 40
1.0
100
AcDbArc
 50
90.0
 51
270.0
  0
ARC
  5
2BE
100
AcDbEntity
  8
0
100
AcDbCircle
 62
7
  6
CONTINUOUS
 10
24.1736431369
 20
92.6292877476
 40
0.3
100
AcDbArc
 50
296.5650511771
 51
360.0
  0
ARC
  5
2BF
100
AcDbEntity
  8
0
100
AcDbCircle
 62
7
  6
CONTINUOUS
 10
22.7736431369
 20
91.2584673544
 40
0.3
100
AcDbArc
 50
116.5650511771
 51
180.0
  0
ARC
  5
2C0
100
AcDbEntity
  8
0
100
AcDbCircle
 62
7
  6
CONTINUOUS
 10
154.0529677683
 20
-33.0882775105
 40
85.3646708936
100
AcDbArc
 50
124.5898786164
 51
125.2339367048
  0
ARC
  5
2C1
100
AcDbEntity
  8
0
100
AcDbCircle
 62
7
  6
CONTINUOUS
 10
95.5082006908
 20
27.943877551
 40
0.5
100
AcDbArc
 50
270.0
 51
355.9
  0
ARC
  5
2C2
100
AcDbEntity
  8
0
100
AcDbCircle
 62
7
  6
CONTINUOUS
 10
83.439085583
 20
27.943877551
 40
0.5
100
AcDbArc
 50
184.1
 51
270.0
  0
ARC
  5
2C3
100
AcDbEntity
  8
0
100
AcDbCircle
 62
7
  6
CONTINUOUS
 10
101.5609621869
 20
37.6211960967
 40
0.5
100
AcDbArc
 50
345.7130623416
 51
359.4915835027
  0
ARC
  5
2C4
100
AcDbEntity
  8
0
100
AcDbCircle
 62
7
  6
CONTINUOUS
 10
82.0064344518
 20
33.943877551
 40
0.5
100
AcDbArc
 50
4.1
 51
90.0
  0
ARC
  5
2C5
100
AcDbEntity
  8
0
100
AcDbCircle
 62
7
  6
CONTINUOUS
 10
96.940851822
 20
33.943877551
 40
0.5
100
AcDbArc
 50
90.0
 51
175.9
  0
ARC
  5
2C6
100
AcDbEntity
  8
0
100
AcDbCircle
 62
7
  6
CONTINUOUS
 10
105.3446607343
 20
37.6211960967
 40
0.5
100
AcDbArc
 50
304.5607937793
 51
359.4907738441
  0
ARC
  5
2C7
100
AcDbEntity
  8
0
100
AcDbCircle
 62
7
  6
CONTINUOUS
 10
105.3461421095
 20
37.6145965232
 40
0.4929919195
100
AcDbArc
 50
299.8652650067
 51
304.7847511257
  0
ARC
  5
2C8
100
AcDbEntity
  8
0
100
AcDbCircle
 62
7
  6
CONTINUOUS
 10
101.5924396653
 20
37.6133948146
 40
0.4674409308
100
AcDbArc
 50
338.5481961899
 51
345.6498949708
  0
ARC
  5
2C9
100
AcDbEntity
  8
0
100
AcDbCircle
 62
7
  6
CONTINUOUS
 10
75.3708792593
 20
123.7658271724
 40
54.4363238218
100
AcDbArc
 50
269.8691563479
 51
270.1390264562
  0
ARC
  5
2CA
100
AcDbEntity
  8
0
100
AcDbCircle
 62
7
  6
CONTINUOUS
 10
75.3690772658
 20
91.3578288269
 40
53.7411360361
100
AcDbArc
 50
269.8706277983
 51
269.9992447932
  0
ARC
  5
2CB
100
AcDbEntity
  8
0
100
AcDbCircle
 62
7
  6
CONTINUOUS
 10
75.3722780112
 20
90.8113532567
 40
53.194672795
100
AcDbArc
 50
269.9957895242
 51
270.1385350167
  0
ARC
  5
2CC
100
AcDbEntity
  8
0
100
AcDbCircle
 62
7
  6
CONTINUOUS
 10
157.7473282463
 20
68.8087692736
 40
51.6269494846
100
AcDbArc
 50
174.8284174464
 51
175.2910219413
  0
ARC
  5
2CD
100
AcDbEntity
  8
0
100
AcDbCircle
 62
7
  6
CONTINUOUS
 10
157.2235342653
 20
68.8505308329
 40
51.1014933341
100
AcDbArc
 50
175.4043766891
 51
176.7484014676
  0
ARC
  5
2CE
100
AcDbEntity
  8
0
100
AcDbCircle
 62
7
  6
CONTINUOUS
 10
157.0471964889
 20
68.8657977216
 40
50.9244992694
100
AcDbArc
 50
175.2903005865
 51
175.4056020854
  0
ARC
  5
2CF
100
AcDbEntity
  8
0
100
AcDbCircle
 62
7
  6
CONTINUOUS
 10
156.8844545895
 20
68.8697843612
 40
50.761867474
100
AcDbArc
 50
176.7483898586
 51
177.1001996142
  0
ARC
  5
2D0
100
AcDbEntity
  8
0
100
AcDbCircle
 62
7
  6
CONTINUOUS
 10
156.7277772125
 20
68.8774294412
 40
50.6050039576
100
AcDbArc
 50
177.099870215
 51
179.3527890708
  0
ARC
  5
2D1
100
AcDbEntity
  8
0
100
AcDbCircle
 62
7
  6
CONTINUOUS
 10
156.3447529054
 20
68.8824776379
 40
50.2219470691
100
AcDbArc
 50
179.3536120111
 51
179.4898319815
  0
ARC
  5
2D2
100
AcDbEntity
  8
0
100
AcDbCircle
 62
7
  6
CONTINUOUS
 10
68.0338897064
 20
115.6122133824
 40
46.2827169514
100
AcDbArc
 50
269.8461728446
 51
270.1451445409
  0
ARC
  5
2D3
100
AcDbEntity
  8
0
100
AcDbCircle
 62
7
  6
CONTINUOUS
 10
88.4161862365
 20
82.8713800541
 40
45.2547028065
100
AcDbArc
 50
269.8543882936
 51
270.1547872715
  0
ARC
  5
2D4
100
AcDbEntity
  8
0
100
AcDbCircle
 62
7
  6
CONTINUOUS
 10
88.5143336816
 20
114.5466263301
 40
45.2171313579
100
AcDbArc
 50
269.8522596814
 51
270.1564791982
  0
ARC
  5
2D5
100
AcDbEntity
  8
0
100
AcDbCircle
 62
7
  6
CONTINUOUS
 10
67.9387938002
 20
82.5390322694
 40
44.9223511615
100
AcDbArc
 50
269.8842455617
 51
270.145042628
  0
ARC
  5
2D6
100
AcDbEntity
  8
0
100
AcDbCircle
 62
7
  6
CONTINUOUS
 10
81.8844689824
 20
73.6456779315
 40
36.0289960208
100
AcDbArc
 50
269.8307203588
 51
270.0729998443
  0
ARC
  5
2D7
100
AcDbEntity
  8
0
100
AcDbCircle
 62
7
  6
CONTINUOUS
 10
82.0619281674
 20
98.2400426272
 40
28.9105577993
100
AcDbArc
 50
269.7987124398
 51
270.1906855793
  0
ARC
  5
2D8
100
AcDbEntity
  8
0
100
AcDbCircle
 62
7
  6
CONTINUOUS
 10
98.5741958845
 20
65.1044526108
 40
27.4877882314
100
AcDbArc
 50
269.8049866075
 51
270.2062772971
  0
ARC
  5
2D9
100
AcDbEntity
  8
0
100
AcDbCircle
 62
7
  6
CONTINUOUS
 10
98.7581398162
 20
96.7778092433
 40
27.4483277794
100
AcDbArc
 50
269.8020579304
 51
270.2087118146
  0
ARC
  5
2DA
100
AcDbEntity
  8
0
100
AcDbCircle
 62
7
  6
CONTINUOUS
 10
81.9069217212
 20
55.6143262044
 40
17.9976181422
100
AcDbArc
 50
270.074658081
 51
270.2129321217
  0
ARC
  5
2DB
100
AcDbEntity
  8
0
100
AcDbCircle
 62
7
  6
CONTINUOUS
 10
102.0819298799
 20
49.3588046574
 40
11.7421646864
100
AcDbArc
 50
269.6636853537
 51
269.8057751753
  0
ARC
  5
2DC
100
AcDbEntity
  8
0
100
AcDbCircle
 62
7
  6
CONTINUOUS
 10
109.9687140414
 20
69.7594887289
 40
7.6266942107
100
AcDbArc
 50
164.2053285946
 51
166.5551710382
  0
ARC
  5
2DD
100
AcDbEntity
  8
0
100
AcDbCircle
 62
7
  6
CONTINUOUS
 10
105.2736431369
 20
78.443877551
 40
1.0
100
AcDbArc
 50
270.0
 51
90.0
  0
ARC
  5
2DE
100
AcDbEntity
  8
0
100
AcDbCircle
 62
7
  6
CONTINUOUS
 10
104.7736431369
 20
92.6292877476
 40
0.3
100
AcDbArc
 50
180.0
 51
243.4349488229
  0
ARC
  5
2DF
100
AcDbEntity
  8
0
100
AcDbCircle
 62
7
  6
CONTINUOUS
 10
106.1736431369
 20
91.2584673544
 40
0.3
100
AcDbArc
 50
0.0
 51
63.4349488229
  0
SPLINE
  5
2E0
100
AcDbEntity
  8
0
100
AcDbSpline
 62
7
  6
CONTINUOUS
 70
0
 71
3
 72
11
 73
7
 74
0
 42
0.0000001
 43
0.0000001
 44
0.0000000001
 40
0.0
 40
0.0
 40
0.0
 40
0.0
 40
0.0658259381
 40
0.2561233405
 40
0.568361817
 40
1.0
 40
1.0
 40
1.0
 40
1.0
 10
102.3423222997
 20
69.3295724949
 30
0.0
 10
102.3414356796
 20
69.3289919959
 30
0.0
 10
102.3369012242
 20
69.3302352831
 30
0.0
 10
102.3281389846
 20
69.3290460811
 30
0.0
 10
102.3128778317
 20
69.329785517
 30
0.0
 10
102.3009742381
 20
69.3296246
 30
0.0
 10
102.2940252693
 20
69.3296631371
 30
0.0
  0
SPLINE
  5
2E1
100
AcDbEntity
  8
0
100
AcDbSpline
 62
7
  6
CONTINUOUS
 70
0
 71
3
 72
11
 73
7
 74
0
 42
0.0000001
 43
0.0000001
 44
0.0000000001
 40
0.0
 40
0.0
 40
0.0
 40
0.0
 40
0.0633510801
 40
0.2521705417
 40
0.5649123425
 40
1.0
 40
1.0
 40
1.0
 40
1.0
 10
102.0607978372
 20
37.6167562686
 30
0.0
 10
102.0607942388
 20
37.6163619644
 30
0.0
 10
102.0582787588
 20
37.6172148883
 30
0.0
 10
102.0556727458
 20
37.6163560994
 30
0.0
 10
102.0493160114
 20
37.6168464382
 30
0.0
 10
102.0448337633
 20
37.6166986992
 30
0.0
 10
102.0421256303
 20
37.6167074365
 30
0.0
  0
SPLINE
  5
2E2
100
AcDbEntity
  8
0
100
AcDbSpline
 62
7
  6
CONTINUOUS
 70
0
 71
3
 72
9
 73
5
 74
0
 42
0.0000001
 43
0.0000001
 44
0.0000000001
 40
0.0
 40
0.0
 40
0.0
 40
0.0
 40
0.5774159545
 40
1.0
 40
1.0
 40
1.0
 40
1.0
 10
67.8134592035
 20
37.6168337525
 30
0.0
 10
67.813401107
 20
37.5339903397
 30
0.0
 10
67.8102457191
 20
37.3905965525
 30
0.0
 10
67.8016564569
 20
37.247112798
 30
0.0
 10
67.7932116143
 20
37.1870745257
 30
0.0
  0
LINE
  5
2E3
100
AcDbEntity
  8
0
100
AcDbLine
 62
7
  6
CONTINUOUS
 10
67.8480373751
 20
37.616760674
 11
67.8134916872
 21
37.6168319341
  0
SPLINE
  5
2E4
100
AcDbEntity
  8
0
100
AcDbSpline
 62
7
  6
CONTINUOUS
 70
0
 71
3
 72
9
 73
5
 74
0
 42
0.0000001
 43
0.0000001
 44
0.0000000001
 40
0.0
 40
0.0
 40
0.0
 40
0.0
 40
0.5283888597
 40
1.0
 40
1.0
 40
1.0
 40
1.0
 10
75.2476811484
 20
37.616833727
 30
0.0
 10
75.2638334109
 20
37.5581369842
 30
0.0
 10
75.2991339153
 20
37.4483288609
 30
0.0
 10
75.3439338985
 20
37.3418740958
 30
0.0
 10
75.3685818676
 20
37.2934491181
 30
0.0
  0
SPLINE
  5
2E5
100
AcDbEntity
  8
0
100
AcDbSpline
 62
7
  6
CONTINUOUS
 70
0
 71
3
 72
9
 73
5
 74
0
 42
0.0000001
 43
0.0000001
 44
0.0000000001
 40
0.0
 40
0.0
 40
0.0
 40
0.0
 40
0.4966764778
 40
1.0
 40
1.0
 40
1.0
 40
1.0
 10
102.0274988748
 20
37.4424430436
 30
0.0
 10
102.0057851344
 20
37.3871969999
 30
0.0
 10
101.9394714955
 20
37.2837296522
 30
0.0
 10
101.8395875367
 20
37.2125008999
 30
0.0
 10
101.7850709722
 20
37.1870745262
 30
0.0
  0
SPLINE
  5
2E6
100
AcDbEntity
  8
0
100
AcDbSpline
 62
7
  6
CONTINUOUS
 70
0
 71
3
 72
9
 73
5
 74
0
 42
0.0000001
 43
0.0000001
 44
0.0000000001
 40
0.0
 40
0.0
 40
0.0
 40
0.0
 40
0.2220977273
 40
1.0
 40
1.0
 40
1.0
 40
1.0
 10
75.4670689909
 20
37.2870092506
 30
0.0
 10
75.4727695437
 20
37.3109144491
 30
0.0
 10
75.4937544215
 20
37.4196491959
 30
0.0
 10
75.5005949072
 20
37.53075367
 30
0.0
 10
75.5007937833
 20
37.616829653
 30
0.0
  0
SPLINE
  5
2E7
100
AcDbEntity
  8
0
100
AcDbSpline
 62
7
  6
CONTINUOUS
 70
0
 71
3
 72
9
 73
5
 74
0
 42
0.0000001
 43
0.0000001
 44
0.0000000001
 40
0.0
 40
0.0
 40
0.0
 40
0.0
 40
0.2185393805
 40
1.0
 40
1.0
 40
1.0
 40
1.0
 10
75.434202817
 20
37.1870745257
 30
0.0
 10
75.4374339249
 20
37.1940317657
 30
0.0
 10
75.4510279814
 20
37.2264198902
 30
0.0
 10
75.4607063056
 20
37.2603274073
 30
0.0
 10
75.4670689909
 20
37.2870092506
 30
0.0
  0
SPLINE
  5
2E8
100
AcDbEntity
  8
0
100
AcDbSpline
 62
7
  6
CONTINUOUS
 70
0
 71
3
 72
10
 73
6
 74
0
 42
0.0000001
 43
0.0000001
 44
0.0000000001
 40
0.0
 40
0.0
 40
0.0
 40
0.0
 40
0.2581595017
 40
0.5188288623
 40
1.0
 40
1.0
 40
1.0
 40
1.0
 10
75.4342226475
 20
37.1870495608
 30
0.0
 10
74.7945534837
 20
37.0024304809
 30
0.0
 10
73.481968383
 20
36.7155904864
 30
0.0
 10
70.9070143137
 20
36.5170769011
 30
0.0
 10
68.9688607527
 20
36.790025453
 30
0.0
 10
67.7931756128
 20
37.1870495606
 30
0.0
  0
SPLINE
  5
2E9
100
AcDbEntity
  8
0
100
AcDbSpline
 62
7
  6
CONTINUOUS
 70
0
 71
3
 72
11
 73
7
 74
0
 42
0.0000001
 43
0.0000001
 44
0.0000000001
 40
0.0
 40
0.0
 40
0.0
 40
0.0
 40
0.2884218244
 40
0.5584606
 40
0.7975621718
 40
1.0
 40
1.0
 40
1.0
 40
1.0
 10
88.3923269834
 20
37.1870495608
 30
0.0
 10
87.7588683525
 20
37.0086336392
 30
0.0
 10
86.5126216191
 20
36.7271688307
 30
0.0
 10
84.6931894939
 20
36.5639549289
 30
0.0
 10
83.065855131
 20
36.6921354768
 30
0.0
 10
82.0899633646
 20
36.9884978323
 30
0.0
 10
81.6729029908
 20
37.1870495606
 30
0.0
  0
SPLINE
  5
2EA
100
AcDbEntity
  8
0
100
AcDbSpline
 62
7
  6
CONTINUOUS
 70
0
 71
3
 72
14
 73
10
 74
0
 42
0.0000001
 43
0.0000001
 44
0.0000000001
 40
0.0
 40
0.0
 40
0.0
 40
0.0
 40
0.3328533128
 40
0.4816843313
 40
0.6146828599
 40
0.7319243375
 40
0.8344589372
 40
0.92237372
 40
1.0
 40
1.0
 40
1.0
 40
1.0
 10
98.4654850452
 20
37.1870495608
 30
0.0
 10
97.9165200665
 20
37.0159192656
 30
0.0
 10
97.1096874085
 20
36.8016884907
 30
0.0
 10
96.0588020634
 20
36.6422907742
 30
0.0
 10
95.3694791738
 20
36.6004779849
 30
0.0
 10
94.7592517485
 20
36.6329163104
 30
0.0
 10
94.2359204164
 20
36.7396628729
 30
0.0
 10
93.8048706676
 20
36.9180731873
 30
0.0
 10
93.5723209697
 20
37.091578691
 30
0.0
 10
93.4781457964
 20
37.1870495606
 30
0.0
  0
SPLINE
  5
2EB
100
AcDbEntity
  8
0
100
AcDbSpline
 62
7
  6
CONTINUOUS
 70
0
 71
3
 72
18
 73
14
 74
0
 42
0.0000001
 43
0.0000001
 44
0.0000000001
 40
0.0
 40
0.0
 40
0.0
 40
0.0
 40
0.2185244502
 40
0.4079387284
 40
0.5675459222
 40
0.6931868557
 40
0.7439416474
 40
0.787549095
 40
0.8579476396
 40
0.8894073448
 40
0.9219886745
 40
0.9582708431
 40
1.0
 40
1.0
 40
1.0
 40
1.0
 10
104.4387253067
 20
37.1870495608
 30
0.0
 10
104.2256485146
 20
37.1010752322
 30
0.0
 10
103.8249520896
 20
36.9476322786
 30
0.0
 10
103.2566599716
 20
36.7640670746
 30
0.0
 10
102.7707735281
 20
36.6478049864
 30
0.0
 10
102.4182081662
 20
36.606312577
 30
0.0
 10
102.1862649255
 20
36.6176631594
 30
0.0
 10
102.0163511335
 20
36.6503868968
 30
0.0
 10
101.872784147
 20
36.7241907637
 30
0.0
 10
101.7917127273
 20
36.8431731732
 30
0.0
 10
101.7623504694
 20
36.9460484928
 30
0.0
 10
101.7601156774
 20
37.0632551778
 30
0.0
 10
101.7745110071
 20
37.1444498655
 30
0.0
 10
101.7850175204
 20
37.1870495606
 30
0.0
  0
SPLINE
  5
2EC
100
AcDbEntity
  8
0
100
AcDbSpline
 62
7
  6
CONTINUOUS
 70
0
 71
3
 72
9
 73
5
 74
0
 42
0.0000001
 43
0.0000001
 44
0.0000000001
 40
0.0
 40
0.0
 40
0.0
 40
0.0
 40
0.5125420318
 40
1.0
 40
1.0
 40
1.0
 40
1.0
 10
102.2943222447
 20
69.3296535534
 30
0.0
 10
102.2976958467
 20
69.7091686472
 30
0.0
 10
102.3424384198
 20
70.4497759038
 30
0.0
 10
102.4670410986
 20
71.1817163039
 30
0.0
 10
102.5510350452
 20
71.5327633534
 30
0.0
  0
SPLINE
  5
2ED
100
AcDbEntity
  8
0
100
AcDbSpline
 62
7
  6
CONTINUOUS
 70
0
 71
3
 72
24
 73
20
 74
0
 42
0.0000001
 43
0.0000001
 44
0.0000000001
 40
0.0
 40
0.0
 40
0.0
 40
0.0
 40
0.0763723367
 40
0.1447156728
 40
0.2042599759
 40
0.2539584812
 40
0.2936607991
 40
0.3266426119
 40
0.3424774546
 40
0.3592192503
 40
0.3775879241
 40
0.3980163455
 40
0.4463539148
 40
0.5049350879
 40
0.5729622744
 40
0.6487486365
 40
0.7310915601
 40
0.8179489225
 40
1.0
 40
1.0
 40
1.0
 40
1.0
 10
102.6299785456
 20
71.8354044081
 30
0.0
 10
102.6772071599
 20
72.0019246856
 30
0.0
 10
102.7781985532
 20
72.314413784
 30
0.0
 10
102.9598161335
 20
72.7410561482
 30
0.0
 10
103.1596986831
 20
73.0917240816
 30
0.0
 10
103.3721102754
 20
73.3566704672
 30
0.0
 10
103.5967146154
 20
73.5268195902
 30
0.0
 10
103.8006059868
 20
73.5756133565
 30
0.0
 10
103.9481615
 20
73.5461109326
 30
0.0
 10
104.0529513035
 20
73.4951490743
 30
0.0
 10
104.1521860721
 20
73.4164162199
 30
0.0
 10
104.2840210786
 20
73.2683875691
 30
0.0
 10
104.42865563
 20
73.0157147376
 30
0.0
 10
104.5706980235
 20
72.6447971638
 30
0.0
 10
104.6884257759
 20
72.2007328522
 30
0.0
 10
104.7828407404
 20
71.6966405837
 30
0.0
 10
104.8537154298
 20
71.1456929968
 30
0.0
 10
104.919837798
 20
70.3522081387
 30
0.0
 10
104.9347637805
 20
69.7422366385
 30
0.0
 10
104.9315273331
 20
69.3296535534
 30
0.0
  0
SPLINE
  5
2EE
100
AcDbEntity
  8
0
100
AcDbSpline
 62
7
  6
CONTINUOUS
 70
0
 71
3
 72
21
 73
17
 74
0
 42
0.0000001
 43
0.0000001
 44
0.0000000001
 40
0.0
 40
0.0
 40
0.0
 40
0.0
 40
0.1458590413
 40
0.2162876671
 40
0.2837242593
 40
0.3467466963
 40
0.4049855554
 40
0.4577596086
 40
0.5068883087
 40
0.5546785483
 40
0.6046675056
 40
0.6594600737
 40
0.7196234983
 40
0.7847777462
 40
0.8542607766
 40
1.0
 40
1.0
 40
1.0
 40
1.0
 10
93.9021157136
 20
69.3296535534
 30
0.0
 10
93.9061761865
 20
69.8500567225
 30
0.0
 10
94.0037194113
 20
70.6260802243
 30
0.0
 10
94.3210830894
 20
71.5897235261
 30
0.0
 10
94.6401486915
 20
72.2347401377
 30
0.0
 10
95.0344380036
 20
72.7847407918
 30
0.0
 10
95.4914054996
 20
73.2125008696
 30
0.0
 10
95.9979404189
 20
73.4924502341
 30
0.0
 10
96.5329789
 20
73.5955797354
 30
0.0
 10
97.060625335
 20
73.5013808357
 30
0.0
 10
97.5389112462
 20
73.222434146
 30
0.0
 10
97.9483711957
 20
72.7915433416
 30
0.0
 10
98.2840937767
 20
72.2393360765
 30
0.0
 10
98.5447331435
 20
71.5923150927
 30
0.0
 10
98.7946553274
 20
70.6217418444
 30
0.0
 10
98.8614761107
 20
69.8496361944
 30
0.0
 10
98.8584400357
 20
69.3296535534
 30
0.0
  0
SPLINE
  5
2EF
100
AcDbEntity
  8
0
100
AcDbSpline
 62
7
  6
CONTINUOUS
 70
0
 71
3
 72
18
 73
14
 74
0
 42
0.0000001
 43
0.0000001
 44
0.0000000001
 40
0.0
 40
0.0
 40
0.0
 40
0.0
 40
0.0417222128
 40
0.0779892722
 40
0.1105468059
 40
0.141977628
 40
0.2123269942
 40
0.2559521291
 40
0.30671102
 40
0.4322340771
 40
0.5918550169
 40
0.7814097277
 40
1.0
 40
1.0
 40
1.0
 40
1.0
 10
27.1622687534
 20
37.1870495608
 30
0.0
 10
27.1727735127
 20
37.1444569771
 30
0.0
 10
27.1871635677
 20
37.0632852188
 30
0.0
 10
27.1849398926
 20
36.9461281674
 30
0.0
 10
27.155627856
 20
36.8433168217
 30
0.0
 10
27.0746973851
 20
36.7243779034
 30
0.0
 10
26.9312488823
 20
36.6504772952
 30
0.0
 10
26.7613662842
 20
36.6177281302
 30
0.0
 10
26.5295314455
 20
36.6062749312
 30
0.0
 10
26.1770594345
 20
36.6477125285
 30
0.0
 10
25.6911217532
 20
36.7639130671
 30
0.0
 10
25.1226010525
 20
36.9475313296
 30
0.0
 10
24.7217018288
 20
37.1010493808
 30
0.0
 10
24.5085609677
 20
37.1870495606
 30
0.0
  0
SPLINE
  5
2F0
100
AcDbEntity
  8
0
100
AcDbSpline
 62
7
  6
CONTINUOUS
 70
0
 71
3
 72
14
 73
10
 74
0
 42
0.0000001
 43
0.0000001
 44
0.0000000001
 40
0.0
 40
0.0
 40
0.0
 40
0.0
 40
0.0776002347
 40
0.1654299738
 40
0.2679068438
 40
0.3852009973
 40
0.5180985644
 40
0.6669644298
 40
1.0
 40
1.0
 40
1.0
 40
1.0
 10
35.4691404777
 20
37.1870495608
 30
0.0
 10
35.3749968945
 20
37.0916107159
 30
0.0
 10
35.1426127921
 20
36.9182126781
 30
0.0
 10
34.7118744557
 20
36.7398330784
 30
0.0
 10
34.1887204136
 20
36.6329945293
 30
0.0
 10
33.5786775522
 20
36.6004745755
 30
0.0
 10
32.8893738989
 20
36.6421948541
 30
0.0
 10
31.8382711182
 20
36.8015135235
 30
0.0
 10
31.0310668445
 20
37.0158255472
 30
0.0
 10
30.4818012294
 20
37.1870495606
 30
0.0
  0
SPLINE
  5
2F1
100
AcDbEntity
  8
0
100
AcDbSpline
 62
7
  6
CONTINUOUS
 70
0
 71
3
 72
11
 73
7
 74
0
 42
0.0000001
 43
0.0000001
 44
0.0000000001
 40
0.0
 40
0.0
 40
0.0
 40
0.0
 40
0.2023082879
 40
0.4414210042
 40
0.7114127129
 40
1.0
 40
1.0
 40
1.0
 40
1.0
 10
47.2743832835
 20
37.1870495608
 30
0.0
 10
46.8575896313
 20
36.9886248119
 30
0.0
 10
45.8819996415
 20
36.6922563631
 30
0.0
 10
44.2550455223
 20
36.5639469503
 30
0.0
 10
42.4353071655
 20
36.7270414166
 30
0.0
 10
41.1887815638
 20
37.008531218
 30
0.0
 10
40.5549592913
 20
37.1870495606
 30
0.0
  0
SPLINE
  5
2F2
100
AcDbEntity
  8
0
100
AcDbSpline
 62
7
  6
CONTINUOUS
 70
0
 71
3
 72
10
 73
6
 74
0
 42
0.0000001
 43
0.0000001
 44
0.0000000001
 40
0.0
 40
0.0
 40
0.0
 40
0.0
 40
0.4810524004
 40
0.7416871683
 40
1.0
 40
1.0
 40
1.0
 40
1.0
 10
61.1541106617
 20
37.1870495608
 30
0.0
 10
59.9787142952
 20
36.7901229708
 30
0.0
 10
58.040990172
 20
36.5171480943
 30
0.0
 10
55.4660179953
 20
36.7154640554
 30
0.0
 10
54.1531134467
 20
37.0023206172
 30
0.0
 10
53.5130636272
 20
37.1870495606
 30
0.0
  0
SPLINE
  5
2F3
100
AcDbEntity
  8
0
100
AcDbSpline
 62
7
  6
CONTINUOUS
 70
0
 71
3
 72
21
 73
17
 74
0
 42
0.0000001
 43
0.0000001
 44
0.0000000001
 40
0.0
 40
0.0
 40
0.0
 40
0.0
 40
0.0662229312
 40
0.1321372011
 40
0.2613410925
 40
0.3242970963
 40
0.3859564305
 40
0.4456478466
 40
0.5043483127
 40
0.562200701
 40
0.6203354489
 40
0.6798307628
 40
0.7409157212
 40
0.8037053189
 40
0.8683049289
 40
1.0
 40
1.0
 40
1.0
 40
1.0
 10
81.9604010718
 20
69.3296535534
 30
0.0
 10
81.9619188553
 20
69.5924842285
 30
0.0
 10
82.0047514011
 20
70.1179276196
 30
0.0
 10
82.2507428959
 20
71.1282171146
 30
0.0
 10
82.7307167509
 20
72.0601366442
 30
0.0
 10
83.4232209615
 20
72.7991382113
 30
0.0
 10
84.0254547644
 20
73.2245334775
 30
0.0
 10
84.6932071864
 20
73.4974207467
 30
0.0
 10
85.3940150231
 20
73.594424321
 30
0.0
 10
86.0898410377
 20
73.5043555593
 30
0.0
 10
86.7403604806
 20
73.2348524504
 30
0.0
 10
87.3151998223
 20
72.808464466
 30
0.0
 10
87.7956395766
 20
72.2552229561
 30
0.0
 10
88.1729505263
 20
71.6045620456
 30
0.0
 10
88.5350386567
 20
70.6386530311
 30
0.0
 10
88.6396742581
 20
69.8523412616
 30
0.0
 10
88.6380387667
 20
69.3296535534
 30
0.0
  0
SPLINE
  5
2F4
100
AcDbEntity
  8
0
100
AcDbSpline
 62
7
  6
CONTINUOUS
 70
0
 71
3
 72
22
 73
18
 74
0
 42
0.0000001
 43
0.0000001
 44
0.0000000001
 40
0.0
 40
0.0
 40
0.0
 40
0.0
 40
0.0626261396
 40
0.1252473436
 40
0.1878292533
 40
0.2505919215
 40
0.313188838
 40
0.3760470211
 40
0.4384984443
 40
0.5012046972
 40
0.5635301301
 40
0.6256789781
 40
0.6879509579
 40
0.7501481426
 40
0.8123723914
 40
0.8749749584
 40
1.0
 40
1.0
 40
1.0
 40
1.0
 10
67.9095253459
 20
69.3296535534
 30
0.0
 10
67.9103274261
 20
69.5925924933
 30
0.0
 10
67.9556076885
 20
70.1195201988
 30
0.0
 10
68.1588961329
 20
70.8853817456
 30
0.0
 10
68.4910288219
 20
71.6058212408
 30
0.0
 10
68.9484098081
 20
72.2544728858
 30
0.0
 10
69.5219122201
 20
72.8055206042
 30
0.0
 10
70.1944082459
 20
73.2291053627
 30
0.0
 10
70.9429959803
 20
73.4992460289
 30
0.0
 10
71.73153074
 20
73.5941106174
 30
0.0
 10
72.5194876189
 20
73.5047463793
 30
0.0
 10
73.2641329963
 20
73.2384643252
 30
0.0
 10
73.9308708302
 20
72.8153370367
 30
0.0
 10
74.4949808945
 20
72.263558837
 30
0.0
 10
74.9422994525
 20
71.6122667189
 30
0.0
 10
75.3723256797
 20
70.6510590272
 30
0.0
 10
75.5030766988
 20
69.8545798068
 30
0.0
 10
75.5030547564
 20
69.3296535534
 30
0.0
  0
SPLINE
  5
2F5
100
AcDbEntity
  8
0
100
AcDbSpline
 62
7
  6
CONTINUOUS
 70
0
 71
3
 72
21
 73
17
 74
0
 42
0.0000001
 43
0.0000001
 44
0.0000000001
 40
0.0
 40
0.0
 40
0.0
 40
0.0
 40
0.062630229
 40
0.1251167555
 40
0.1873520719
 40
0.2495376339
 40
0.3113931825
 40
0.3734886931
 40
0.435367594
 40
0.4978739058
 40
0.5604555507
 40
0.6232408085
 40
0.6863453472
 40
0.749359301
 40
0.8747301887
 40
1.0
 40
1.0
 40
1.0
 40
1.0
 10
53.4442315175
 20
69.3296535534
 30
0.0
 10
53.4442205316
 20
69.5924658493
 30
0.0
 10
53.4862979467
 20
70.1186282878
 30
0.0
 10
53.6806706254
 20
70.8840921047
 30
0.0
 10
54.0006946958
 20
71.6045268871
 30
0.0
 10
54.4443543954
 20
72.253657739
 30
0.0
 10
55.0044722025
 20
72.8054766673
 30
0.0
 10
55.6659727871
 20
73.2296941382
 30
0.0
 10
56.4074597152
 20
73.4998611091
 30
0.0
 10
57.1935414123
 20
73.5941222916
 30
0.0
 10
57.9838324536
 20
73.5041332118
 30
0.0
 10
58.7354632096
 20
73.2378876542
 30
0.0
 10
59.413229469
 20
72.815264329
 30
0.0
 10
60.1814150477
 20
72.0826961002
 30
0.0
 10
60.853596134
 20
70.9148937109
 30
0.0
 10
61.0361574279
 20
69.8553149486
 30
0.0
 10
61.0377609279
 20
69.3296535534
 30
0.0
  0
SPLINE
  5
2F6
100
AcDbEntity
  8
0
100
AcDbSpline
 62
7
  6
CONTINUOUS
 70
0
 71
3
 72
8
 73
4
 74
0
 42
0.0000001
 43
0.0000001
 44
0.0000000001
 40
0.0
 40
0.0
 40
0.0
 40
0.0
 40
1.0
 40
1.0
 40
1.0
 40
1.0
 10
105.8424311123
 20
37.6168337525
 30
0.0
 10
105.8419616616
 20
37.5627896941
 30
0.0
 10
105.832492763
 20
37.5081452318
 30
0.0
 10
105.8148575465
 20
37.4570572707
 30
0.0
  0
SPLINE
  5
2F7
100
AcDbEntity
  8
0
100
AcDbSpline
 62
7
  6
CONTINUOUS
 70
0
 71
3
 72
9
 73
5
 74
0
 42
0.0000001
 43
0.0000001
 44
0.0000000001
 40
0.0
 40
0.0
 40
0.0
 40
0.0
 40
0.1627583952
 40
1.0
 40
1.0
 40
1.0
 40
1.0
 10
104.6829053945
 20
37.61684239
 30
0.0
 10
104.6761515195
 20
37.6167798139
 30
0.0
 10
104.6346535477
 20
37.6165958299
 30
0.0
 10
104.5931552121
 20
37.6167129339
 30
0.0
 10
104.558411448
 20
37.6168233915
 30
0.0
  0
SPLINE
  5
2F8
100
AcDbEntity
  8
0
100
AcDbSpline
 62
7
  6
CONTINUOUS
 70
0
 71
3
 72
9
 73
5
 74
0
 42
0.0000001
 43
0.0000001
 44
0.0000000001
 40
0.0
 40
0.0
 40
0.0
 40
0.0
 40
0.496527818
 40
1.0
 40
1.0
 40
1.0
 40
1.0
 10
104.4387593682
 20
37.1870745257
 30
0.0
 10
104.5115590527
 20
37.2300644495
 30
0.0
 10
104.6367916042
 20
37.35823203
 30
0.0
 10
104.6818013992
 20
37.5311089508
 30
0.0
 10
104.6825251645
 20
37.6168337526
 30
0.0
  0
SPLINE
  5
2F9
100
AcDbEntity
  8
0
100
AcDbSpline
 62
7
  6
CONTINUOUS
 70
0
 71
3
 72
10
 73
6
 74
0
 42
0.0000001
 43
0.0000001
 44
0.0000000001
 40
0.0
 40
0.0
 40
0.0
 40
0.0
 40
0.4499453907
 40
0.7144832738
 40
1.0
 40
1.0
 40
1.0
 40
1.0
 10
104.4387593664
 20
37.187074525
 30
0.0
 10
104.4949647865
 20
37.2283372457
 30
0.0
 10
104.5550171459
 20
37.3336642684
 30
0.0
 10
104.5741501114
 20
37.4874996299
 30
0.0
 10
104.5667801121
 20
37.5733590714
 30
0.0
 10
104.5585598066
 20
37.6168337273
 30
0.0
  0
SPLINE
  5
2FA
100
AcDbEntity
  8
0
100
AcDbSpline
 62
7
  6
CONTINUOUS
 70
0
 71
3
 72
8
 73
4
 74
0
 42
0.0000001
 43
0.0000001
 44
0.0000000001
 40
0.0
 40
0.0
 40
0.0
 40
0.0
 40
1.0
 40
1.0
 40
1.0
 40
1.0
 10
102.0126517625
 20
37.6169717927
 30
0.0
 10
102.0122129089
 20
37.5604007283
 30
0.0
 10
102.0029102048
 20
37.5032170423
 30
0.0
 10
101.9851969289
 20
37.4494888582
 30
0.0
  0
SPLINE
  5
2FB
100
AcDbEntity
  8
0
100
AcDbSpline
 62
7
  6
CONTINUOUS
 70
0
 71
3
 72
9
 73
5
 74
0
 42
0.0000001
 43
0.0000001
 44
0.0000000001
 40
0.0
 40
0.0
 40
0.0
 40
0.0
 40
0.2531275649
 40
1.0
 40
1.0
 40
1.0
 40
1.0
 10
101.9851969289
 20
37.4494888582
 30
0.0
 10
101.9806863964
 20
37.4358074409
 30
0.0
 10
101.9606841653
 20
37.3825082771
 30
0.0
 10
101.931922583
 20
37.3324485105
 30
0.0
 10
101.9061254136
 20
37.2986667308
 30
0.0
  0
SPLINE
  5
2FC
100
AcDbEntity
  8
0
100
AcDbSpline
 62
7
  6
CONTINUOUS
 70
0
 71
3
 72
9
 73
5
 74
0
 42
0.0000001
 43
0.0000001
 44
0.0000000001
 40
0.0
 40
0.0
 40
0.0
 40
0.0
 40
0.2541777103
 40
1.0
 40
1.0
 40
1.0
 40
1.0
 10
101.9061254136
 20
37.2986667308
 30
0.0
 10
101.8976346549
 20
37.2875479552
 30
0.0
 10
101.8623707235
 20
37.2452667941
 30
0.0
 10
101.8197636957
 20
37.2090184747
 30
0.0
 10
101.7850709721
 20
37.1870745257
 30
0.0
  0
SPLINE
  5
2FD
100
AcDbEntity
  8
0
100
AcDbSpline
 62
7
  6
CONTINUOUS
 70
0
 71
3
 72
9
 73
5
 74
0
 42
0.0000001
 43
0.0000001
 44
0.0000000001
 40
0.0
 40
0.0
 40
0.0
 40
0.0
 40
0.4806932838
 40
1.0
 40
1.0
 40
1.0
 40
1.0
 10
98.4655024953
 20
37.1870745257
 30
0.0
 10
98.5300823456
 20
37.2319119206
 30
0.0
 10
98.6371382551
 20
37.366382983
 30
0.0
 10
98.6722247258
 20
37.531901573
 30
0.0
 10
98.6728346241
 20
37.6168337526
 30
0.0
  0
SPLINE
  5
2FE
100
AcDbEntity
  8
0
100
AcDbSpline
 62
7
  6
CONTINUOUS
 70
0
 71
3
 72
9
 73
5
 74
0
 42
0.0000001
 43
0.0000001
 44
0.0000000001
 40
0.0
 40
0.0
 40
0.0
 40
0.0
 40
0.4963727666
 40
1.0
 40
1.0
 40
1.0
 40
1.0
 10
93.7845217941
 20
37.6168337261
 30
0.0
 10
93.7767699112
 20
37.5267990722
 30
0.0
 10
93.7089468077
 20
37.3472752227
 30
0.0
 10
93.5614307673
 20
37.2255370192
 30
0.0
 10
93.4781996873
 20
37.1870745262
 30
0.0
  0
SPLINE
  5
2FF
100
AcDbEntity
  8
0
100
AcDbSpline
 62
7
  6
CONTINUOUS
 70
0
 71
3
 72
10
 73
6
 74
0
 42
0.0000001
 43
0.0000001
 44
0.0000000001
 40
0.0
 40
0.0
 40
0.0
 40
0.0
 40
0.1836049722
 40
0.4172804377
 40
1.0
 40
1.0
 40
1.0
 40
1.0
 10
98.465502493
 20
37.187074525
 30
0.0
 10
98.4808300312
 20
37.2091491471
 30
0.0
 10
98.502878203
 20
37.2677611942
 30
0.0
 10
98.5191872822
 20
37.4136881162
 30
0.0
 10
98.5013479515
 20
37.5341899283
 30
0.0
 10
98.4807288746
 20
37.6169525825
 30
0.0
  0
SPLINE
  5
300
100
AcDbEntity
  8
0
100
AcDbSpline
 62
7
  6
CONTINUOUS
 70
0
 71
3
 72
9
 73
5
 74
0
 42
0.0000001
 43
0.0000001
 44
0.0000000001
 40
0.0
 40
0.0
 40
0.0
 40
0.0
 40
0.2737380091
 40
1.0
 40
1.0
 40
1.0
 40
1.0
 10
93.6551119431
 20
37.6168337525
 30
0.0
 10
93.6548479037
 20
37.573742182
 30
0.0
 10
93.6402423458
 20
37.417818636
 30
0.0
 10
93.5668813864
 20
37.259232782
 30
0.0
 10
93.4781996878
 20
37.1870745257
 30
0.0
  0
SPLINE
  5
301
100
AcDbEntity
  8
0
100
AcDbSpline
 62
7
  6
CONTINUOUS
 70
0
 71
3
 72
9
 73
5
 74
0
 42
0.0000001
 43
0.0000001
 44
0.0000000001
 40
0.0
 40
0.0
 40
0.0
 40
0.0
 40
0.1666465195
 40
1.0
 40
1.0
 40
1.0
 40
1.0
 10
93.7843231352
 20
37.6168233915
 30
0.0
 10
93.777161193
 20
37.616765554
 30
0.0
 10
93.7341830376
 20
37.6165997117
 30
0.0
 10
93.6912045912
 20
37.6167235156
 30
0.0
 10
93.6553887145
 20
37.61684239
 30
0.0
  0
SPLINE
  5
302
100
AcDbEntity
  8
0
100
AcDbSpline
 62
7
  6
CONTINUOUS
 70
0
 71
3
 72
9
 73
5
 74
0
 42
0.0000001
 43
0.0000001
 44
0.0000000001
 40
0.0
 40
0.0
 40
0.0
 40
0.0
 40
0.455017346
 40
1.0
 40
1.0
 40
1.0
 40
1.0
 10
88.3923257174
 20
37.1870745257
 30
0.0
 10
88.4421743477
 20
37.2362597024
 30
0.0
 10
88.5158043923
 20
37.378764927
 30
0.0
 10
88.5377930504
 20
37.5329597431
 30
0.0
 10
88.538216864
 20
37.6168337526
 30
0.0
  0
SPLINE
  5
303
100
AcDbEntity
  8
0
100
AcDbSpline
 62
7
  6
CONTINUOUS
 70
0
 71
3
 72
9
 73
5
 74
0
 42
0.0000001
 43
0.0000001
 44
0.0000000001
 40
0.0
 40
0.0
 40
0.0
 40
0.0
 40
0.5109857954
 40
1.0
 40
1.0
 40
1.0
 40
1.0
 10
81.9739745793
 20
37.6168337259
 30
0.0
 10
81.9583883135
 20
37.5265218206
 30
0.0
 10
81.8875506319
 20
37.3551566055
 30
0.0
 10
81.7507630304
 20
37.227542518
 30
0.0
 10
81.6729508208
 20
37.1870745262
 30
0.0
  0
SPLINE
  5
304
100
AcDbEntity
  8
0
100
AcDbSpline
 62
7
  6
CONTINUOUS
 70
0
 71
3
 72
10
 73
6
 74
0
 42
0.0000001
 43
0.0000001
 44
0.0000000001
 40
0.0
 40
0.0
 40
0.0
 40
0.0
 40
0.1696305506
 40
0.4048780391
 40
1.0
 40
1.0
 40
1.0
 40
1.0
 10
88.3923257149
 20
37.187074525
 30
0.0
 10
88.3909060406
 20
37.2119016572
 30
0.0
 10
88.3826657617
 20
37.2708098795
 30
0.0
 10
88.3548205395
 20
37.4147175918
 30
0.0
 10
88.3246368088
 20
37.5327970698
 30
0.0
 10
88.3011971491
 20
37.6168337273
 30
0.0
  0
SPLINE
  5
305
100
AcDbEntity
  8
0
100
AcDbSpline
 62
7
  6
CONTINUOUS
 70
0
 71
3
 72
10
 73
6
 74
0
 42
0.0000001
 43
0.0000001
 44
0.0000000001
 40
0.0
 40
0.0
 40
0.0
 40
0.0
 40
0.5586717005
 40
0.7997633277
 40
1.0
 40
1.0
 40
1.0
 40
1.0
 10
81.7778573839
 20
37.6168337525
 30
0.0
 10
81.7775544686
 20
37.5334656276
 30
0.0
 10
81.7655193467
 20
37.413164669
 30
0.0
 10
81.7211297857
 20
37.2703557809
 30
0.0
 10
81.6905494654
 20
37.2112228216
 30
0.0
 10
81.6729508218
 20
37.1870745257
 30
0.0
  0
SPLINE
  5
306
100
AcDbEntity
  8
0
100
AcDbSpline
 62
7
  6
CONTINUOUS
 70
0
 71
3
 72
9
 73
5
 74
0
 42
0.0000001
 43
0.0000001
 44
0.0000000001
 40
0.0
 40
0.0
 40
0.0
 40
0.0
 40
0.482691108
 40
1.0
 40
1.0
 40
1.0
 40
1.0
 10
84.7473715169
 20
37.0424696712
 30
0.0
 10
85.3280818191
 20
37.0424873416
 30
0.0
 10
86.5319341506
 20
37.1574071391
 30
0.0
 10
87.7048705983
 20
37.4387208377
 30
0.0
 10
88.3012123435
 20
37.6167821303
 30
0.0
  0
SPLINE
  5
307
100
AcDbEntity
  8
0
100
AcDbSpline
 62
7
  6
CONTINUOUS
 70
0
 71
3
 72
9
 73
5
 74
0
 42
0.0000001
 43
0.0000001
 44
0.0000000001
 40
0.0
 40
0.0
 40
0.0
 40
0.0
 40
0.4596136016
 40
1.0
 40
1.0
 40
1.0
 40
1.0
 10
81.9739652407
 20
37.6167823579
 30
0.0
 10
82.3636385012
 20
37.4193198927
 30
0.0
 10
83.2798188565
 20
37.1221478156
 30
0.0
 10
84.2337508903
 20
37.0424542642
 30
0.0
 10
84.7473715179
 20
37.0424698932
 30
0.0
  0
SPLINE
  5
308
100
AcDbEntity
  8
0
100
AcDbSpline
 62
7
  6
CONTINUOUS
 70
0
 71
3
 72
14
 73
10
 74
0
 42
0.0000001
 43
0.0000001
 44
0.0000000001
 40
0.0
 40
0.0
 40
0.0
 40
0.0
 40
0.1154555914
 40
0.2330670328
 40
0.3549113245
 40
0.4796543685
 40
0.7365816258
 40
0.8679424792
 40
1.0
 40
1.0
 40
1.0
 40
1.0
 10
85.3794147
 20
73.3405445268
 30
0.0
 10
85.161380935
 20
73.3402928683
 30
0.0
 10
84.7192845825
 20
73.2801140501
 30
0.0
 10
84.0938597912
 20
73.0224038206
 30
0.0
 10
83.5293736239
 20
72.6197502716
 30
0.0
 10
82.8795757551
 20
71.9186087501
 30
0.0
 10
82.4301612376
 20
71.0350541695
 30
0.0
 10
82.199623492
 20
70.0774254612
 30
0.0
 10
82.1594452799
 20
69.5790356819
 30
0.0
 10
82.1580109263
 20
69.3296537243
 30
0.0
  0
SPLINE
  5
309
100
AcDbEntity
  8
0
100
AcDbSpline
 62
7
  6
CONTINUOUS
 70
0
 71
3
 72
13
 73
9
 74
0
 42
0.0000001
 43
0.0000001
 44
0.0000000001
 40
0.0
 40
0.0
 40
0.0
 40
0.0
 40
0.267336
 40
0.5244490226
 40
0.6477589543
 40
0.7674951468
 40
0.8841361059
 40
1.0
 40
1.0
 40
1.0
 40
1.0
 10
88.3979023352
 20
69.3296535375
 30
0.0
 10
88.3994581958
 20
69.823906116
 30
0.0
 10
88.2727410607
 20
70.7988203716
 30
0.0
 10
87.7709883916
 20
71.9126855529
 30
0.0
 10
87.1670576286
 20
72.620742098
 30
0.0
 10
86.6316782971
 20
73.025506816
 30
0.0
 10
86.0257650195
 20
73.2823211925
 30
0.0
 10
85.5936419106
 20
73.3408561176
 30
0.0
 10
85.3794310524
 20
73.3406088674
 30
0.0
  0
SPLINE
  5
30A
100
AcDbEntity
  8
0
100
AcDbSpline
 62
7
  6
CONTINUOUS
 70
0
 71
3
 72
9
 73
5
 74
0
 42
0.0000001
 43
0.0000001
 44
0.0000000001
 40
0.0
 40
0.0
 40
0.0
 40
0.0
 40
0.1656318465
 40
1.0
 40
1.0
 40
1.0
 40
1.0
 10
94.03214273
 20
69.3296449372
 30
0.0
 10
94.0249542078
 20
69.3295854758
 30
0.0
 10
93.9815522115
 20
69.3294155226
 30
0.0
 10
93.938149924
 20
69.3295422593
 30
0.0
 10
93.9019368055
 20
69.3296632361
 30
0.0
  0
SPLINE
  5
30B
100
AcDbEntity
  8
0
100
AcDbSpline
 62
7
  6
CONTINUOUS
 70
0
 71
3
 72
10
 73
6
 74
0
 42
0.0000001
 43
0.0000001
 44
0.0000000001
 40
0.0
 40
0.0
 40
0.0
 40
0.0
 40
0.2156313009
 40
0.4574133562
 40
1.0
 40
1.0
 40
1.0
 40
1.0
 10
95.5347970696
 20
37.0424696712
 30
0.0
 10
95.7512816257
 20
37.0424785462
 30
0.0
 10
96.210665255
 20
37.0720764962
 30
0.0
 10
97.2027857386
 20
37.2317861036
 30
0.0
 10
97.9634979304
 20
37.4460125521
 30
0.0
 10
98.4807720518
 20
37.6167821303
 30
0.0
  0
SPLINE
  5
30C
100
AcDbEntity
  8
0
100
AcDbSpline
 62
7
  6
CONTINUOUS
 70
0
 71
3
 72
11
 73
7
 74
0
 42
0.0000001
 43
0.0000001
 44
0.0000000001
 40
0.0
 40
0.0
 40
0.0
 40
0.0
 40
0.2042377116
 40
0.4326951522
 40
0.6975672083
 40
1.0
 40
1.0
 40
1.0
 40
1.0
 10
93.7845171474
 20
37.6167823579
 30
0.0
 10
93.8717418529
 20
37.5221186986
 30
0.0
 10
94.0878582331
 20
37.3490882774
 30
0.0
 10
94.4932392345
 20
37.1697713369
 30
0.0
 10
94.9859212116
 20
37.0626945674
 30
0.0
 10
95.3441870286
 20
37.0424620789
 30
0.0
 10
95.5347970711
 20
37.0424698932
 30
0.0
  0
SPLINE
  5
30D
100
AcDbEntity
  8
0
100
AcDbSpline
 62
7
  6
CONTINUOUS
 70
0
 71
3
 72
14
 73
10
 74
0
 42
0.0000001
 43
0.0000001
 44
0.0000000001
 40
0.0
 40
0.0
 40
0.0
 40
0.0
 40
0.096019855
 40
0.1994269285
 40
0.3139599055
 40
0.4382470547
 40
0.5715455579
 40
0.710948419
 40
1.0
 40
1.0
 40
1.0
 40
1.0
 10
96.5031433821
 20
73.3405445268
 30
0.0
 10
96.3391338055
 20
73.3402894937
 30
0.0
 10
95.9965165507
 20
73.2754253592
 30
0.0
 10
95.5222814243
 20
73.0108702174
 30
0.0
 10
95.0939469928
 20
72.6060952331
 30
0.0
 10
94.7243567689
 20
72.0850036917
 30
0.0
 10
94.4251185583
 20
71.4735376081
 30
0.0
 10
94.1272622058
 20
70.559219912
 30
0.0
 10
94.035803169
 20
69.8233625377
 30
0.0
 10
94.0319602755
 20
69.3296537243
 30
0.0
  0
SPLINE
  5
30E
100
AcDbEntity
  8
0
100
AcDbSpline
 62
7
  6
CONTINUOUS
 70
0
 71
3
 72
14
 73
10
 74
0
 42
0.0000001
 43
0.0000001
 44
0.0000000001
 40
0.0
 40
0.0
 40
0.0
 40
0.0
 40
0.2966345784
 40
0.4379685637
 40
0.5703675865
 40
0.6924271618
 40
0.8032791922
 40
0.9040168335
 40
1.0
 40
1.0
 40
1.0
 40
1.0
 10
98.663390601
 20
69.3296535375
 30
0.0
 10
98.6662680241
 20
69.821422707
 30
0.0
 10
98.6042129524
 20
70.5513733624
 30
0.0
 10
98.3717247008
 20
71.4696940918
 30
0.0
 10
98.1293222083
 20
72.0819283822
 30
0.0
 10
97.8171839406
 20
72.6047827039
 30
0.0
 10
97.436243192
 20
73.0135416902
 30
0.0
 10
96.9913475833
 20
73.2792652029
 30
0.0
 10
96.662294613
 20
73.340856311
 30
0.0
 10
96.5031684814
 20
73.3406088674
 30
0.0
  0
SPLINE
  5
30F
100
AcDbEntity
  8
0
100
AcDbSpline
 62
7
  6
CONTINUOUS
 70
0
 71
3
 72
9
 73
5
 74
0
 42
0.0000001
 43
0.0000001
 44
0.0000000001
 40
0.0
 40
0.0
 40
0.0
 40
0.0
 40
0.1617444088
 40
1.0
 40
1.0
 40
1.0
 40
1.0
 10
104.9311506148
 20
69.3296636044
 30
0.0
 10
104.9243553651
 20
69.3295993402
 30
0.0
 10
104.8823413439
 20
69.3294114666
 30
0.0
 10
104.840326965
 20
69.3295321747
 30
0.0
 10
104.8051085522
 20
69.3296452952
 30
0.0
  0
SPLINE
  5
310
100
AcDbEntity
  8
0
100
AcDbSpline
 62
7
  6
CONTINUOUS
 70
0
 71
3
 72
11
 73
7
 74
0
 42
0.0000001
 43
0.0000001
 44
0.0000000001
 40
0.0
 40
0.0
 40
0.0
 40
0.0
 40
0.1801491394
 40
0.4099086466
 40
0.6835110816
 40
1.0
 40
1.0
 40
1.0
 40
1.0
 10
102.5757890442
 20
37.0424696712
 30
0.0
 10
102.7003673206
 20
37.0424792691
 30
0.0
 10
102.9834591803
 20
37.0775742594
 30
0.0
 10
103.4419816668
 20
37.1940632264
 30
0.0
 10
103.9789350549
 20
37.3776124509
 30
0.0
 10
104.357266824
 20
37.5308916398
 30
0.0
 10
104.5585701213
 20
37.6167821303
 30
0.0
  0
SPLINE
  5
311
100
AcDbEntity
  8
0
100
AcDbSpline
 62
7
  6
CONTINUOUS
 70
0
 71
3
 72
22
 73
18
 74
0
 42
0.0000001
 43
0.0000001
 44
0.0000000001
 40
0.0
 40
0.0
 40
0.0
 40
0.0
 40
0.066114655
 40
0.1315462681
 40
0.1957178789
 40
0.2584303742
 40
0.3191518077
 40
0.3784557333
 40
0.4363064452
 40
0.4942709972
 40
0.5527738459
 40
0.6126882139
 40
0.674493924
 40
0.737783097
 40
0.8022590919
 40
0.867886095
 40
1.0
 40
1.0
 40
1.0
 40
1.0
 10
40.3092475071
 20
69.3296535534
 30
0.0
 10
40.3084261133
 20
69.5921633044
 30
0.0
 10
40.3420142406
 20
70.1154098389
 30
0.0
 10
40.5031152477
 20
70.8783240929
 30
0.0
 10
40.7707848349
 20
71.5968009306
 30
0.0
 10
41.1449492043
 20
72.2454069771
 30
0.0
 10
41.6219394272
 20
72.7986118491
 30
0.0
 10
42.1920833209
 20
73.2260249771
 30
0.0
 10
42.8395792482
 20
73.4994069394
 30
0.0
 10
43.5335830615
 20
73.5944552854
 30
0.0
 10
44.2358683622
 20
73.5024033369
 30
0.0
 10
44.9063569681
 20
73.233272293
 30
0.0
 10
45.5131415466
 20
72.8090813644
 30
0.0
 10
46.0326880715
 20
72.257996958
 30
0.0
 10
46.4498591845
 20
71.6082734293
 30
0.0
 10
46.8571514047
 20
70.6463382509
 30
0.0
 10
46.9838560233
 20
69.8542086591
 30
0.0
 10
46.986885202
 20
69.3296535534
 30
0.0
  0
SPLINE
  5
312
100
AcDbEntity
  8
0
100
AcDbSpline
 62
7
  6
CONTINUOUS
 70
0
 71
3
 72
14
 73
10
 74
0
 42
0.0000001
 43
0.0000001
 44
0.0000000001
 40
0.0
 40
0.0
 40
0.0
 40
0.0
 40
0.0751295104
 40
0.1603981694
 40
0.2601154252
 40
0.3776464013
 40
0.5117500621
 40
0.6602301385
 40
1.0
 40
1.0
 40
1.0
 40
1.0
 10
103.7636416296
 20
73.3405445268
 30
0.0
 10
103.7137639132
 20
73.3403987829
 30
0.0
 10
103.6069364658
 20
73.3178772339
 30
0.0
 10
103.4557512264
 20
73.2305553377
 30
0.0
 10
103.3082703338
 20
73.0923867533
 30
0.0
 10
103.1653778624
 20
72.9071633684
 30
0.0
 10
103.0282465154
 20
72.6791142223
 30
0.0
 10
102.8486491135
 20
72.3065686926
 30
0.0
 10
102.7415843072
 20
71.9993207958
 30
0.0
 10
102.6779873763
 20
71.782900888
 30
0.0
  0
SPLINE
  5
313
100
AcDbEntity
  8
0
100
AcDbSpline
 62
7
  6
CONTINUOUS
 70
0
 71
3
 72
18
 73
14
 74
0
 42
0.0000001
 43
0.0000001
 44
0.0000000001
 40
0.0
 40
0.0
 40
0.0
 40
0.0
 40
0.1720350785
 40
0.3379046877
 40
0.4952945801
 40
0.6379134212
 40
0.7616977288
 40
0.8152167893
 40
0.8626575
 40
0.9037554862
 40
0.9394295062
 40
0.9708301053
 40
1.0
 40
1.0
 40
1.0
 40
1.0
 10
104.8050907357
 20
69.3296535375
 30
0.0
 10
104.807049358
 20
69.579201228
 30
0.0
 10
104.8006080402
 20
70.0695079265
 30
0.0
 10
104.7594078884
 20
70.7870359336
 30
0.0
 10
104.6860021016
 20
71.459279191
 30
0.0
 10
104.5786452378
 20
72.0650215088
 30
0.0
 10
104.4558851094
 20
72.5139853838
 30
0.0
 10
104.3332971359
 20
72.816494662
 30
0.0
 10
104.237314612
 20
72.9993557956
 30
0.0
 10
104.1323779519
 20
73.146722157
 30
0.0
 10
104.0182827241
 20
73.2562919286
 30
0.0
 10
103.8945379113
 20
73.3250488324
 30
0.0
 10
103.8059863361
 20
73.3407325117
 30
0.0
 10
103.7636724484
 20
73.3406088674
 30
0.0
  0
SPLINE
  5
314
100
AcDbEntity
  8
0
100
AcDbSpline
 62
7
  6
CONTINUOUS
 70
0
 71
3
 72
21
 73
17
 74
0
 42
0.0000001
 43
0.0000001
 44
0.0000000001
 40
0.0
 40
0.0
 40
0.0
 40
0.0
 40
0.1452642861
 40
0.2143344077
 40
0.2794741874
 40
0.3393668887
 40
0.3940920668
 40
0.4439363828
 40
0.4918596013
 40
0.5407910833
 40
0.5936927215
 40
0.6520100768
 40
0.715334208
 40
0.7828012027
 40
0.8536605642
 40
1.0
 40
1.0
 40
1.0
 40
1.0
 10
30.0888462381
 20
69.3296535534
 30
0.0
 10
30.0858200599
 20
69.8479411877
 30
0.0
 10
30.1521484484
 20
70.6168333056
 30
0.0
 10
30.400165393
 20
71.5845237127
 30
0.0
 10
30.658591987
 20
72.2297254908
 30
0.0
 10
30.9919020514
 20
72.7818182664
 30
0.0
 10
31.3978073573
 20
73.213528445
 30
0.0
 10
31.8733227493
 20
73.4961849269
 30
0.0
 10
32.3992647617
 20
73.595656415
 30
0.0
 10
32.9355232772
 20
73.4976509554
 30
0.0
 10
33.44427981
 20
73.2212880624
 30
0.0
 10
33.9046852126
 20
72.7944316153
 30
0.0
 10
34.3015365077
 20
72.2443701996
 30
0.0
 10
34.6231571168
 20
71.5975609531
 30
0.0
 10
34.9428454745
 20
70.6310928313
 30
0.0
 10
35.0410967177
 20
69.8517702152
 30
0.0
 10
35.0451705602
 20
69.3296535534
 30
0.0
  0
SPLINE
  5
315
100
AcDbEntity
  8
0
100
AcDbSpline
 62
7
  6
CONTINUOUS
 70
0
 71
3
 72
25
 73
21
 74
0
 42
0.0000001
 43
0.0000001
 44
0.0000000001
 40
0.0
 40
0.0
 40
0.0
 40
0.0
 40
0.1813948691
 40
0.2685484239
 40
0.3504097442
 40
0.4264480084
 40
0.4944676041
 40
0.5530078427
 40
0.6019017431
 40
0.6406888915
 40
0.657570035
 40
0.6735747404
 40
0.689535316
 40
0.7065149471
 40
0.7253114128
 40
0.746294091
 40
0.7955675643
 40
0.8551442414
 40
0.9237074171
 40
1.0
 40
1.0
 40
1.0
 40
1.0
 10
24.0157589408
 20
69.3296535534
 30
0.0
 10
24.0125426825
 20
69.7396629268
 30
0.0
 10
24.027309159
 20
70.3471930218
 30
0.0
 10
24.0925666298
 20
71.1367387671
 30
0.0
 10
24.1629756854
 20
71.6863933289
 30
0.0
 10
24.2562424859
 20
72.188822099
 30
0.0
 10
24.3727911187
 20
72.6322341095
 30
0.0
 10
24.5133553199
 20
73.0042832951
 30
0.0
 10
24.6760620288
 20
73.2936261335
 30
0.0
 10
24.8436604315
 20
73.467784306
 30
0.0
 10
24.9892702665
 20
73.5421311877
 30
0.0
 10
25.0981937971
 20
73.5668748163
 30
0.0
 10
25.2100382536
 20
73.5611374625
 30
0.0
 10
25.3224864238
 20
73.5253812438
 30
0.0
 10
25.4347729759
 20
73.4618189939
 30
0.0
 10
25.5914616106
 20
73.3342871334
 30
0.0
 10
25.7786489537
 20
73.1049922416
 30
0.0
 10
25.9797447357
 20
72.7569725417
 30
0.0
 10
26.1626432616
 20
72.3316584354
 30
0.0
 10
26.2644312047
 20
72.0200313051
 30
0.0
 10
26.3119615196
 20
71.8542602423
 30
0.0
  0
SPLINE
  5
316
100
AcDbEntity
  8
0
100
AcDbSpline
 62
7
  6
CONTINUOUS
 70
0
 71
3
 72
9
 73
5
 74
0
 42
0.0000001
 43
0.0000001
 44
0.0000000001
 40
0.0
 40
0.0
 40
0.0
 40
0.0
 40
0.4864728994
 40
1.0
 40
1.0
 40
1.0
 40
1.0
 10
26.3932769019
 20
71.5450468455
 30
0.0
 10
26.4779745283
 20
71.1928158427
 30
0.0
 10
26.6043128545
 20
70.4568916622
 30
0.0
 10
26.6495647559
 20
69.7120565412
 30
0.0
 10
26.6529640291
 20
69.3296535534
 30
0.0
  0
SPLINE
  5
317
100
AcDbEntity
  8
0
100
AcDbSpline
 62
7
  6
CONTINUOUS
 70
0
 71
3
 72
9
 73
5
 74
0
 42
0.0000001
 43
0.0000001
 44
0.0000000001
 40
0.0
 40
0.0
 40
0.0
 40
0.0
 40
0.2661388121
 40
1.0
 40
1.0
 40
1.0
 40
1.0
 10
102.0366064074
 20
37.4456477965
 30
0.0
 10
102.0364805094
 20
37.4323740085
 30
0.0
 10
102.0377254549
 20
37.3825314815
 30
0.0
 10
102.0466004878
 20
37.332622121
 30
0.0
 10
102.0585882845
 20
37.2980375359
 30
0.0
  0
SPLINE
  5
318
100
AcDbEntity
  8
0
100
AcDbSpline
 62
7
  6
CONTINUOUS
 70
0
 71
3
 72
11
 73
7
 74
0
 42
0.0000001
 43
0.0000001
 44
0.0000000001
 40
0.0
 40
0.0
 40
0.0
 40
0.0
 40
0.2075282794
 40
0.4272404922
 40
0.685573948
 40
1.0
 40
1.0
 40
1.0
 40
1.0
 10
102.0585882845
 20
37.2980375359
 30
0.0
 10
102.0725244903
 20
37.2578318247
 30
0.0
 10
102.1180531482
 20
37.1794986023
 30
0.0
 10
102.2356765901
 20
37.0964381971
 30
0.0
 10
102.3934285555
 20
37.0500676983
 30
0.0
 10
102.5113177307
 20
37.0424649261
 30
0.0
 10
102.575789046
 20
37.0424698932
 30
0.0
  0
SPLINE
  5
319
100
AcDbEntity
  8
0
100
AcDbSpline
 62
7
  6
CONTINUOUS
 70
0
 71
3
 72
15
 73
11
 74
0
 42
0.0000001
 43
0.0000001
 44
0.0000000001
 40
0.0
 40
0.0
 40
0.0
 40
0.0
 40
0.1241816733
 40
0.2480396457
 40
0.3730279516
 40
0.4978200794
 40
0.6232850857
 40
0.7486422154
 40
0.8742700743
 40
1.0
 40
1.0
 40
1.0
 40
1.0
 10
71.734141431
 20
73.3405445268
 30
0.0
 10
71.4877312518
 20
73.3402944111
 30
0.0
 10
70.9936786421
 20
73.2818420988
 30
0.0
 10
70.292496
 20
73.0267927532
 30
0.0
 10
69.6621974269
 20
72.6258152044
 30
0.0
 10
69.1247425793
 20
72.1035787066
 30
0.0
 10
68.6960923473
 20
71.4885752463
 30
0.0
 10
68.3848011617
 20
70.8053197195
 30
0.0
 10
68.1942625305
 20
70.0788879188
 30
0.0
 10
68.1518207113
 20
69.5791350434
 30
0.0
 10
68.1510658281
 20
69.3296537243
 30
0.0
  0
SPLINE
  5
31A
100
AcDbEntity
  8
0
100
AcDbSpline
 62
7
  6
CONTINUOUS
 70
0
 71
3
 72
14
 73
10
 74
0
 42
0.0000001
 43
0.0000001
 44
0.0000000001
 40
0.0
 40
0.0
 40
0.0
 40
0.0
 40
0.2521407753
 40
0.378154629
 40
0.5031380095
 40
0.6277442541
 40
0.7521428838
 40
0.8759779648
 40
1.0
 40
1.0
 40
1.0
 40
1.0
 10
75.2467953257
 20
69.3296535375
 30
0.0
 10
75.2468275671
 20
69.825966154
 30
0.0
 10
75.1253856263
 20
70.5783825649
 30
0.0
 10
74.7248443858
 20
71.488184274
 30
0.0
 10
74.3084227657
 20
72.1045623961
 30
0.0
 10
73.7831915129
 20
72.6273256497
 30
0.0
 10
73.1619736634
 20
73.0290260582
 30
0.0
 10
72.4680878268
 20
73.2827492063
 30
0.0
 10
71.9782712806
 20
73.340856667
 30
0.0
 10
71.7341470642
 20
73.3406088674
 30
0.0
  0
SPLINE
  5
31B
100
AcDbEntity
  8
0
100
AcDbSpline
 62
7
  6
CONTINUOUS
 70
0
 71
3
 72
9
 73
5
 74
0
 42
0.0000001
 43
0.0000001
 44
0.0000000001
 40
0.0
 40
0.0
 40
0.0
 40
0.0
 40
0.2493113815
 40
1.0
 40
1.0
 40
1.0
 40
1.0
 10
71.5146351132
 20
37.0424696712
 30
0.0
 10
71.8291801657
 20
37.0424780882
 30
0.0
 10
73.0905610347
 20
37.0935212437
 30
0.0
 10
74.3421056006
 20
37.3394307022
 30
0.0
 10
75.2476961314
 20
37.6167821303
 30
0.0
  0
SPLINE
  5
31C
100
AcDbEntity
  8
0
100
AcDbSpline
 62
7
  6
CONTINUOUS
 70
0
 71
3
 72
9
 73
5
 74
0
 42
0.0000001
 43
0.0000001
 44
0.0000000001
 40
0.0
 40
0.0
 40
0.0
 40
0.0
 40
0.4805605106
 40
1.0
 40
1.0
 40
1.0
 40
1.0
 10
68.052616211
 20
37.6167823579
 30
0.0
 10
68.5836973144
 20
37.4262510859
 30
0.0
 10
69.7282798488
 20
37.1347603007
 30
0.0
 10
70.9047629171
 20
37.0424535735
 30
0.0
 10
71.5146351136
 20
37.0424698932
 30
0.0
  0
SPLINE
  5
31D
100
AcDbEntity
  8
0
100
AcDbSpline
 62
7
  6
CONTINUOUS
 70
0
 71
3
 72
9
 73
5
 74
0
 42
0.0000001
 43
0.0000001
 44
0.0000000001
 40
0.0
 40
0.0
 40
0.0
 40
0.0
 40
0.2129279804
 40
1.0
 40
1.0
 40
1.0
 40
1.0
 10
75.4342028157
 20
37.1870745253
 30
0.0
 10
75.4286270347
 20
37.1940284419
 30
0.0
 10
75.4038285339
 20
37.2277966492
 30
0.0
 10
75.3833011474
 20
37.264498749
 30
0.0
 10
75.3683688486
 20
37.2938678588
 30
0.0
  0
SPLINE
  5
31E
100
AcDbEntity
  8
0
100
AcDbSpline
 62
7
  6
CONTINUOUS
 70
0
 71
3
 72
10
 73
6
 74
0
 42
0.0000001
 43
0.0000001
 44
0.0000000001
 40
0.0
 40
0.0
 40
0.0
 40
0.0
 40
0.5368015985
 40
0.7833836052
 40
1.0
 40
1.0
 40
1.0
 40
1.0
 10
68.0526291152
 20
37.6168337261
 30
0.0
 10
68.0314533427
 20
37.5279533879
 30
0.0
 10
67.9812548919
 20
37.4013069685
 30
0.0
 10
67.8817727052
 20
37.2625502085
 30
0.0
 10
67.8235616664
 20
37.208009293
 30
0.0
 10
67.7932116129
 20
37.1870745262
 30
0.0
  0
SPLINE
  5
31F
100
AcDbEntity
  8
0
100
AcDbSpline
 62
7
  6
CONTINUOUS
 70
0
 71
3
 72
15
 73
11
 74
0
 42
0.0000001
 43
0.0000001
 44
0.0000000001
 40
0.0
 40
0.0
 40
0.0
 40
0.0
 40
0.1246152881
 40
0.2481511505
 40
0.3724416438
 40
0.4965798058
 40
0.6217266963
 40
0.7472273848
 40
0.8734239699
 40
1.0
 40
1.0
 40
1.0
 40
1.0
 10
57.2131449142
 20
73.3405445268
 30
0.0
 10
56.9676450483
 20
73.3402953273
 30
0.0
 10
56.4768099013
 20
73.2824244905
 30
0.0
 10
55.7822897481
 20
73.0273510608
 30
0.0
 10
55.1623767332
 20
72.6257599392
 30
0.0
 10
54.6375876444
 20
72.1027936205
 30
0.0
 10
54.2219205875
 20
71.487347911
 30
0.0
 10
53.9220787062
 20
70.8041071741
 30
0.0
 10
53.7399667575
 20
70.0780530609
 30
0.0
 10
53.7005530794
 20
69.579016502
 30
0.0
 10
53.7005692804
 20
69.3296537243
 30
0.0
  0
SPLINE
  5
320
100
AcDbEntity
  8
0
100
AcDbSpline
 62
7
  6
CONTINUOUS
 70
0
 71
3
 72
13
 73
9
 74
0
 42
0.0000001
 43
0.0000001
 44
0.0000000001
 40
0.0
 40
0.0
 40
0.0
 40
0.0
 40
0.2509503598
 40
0.5013609771
 40
0.6267590646
 40
0.7519901392
 40
0.8762789832
 40
1.0
 40
1.0
 40
1.0
 40
1.0
 10
60.7962871674
 20
69.3296535375
 30
0.0
 10
60.7947833519
 20
69.8266482987
 30
0.0
 10
60.6252586059
 20
70.8267443472
 30
0.0
 10
59.9997378888
 20
71.9323363723
 30
0.0
 10
59.2833644155
 20
72.6272895592
 30
0.0
 10
58.6517046177
 20
73.0284896587
 30
0.0
 10
57.9511906036
 20
73.2821629622
 30
0.0
 10
57.4581634916
 20
73.3408575884
 30
0.0
 10
57.2131391487
 20
73.3406088674
 30
0.0
  0
SPLINE
  5
321
100
AcDbEntity
  8
0
100
AcDbSpline
 62
7
  6
CONTINUOUS
 70
0
 71
3
 72
9
 73
5
 74
0
 42
0.0000001
 43
0.0000001
 44
0.0000000001
 40
0.0
 40
0.0
 40
0.0
 40
0.0
 40
0.519617502
 40
1.0
 40
1.0
 40
1.0
 40
1.0
 10
57.4326511632
 20
37.0424696712
 30
0.0
 10
58.0427323777
 20
37.0424859967
 30
0.0
 10
59.2192192215
 20
37.1347773412
 30
0.0
 10
60.3637857298
 20
37.4263214356
 30
0.0
 10
60.89467012
 20
37.6167821303
 30
0.0
  0
SPLINE
  5
322
100
AcDbEntity
  8
0
100
AcDbSpline
 62
7
  6
CONTINUOUS
 70
0
 71
3
 72
9
 73
5
 74
0
 42
0.0000001
 43
0.0000001
 44
0.0000000001
 40
0.0
 40
0.0
 40
0.0
 40
0.0
 40
0.2486156922
 40
1.0
 40
1.0
 40
1.0
 40
1.0
 10
53.6995902085
 20
37.6167823579
 30
0.0
 10
53.9994727141
 20
37.5249385935
 30
0.0
 10
55.2176987841
 20
37.1968625987
 30
0.0
 10
56.4847710154
 20
37.0424445283
 30
0.0
 10
57.4326511629
 20
37.0424698932
 30
0.0
  0
SPLINE
  5
323
100
AcDbEntity
  8
0
100
AcDbSpline
 62
7
  6
CONTINUOUS
 70
0
 71
3
 72
10
 73
6
 74
0
 42
0.0000001
 43
0.0000001
 44
0.0000000001
 40
0.0
 40
0.0
 40
0.0
 40
0.0
 40
0.2166163947
 40
0.4631984014
 40
1.0
 40
1.0
 40
1.0
 40
1.0
 10
61.1540746585
 20
37.187074525
 30
0.0
 10
61.1237246048
 20
37.2080092919
 30
0.0
 10
61.0655135658
 20
37.2625502077
 30
0.0
 10
60.9660313787
 20
37.4013069685
 30
0.0
 10
60.9158329279
 20
37.5279533886
 30
0.0
 10
60.8946571555
 20
37.6168337273
 30
0.0
  0
SPLINE
  5
324
100
AcDbEntity
  8
0
100
AcDbSpline
 62
7
  6
CONTINUOUS
 70
0
 71
3
 72
9
 73
5
 74
0
 42
0.0000001
 43
0.0000001
 44
0.0000000001
 40
0.0
 40
0.0
 40
0.0
 40
0.0
 40
0.5282852611
 40
1.0
 40
1.0
 40
1.0
 40
1.0
 10
53.6996051219
 20
37.6168337272
 30
0.0
 10
53.6834779385
 20
37.5582281212
 30
0.0
 10
53.6482320393
 20
37.4485670834
 30
0.0
 10
53.6035159375
 20
37.3422486563
 30
0.0
 10
53.578917425
 20
37.2938678656
 30
0.0
  0
SPLINE
  5
325
100
AcDbEntity
  8
0
100
AcDbSpline
 62
7
  6
CONTINUOUS
 70
0
 71
3
 72
9
 73
5
 74
0
 42
0.0000001
 43
0.0000001
 44
0.0000000001
 40
0.0
 40
0.0
 40
0.0
 40
0.0
 40
0.4225840456
 40
1.0
 40
1.0
 40
1.0
 40
1.0
 10
61.1540746606
 20
37.1870745257
 30
0.0
 10
61.1456298173
 20
37.2471127979
 30
0.0
 10
61.1370405544
 20
37.3905965524
 30
0.0
 10
61.133885165
 20
37.5339903397
 30
0.0
 10
61.1338270686
 20
37.6168337525
 30
0.0
  0
LINE
  5
326
100
AcDbEntity
  8
0
100
AcDbLine
 62
7
  6
CONTINUOUS
 10
61.1337945849
 20
37.6168319341
 11
61.0992489026
 21
37.6167606741
  0
SPLINE
  5
327
100
AcDbEntity
  8
0
100
AcDbSpline
 62
7
  6
CONTINUOUS
 70
0
 71
3
 72
10
 73
6
 74
0
 42
0.0000001
 43
0.0000001
 44
0.0000000001
 40
0.0
 40
0.0
 40
0.0
 40
0.0
 40
0.5697820736
 40
0.8095678918
 40
1.0
 40
1.0
 40
1.0
 40
1.0
 10
53.446229915
 20
37.6168337525
 30
0.0
 10
53.4464222045
 20
37.533788914
 30
0.0
 10
53.4537726963
 20
37.4153565906
 30
0.0
 10
53.4819692968
 20
37.2722662724
 30
0.0
 10
53.5013925446
 20
37.2122474651
 30
0.0
 10
53.5130834553
 20
37.1870745288
 30
0.0
  0
SPLINE
  5
328
100
AcDbEntity
  8
0
100
AcDbSpline
 62
7
  6
CONTINUOUS
 70
0
 71
3
 72
9
 73
5
 74
0
 42
0.0000001
 43
0.0000001
 44
0.0000000001
 40
0.0
 40
0.0
 40
0.0
 40
0.0
 40
0.2129279807
 40
1.0
 40
1.0
 40
1.0
 40
1.0
 10
53.5130834569
 20
37.1870745284
 30
0.0
 10
53.518659238
 20
37.1940284452
 30
0.0
 10
53.5434577393
 20
37.2277966537
 30
0.0
 10
53.5639851262
 20
37.2644987547
 30
0.0
 10
53.5789174253
 20
37.2938678655
 30
0.0
  0
SPLINE
  5
329
100
AcDbEntity
  8
0
100
AcDbSpline
 62
7
  6
CONTINUOUS
 70
0
 71
3
 72
13
 73
9
 74
0
 42
0.0000001
 43
0.0000001
 44
0.0000000001
 40
0.0
 40
0.0
 40
0.0
 40
0.0
 40
0.1165188903
 40
0.2329875647
 40
0.3527363919
 40
0.4756986356
 40
0.7326808953
 40
1.0
 40
1.0
 40
1.0
 40
1.0
 10
43.5678716366
 20
73.3405445268
 30
0.0
 10
43.3524537329
 20
73.3402958623
 30
0.0
 10
42.9194177328
 20
73.2819854652
 30
0.0
 10
42.3130062861
 20
73.0238235253
 30
0.0
 10
41.7787999307
 20
72.6191715735
 30
0.0
 10
41.1758209328
 20
71.9115040481
 30
0.0
 10
40.6745844763
 20
70.7984900564
 30
0.0
 10
40.5479086956
 20
69.8238660711
 30
0.0
 10
40.5494644335
 20
69.3296537243
 30
0.0
  0
SPLINE
  5
32A
100
AcDbEntity
  8
0
100
AcDbSpline
 62
7
  6
CONTINUOUS
 70
0
 71
3
 72
13
 73
9
 74
0
 42
0.0000001
 43
0.0000001
 44
0.0000000001
 40
0.0
 40
0.0
 40
0.0
 40
0.0
 40
0.2628482392
 40
0.520112911
 40
0.6453104946
 40
0.7672380722
 40
0.8851095971
 40
1.0
 40
1.0
 40
1.0
 40
1.0
 10
46.789322411
 20
69.3296535375
 30
0.0
 10
46.7864696833
 20
69.8256387277
 30
0.0
 10
46.6320264195
 20
70.812352187
 30
0.0
 10
46.0671307274
 20
71.9194431362
 30
0.0
 10
45.4163349547
 20
72.6213787533
 30
0.0
 10
44.8506772838
 20
73.0240637737
 30
0.0
 10
44.2258087454
 20
73.2804624952
 30
0.0
 10
43.7846526746
 20
73.3408591287
 30
0.0
 10
43.5678551679
 20
73.3406088674
 30
0.0
  0
SPLINE
  5
32B
100
AcDbEntity
  8
0
100
AcDbSpline
 62
7
  6
CONTINUOUS
 70
0
 71
3
 72
9
 73
5
 74
0
 42
0.0000001
 43
0.0000001
 44
0.0000000001
 40
0.0
 40
0.0
 40
0.0
 40
0.0
 40
0.5405631383
 40
1.0
 40
1.0
 40
1.0
 40
1.0
 10
44.1999147592
 20
37.0424696712
 30
0.0
 10
44.7137034937
 20
37.0424853059
 30
0.0
 10
45.6676430581
 20
37.1221605188
 30
0.0
 10
46.5837975659
 20
37.4193955536
 30
0.0
 10
46.9733210745
 20
37.6167821303
 30
0.0
  0
SPLINE
  5
32C
100
AcDbEntity
  8
0
100
AcDbSpline
 62
7
  6
CONTINUOUS
 70
0
 71
3
 72
9
 73
5
 74
0
 42
0.0000001
 43
0.0000001
 44
0.0000000001
 40
0.0
 40
0.0
 40
0.0
 40
0.0
 40
0.5174876228
 40
1.0
 40
1.0
 40
1.0
 40
1.0
 10
40.6460739973
 20
37.6167823579
 30
0.0
 10
41.2426218473
 20
37.4386595195
 30
0.0
 10
42.4155677023
 20
37.1573846591
 30
0.0
 10
43.6194194139
 20
37.0424522285
 30
0.0
 10
44.1999147582
 20
37.0424698932
 30
0.0
  0
SPLINE
  5
32D
100
AcDbEntity
  8
0
100
AcDbSpline
 62
7
  6
CONTINUOUS
 70
0
 71
3
 72
9
 73
5
 74
0
 42
0.0000001
 43
0.0000001
 44
0.0000000001
 40
0.0
 40
0.0
 40
0.0
 40
0.0
 40
0.4890142047
 40
1.0
 40
1.0
 40
1.0
 40
1.0
 10
47.2743354515
 20
37.187074525
 30
0.0
 10
47.1965232414
 20
37.227542517
 30
0.0
 10
47.0597356392
 20
37.3551566053
 30
0.0
 10
46.9888979578
 20
37.5265218216
 30
0.0
 10
46.9733116922
 20
37.6168337274
 30
0.0
  0
SPLINE
  5
32E
100
AcDbEntity
  8
0
100
AcDbSpline
 62
7
  6
CONTINUOUS
 70
0
 71
3
 72
10
 73
6
 74
0
 42
0.0000001
 43
0.0000001
 44
0.0000000001
 40
0.0
 40
0.0
 40
0.0
 40
0.0
 40
0.5951219608
 40
0.8303694492
 40
1.0
 40
1.0
 40
1.0
 40
1.0
 10
40.646089121
 20
37.6168337261
 30
0.0
 10
40.6226494615
 20
37.5327970691
 30
0.0
 10
40.5924657309
 20
37.4147175918
 30
0.0
 10
40.5646205088
 20
37.2708098803
 30
0.0
 10
40.5563802299
 20
37.2119016582
 30
0.0
 10
40.5549605556
 20
37.1870745262
 30
0.0
  0
SPLINE
  5
32F
100
AcDbEntity
  8
0
100
AcDbSpline
 62
7
  6
CONTINUOUS
 70
0
 71
3
 72
10
 73
6
 74
0
 42
0.0000001
 43
0.0000001
 44
0.0000000001
 40
0.0
 40
0.0
 40
0.0
 40
0.0
 40
0.2002366727
 40
0.4413283
 40
1.0
 40
1.0
 40
1.0
 40
1.0
 10
47.274335453
 20
37.1870745257
 30
0.0
 10
47.2567368092
 20
37.2112228215
 30
0.0
 10
47.2261564884
 20
37.2703557808
 30
0.0
 10
47.1817669266
 20
37.4131646689
 30
0.0
 10
47.1697318035
 20
37.5334656276
 30
0.0
 10
47.1694288884
 20
37.6168337526
 30
0.0
  0
SPLINE
  5
330
100
AcDbEntity
  8
0
100
AcDbSpline
 62
7
  6
CONTINUOUS
 70
0
 71
3
 72
8
 73
4
 74
0
 42
0.0000001
 43
0.0000001
 44
0.0000000001
 40
0.0
 40
0.0
 40
0.0
 40
0.0
 40
1.0
 40
1.0
 40
1.0
 40
1.0
 10
23.3556528725
 20
37.1870745257
 30
0.0
 10
23.3053717863
 20
37.2159341736
 30
0.0
 10
23.2595770821
 20
37.2543087734
 30
0.0
 10
23.2222482927
 20
37.2986667308
 30
0.0
  0
SPLINE
  5
331
100
AcDbEntity
  8
0
100
AcDbSpline
 62
7
  6
CONTINUOUS
 70
0
 71
3
 72
8
 73
4
 74
0
 42
0.0000001
 43
0.0000001
 44
0.0000000001
 40
0.0
 40
0.0
 40
0.0
 40
0.0
 40
1.0
 40
1.0
 40
1.0
 40
1.0
 10
23.2222482927
 20
37.2986667308
 30
0.0
 10
23.1848635021
 20
37.3430912347
 30
0.0
 10
23.1549386463
 20
37.3949180259
 30
0.0
 10
23.1351097942
 20
37.4494888582
 30
0.0
  0
SPLINE
  5
332
100
AcDbEntity
  8
0
100
AcDbSpline
 62
7
  6
CONTINUOUS
 70
0
 71
3
 72
8
 73
4
 74
0
 42
0.0000001
 43
0.0000001
 44
0.0000000001
 40
0.0
 40
0.0
 40
0.0
 40
0.0
 40
1.0
 40
1.0
 40
1.0
 40
1.0
 10
23.1351097942
 20
37.4494888582
 30
0.0
 10
23.1157507791
 20
37.5027666556
 30
0.0
 10
23.1053475419
 20
37.5601499566
 30
0.0
 10
23.1048551613
 20
37.6168337525
 30
0.0
  0
SPLINE
  5
333
100
AcDbEntity
  8
0
100
AcDbSpline
 62
7
  6
CONTINUOUS
 70
0
 71
3
 72
13
 73
9
 74
0
 42
0.0000001
 43
0.0000001
 44
0.0000000001
 40
0.0
 40
0.0
 40
0.0
 40
0.0
 40
0.3397917054
 40
0.6228711758
 40
0.7397432768
 40
0.8398756868
 40
0.9253227729
 40
1.0
 40
1.0
 40
1.0
 40
1.0
 10
26.2639657909
 20
71.8010258089
 30
0.0
 10
26.2003438161
 20
72.015170374
 30
0.0
 10
26.0638741237
 20
72.4021621848
 30
0.0
 10
25.837416244
 20
72.8362436462
 30
0.0
 10
25.6350637459
 20
73.0966217301
 30
0.0
 10
25.4883432969
 20
73.2326061727
 30
0.0
 10
25.3384809583
 20
73.3190378903
 30
0.0
 10
25.2327100647
 20
73.3407523998
 30
0.0
 10
25.1836138042
 20
73.3406088674
 30
0.0
  0
SPLINE
  5
334
100
AcDbEntity
  8
0
100
AcDbSpline
 62
7
  6
CONTINUOUS
 70
0
 71
3
 72
9
 73
5
 74
0
 42
0.0000001
 43
0.0000001
 44
0.0000000001
 40
0.0
 40
0.0
 40
0.0
 40
0.0
 40
0.5449826535
 40
1.0
 40
1.0
 40
1.0
 40
1.0
 10
40.4090694084
 20
37.6168337525
 30
0.0
 10
40.4094932219
 20
37.532959743
 30
0.0
 10
40.4314818813
 20
37.3787649267
 30
0.0
 10
40.5051119266
 20
37.2362597023
 30
0.0
 10
40.5549605573
 20
37.1870745257
 30
0.0
  0
SPLINE
  5
335
100
AcDbEntity
  8
0
100
AcDbSpline
 62
7
  6
CONTINUOUS
 70
0
 71
3
 72
9
 73
5
 74
0
 42
0.0000001
 43
0.0000001
 44
0.0000000001
 40
0.0
 40
0.0
 40
0.0
 40
0.0
 40
0.5034743172
 40
1.0
 40
1.0
 40
1.0
 40
1.0
 10
24.2647585533
 20
37.6171477454
 30
0.0
 10
24.2654566903
 20
37.5313711857
 30
0.0
 10
24.3103731821
 20
37.3583585843
 30
0.0
 10
24.4356840728
 20
37.2300899296
 30
0.0
 10
24.5085269059
 20
37.1870745257
 30
0.0
  0
SPLINE
  5
336
100
AcDbEntity
  8
0
100
AcDbSpline
 62
7
  6
CONTINUOUS
 70
0
 71
3
 72
9
 73
5
 74
0
 42
0.0000001
 43
0.0000001
 44
0.0000000001
 40
0.0
 40
0.0
 40
0.0
 40
0.0
 40
0.3331217402
 40
1.0
 40
1.0
 40
1.0
 40
1.0
 10
24.3888748217
 20
37.6168230748
 30
0.0
 10
24.375050966
 20
37.6167791259
 30
0.0
 10
24.3335532474
 20
37.6166898808
 30
0.0
 10
24.2920536967
 20
37.6165856757
 30
0.0
 10
24.2643806913
 20
37.6168420751
 30
0.0
  0
SPLINE
  5
337
100
AcDbEntity
  8
0
100
AcDbSpline
 62
7
  6
CONTINUOUS
 70
0
 71
3
 72
9
 73
5
 74
0
 42
0.0000001
 43
0.0000001
 44
0.0000000001
 40
0.0
 40
0.0
 40
0.0
 40
0.0
 40
0.3339370195
 40
1.0
 40
1.0
 40
1.0
 40
1.0
 10
24.1420661789
 20
69.3296447366
 30
0.0
 10
24.1280529468
 20
69.3295997687
 30
0.0
 10
24.0860894526
 20
69.3295091697
 30
0.0
 10
24.0441240363
 20
69.3293993381
 30
0.0
 10
24.016174671
 20
69.3296630355
 30
0.0
  0
SPLINE
  5
338
100
AcDbEntity
  8
0
100
AcDbSpline
 62
7
  6
CONTINUOUS
 70
0
 71
3
 72
11
 73
7
 74
0
 42
0.0000001
 43
0.0000001
 44
0.0000000001
 40
0.0
 40
0.0
 40
0.0
 40
0.0
 40
0.4308259658
 40
0.7428138701
 40
0.9333922563
 40
1.0
 40
1.0
 40
1.0
 40
1.0
 10
26.6549377436
 20
69.3296714678
 30
0.0
 10
26.6477612598
 20
69.3296311877
 30
0.0
 10
26.6354300492
 20
69.3297389025
 30
0.0
 10
26.6197519728
 20
69.3291498081
 30
0.0
 10
26.6104989837
 20
69.3300711909
 30
0.0
 10
26.6059715986
 20
69.3291032629
 30
0.0
 10
26.6049653456
 20
69.3295707295
 30
0.0
  0
LINE
  5
339
100
AcDbEntity
  8
0
100
AcDbLine
 62
7
  6
CONTINUOUS
 10
26.9342801263
 20
37.6168406074
 11
26.8919643652
 21
37.6166864526
  0
SPLINE
  5
33A
100
AcDbEntity
  8
0
100
AcDbSpline
 62
7
  6
CONTINUOUS
 70
0
 71
3
 72
9
 73
5
 74
0
 42
0.0000001
 43
0.0000001
 44
0.0000000001
 40
0.0
 40
0.0
 40
0.0
 40
0.0
 40
0.4914735842
 40
1.0
 40
1.0
 40
1.0
 40
1.0
 10
27.1622153022
 20
37.1870745257
 30
0.0
 10
27.1151752276
 20
37.2168284593
 30
0.0
 10
27.0304642145
 20
37.2961693559
 30
0.0
 10
26.9781082099
 20
37.3992800351
 30
0.0
 10
26.9605798501
 20
37.4541393177
 30
0.0
  0
SPLINE
  5
33B
100
AcDbEntity
  8
0
100
AcDbSpline
 62
7
  6
CONTINUOUS
 70
0
 71
3
 72
10
 73
6
 74
0
 42
0.0000001
 43
0.0000001
 44
0.0000000001
 40
0.0
 40
0.0
 40
0.0
 40
0.0
 40
0.2855167261
 40
0.5500546092
 40
1.0
 40
1.0
 40
1.0
 40
1.0
 10
24.3887264646
 20
37.6168337261
 30
0.0
 10
24.3805061593
 20
37.5733590704
 30
0.0
 10
24.3731361602
 20
37.4874996294
 30
0.0
 10
24.3922691259
 20
37.3336642688
 30
0.0
 10
24.4523214851
 20
37.2283372468
 30
0.0
 10
24.5085269047
 20
37.1870745262
 30
0.0
  0
SPLINE
  5
33C
100
AcDbEntity
  8
0
100
AcDbSpline
 62
7
  6
CONTINUOUS
 70
0
 71
3
 72
9
 73
5
 74
0
 42
0.0000001
 43
0.0000001
 44
0.0000000001
 40
0.0
 40
0.0
 40
0.0
 40
0.0
 40
0.5034598914
 40
1.0
 40
1.0
 40
1.0
 40
1.0
 10
27.1622153024
 20
37.187074525
 30
0.0
 10
27.0990645209
 20
37.2165278734
 30
0.0
 10
26.9845888961
 20
37.3030068946
 30
0.0
 10
26.9190361086
 20
37.4309245278
 30
0.0
 10
26.9019998583
 20
37.4975032884
 30
0.0
  0
SPLINE
  5
33D
100
AcDbEntity
  8
0
100
AcDbSpline
 62
7
  6
CONTINUOUS
 70
0
 71
3
 72
11
 73
7
 74
0
 42
0.0000001
 43
0.0000001
 44
0.0000000001
 40
0.0
 40
0.0
 40
0.0
 40
0.0
 40
0.3165150643
 40
0.5902705431
 40
0.8200226905
 40
1.0
 40
1.0
 40
1.0
 40
1.0
 10
24.388716198
 20
37.6167823579
 30
0.0
 10
24.5900361788
 20
37.5308847459
 30
0.0
 10
24.9684829138
 20
37.377560205
 30
0.0
 10
25.5055531342
 20
37.1939781794
 30
0.0
 10
25.964068469
 20
37.0775414273
 30
0.0
 10
26.247037744
 20
37.0424603026
 30
0.0
 10
26.3714972287
 20
37.0424698932
 30
0.0
  0
SPLINE
  5
33E
100
AcDbEntity
  8
0
100
AcDbSpline
 62
7
  6
CONTINUOUS
 70
0
 71
3
 72
14
 73
10
 74
0
 42
0.0000001
 43
0.0000001
 44
0.0000000001
 40
0.0
 40
0.0
 40
0.0
 40
0.0
 40
0.0965307972
 40
0.1971495014
 40
0.3080472796
 40
0.4297824661
 40
0.5624903695
 40
0.7033829482
 40
1.0
 40
1.0
 40
1.0
 40
1.0
 10
32.4441429383
 20
73.3405445268
 30
0.0
 10
32.2841123893
 20
73.3402956287
 30
0.0
 10
31.9543295332
 20
73.2788884126
 30
0.0
 10
31.5092018191
 20
73.0118337531
 30
0.0
 10
31.1291564967
 20
72.6032615566
 30
0.0
 10
30.8172313321
 20
72.0802495334
 30
0.0
 10
30.575326152
 20
71.4686411791
 30
0.0
 10
30.3430801313
 20
70.5505566163
 30
0.0
 10
30.2810914274
 20
69.8213831609
 30
0.0
 10
30.2839686214
 20
69.3296537243
 30
0.0
  0
SPLINE
  5
33F
100
AcDbEntity
  8
0
100
AcDbSpline
 62
7
  6
CONTINUOUS
 70
0
 71
3
 72
12
 73
8
 74
0
 42
0.0000001
 43
0.0000001
 44
0.0000000001
 40
0.0
 40
0.0
 40
0.0
 40
0.0
 40
0.3122589785
 40
0.5571556962
 40
0.6651113009
 40
0.7707333353
 40
1.0
 40
1.0
 40
1.0
 40
1.0
 10
26.3714972305
 20
37.0424696712
 30
0.0
 10
26.4510126207
 20
37.0424757985
 30
0.0
 10
26.5937249225
 20
37.0529802057
 30
0.0
 10
26.7551469672
 20
37.119416612
 30
0.0
 10
26.8401340568
 20
37.2014116011
 30
0.0
 10
26.8984738472
 20
37.2993439547
 30
0.0
 10
26.9112319406
 20
37.3872696741
 30
0.0
 10
26.9106782378
 20
37.4456488071
 30
0.0
  0
SPLINE
  5
340
100
AcDbEntity
  8
0
100
AcDbSpline
 62
7
  6
CONTINUOUS
 70
0
 71
3
 72
17
 73
13
 74
0
 42
0.0000001
 43
0.0000001
 44
0.0000000001
 40
0.0
 40
0.0
 40
0.0
 40
0.0
 40
0.0294402426
 40
0.0609274042
 40
0.096448642
 40
0.1377037276
 40
0.2386505023
 40
0.3621499938
 40
0.5051365803
 40
0.6620644698
 40
0.8286093861
 40
1.0
 40
1.0
 40
1.0
 40
1.0
 10
25.183644669
 20
73.3405445268
 30
0.0
 10
25.1409457182
 20
73.340419699
 30
0.0
 10
25.0520192335
 20
73.3242023532
 30
0.0
 10
24.9279897415
 20
73.2554862105
 30
0.0
 10
24.8138097742
 20
73.1457772
 30
0.0
 10
24.66456106
 20
72.934353391
 30
0.0
 10
24.509494303
 20
72.5781590872
 30
0.0
 10
24.3682281043
 20
72.0636430819
 30
0.0
 10
24.2612271253
 20
71.4581646051
 30
0.0
 10
24.1878538129
 20
70.7852989985
 30
0.0
 10
24.1463852317
 20
70.0684933004
 30
0.0
 10
24.1403011801
 20
69.5782252244
 30
0.0
 10
24.1422521418
 20
69.3296537243
 30
0.0
  0
SPLINE
  5
341
100
AcDbEntity
  8
0
100
AcDbSpline
 62
7
  6
CONTINUOUS
 70
0
 71
3
 72
9
 73
5
 74
0
 42
0.0000001
 43
0.0000001
 44
0.0000000001
 40
0.0
 40
0.0
 40
0.0
 40
0.0
 40
0.5193067158
 40
1.0
 40
1.0
 40
1.0
 40
1.0
 10
30.2744516488
 20
37.6168337525
 30
0.0
 10
30.2750615469
 20
37.5319015728
 30
0.0
 10
30.3101480187
 20
37.3663829828
 30
0.0
 10
30.4172039286
 20
37.2319119206
 30
0.0
 10
30.4817837791
 20
37.1870745257
 30
0.0
  0
SPLINE
  5
342
100
AcDbEntity
  8
0
100
AcDbSpline
 62
7
  6
CONTINUOUS
 70
0
 71
3
 72
9
 73
5
 74
0
 42
0.0000001
 43
0.0000001
 44
0.0000000001
 40
0.0
 40
0.0
 40
0.0
 40
0.0
 40
0.3302545671
 40
1.0
 40
1.0
 40
1.0
 40
1.0
 10
35.0454597263
 20
69.3296636044
 30
0.0
 10
35.0311091846
 20
69.3296156232
 30
0.0
 10
34.9876563634
 20
69.3295118587
 30
0.0
 10
34.9442018935
 20
69.3294039888
 30
0.0
 10
34.9151003032
 20
69.3296452952
 30
0.0
  0
SPLINE
  5
343
100
AcDbEntity
  8
0
100
AcDbSpline
 62
7
  6
CONTINUOUS
 70
0
 71
3
 72
9
 73
5
 74
0
 42
0.0000001
 43
0.0000001
 44
0.0000000001
 40
0.0
 40
0.0
 40
0.0
 40
0.0
 40
0.3292349516
 40
1.0
 40
1.0
 40
1.0
 40
1.0
 10
35.2918975581
 20
37.61684239
 30
0.0
 10
35.2777477072
 20
37.6167954261
 30
0.0
 10
35.2347698696
 20
37.6166928108
 30
0.0
 10
35.1917904769
 20
37.6165905915
 30
0.0
 10
35.162963136
 20
37.6168233915
 30
0.0
  0
SPLINE
  5
344
100
AcDbEntity
  8
0
100
AcDbSpline
 62
7
  6
CONTINUOUS
 70
0
 71
3
 72
9
 73
5
 74
0
 42
0.0000001
 43
0.0000001
 44
0.0000000001
 40
0.0
 40
0.0
 40
0.0
 40
0.0
 40
0.2261456566
 40
1.0
 40
1.0
 40
1.0
 40
1.0
 10
35.4690865868
 20
37.1870745257
 30
0.0
 10
35.4414095309
 20
37.2095947087
 30
0.0
 10
35.3345892928
 20
37.3281796753
 30
0.0
 10
35.292922471
 20
37.4947360775
 30
0.0
 10
35.2921743295
 20
37.6168337526
 30
0.0
  0
SPLINE
  5
345
100
AcDbEntity
  8
0
100
AcDbSpline
 62
7
  6
CONTINUOUS
 70
0
 71
3
 72
10
 73
6
 74
0
 42
0.0000001
 43
0.0000001
 44
0.0000000001
 40
0.0
 40
0.0
 40
0.0
 40
0.0
 40
0.5827195622
 40
0.8163950277
 40
1.0
 40
1.0
 40
1.0
 40
1.0
 10
30.4665573958
 20
37.6169525813
 30
0.0
 10
30.4459383192
 20
37.5341899275
 30
0.0
 10
30.4280989887
 20
37.4136881162
 30
0.0
 10
30.4444080679
 20
37.267761195
 30
0.0
 10
30.4664562396
 20
37.2091491482
 30
0.0
 10
30.4817837776
 20
37.1870745262
 30
0.0
  0
SPLINE
  5
346
100
AcDbEntity
  8
0
100
AcDbSpline
 62
7
  6
CONTINUOUS
 70
0
 71
3
 72
9
 73
5
 74
0
 42
0.0000001
 43
0.0000001
 44
0.0000000001
 40
0.0
 40
0.0
 40
0.0
 40
0.0
 40
0.5036272335
 40
1.0
 40
1.0
 40
1.0
 40
1.0
 10
35.4690865861
 20
37.187074525
 30
0.0
 10
35.3858555057
 20
37.2255370181
 30
0.0
 10
35.2383394646
 20
37.3472752223
 30
0.0
 10
35.1705163612
 20
37.526799073
 30
0.0
 10
35.1627644786
 20
37.6168337273
 30
0.0
  0
SPLINE
  5
347
100
AcDbEntity
  8
0
100
AcDbSpline
 62
7
  6
CONTINUOUS
 70
0
 71
3
 72
10
 73
6
 74
0
 42
0.0000001
 43
0.0000001
 44
0.0000000001
 40
0.0
 40
0.0
 40
0.0
 40
0.0
 40
0.542765623
 40
0.7845609597
 40
1.0
 40
1.0
 40
1.0
 40
1.0
 10
30.4665142818
 20
37.6167823579
 30
0.0
 10
30.9839589145
 20
37.4459564829
 30
0.0
 10
31.7448622318
 20
37.2316795845
 30
0.0
 10
32.7369940622
 20
37.0720488916
 30
0.0
 10
33.1961977186
 20
37.0424610253
 30
0.0
 10
33.4124892044
 20
37.0424698932
 30
0.0
  0
SPLINE
  5
348
100
AcDbEntity
  8
0
100
AcDbSpline
 62
7
  6
CONTINUOUS
 70
0
 71
3
 72
11
 73
7
 74
0
 42
0.0000001
 43
0.0000001
 44
0.0000000001
 40
0.0
 40
0.0
 40
0.0
 40
0.0
 40
0.302670694
 40
0.5674784387
 40
0.7957808146
 40
1.0
 40
1.0
 40
1.0
 40
1.0
 10
33.4124892059
 20
37.0424696712
 30
0.0
 10
33.6032492356
 20
37.0424774922
 30
0.0
 10
33.9616268046
 20
37.0627089621
 30
0.0
 10
34.4543064072
 20
37.1698662158
 30
0.0
 10
34.8595241917
 20
37.3491645178
 30
0.0
 10
35.0755523316
 20
37.5221270343
 30
0.0
 10
35.162769147
 20
37.6167821303
 30
0.0
  0
SPLINE
  5
349
100
AcDbEntity
  8
0
100
AcDbSpline
 62
7
  6
CONTINUOUS
 70
0
 71
3
 72
14
 73
10
 74
0
 42
0.0000001
 43
0.0000001
 44
0.0000000001
 40
0.0
 40
0.0
 40
0.0
 40
0.0
 40
0.2890690648
 40
0.4289120805
 40
0.5619053871
 40
0.6865286483
 40
0.8010170782
 40
0.904537436
 40
1.0
 40
1.0
 40
1.0
 40
1.0
 10
34.9153477269
 20
69.3296535375
 30
0.0
 10
34.9115045203
 20
69.8234024071
 30
0.0
 10
34.8199463131
 20
70.5600573401
 30
0.0
 10
34.5217928013
 20
71.4745966839
 30
0.0
 10
34.2219795735
 20
72.0866837956
 30
0.0
 10
33.8521638703
 20
72.6076137828
 30
0.0
 10
33.4229291929
 20
73.0125624699
 30
0.0
 10
32.9490336256
 20
73.2758106318
 30
0.0
 10
32.6071787981
 20
73.3408624832
 30
0.0
 10
32.4441177527
 20
73.3406088674
 30
0.0
  0
ENDSEC
  0
SECTION
  2
OBJECTS
  0
DICTIONARY
  5
C
100
AcDbDictionary
280
0
281
1
  3
ACAD_GROUP
350
D
  3
ACAD_MLINESTYLE
350
17
  3
ACAD_LAYOUT
350
1A
  3
ACAD_PLOTSETTINGS
350
19
  3
ACAD_PLOTSTYLENAME
350
E
  0
DICTIONARY
  5
D
102
{ACAD_REACTORS
330
C
102
}
100
AcDbDictionary
280
0
281
1
  0
ACDBDICTIONARYWDFLT
  5
E
102
{ACAD_REACTORS
330
C
102
}
100
AcDbDictionary
281
1
  3
Normal
350
F
100
AcDbDictionaryWithDefault
340
F
  0
DICTIONARY
  5
17
102
{ACAD_REACTORS
330
C
102
}
100
AcDbDictionary
280
0
281
1
  3
Standard
350
18
  0
DICTIONARY
  5
19
102
{ACAD_REACTORS
330
C
102
}
100
AcDbDictionary
281
1
  0
DICTIONARY
  5
1A
102
{ACAD_REACTORS
330
C
102
}
100
AcDbDictionary
281
1
  3
Model
350
34A
  3
Layout1
350
34B
  0
ACDBPLACEHOLDER
  5
F
102
{ACAD_REACTORS
330
E
102
}
  0
MLINESTYLE
  5
18
102
{ACAD_REACTORS
330
17
102
}
100
AcDbMlineStyle
  2
STANDARD
 70
0
  3

 62
256
 51
90.0
 52
90.0
 71
2
 49
0.5
 62
256
  6
BYLAYER
 49
-0.5
 62
256
  6
BYLAYER
  0
LAYOUT
  5
34A
102
{ACAD_REACTORS
330
1A
102
}
100
AcDbPlotSettings
  1

  2
none_device
  4

  6

 40
0.0
 41
0.0
 42
0.0
 43
0.0
 44
210.0
 45
297.0
 46
0.0
 47
0.0
 48
0.0
 49
0.0
140
0.0
141
0.0
142
1.0
143
1.0
 70
1024
 72
1
 73
0
 74
0
  7

 75
0
147
1.0
148
0.0
149
0.0
100
AcDbLayout
  1
Model
 70
0
 71
0
 10
0.0
 20
0.0
 11
210.0
 21
297.0
 12
0.0
 22
0.0
 32
0.0
 14
0.0
 24
0.0
 34
0.0
 15
0.0
 25
0.0
 35
0.0
146
0.0
 13
0.0
 23
0.0
 33
0.0
 16
1.0
 26
0.0
 36
0.0
 17
0.0
 27
1.0
 37
0.0
 76
0
330
210
345
0
346
0
  0
LAYOUT
  5
34B
102
{ACAD_REACTORS
330
1A
102
}
100
AcDbPlotSettings
  1

  2
none_device
  4

  6

 40
0.0
 41
0.0
 42
0.0
 43
0.0
 44
210.0
 45
297.0
 46
0.0
 47
0.0
 48
0.0
 49
0.0
140
0.0
141
0.0
142
1.0
143
1.0
 70
0
 72
1
 73
0
 74
0
  7

 75
0
147
1.0
148
0.0
149
0.0
100
AcDbLayout
  1
Layout1
 70
0
 71
1
 10
0.0
 20
0.0
 11
210.0
 21
297.0
 12
0.0
 22
0.0
 32
0.0
 14
0.0
 24
0.0
 34
0.0
 15
0.0
 25
0.0
 35
0.0
146
0.0
 13
0.0
 23
0.0
 33
0.0
 16
1.0
 26
0.0
 36
0.0
 17
0.0
 27
1.0
 37
0.0
 76
0
330
211
345
0
346
0
  0
ENDSEC
  0
EOF
