999
DXF file: C:\Users\sesa63760\Dev\_Creo\CAD\MCADPE0012181_3D-CAD\drw0001_1.dxf
999
Pro/ENGINEER 2019471 by Parametric Technology Corporation
  0
SECTION
  2
HEADER
  9
$ACADVER
  1
AC1024
  9
$DWGCODEPAGE
  3
ANSI_1252
  9
$EXTMAX
 10
151.5219445314
 20
214.2953215516
 30
0.0
  9
$EXTMIN
 10
0.0
 20
0.0
 30
0.0
  9
$LIMMIN
 10
0.0
 20
0.0
  9
$LIMMAX
 10
151.5219445314
 20
214.2953215516
  9
$VIEWCTR
 10
75.7609722657
 20
107.1476607758
  9
$VIEWSIZE
 40
214.2953215516
  9
$CLAYER
  8
0
  9
$LTSCALE
 40
13.9688802197
  9
$CELTYPE
  6
BYLAYER
  9
$DIMSCALE
 40
1.0
  9
$DIMASZ
 40
1.803832673
  9
$DIMEXO
 40
1.0
  9
$DIMDLI
 40
9.6512263336
  9
$DIMEXE
 40
1.0
  9
$DIMCEN
 40
2.2858167632
  9
$DIMLFAC
 40
1.0
  9
$DIMBLK
  1
_FILLED
  9
$DIMALT
 70
0
  9
$DIMALTF
 40
0.0393700787
  9
$DIMTXT
 40
2.5253657422
  9
$DIMTOL
 70
1
  9
$DIMLIM
 70
0
  9
$DIMTFAC
 40
1.0
  9
$DIMTP
 40
0.01
  9
$DIMTM
 40
0.01
  9
$DIMGAP
 40
0.625
  9
$DIMDSEP
 70
46
  9
$AUNITS
 70
0
  9
$PDMODE
 70
3
  9
$PDSIZE
 40
0.3125
  9
$HANDSEED
  5
2A3
  9
$TILEMODE
 70
1
  9
$MEASUREMENT
 70
1
  9
$INSUNITS
 70
4
  0
ENDSEC
  0
SECTION
  2
CLASSES
  0
CLASS
  1
ACDBDICTIONARYWDFLT
  2
AcDbDictionaryWithDefault
  3
AutoCAD 2000
 90
0
 91
1
280
0
281
0
  0
CLASS
  1
ACDBPLACEHOLDER
  2
AcDbPlaceHolder
  3
AutoCAD 2000
 90
0
 91
1
280
0
281
0
  0
CLASS
  1
LAYOUT
  2
AcDbLayout
  3
AutoCAD 2000
 90
0
 91
0
280
0
281
0
  0
ENDSEC
  0
SECTION
  2
TABLES
  0
TABLE
  2
VPORT
  5
8
100
AcDbSymbolTable
 70
2
  0
VPORT
  5
1F4
100
AcDbSymbolTableRecord
100
AcDbViewportTableRecord
  2
*ACTIVE
 70
0
 10
0.0
 20
0.0
 11
1.0
 21
1.0
 12
75.7609722657
 22
107.1476607758
 13
0.0
 23
0.0
 14
1.0
 24
1.0
 15
0.0
 25
0.0
 16
0.0
 26
0.0
 36
1.0
 17
0.0
 27
0.0
 37
0.0
 40
214.2953215516
 41
0.7070707071
 42
50.0
 43
0.0
 44
0.0
 50
0.0
 51
0.0
 71
0
 72
100
 73
1
 74
1
 75
0
 76
0
 77
0
 78
0
  0
ENDTAB
  0
TABLE
  2
LTYPE
  5
5
100
AcDbSymbolTable
 70
6
  0
LTYPE
  5
14
100
AcDbSymbolTableRecord
100
AcDbLinetypeTableRecord
  2
BYBLOCK
 70
0
  3

 72
65
 73
0
 40
0.0
  0
LTYPE
  5
15
100
AcDbSymbolTableRecord
100
AcDbLinetypeTableRecord
  2
BYLAYER
 70
0
  3

 72
65
 73
0
 40
0.0
  0
LTYPE
  5
16
100
AcDbSymbolTableRecord
100
AcDbLinetypeTableRecord
  2
CONTINUOUS
 70
64
  3
Solid line
 72
65
 73
0
 40
0.0
  0
LTYPE
  5
1F5
100
AcDbSymbolTableRecord
100
AcDbLinetypeTableRecord
  2
CENTER
 70
64
  3
____ _ ____ _ ____ _ ____ _ ____ _ ____ _ ____
 72
65
 73
4
 40
0.6
 49
0.375
 74
0
 49
-0.075
 74
0
 49
0.075
 74
0
 49
-0.075
 74
0
  0
LTYPE
  5
1F6
100
AcDbSymbolTableRecord
100
AcDbLinetypeTableRecord
  2
HIDDEN
 70
64
  3
- - - - - - - - - - - - - - - - - - - -
 72
65
 73
2
 40
0.2
 49
0.1
 74
0
 49
-0.1
 74
0
  0
LTYPE
  5
1F7
100
AcDbSymbolTableRecord
100
AcDbLinetypeTableRecord
  2
PHANTOM
 70
64
  3
_____ _ _ _____ _ _ _____ _ _ _____
 72
65
 73
6
 40
0.8
 49
0.45
 74
0
 49
-0.05
 74
0
 49
0.1
 74
0
 49
-0.05
 74
0
 49
0.1
 74
0
 49
-0.05
 74
0
  0
LTYPE
  5
1F8
100
AcDbSymbolTableRecord
100
AcDbLinetypeTableRecord
  2
DOT
 70
64
  3
. . . . . . . . . . . . . . . . . . . .
 72
65
 73
2
 40
0.2
 49
0.1
 74
0
 49
-0.1
 74
0
  0
LTYPE
  5
1F9
100
AcDbSymbolTableRecord
100
AcDbLinetypeTableRecord
  2
DASHED
 70
64
  3
- - - - - - - - - - - - - - - - - - - -
 72
65
 73
2
 40
0.2
 49
0.1
 74
0
 49
-0.1
 74
0
  0
ENDTAB
  0
TABLE
  2
LAYER
  5
2
100
AcDbSymbolTable
 70
36
  0
LAYER
  5
10
100
AcDbSymbolTableRecord
100
AcDbLayerTableRecord
  2
0
 70
0
 62
7
  6
CONTINUOUS
370
-3
390
F
  0
LAYER
  5
1FA
100
AcDbSymbolTableRecord
100
AcDbLayerTableRecord
  2
DEFAULT_1
 70
0
 62
7
  6
CENTER
370
-3
390
F
  0
LAYER
  5
1FB
100
AcDbSymbolTableRecord
100
AcDbLayerTableRecord
  2
DEFAULT_2
 70
0
 62
7
  6
HIDDEN
370
-3
390
F
  0
LAYER
  5
1FC
100
AcDbSymbolTableRecord
100
AcDbLayerTableRecord
  2
DEFAULT_3
 70
0
 62
7
  6
PHANTOM
370
-3
390
F
  0
LAYER
  5
1FD
100
AcDbSymbolTableRecord
100
AcDbLayerTableRecord
  2
00_COMPONENTS
 70
0
 62
7
  6
CONTINUOUS
370
-3
390
F
  0
LAYER
  5
1FE
100
AcDbSymbolTableRecord
100
AcDbLayerTableRecord
  2
01_1_DEFAULT_DATUMS
 70
0
 62
7
  6
CONTINUOUS
370
-3
390
F
  0
LAYER
  5
1FF
100
AcDbSymbolTableRecord
100
AcDbLayerTableRecord
  2
01_PLANES
 70
0
 62
7
  6
CONTINUOUS
370
-3
390
F
  0
LAYER
  5
200
100
AcDbSymbolTableRecord
100
AcDbLayerTableRecord
  2
02_COORD_SYS
 70
0
 62
7
  6
CONTINUOUS
370
-3
390
F
  0
LAYER
  5
201
100
AcDbSymbolTableRecord
100
AcDbLayerTableRecord
  2
03_AXES
 70
0
 62
7
  6
CONTINUOUS
370
-3
390
F
  0
LAYER
  5
202
100
AcDbSymbolTableRecord
100
AcDbLayerTableRecord
  2
04_POINTS
 70
0
 62
7
  6
CONTINUOUS
370
-3
390
F
  0
LAYER
  5
203
100
AcDbSymbolTableRecord
100
AcDbLayerTableRecord
  2
05_CURVES
 70
0
 62
7
  6
CONTINUOUS
370
-3
390
F
  0
LAYER
  5
204
100
AcDbSymbolTableRecord
100
AcDbLayerTableRecord
  2
06_SURFS
 70
0
 62
7
  6
CONTINUOUS
370
-3
390
F
  0
LAYER
  5
205
100
AcDbSymbolTableRecord
100
AcDbLayerTableRecord
  2
07_COSMETICS
 70
0
 62
7
  6
CONTINUOUS
370
-3
390
F
  0
LAYER
  5
206
100
AcDbSymbolTableRecord
100
AcDbLayerTableRecord
  2
10_NOTES
 70
0
 62
7
  6
CONTINUOUS
370
-3
390
F
  0
LAYER
  5
207
100
AcDbSymbolTableRecord
100
AcDbLayerTableRecord
  2
11_NOTES_PUB
 70
0
 62
7
  6
CONTINUOUS
370
-3
390
F
  0
LAYER
  5
208
100
AcDbSymbolTableRecord
100
AcDbLayerTableRecord
  2
13_REF_GTOL
 70
0
 62
7
  6
CONTINUOUS
370
-3
390
F
  0
LAYER
  5
209
100
AcDbSymbolTableRecord
100
AcDbLayerTableRecord
  2
16_MISC
 70
0
 62
7
  6
CONTINUOUS
370
-3
390
F
  0
LAYER
  5
20A
100
AcDbSymbolTableRecord
100
AcDbLayerTableRecord
  2
17_NO_PRINT
 70
0
 62
7
  6
CONTINUOUS
370
-3
390
F
  0
LAYER
  5
20B
100
AcDbSymbolTableRecord
100
AcDbLayerTableRecord
  2
18_DATUM_CAMS_JOINTS
 70
0
 62
7
  6
CONTINUOUS
370
-3
390
F
  0
LAYER
  5
20C
100
AcDbSymbolTableRecord
100
AcDbLayerTableRecord
  2
19_DATUM_FUNCTIONAL
 70
0
 62
7
  6
CONTINUOUS
370
-3
390
F
  0
LAYER
  5
20D
100
AcDbSymbolTableRecord
100
AcDbLayerTableRecord
  2
20_DATUM_KINEMATIC_SCHEME
 70
0
 62
7
  6
CONTINUOUS
370
-3
390
F
  0
LAYER
  5
20E
100
AcDbSymbolTableRecord
100
AcDbLayerTableRecord
  2
SHELL1
 70
0
 62
7
  6
CONTINUOUS
370
-3
390
F
  0
ENDTAB
  0
TABLE
  2
STYLE
  5
3
100
AcDbSymbolTable
 70
1
  0
STYLE
  5
11
100
AcDbSymbolTableRecord
100
AcDbTextStyleTableRecord
  2
STANDARD
 70
0
 40
0.0
 41
1.0
 50
0.0
 71
0
 42
0.2
  3
ARIAL.TTF
  4

  0
STYLE
  5
20F
100
AcDbSymbolTableRecord
100
AcDbTextStyleTableRecord
  2
TEXTSTYLE_1
 70
0
 40
0.0
 41
0.8
 50
0.0
 71
0
 42
0.2
  3
gdt
  4

  0
ENDTAB
  0
TABLE
  2
VIEW
  5
6
100
AcDbSymbolTable
 70
0
  0
ENDTAB
  0
TABLE
  2
UCS
  5
7
100
AcDbSymbolTable
 70
0
  0
ENDTAB
  0
TABLE
  2
APPID
  5
9
100
AcDbSymbolTable
 70
1
  0
APPID
  5
210
100
AcDbSymbolTableRecord
100
AcDbRegAppTableRecord
  2
ACAD
 70
0
  0
ENDTAB
  0
TABLE
  2
BLOCK_RECORD
  5
1
100
AcDbSymbolTable
 70
0
  0
BLOCK_RECORD
  5
211
100
AcDbSymbolTableRecord
100
AcDbBlockTableRecord
  2
*Model_Space
  0
BLOCK_RECORD
  5
212
100
AcDbSymbolTableRecord
100
AcDbBlockTableRecord
  2
*Paper_Space
  0
BLOCK_RECORD
  5
213
100
AcDbSymbolTableRecord
100
AcDbBlockTableRecord
  2
_FILLED
  0
ENDTAB
  0
TABLE
  2
DIMSTYLE
  5
A
100
AcDbSymbolTable
 70
1
100
AcDbDimStyleTable
 71
0
  0
DIMSTYLE
105
214
100
AcDbSymbolTableRecord
100
AcDbDimStyleTableRecord
  2
STANDARD
 70
0
  3

  4

 40
1.0
 41
1.803832673
 42
1.0
 43
0.38
 44
1.0
 45
0.0
 46
0.0
 47
0.01
 48
0.01
140
2.5253657422
141
0.09
142
0.0
143
25.4
144
1.0
145
0.0
146
1.0
147
0.625
 71
1
 72
0
 73
0
 74
0
 75
0
 76
0
 77
1
 78
8
 79
2
170
0
171
1
172
0
173
0
174
0
175
0
176
0
177
0
178
0
270
2
179
2
271
2
272
2
273
2
274
2
275
0
280
0
281
0
282
0
283
1
284
8
285
0
286
0
287
3
288
0
340
11
278
46
341
213
342
213
343
213
344
213
  0
ENDTAB
  0
ENDSEC
  0
SECTION
  2
BLOCKS
  0
BLOCK
  5
20
100
AcDbEntity
  8
0
100
AcDbBlockBegin
  2
*Model_Space
 70
0
 10
0.0
 20
0.0
 30
0.0
  3
*Model_Space
  1

  0
ENDBLK
  5
21
100
AcDbEntity
  8
0
100
AcDbBlockEnd
  0
BLOCK
  5
1C
100
AcDbEntity
  8
0
100
AcDbBlockBegin
  2
*Paper_Space
 70
0
 10
0.0
 20
0.0
 30
0.0
  3
*Paper_Space
  1

  0
ENDBLK
  5
1D
100
AcDbEntity
  8
0
100
AcDbBlockEnd
  0
BLOCK
  5
215
100
AcDbEntity
  8
0
100
AcDbBlockBegin
  2
_FILLED
 70
64
 10
0.0
 20
0.0
  3
_FILLED
  1

  0
SOLID
  5
216
100
AcDbEntity
  8
0
  6
BYBLOCK
 62
0
100
AcDbTrace
 10
0.0
 20
0.0
 11
-1.0
 21
0.25
 12
-1.0
 22
-0.25
 13
-1.0
 23
-0.25
  0
ENDBLK
  5
217
100
AcDbEntity
  8
0
  6
BYBLOCK
 62
0
100
AcDbBlockEnd
  0
ENDSEC
  0
SECTION
  2
ENTITIES
  0
LINE
  5
218
100
AcDbEntity
  8
0
100
AcDbLine
 62
7
  6
BYLAYER
 10
17.578288867
 20
111.0148128344
 11
17.578288867
 21
125.532225811
  0
LINE
  5
219
100
AcDbEntity
  8
0
100
AcDbLine
 62
7
  6
BYLAYER
 10
19.3743475689
 20
117.2365878062
 11
19.3743475689
 21
109.977881318
  0
LINE
  5
21A
100
AcDbEntity
  8
0
100
AcDbLine
 62
7
  6
BYLAYER
 10
28.6167737332
 20
66.7842931974
 11
30.412832435
 21
65.747361681
  0
LINE
  5
21B
100
AcDbEntity
  8
0
100
AcDbLine
 62
7
  6
BYLAYER
 10
66.6932182129
 20
44.801345048
 11
68.4892769147
 21
43.7644135316
  0
LINE
  5
21C
100
AcDbEntity
  8
0
100
AcDbLine
 62
7
  6
BYLAYER
 10
32.2088761815
 20
66.7843018318
 11
66.6932182129
 21
46.8752080811
  0
LINE
  5
21D
100
AcDbEntity
  8
0
100
AcDbLine
 62
7
  6
BYLAYER
 10
23.1916165044
 20
116.2516737579
 11
23.1916165044
 21
114.0740618114
  0
LINE
  5
21E
100
AcDbEntity
  8
0
100
AcDbLine
 62
7
  6
BYLAYER
 10
24.4303036629
 20
112.3475564603
 11
24.4303036629
 21
114.5251684068
  0
LINE
  5
21F
100
AcDbEntity
  8
0
100
AcDbLine
 62
7
  6
BYLAYER
 10
27.9814724809
 20
132.5450400008
 11
27.9814724809
 21
131.5384708185
  0
LINE
  5
220
100
AcDbEntity
  8
0
100
AcDbLine
 62
7
  6
BYLAYER
 10
28.1084730097
 20
131.6117941702
 11
28.1084730097
 21
132.4717175648
  0
LINE
  5
221
100
AcDbEntity
  8
0
100
AcDbLine
 62
7
  6
BYLAYER
 10
28.6167737332
 20
66.7842931974
 11
28.6167737332
 21
109.0921824434
  0
LINE
  5
222
100
AcDbEntity
  8
0
100
AcDbLine
 62
7
  6
BYLAYER
 10
30.412832435
 20
108.0552509269
 11
30.412832435
 21
65.747361681
  0
LINE
  5
223
100
AcDbEntity
  8
0
100
AcDbLine
 62
7
  6
BYLAYER
 10
70.0460932144
 20
156.8612861061
 11
63.9395444763
 21
153.3356895932
  0
LINE
  5
224
100
AcDbEntity
  8
0
100
AcDbLine
 62
7
  6
BYLAYER
 10
34.125218284
 20
136.1224830894
 11
28.0186695458
 21
132.5968865766
  0
LINE
  5
225
100
AcDbEntity
  8
0
100
AcDbLine
 62
7
  6
BYLAYER
 10
32.2088761815
 20
107.8566971195
 11
32.2088761815
 21
66.7843018318
  0
LINE
  5
226
100
AcDbEntity
  8
0
100
AcDbLine
 62
7
  6
BYLAYER
 10
34.3420274202
 20
135.2107170045
 11
34.3420212191
 21
136.0706368189
  0
LINE
  5
227
100
AcDbEntity
  8
0
100
AcDbLine
 62
7
  6
BYLAYER
 10
96.4246093394
 20
171.0538984326
 11
70.2629023507
 21
155.9495200212
  0
LINE
  5
228
100
AcDbEntity
  8
0
100
AcDbLine
 62
7
  6
BYLAYER
 10
65.5187940419
 20
153.2105241616
 11
62.5025052063
 21
151.4690793855
  0
LINE
  5
229
100
AcDbEntity
  8
0
100
AcDbLine
 62
7
  6
BYLAYER
 10
37.4927249897
 20
137.0297622361
 11
34.3420274202
 21
135.2107170045
  0
LINE
  5
22A
100
AcDbEntity
  8
0
100
AcDbLine
 62
7
  6
BYLAYER
 10
29.5979191114
 20
132.471721145
 11
17.578288867
 21
125.532225811
  0
LINE
  5
22B
100
AcDbEntity
  8
0
100
AcDbLine
 62
7
  6
BYLAYER
 10
62.3047278823
 20
146.8641299816
 11
41.3818956838
 21
134.7843992859
  0
LINE
  5
22C
100
AcDbEntity
  8
0
100
AcDbLine
 62
7
  6
BYLAYER
 10
38.3856797764
 20
106.4682105237
 11
38.3856797764
 21
104.2905985772
  0
LINE
  5
22D
100
AcDbEntity
  8
0
100
AcDbLine
 62
7
  6
BYLAYER
 10
27.5464146624
 20
119.7772558945
 11
24.4302787794
 21
117.9781647428
  0
LINE
  5
22E
100
AcDbEntity
  8
0
100
AcDbLine
 62
7
  6
BYLAYER
 10
43.4414661272
 20
114.5253790304
 11
43.4414661272
 21
120.03652806
  0
LINE
  5
22F
100
AcDbEntity
  8
0
100
AcDbLine
 62
7
  6
BYLAYER
 10
44.366530353
 20
104.2906129534
 11
44.366530353
 21
106.4682248999
  0
LINE
  5
230
100
AcDbEntity
  8
0
100
AcDbLine
 62
7
  6
BYLAYER
 10
47.4826662532
 20
106.0897041151
 11
47.4826662532
 21
108.2673160616
  0
LINE
  5
231
100
AcDbEntity
  8
0
100
AcDbLine
 62
7
  6
BYLAYER
 10
47.9316128818
 20
117.4441992688
 11
47.9316128818
 21
114.6467849908
  0
LINE
  5
232
100
AcDbEntity
  8
0
100
AcDbLine
 62
7
  6
BYLAYER
 10
61.6860120247
 20
149.3646748069
 11
62.5025052063
 21
151.4690793855
  0
LINE
  5
233
100
AcDbEntity
  8
0
100
AcDbLine
 62
7
  6
BYLAYER
 10
19.3743475689
 20
109.977881318
 11
23.2286574489
 21
112.2031548816
  0
LINE
  5
234
100
AcDbEntity
  8
0
100
AcDbLine
 62
7
  6
BYLAYER
 10
57.4507920486
 20
87.9949331686
 11
55.6547333467
 21
89.031864685
  0
LINE
  5
235
100
AcDbEntity
  8
0
100
AcDbLine
 62
7
  6
BYLAYER
 10
19.3743475689
 20
109.977881318
 11
17.578288867
 21
111.0148128344
  0
LINE
  5
236
100
AcDbEntity
  8
0
100
AcDbLine
 62
7
  6
BYLAYER
 10
23.2286574489
 20
112.2031548816
 11
30.412832435
 21
108.0552509269
  0
LINE
  5
237
100
AcDbEntity
  8
0
100
AcDbLine
 62
7
  6
BYLAYER
 10
61.3051019286
 20
90.2202067322
 11
68.4892769147
 21
86.0723027775
  0
LINE
  5
238
100
AcDbEntity
  8
0
100
AcDbLine
 62
7
  6
BYLAYER
 10
55.6547333467
 20
89.031864685
 11
55.6547333467
 21
96.2905711733
  0
LINE
  5
239
100
AcDbEntity
  8
0
100
AcDbLine
 62
7
  6
BYLAYER
 10
57.4507920486
 20
102.5123461451
 11
57.4507920486
 21
87.9949331686
  0
LINE
  5
23A
100
AcDbEntity
  8
0
100
AcDbLine
 62
7
  6
BYLAYER
 10
38.3856797592
 20
104.2905985871
 11
24.4303036765
 21
112.3475564524
  0
LINE
  5
23B
100
AcDbEntity
  8
0
100
AcDbLine
 62
7
  6
BYLAYER
 10
55.6547333467
 20
96.2905711733
 11
42.7377148799
 21
103.7480465516
  0
LINE
  5
23C
100
AcDbEntity
  8
0
100
AcDbLine
 62
7
  6
BYLAYER
 10
23.1916165044
 20
115.0327364165
 11
19.3743475689
 21
117.2365878062
  0
LINE
  5
23D
100
AcDbEntity
  8
0
100
AcDbLine
 62
7
  6
BYLAYER
 10
24.4303036765
 20
114.5251683989
 11
38.3856797592
 21
106.4682105336
  0
LINE
  5
23E
100
AcDbEntity
  8
0
100
AcDbLine
 62
7
  6
BYLAYER
 10
61.6860120247
 20
149.3646748069
 11
61.6860120247
 21
147.7316699727
  0
LINE
  5
23F
100
AcDbEntity
  8
0
100
AcDbLine
 62
7
  6
BYLAYER
 10
62.3047278823
 20
147.3744622869
 11
62.3047278823
 21
146.8641299816
  0
LINE
  5
240
100
AcDbEntity
  8
0
100
AcDbLine
 62
7
  6
BYLAYER
 10
63.9023474114
 20
153.2838430174
 11
63.9023474114
 21
152.2772738351
  0
LINE
  5
241
100
AcDbEntity
  8
0
100
AcDbLine
 62
7
  6
BYLAYER
 10
64.0293479401
 20
152.3505971869
 11
64.0293479401
 21
153.2105205815
  0
LINE
  5
242
100
AcDbEntity
  8
0
100
AcDbLine
 62
7
  6
BYLAYER
 10
44.3665303666
 20
106.4682249077
 11
47.4826662532
 21
108.2673160616
  0
LINE
  5
243
100
AcDbEntity
  8
0
100
AcDbLine
 62
7
  6
BYLAYER
 10
47.4826662532
 20
106.0897041151
 11
44.3665303666
 21
104.2906129613
  0
LINE
  5
244
100
AcDbEntity
  8
0
100
AcDbLine
 62
7
  6
BYLAYER
 10
17.578288867
 20
125.532225811
 11
27.5464146624
 21
119.7772558945
  0
LINE
  5
245
100
AcDbEntity
  8
0
100
AcDbLine
 62
7
  6
BYLAYER
 10
47.4826662532
 20
108.2673160616
 11
57.4507920486
 21
102.5123461451
  0
LINE
  5
246
100
AcDbEntity
  8
0
100
AcDbLine
 62
7
  6
BYLAYER
 10
66.6932182129
 20
44.801345048
 11
66.6932182129
 21
87.109234294
  0
LINE
  5
247
100
AcDbEntity
  8
0
100
AcDbLine
 62
7
  6
BYLAYER
 10
67.8911727274
 20
109.4864869977
 11
67.8911727274
 21
109.5770069107
  0
LINE
  5
248
100
AcDbEntity
  8
0
100
AcDbLine
 62
7
  6
BYLAYER
 10
68.4892769147
 20
86.0723027775
 11
68.4892769147
 21
43.7644135316
  0
LINE
  5
249
100
AcDbEntity
  8
0
100
AcDbLine
 62
7
  6
BYLAYER
 10
69.470422293
 20
109.4518414791
 11
69.470422293
 21
97.008344642
  0
LINE
  5
24A
100
AcDbEntity
  8
0
100
AcDbLine
 62
7
  6
BYLAYER
 10
70.2629023507
 20
155.9495200212
 11
70.2628961495
 21
156.8094398355
  0
LINE
  5
24B
100
AcDbEntity
  8
0
100
AcDbLine
 62
7
  6
BYLAYER
 10
67.8540960335
 20
109.5251609971
 11
67.8911727274
 21
109.5770069107
  0
LINE
  5
24C
100
AcDbEntity
  8
0
100
AcDbLine
 62
7
  6
BYLAYER
 10
109.918596396
 20
133.8414064402
 11
103.8120476579
 21
130.3158099274
  0
LINE
  5
24D
100
AcDbEntity
  8
0
100
AcDbLine
 62
7
  6
BYLAYER
 10
73.9977214656
 20
113.1026034235
 11
67.8911727274
 21
109.5770069107
  0
LINE
  5
24E
100
AcDbEntity
  8
0
100
AcDbLine
 62
7
  6
BYLAYER
 10
136.297112521
 20
148.0340187667
 11
110.1354055323
 21
132.9296403553
  0
LINE
  5
24F
100
AcDbEntity
  8
0
100
AcDbLine
 62
7
  6
BYLAYER
 10
105.3912972235
 20
130.1906444958
 11
102.3750083879
 21
128.4491997196
  0
LINE
  5
250
100
AcDbEntity
  8
0
100
AcDbLine
 62
7
  6
BYLAYER
 10
77.3652281712
 20
114.0098825702
 11
74.2145306018
 21
112.1908373386
  0
LINE
  5
251
100
AcDbEntity
  8
0
100
AcDbLine
 62
7
  6
BYLAYER
 10
69.470422293
 20
109.4518414791
 11
57.4507920486
 21
102.5123461451
  0
LINE
  5
252
100
AcDbEntity
  8
0
100
AcDbLine
 62
7
  6
BYLAYER
 10
38.5921480115
 20
117.2367896527
 11
43.0822947662
 21
114.6444608615
  0
LINE
  5
253
100
AcDbEntity
  8
0
100
AcDbLine
 62
7
  6
BYLAYER
 10
47.9316128818
 20
117.4441992688
 11
43.4414661272
 21
120.03652806
  0
LINE
  5
254
100
AcDbEntity
  8
0
100
AcDbLine
 62
7
  6
BYLAYER
 10
73.9977214656
 20
113.1026034235
 11
73.9977214656
 21
100.6591065865
  0
LINE
  5
255
100
AcDbEntity
  8
0
100
AcDbLine
 62
7
  6
BYLAYER
 10
74.2145244007
 20
113.050757153
 11
74.2145306018
 21
99.7473405016
  0
LINE
  5
256
100
AcDbEntity
  8
0
100
AcDbLine
 62
7
  6
BYLAYER
 10
77.4285967614
 20
110.7804585559
 11
77.4285967614
 21
109.5557049302
  0
LINE
  5
257
100
AcDbEntity
  8
0
100
AcDbLine
 62
7
  6
BYLAYER
 10
102.1772310639
 20
125.0690039414
 11
101.5585152063
 21
124.7117903068
  0
LINE
  5
258
100
AcDbEntity
  8
0
100
AcDbLine
 62
7
  6
BYLAYER
 10
78.047312619
 20
111.1376721906
 11
77.4285967614
 21
110.7804585559
  0
LINE
  5
259
100
AcDbEntity
  8
0
100
AcDbLine
 62
7
  6
BYLAYER
 10
77.4285967614
 20
109.5557049302
 11
102.1772310639
 21
123.8442503157
  0
LINE
  5
25A
100
AcDbEntity
  8
0
100
AcDbLine
 62
7
  6
BYLAYER
 10
78.047312619
 20
111.4642731574
 11
78.047312619
 21
111.1376721906
  0
LINE
  5
25B
100
AcDbEntity
  8
0
100
AcDbLine
 62
7
  6
BYLAYER
 10
69.470422293
 20
98.0452847929
 11
73.9977214656
 21
100.6591065865
  0
LINE
  5
25C
100
AcDbEntity
  8
0
100
AcDbLine
 62
7
  6
BYLAYER
 10
105.3912972235
 20
118.7840878096
 11
109.918596396
 21
121.3979096031
  0
LINE
  5
25D
100
AcDbEntity
  8
0
100
AcDbLine
 62
7
  6
BYLAYER
 10
69.470422293
 20
97.008344642
 11
74.2145306018
 21
99.7473405016
  0
LINE
  5
25E
100
AcDbEntity
  8
0
100
AcDbLine
 62
7
  6
BYLAYER
 10
105.3912972235
 20
117.7471476587
 11
110.1354055323
 21
120.4861435183
  0
LINE
  5
25F
100
AcDbEntity
  8
0
100
AcDbLine
 62
7
  6
BYLAYER
 10
69.470422293
 20
109.4518414791
 11
67.9809761912
 21
109.4518378989
  0
LINE
  5
260
100
AcDbEntity
  8
0
100
AcDbLine
 62
7
  6
BYLAYER
 10
37.4927249897
 20
137.0297622361
 11
77.3652281712
 21
114.0098825702
  0
LINE
  5
261
100
AcDbEntity
  8
0
100
AcDbLine
 62
7
  6
BYLAYER
 10
78.047312619
 20
111.4642731574
 11
77.3652281712
 21
114.0098825702
  0
LINE
  5
262
100
AcDbEntity
  8
0
100
AcDbLine
 62
7
  6
BYLAYER
 10
103.774970964
 20
130.2639640138
 11
103.8120476579
 21
130.3158099274
  0
LINE
  5
263
100
AcDbEntity
  8
0
100
AcDbLine
 62
7
  6
BYLAYER
 10
136.297112521
 20
133.5166057901
 11
132.4428026409
 21
131.2913322265
  0
LINE
  5
264
100
AcDbEntity
  8
0
100
AcDbLine
 62
7
  6
BYLAYER
 10
61.3051019286
 20
90.2202067322
 11
57.4507920486
 21
87.9949331686
  0
LINE
  5
265
100
AcDbEntity
  8
0
100
AcDbLine
 62
7
  6
BYLAYER
 10
102.3750083879
 20
128.4491997196
 11
101.5585152063
 21
126.3447951411
  0
LINE
  5
266
100
AcDbEntity
  8
0
100
AcDbLine
 62
7
  6
BYLAYER
 10
30.412832435
 20
65.747361681
 11
32.2088761815
 21
66.7843018318
  0
LINE
  5
267
100
AcDbEntity
  8
0
100
AcDbLine
 62
7
  6
BYLAYER
 10
105.3912972235
 20
130.1906444958
 11
103.9018511217
 21
130.1906409156
  0
LINE
  5
268
100
AcDbEntity
  8
0
100
AcDbLine
 62
7
  6
BYLAYER
 10
101.5585152063
 20
124.7117903068
 11
101.5585152063
 21
126.3447951411
  0
LINE
  5
269
100
AcDbEntity
  8
0
100
AcDbLine
 62
7
  6
BYLAYER
 10
102.1772310639
 20
123.8442503157
 11
102.1772310639
 21
125.0690039414
  0
LINE
  5
26A
100
AcDbEntity
  8
0
100
AcDbLine
 62
7
  6
BYLAYER
 10
103.8120476579
 20
130.2252900143
 11
103.8120476579
 21
130.3158099274
  0
LINE
  5
26B
100
AcDbEntity
  8
0
100
AcDbLine
 62
7
  6
BYLAYER
 10
105.3912972235
 20
130.1906444958
 11
105.3912972235
 21
117.7471476587
  0
LINE
  5
26C
100
AcDbEntity
  8
0
100
AcDbLine
 62
7
  6
BYLAYER
 10
28.1084730097
 20
132.4717175648
 11
29.5979191114
 21
132.471721145
  0
LINE
  5
26D
100
AcDbEntity
  8
0
100
AcDbLine
 62
7
  6
BYLAYER
 10
102.1772310639
 20
123.8442503157
 11
62.3047278823
 21
146.8641299816
  0
LINE
  5
26E
100
AcDbEntity
  8
0
100
AcDbLine
 62
7
  6
BYLAYER
 10
101.5585152063
 20
124.7117903068
 11
61.6860120247
 21
147.7316699727
  0
LINE
  5
26F
100
AcDbEntity
  8
0
100
AcDbLine
 62
7
  6
BYLAYER
 10
101.5585152063
 20
126.3447951411
 11
61.6860120247
 21
149.3646748069
  0
LINE
  5
270
100
AcDbEntity
  8
0
100
AcDbLine
 62
7
  6
BYLAYER
 10
109.918596396
 20
133.8414064402
 11
109.918596396
 21
121.3979096031
  0
LINE
  5
271
100
AcDbEntity
  8
0
100
AcDbLine
 62
7
  6
BYLAYER
 10
110.1353993311
 20
133.7895601696
 11
110.1354055323
 21
120.4861435183
  0
LINE
  5
272
100
AcDbEntity
  8
0
100
AcDbLine
 62
7
  6
BYLAYER
 10
110.7931066218
 20
153.4106346866
 11
110.7931066218
 21
158.9217837162
  0
LINE
  5
273
100
AcDbEntity
  8
0
100
AcDbLine
 62
7
  6
BYLAYER
 10
102.3750083879
 20
128.4491997196
 11
62.5025052063
 21
151.4690793855
  0
LINE
  5
274
100
AcDbEntity
  8
0
100
AcDbLine
 62
7
  6
BYLAYER
 10
115.2832533765
 20
156.329454925
 11
115.2832533765
 21
153.5320406471
  0
LINE
  5
275
100
AcDbEntity
  8
0
100
AcDbLine
 62
7
  6
BYLAYER
 10
125.2586276548
 20
118.8479070651
 11
132.4428026409
 21
131.2913322265
  0
LINE
  5
276
100
AcDbEntity
  8
0
100
AcDbLine
 62
7
  6
BYLAYER
 10
64.0293479401
 20
153.2105205815
 11
65.5187940419
 21
153.2105241616
  0
LINE
  5
277
100
AcDbEntity
  8
0
100
AcDbLine
 62
7
  6
BYLAYER
 10
125.2586276548
 20
76.5400178191
 11
125.2586276548
 21
118.8479070651
  0
LINE
  5
278
100
AcDbEntity
  8
0
100
AcDbLine
 62
7
  6
BYLAYER
 10
68.4892769147
 20
43.7644135316
 11
125.2586276548
 21
76.5400178191
  0
LINE
  5
279
100
AcDbEntity
  8
0
100
AcDbLine
 62
7
  6
BYLAYER
 10
105.9437885062
 20
156.122045309
 11
110.4339352608
 21
153.5297165178
  0
LINE
  5
27A
100
AcDbEntity
  8
0
100
AcDbLine
 62
7
  6
BYLAYER
 10
136.297112521
 20
133.5166057901
 11
136.297112521
 21
148.0340187667
  0
LINE
  5
27B
100
AcDbEntity
  8
0
100
AcDbLine
 62
7
  6
BYLAYER
 10
115.2832533765
 20
156.329454925
 11
110.7931066218
 21
158.9217837162
  0
LINE
  5
27C
100
AcDbEntity
  8
0
100
AcDbLine
 62
7
  6
BYLAYER
 10
136.297112521
 20
148.0340187667
 11
96.4246093394
 21
171.0538984326
  0
SPLINE
  5
27D
100
AcDbEntity
  8
0
100
AcDbSpline
 62
7
  6
BYLAYER
 70
0
 71
3
 72
17
 73
13
 74
0
 42
0.0000001
 43
0.0000001
 44
0.0000000001
 40
0.0
 40
0.0
 40
0.0
 40
0.0
 40
0.0428584554
 40
0.0874839031
 40
0.1353177481
 40
0.1872794187
 40
0.3045395902
 40
0.4382053041
 40
0.582547581
 40
0.729712444
 40
0.8713059798
 40
1.0
 40
1.0
 40
1.0
 40
1.0
 10
116.2875826302
 20
154.9295857148
 30
0.0
 10
116.2875900108
 20
154.8319742948
 30
0.0
 10
116.2614252393
 20
154.6318871689
 30
0.0
 10
116.1467328947
 20
154.3429464144
 30
0.0
 10
115.9604886068
 20
154.0690445883
 30
0.0
 10
115.6099514479
 20
153.7172161441
 30
0.0
 10
115.0126170875
 20
153.353613117
 30
0.0
 10
114.1537606868
 20
153.066720452
 30
0.0
 10
113.1899035841
 20
152.9312482969
 30
0.0
 10
112.1991958298
 20
152.9586699909
 30
0.0
 10
111.2624953294
 20
153.1460319404
 30
0.0
 10
110.6877726385
 20
153.3831667549
 30
0.0
 10
110.4339352608
 20
153.5297165178
 30
0.0
  0
SPLINE
  5
27E
100
AcDbEntity
  8
0
100
AcDbSpline
 62
7
  6
BYLAYER
 70
0
 71
3
 72
11
 73
7
 74
0
 42
0.0000001
 43
0.0000001
 44
0.0000000001
 40
0.0
 40
0.0
 40
0.0
 40
0.0
 40
0.2897052857
 40
0.5490919934
 40
0.7822182544
 40
1.0
 40
1.0
 40
1.0
 40
1.0
 10
24.4303036765
 20
112.3475564524
 30
0.0
 10
24.2447331645
 20
112.4546932138
 30
0.0
 10
23.9080613848
 20
112.6865788314
 30
0.0
 10
23.5056911624
 20
113.1094461419
 30
0.0
 10
23.2511646393
 20
113.5772409057
 30
0.0
 10
23.1916375619
 20
113.9129820663
 30
0.0
 10
23.1916376071
 20
114.0740618114
 30
0.0
  0
SPLINE
  5
27F
100
AcDbEntity
  8
0
100
AcDbSpline
 62
7
  6
BYLAYER
 70
0
 71
3
 72
13
 73
9
 74
0
 42
0.0000001
 43
0.0000001
 44
0.0000000001
 40
0.0
 40
0.0
 40
0.0
 40
0.0
 40
0.1142249338
 40
0.2375584468
 40
0.4999994088
 40
0.7624406903
 40
0.885774603
 40
1.0
 40
1.0
 40
1.0
 40
1.0
 10
44.3665303666
 20
104.2906129613
 30
0.0
 10
44.1618695209
 20
104.1724526724
 30
0.0
 10
43.7141257357
 20
103.9640130883
 30
0.0
 10
42.7219740834
 20
103.6625701394
 30
0.0
 10
41.3761101148
 20
103.5162333985
 30
0.0
 10
40.0302446798
 20
103.6625637639
 30
0.0
 10
39.0380890417
 20
103.9640019222
 30
0.0
 10
38.5903422868
 20
104.172439295
 30
0.0
 10
38.3856797592
 20
104.2905985871
 30
0.0
  0
SPLINE
  5
280
100
AcDbEntity
  8
0
100
AcDbSpline
 62
7
  6
BYLAYER
 70
0
 71
3
 72
17
 73
13
 74
0
 42
0.0000001
 43
0.0000001
 44
0.0000000001
 40
0.0
 40
0.0
 40
0.0
 40
0.0
 40
0.0428584554
 40
0.0874839031
 40
0.1353177481
 40
0.1872794187
 40
0.3045395902
 40
0.4382053041
 40
0.582547581
 40
0.729712444
 40
0.8713059798
 40
1.0
 40
1.0
 40
1.0
 40
1.0
 10
48.9359421356
 20
116.0443300585
 30
0.0
 10
48.9359495162
 20
115.9467186385
 30
0.0
 10
48.9097847447
 20
115.7466315127
 30
0.0
 10
48.7950924001
 20
115.4576907581
 30
0.0
 10
48.6088481122
 20
115.1837889321
 30
0.0
 10
48.2583109533
 20
114.8319604878
 30
0.0
 10
47.6609765929
 20
114.4683574608
 30
0.0
 10
46.8021201922
 20
114.1814647958
 30
0.0
 10
45.8382630895
 20
114.0459926406
 30
0.0
 10
44.8475553352
 20
114.0734143347
 30
0.0
 10
43.9108548347
 20
114.2607762841
 30
0.0
 10
43.3361321439
 20
114.4979110986
 30
0.0
 10
43.0822947662
 20
114.6444608615
 30
0.0
  0
SPLINE
  5
281
100
AcDbEntity
  8
0
100
AcDbSpline
 62
7
  6
BYLAYER
 70
0
 71
3
 72
11
 73
7
 74
0
 42
0.0000001
 43
0.0000001
 44
0.0000000001
 40
0.0
 40
0.0
 40
0.0
 40
0.0
 40
0.3068682863
 40
0.5852892772
 40
0.8136688365
 40
1.0
 40
1.0
 40
1.0
 40
1.0
 10
67.9809761912
 20
109.4518378989
 30
0.0
 10
67.9647003273
 20
109.4518378598
 30
0.0
 10
67.9335226745
 20
109.4553084906
 30
0.0
 10
67.8925329049
 20
109.4701313807
 30
0.0
 10
67.8626503089
 20
109.4932308251
 30
0.0
 10
67.8540102062
 20
109.515278201
 30
0.0
 10
67.8539896966
 20
109.5251609235
 30
0.0
  0
SPLINE
  5
282
100
AcDbEntity
  8
0
100
AcDbSpline
 62
7
  6
BYLAYER
 70
0
 71
3
 72
11
 73
7
 74
0
 42
0.0000001
 43
0.0000001
 44
0.0000000001
 40
0.0
 40
0.0
 40
0.0
 40
0.0
 40
0.2897048043
 40
0.5490913406
 40
0.7822177948
 40
1.0
 40
1.0
 40
1.0
 40
1.0
 10
24.4302787794
 20
117.9781647428
 30
0.0
 10
24.2447117383
 20
117.871028201
 30
0.0
 10
23.9080463473
 20
117.6391434681
 30
0.0
 10
23.505684298
 20
117.2162792911
 30
0.0
 10
23.2511632564
 20
116.7484890584
 30
0.0
 10
23.1916375772
 20
116.4127517684
 30
0.0
 10
23.1916376071
 20
116.2516737579
 30
0.0
  0
SPLINE
  5
283
100
AcDbEntity
  8
0
100
AcDbSpline
 62
7
  6
BYLAYER
 70
0
 71
3
 72
9
 73
5
 74
0
 42
0.0000001
 43
0.0000001
 44
0.0000000001
 40
0.0
 40
0.0
 40
0.0
 40
0.0
 40
0.2830110004
 40
1.0
 40
1.0
 40
1.0
 40
1.0
 10
28.0186695458
 20
132.5968865766
 30
0.0
 10
28.014271222
 20
132.5943472183
 30
0.0
 10
27.9994325127
 20
132.5844455283
 30
0.0
 10
27.9868663544
 20
132.5695521429
 30
0.0
 10
27.9832388307
 20
132.5572074494
 30
0.0
  0
SPLINE
  5
284
100
AcDbEntity
  8
0
100
AcDbSpline
 62
7
  6
BYLAYER
 70
0
 71
3
 72
8
 73
4
 74
0
 42
0.0000001
 43
0.0000001
 44
0.0000000001
 40
0.0
 40
0.0
 40
0.0
 40
0.0
 40
1.0
 40
1.0
 40
1.0
 40
1.0
 10
27.9832388307
 20
132.5572074494
 30
0.0
 10
27.9820836217
 20
132.5532761996
 30
0.0
 10
27.9814780115
 20
132.5491380472
 30
0.0
 10
27.981486515
 20
132.5450405894
 30
0.0
  0
SPLINE
  5
285
100
AcDbEntity
  8
0
100
AcDbSpline
 62
7
  6
BYLAYER
 70
0
 71
3
 72
12
 73
8
 74
0
 42
0.0000001
 43
0.0000001
 44
0.0000000001
 40
0.0
 40
0.0
 40
0.0
 40
0.0
 40
0.1833920947
 40
0.3016809381
 40
0.4362087542
 40
0.7288008684
 40
1.0
 40
1.0
 40
1.0
 40
1.0
 10
34.3420212191
 20
136.0706368189
 30
0.0
 10
34.3420211084
 20
136.0859837189
 30
0.0
 10
34.32616183
 20
136.1104430491
 30
0.0
 10
34.2948151465
 20
136.1288410372
 30
0.0
 10
34.2511809719
 20
136.1436328887
 30
0.0
 10
34.1918470379
 20
136.1464903102
 30
0.0
 10
34.1448726766
 20
136.1338304906
 30
0.0
 10
34.125218284
 20
136.1224830894
 30
0.0
  0
SPLINE
  5
286
100
AcDbEntity
  8
0
100
AcDbSpline
 62
7
  6
BYLAYER
 70
0
 71
3
 72
11
 73
7
 74
0
 42
0.0000001
 43
0.0000001
 44
0.0000000001
 40
0.0
 40
0.0
 40
0.0
 40
0.0
 40
0.2897036169
 40
0.5490920547
 40
0.7822205729
 40
1.0
 40
1.0
 40
1.0
 40
1.0
 10
38.5921480115
 20
117.2367896527
 30
0.0
 10
38.441685965
 20
117.3236569906
 30
0.0
 10
38.1687082477
 20
117.5116723802
 30
0.0
 10
37.8424552005
 20
117.8545339297
 30
0.0
 10
37.6360822519
 20
118.2338327978
 30
0.0
 10
37.587828633
 20
118.5060547634
 30
0.0
 10
37.5878187578
 20
118.6366588629
 30
0.0
  0
SPLINE
  5
287
100
AcDbEntity
  8
0
100
AcDbSpline
 62
7
  6
BYLAYER
 70
0
 71
3
 72
20
 73
16
 74
0
 42
0.0000001
 43
0.0000001
 44
0.0000000001
 40
0.0
 40
0.0
 40
0.0
 40
0.0
 40
0.0428322242
 40
0.0874331191
 40
0.1352368557
 40
0.1871688519
 40
0.2436383648
 40
0.3046205238
 40
0.3697460326
 40
0.4383821327
 40
0.5826347727
 40
0.7296944382
 40
0.8711920779
 40
0.9375939861
 40
1.0
 40
1.0
 40
1.0
 40
1.0
 10
37.5043428886
 20
101.7868441639
 30
0.0
 10
37.7391553526
 20
101.9224441814
 30
0.0
 10
38.2568337699
 20
102.1374997323
 30
0.0
 10
39.111287733
 20
102.2628233641
 30
0.0
 10
40.0288809401
 20
102.1952636034
 30
0.0
 10
40.9891649461
 20
101.9400749876
 30
0.0
 10
41.9733369503
 20
101.5051460843
 30
0.0
 10
42.9617745147
 20
100.9004622031
 30
0.0
 10
43.9344521388
 20
100.1389528542
 30
0.0
 10
45.203781981
 20
98.9162458523
 30
0.0
 10
46.6143470725
 20
97.1097817059
 30
0.0
 10
47.9238292369
 20
94.690040082
 30
0.0
 10
48.6483482342
 20
92.5478369371
 30
0.0
 10
48.9484175665
 20
90.8605591687
 30
0.0
 10
49.0020250441
 20
90.0445428949
 30
0.0
 10
49.0020250441
 20
89.649475543
 30
0.0
  0
SPLINE
  5
288
100
AcDbEntity
  8
0
100
AcDbSpline
 62
7
  6
BYLAYER
 70
0
 71
3
 72
9
 73
5
 74
0
 42
0.0000001
 43
0.0000001
 44
0.0000000001
 40
0.0
 40
0.0
 40
0.0
 40
0.0
 40
0.4858483578
 40
1.0
 40
1.0
 40
1.0
 40
1.0
 10
53.6688712054
 20
92.4544605155
 30
0.0
 10
53.9512676961
 20
92.6175394613
 30
0.0
 10
54.5889301199
 20
92.8625191483
 30
0.0
 10
55.2674197611
 20
92.9118277136
 30
0.0
 10
55.6121673049
 20
92.8962522643
 30
0.0
  0
SPLINE
  5
289
100
AcDbEntity
  8
0
100
AcDbSpline
 62
7
  6
BYLAYER
 70
0
 71
3
 72
12
 73
8
 74
0
 42
0.0000001
 43
0.0000001
 44
0.0000000001
 40
0.0
 40
0.0
 40
0.0
 40
0.0
 40
0.2559596432
 40
0.5179143691
 40
0.7703583173
 40
0.8887937182
 40
1.0
 40
1.0
 40
1.0
 40
1.0
 10
60.8629422352
 20
90.0543321336
 30
0.0
 10
61.5111050865
 20
89.3903151512
 30
0.0
 10
62.691963293
 20
87.9146434637
 30
0.0
 10
64.0467656709
 20
85.4591720612
 30
0.0
 10
64.7987156694
 20
83.2757046163
 30
0.0
 10
65.1107232075
 20
81.5533680388
 30
0.0
 10
65.1665533609
 20
80.7202430256
 30
0.0
 10
65.1665533609
 20
80.3170918947
 30
0.0
  0
SPLINE
  5
28A
100
AcDbEntity
  8
0
100
AcDbSpline
 62
7
  6
BYLAYER
 70
0
 71
3
 72
11
 73
7
 74
0
 42
0.0000001
 43
0.0000001
 44
0.0000000001
 40
0.0
 40
0.0
 40
0.0
 40
0.0
 40
0.2897036169
 40
0.5490920547
 40
0.7822205729
 40
1.0
 40
1.0
 40
1.0
 40
1.0
 10
105.9437885062
 20
156.122045309
 30
0.0
 10
105.7933264596
 20
156.2089126468
 30
0.0
 10
105.5203487423
 20
156.3969280364
 30
0.0
 10
105.1940956951
 20
156.739789586
 30
0.0
 10
104.9877227465
 20
157.119088454
 30
0.0
 10
104.9394691276
 20
157.3913104196
 30
0.0
 10
104.9394592524
 20
157.5219145192
 30
0.0
  0
SPLINE
  5
28B
100
AcDbEntity
  8
0
100
AcDbSpline
 62
7
  6
BYLAYER
 70
0
 71
3
 72
12
 73
8
 74
0
 42
0.0000001
 43
0.0000001
 44
0.0000000001
 40
0.0
 40
0.0
 40
0.0
 40
0.0
 40
0.1833920947
 40
0.3016809381
 40
0.4362087542
 40
0.7288008684
 40
1.0
 40
1.0
 40
1.0
 40
1.0
 10
70.2628961495
 20
156.8094398355
 30
0.0
 10
70.2628960389
 20
156.8247867356
 30
0.0
 10
70.2470367605
 20
156.8492460658
 30
0.0
 10
70.2156900769
 20
156.8676440539
 30
0.0
 10
70.1720559024
 20
156.8824359053
 30
0.0
 10
70.1127219684
 20
156.8852933269
 30
0.0
 10
70.0657476071
 20
156.8726335072
 30
0.0
 10
70.0460932144
 20
156.8612861061
 30
0.0
  0
SPLINE
  5
28C
100
AcDbEntity
  8
0
100
AcDbSpline
 62
7
  6
BYLAYER
 70
0
 71
3
 72
9
 73
5
 74
0
 42
0.0000001
 43
0.0000001
 44
0.0000000001
 40
0.0
 40
0.0
 40
0.0
 40
0.0
 40
0.2830110004
 40
1.0
 40
1.0
 40
1.0
 40
1.0
 10
63.9395444763
 20
153.3356895932
 30
0.0
 10
63.9351461524
 20
153.3331502349
 30
0.0
 10
63.9203074432
 20
153.323248545
 30
0.0
 10
63.9077412848
 20
153.3083551596
 30
0.0
 10
63.9041137612
 20
153.2960104661
 30
0.0
  0
SPLINE
  5
28D
100
AcDbEntity
  8
0
100
AcDbSpline
 62
7
  6
BYLAYER
 70
0
 71
3
 72
8
 73
4
 74
0
 42
0.0000001
 43
0.0000001
 44
0.0000000001
 40
0.0
 40
0.0
 40
0.0
 40
0.0
 40
1.0
 40
1.0
 40
1.0
 40
1.0
 10
63.9041137612
 20
153.2960104661
 30
0.0
 10
63.9029585521
 20
153.2920792163
 30
0.0
 10
63.902352942
 20
153.2879410639
 30
0.0
 10
63.9023614454
 20
153.2838436061
 30
0.0
  0
SPLINE
  5
28E
100
AcDbEntity
  8
0
100
AcDbSpline
 62
7
  6
BYLAYER
 70
0
 71
3
 72
11
 73
7
 74
0
 42
0.0000001
 43
0.0000001
 44
0.0000000001
 40
0.0
 40
0.0
 40
0.0
 40
0.0
 40
0.3068682863
 40
0.5852892772
 40
0.8136688365
 40
1.0
 40
1.0
 40
1.0
 40
1.0
 10
103.9018511217
 20
130.1906409156
 30
0.0
 10
103.8855752577
 20
130.1906408764
 30
0.0
 10
103.854397605
 20
130.1941115073
 30
0.0
 10
103.8134078354
 20
130.2089343974
 30
0.0
 10
103.7835252394
 20
130.2320338417
 30
0.0
 10
103.7748851367
 20
130.2540812176
 30
0.0
 10
103.774864627
 20
130.2639639402
 30
0.0
  0
SPLINE
  5
28F
100
AcDbEntity
  8
0
100
AcDbSpline
 62
7
  6
BYLAYER
 70
0
 71
3
 72
12
 73
8
 74
0
 42
0.0000001
 43
0.0000001
 44
0.0000000001
 40
0.0
 40
0.0
 40
0.0
 40
0.0
 40
0.2895698772
 40
0.5486409845
 40
0.7816367796
 40
0.8918393161
 40
1.0
 40
1.0
 40
1.0
 40
1.0
 10
49.0020250441
 20
89.649475543
 30
0.0
 10
49.0020250441
 20
89.1667113163
 30
0.0
 10
48.9288485644
 20
88.2487617812
 30
0.0
 10
48.5577457149
 20
86.9882549479
 30
0.0
 10
48.024298541
 20
86.1185956626
 30
0.0
 10
47.4856871491
 20
85.5888067772
 30
0.0
 10
47.1854223129
 20
85.3792702461
 30
0.0
 10
47.0292669355
 20
85.2890932957
 30
0.0
  0
SPLINE
  5
290
100
AcDbEntity
  8
0
100
AcDbSpline
 62
7
  6
BYLAYER
 70
0
 71
3
 72
12
 73
8
 74
0
 42
0.0000001
 43
0.0000001
 44
0.0000000001
 40
0.0
 40
0.0
 40
0.0
 40
0.0
 40
0.2895698772
 40
0.5486409845
 40
0.7816367796
 40
0.8918393161
 40
1.0
 40
1.0
 40
1.0
 40
1.0
 10
65.1665533609
 20
80.3170918947
 30
0.0
 10
65.1665533609
 20
79.8343276679
 30
0.0
 10
65.0933768812
 20
78.9163781328
 30
0.0
 10
64.7222740318
 20
77.6558712996
 30
0.0
 10
64.1888268579
 20
76.7862120142
 30
0.0
 10
63.650215466
 20
76.2564231288
 30
0.0
 10
63.3499506298
 20
76.0468865977
 30
0.0
 10
63.1937952524
 20
75.9567096474
 30
0.0
  0
SPLINE
  5
291
100
AcDbEntity
  8
0
100
AcDbSpline
 62
7
  6
BYLAYER
 70
0
 71
3
 72
12
 73
8
 74
0
 42
0.0000001
 43
0.0000001
 44
0.0000000001
 40
0.0
 40
0.0
 40
0.0
 40
0.0
 40
0.2711991316
 40
0.5637912458
 40
0.6983190619
 40
0.8166079053
 40
1.0
 40
1.0
 40
1.0
 40
1.0
 10
73.9977214656
 20
113.1026034235
 30
0.0
 10
74.0173758582
 20
113.1139508247
 30
0.0
 10
74.0643502195
 20
113.1266106443
 30
0.0
 10
74.1236841535
 20
113.1237532228
 30
0.0
 10
74.1673183281
 20
113.1089613713
 30
0.0
 10
74.1986650116
 20
113.0905633832
 30
0.0
 10
74.21452429
 20
113.066104053
 30
0.0
 10
74.2145244007
 20
113.050757153
 30
0.0
  0
SPLINE
  5
292
100
AcDbEntity
  8
0
100
AcDbSpline
 62
7
  6
BYLAYER
 70
0
 71
3
 72
12
 73
8
 74
0
 42
0.0000001
 43
0.0000001
 44
0.0000000001
 40
0.0
 40
0.0
 40
0.0
 40
0.0
 40
0.1833920947
 40
0.3016809381
 40
0.4362087542
 40
0.7288008684
 40
1.0
 40
1.0
 40
1.0
 40
1.0
 10
110.1353993311
 20
121.3460633326
 30
0.0
 10
110.1353992205
 20
121.3614102326
 30
0.0
 10
110.119539942
 20
121.3858695628
 30
0.0
 10
110.0881932585
 20
121.404267551
 30
0.0
 10
110.044559084
 20
121.4190594024
 30
0.0
 10
109.98522515
 20
121.4219168239
 30
0.0
 10
109.9382507887
 20
121.4092570043
 30
0.0
 10
109.918596396
 20
121.3979096031
 30
0.0
  0
SPLINE
  5
293
100
AcDbEntity
  8
0
100
AcDbSpline
 62
7
  6
BYLAYER
 70
0
 71
3
 72
11
 73
7
 74
0
 42
0.0000001
 43
0.0000001
 44
0.0000000001
 40
0.0
 40
0.0
 40
0.0
 40
0.0
 40
0.2897036169
 40
0.5490920547
 40
0.7822205729
 40
1.0
 40
1.0
 40
1.0
 40
1.0
 10
47.9316128818
 20
117.4441992688
 30
0.0
 10
48.0820749284
 20
117.3573319309
 30
0.0
 10
48.3550526457
 20
117.1693165413
 30
0.0
 10
48.6813056929
 20
116.8264549917
 30
0.0
 10
48.8876786415
 20
116.4471561237
 30
0.0
 10
48.9359322604
 20
116.1749341581
 30
0.0
 10
48.9359421356
 20
116.0443300585
 30
0.0
  0
SPLINE
  5
294
100
AcDbEntity
  8
0
100
AcDbSpline
 62
7
  6
BYLAYER
 70
0
 71
3
 72
17
 73
13
 74
0
 42
0.0000001
 43
0.0000001
 44
0.0000000001
 40
0.0
 40
0.0
 40
0.0
 40
0.0
 40
0.0428584554
 40
0.0874839031
 40
0.1353177481
 40
0.1872794187
 40
0.3045395902
 40
0.4382053041
 40
0.582547581
 40
0.729712444
 40
0.8713059798
 40
1.0
 40
1.0
 40
1.0
 40
1.0
 10
104.9394592524
 20
157.5219145192
 30
0.0
 10
104.9394518718
 20
157.6195259392
 30
0.0
 10
104.9656166433
 20
157.8196130651
 30
0.0
 10
105.0803089879
 20
158.1085538196
 30
0.0
 10
105.2665532758
 20
158.3824556457
 30
0.0
 10
105.6170904347
 20
158.7342840899
 30
0.0
 10
106.2144247951
 20
159.0978871169
 30
0.0
 10
107.0732811958
 20
159.3847797819
 30
0.0
 10
108.0371382985
 20
159.5202519371
 30
0.0
 10
109.0278460528
 20
159.492830243
 30
0.0
 10
109.9645465533
 20
159.3054682936
 30
0.0
 10
110.5392692441
 20
159.0683334791
 30
0.0
 10
110.7931066218
 20
158.9217837162
 30
0.0
  0
SPLINE
  5
295
100
AcDbEntity
  8
0
100
AcDbSpline
 62
7
  6
BYLAYER
 70
0
 71
3
 72
11
 73
7
 74
0
 42
0.0000001
 43
0.0000001
 44
0.0000000001
 40
0.0
 40
0.0
 40
0.0
 40
0.0
 40
0.2897036169
 40
0.5490920547
 40
0.7822205729
 40
1.0
 40
1.0
 40
1.0
 40
1.0
 10
115.2832533765
 20
156.329454925
 30
0.0
 10
115.433715423
 20
156.2425875871
 30
0.0
 10
115.7066931403
 20
156.0545721975
 30
0.0
 10
116.0329461875
 20
155.711710648
 30
0.0
 10
116.2393191361
 20
155.33241178
 30
0.0
 10
116.287572755
 20
155.0601898144
 30
0.0
 10
116.2875826302
 20
154.9295857148
 30
0.0
  0
SPLINE
  5
296
100
AcDbEntity
  8
0
100
AcDbSpline
 62
7
  6
BYLAYER
 70
0
 71
3
 72
11
 73
7
 74
0
 42
0.0000001
 43
0.0000001
 44
0.0000000001
 40
0.0
 40
0.0
 40
0.0
 40
0.0
 40
0.1863311635
 40
0.4147107228
 40
0.6931317137
 40
1.0
 40
1.0
 40
1.0
 40
1.0
 10
27.981486515
 20
132.5450405894
 30
0.0
 10
27.9815070246
 20
132.5351578668
 30
0.0
 10
27.9901471273
 20
132.513110491
 30
0.0
 10
28.0200297233
 20
132.4900110466
 30
0.0
 10
28.0610194929
 20
132.4751881565
 30
0.0
 10
28.0921971457
 20
132.4717175257
 30
0.0
 10
28.1084730097
 20
132.4717175648
 30
0.0
  0
SPLINE
  5
297
100
AcDbEntity
  8
0
100
AcDbSpline
 62
7
  6
BYLAYER
 70
0
 71
3
 72
17
 73
13
 74
0
 42
0.0000001
 43
0.0000001
 44
0.0000000001
 40
0.0
 40
0.0
 40
0.0
 40
0.0
 40
0.0428584554
 40
0.0874839031
 40
0.1353177481
 40
0.1872794187
 40
0.3045395902
 40
0.4382053041
 40
0.582547581
 40
0.729712444
 40
0.8713059798
 40
1.0
 40
1.0
 40
1.0
 40
1.0
 10
37.5878187578
 20
118.6366588629
 30
0.0
 10
37.5878113772
 20
118.734270283
 30
0.0
 10
37.6139761487
 20
118.9343574088
 30
0.0
 10
37.7286684933
 20
119.2232981633
 30
0.0
 10
37.9149127812
 20
119.4971999894
 30
0.0
 10
38.2654499401
 20
119.8490284336
 30
0.0
 10
38.8627843005
 20
120.2126314607
 30
0.0
 10
39.7216407012
 20
120.4995241257
 30
0.0
 10
40.6854978039
 20
120.6349962808
 30
0.0
 10
41.6762055582
 20
120.6075745868
 30
0.0
 10
42.6129060586
 20
120.4202126373
 30
0.0
 10
43.1876287495
 20
120.1830778229
 30
0.0
 10
43.4414661272
 20
120.03652806
 30
0.0
  0
SPLINE
  5
298
100
AcDbEntity
  8
0
100
AcDbSpline
 62
7
  6
BYLAYER
 70
0
 71
3
 72
12
 73
8
 74
0
 42
0.0000001
 43
0.0000001
 44
0.0000000001
 40
0.0
 40
0.0
 40
0.0
 40
0.0
 40
0.1833920947
 40
0.3016809381
 40
0.4362087542
 40
0.7288008684
 40
1.0
 40
1.0
 40
1.0
 40
1.0
 10
74.2145244007
 20
100.6072603159
 30
0.0
 10
74.21452429
 20
100.6226072159
 30
0.0
 10
74.1986650116
 20
100.6470665462
 30
0.0
 10
74.1673183281
 20
100.6654645343
 30
0.0
 10
74.1236841535
 20
100.6802563857
 30
0.0
 10
74.0643502195
 20
100.6831138073
 30
0.0
 10
74.0173758582
 20
100.6704539876
 30
0.0
 10
73.9977214656
 20
100.6591065865
 30
0.0
  0
SPLINE
  5
299
100
AcDbEntity
  8
0
100
AcDbSpline
 62
7
  6
BYLAYER
 70
0
 71
3
 72
11
 73
7
 74
0
 42
0.0000001
 43
0.0000001
 44
0.0000000001
 40
0.0
 40
0.0
 40
0.0
 40
0.0
 40
0.2177817007
 40
0.4509079352
 40
0.7102947135
 40
1.0
 40
1.0
 40
1.0
 40
1.0
 10
23.1916376071
 20
116.2516737579
 30
0.0
 10
23.1916376369
 20
116.0905940465
 30
0.0
 10
23.2511645682
 20
115.7548529402
 30
0.0
 10
23.50569111
 20
115.2870581546
 30
0.0
 10
23.9080613817
 20
114.8641908639
 30
0.0
 10
24.2447331645
 20
114.6323051603
 30
0.0
 10
24.4303036765
 20
114.5251683989
 30
0.0
  0
SPLINE
  5
29A
100
AcDbEntity
  8
0
100
AcDbSpline
 62
7
  6
BYLAYER
 70
0
 71
3
 72
12
 73
8
 74
0
 42
0.0000001
 43
0.0000001
 44
0.0000000001
 40
0.0
 40
0.0
 40
0.0
 40
0.0
 40
0.2711991316
 40
0.5637912458
 40
0.6983190619
 40
0.8166079053
 40
1.0
 40
1.0
 40
1.0
 40
1.0
 10
109.918596396
 20
133.8414064402
 30
0.0
 10
109.9382507887
 20
133.8527538413
 30
0.0
 10
109.98522515
 20
133.865413661
 30
0.0
 10
110.044559084
 20
133.8625562394
 30
0.0
 10
110.0881932585
 20
133.847764388
 30
0.0
 10
110.119539942
 20
133.8293663999
 30
0.0
 10
110.1353992205
 20
133.8049070697
 30
0.0
 10
110.1353993311
 20
133.7895601696
 30
0.0
  0
SPLINE
  5
29B
100
AcDbEntity
  8
0
100
AcDbSpline
 62
7
  6
BYLAYER
 70
0
 71
3
 72
20
 73
16
 74
0
 42
0.0000001
 43
0.0000001
 44
0.0000000001
 40
0.0
 40
0.0
 40
0.0
 40
0.0
 40
0.0428322242
 40
0.0874331191
 40
0.1352368557
 40
0.1871688519
 40
0.2436383648
 40
0.3046205238
 40
0.3697460326
 40
0.4383821327
 40
0.5826347727
 40
0.7296944382
 40
0.8711920779
 40
0.9375939861
 40
1.0
 40
1.0
 40
1.0
 40
1.0
 10
47.0292669355
 20
85.2890932957
 30
0.0
 10
46.7944544715
 20
85.1534932782
 30
0.0
 10
46.2767760541
 20
84.9384377273
 30
0.0
 10
45.4223220911
 20
84.8131140955
 30
0.0
 10
44.5047288839
 20
84.8806738562
 30
0.0
 10
43.544444878
 20
85.135862472
 30
0.0
 10
42.5602728738
 20
85.5707913753
 30
0.0
 10
41.5718353094
 20
86.1754752565
 30
0.0
 10
40.5991576853
 20
86.9369846053
 30
0.0
 10
39.329827843
 20
88.1596916073
 30
0.0
 10
37.9192627516
 20
89.9661557537
 30
0.0
 10
36.6097805871
 20
92.3858973776
 30
0.0
 10
35.8852615898
 20
94.5281005225
 30
0.0
 10
35.5851922576
 20
96.2153782909
 30
0.0
 10
35.53158478
 20
97.0313945647
 30
0.0
 10
35.53158478
 20
97.4264619166
 30
0.0
  0
SPLINE
  5
29C
100
AcDbEntity
  8
0
100
AcDbSpline
 62
7
  6
BYLAYER
 70
0
 71
3
 72
13
 73
9
 74
0
 42
0.0000001
 43
0.0000001
 44
0.0000000001
 40
0.0
 40
0.0
 40
0.0
 40
0.0
 40
0.1142253587
 40
0.2375592059
 40
0.5000004538
 40
0.7624414493
 40
0.8857750279
 40
1.0
 40
1.0
 40
1.0
 40
1.0
 10
38.3856797592
 20
106.4682105336
 30
0.0
 10
38.5903422183
 20
106.3500512811
 30
0.0
 10
39.0380887459
 20
106.141613933
 30
0.0
 10
40.0302441167
 20
105.8401758641
 30
0.0
 10
41.376109379
 20
105.693845345
 30
0.0
 10
42.7219735202
 20
105.8401819321
 30
0.0
 10
43.7141254399
 20
106.1416249705
 30
0.0
 10
44.1618694523
 20
106.3500645793
 30
0.0
 10
44.3665303666
 20
106.4682249077
 30
0.0
  0
SPLINE
  5
29D
100
AcDbEntity
  8
0
100
AcDbSpline
 62
7
  6
BYLAYER
 70
0
 71
3
 72
11
 73
7
 74
0
 42
0.0000001
 43
0.0000001
 44
0.0000000001
 40
0.0
 40
0.0
 40
0.0
 40
0.0
 40
0.1863311635
 40
0.4147107228
 40
0.6931317137
 40
1.0
 40
1.0
 40
1.0
 40
1.0
 10
63.9023614454
 20
153.2838436061
 30
0.0
 10
63.9023819551
 20
153.2739608835
 30
0.0
 10
63.9110220578
 20
153.2519135076
 30
0.0
 10
63.9409046538
 20
153.2288140633
 30
0.0
 10
63.9818944234
 20
153.2139911732
 30
0.0
 10
64.0130720761
 20
153.2105205423
 30
0.0
 10
64.0293479401
 20
153.2105205815
 30
0.0
  0
SPLINE
  5
29E
100
AcDbEntity
  8
0
100
AcDbSpline
 62
7
  6
BYLAYER
 70
0
 71
3
 72
12
 73
8
 74
0
 42
0.0000001
 43
0.0000001
 44
0.0000000001
 40
0.0
 40
0.0
 40
0.0
 40
0.0
 40
0.2895698772
 40
0.5486409845
 40
0.7816367796
 40
0.8918393161
 40
1.0
 40
1.0
 40
1.0
 40
1.0
 10
35.53158478
 20
97.4264619166
 30
0.0
 10
35.53158478
 20
97.9092261433
 30
0.0
 10
35.6047612597
 20
98.8271756784
 30
0.0
 10
35.9758641092
 20
100.0876825117
 30
0.0
 10
36.5093112831
 20
100.957341797
 30
0.0
 10
37.0479226749
 20
101.4871306824
 30
0.0
 10
37.3481875112
 20
101.6966672135
 30
0.0
 10
37.5043428886
 20
101.7868441639
 30
0.0
  0
SPLINE
  5
29F
100
AcDbEntity
  8
0
100
AcDbSpline
 62
7
  6
BYLAYER
 70
0
 71
3
 72
12
 73
8
 74
0
 42
0.0000001
 43
0.0000001
 44
0.0000000001
 40
0.0
 40
0.0
 40
0.0
 40
0.0
 40
0.2895698772
 40
0.5486409845
 40
0.7816367796
 40
0.8918393161
 40
1.0
 40
1.0
 40
1.0
 40
1.0
 10
51.6961130969
 20
88.0940782683
 30
0.0
 10
51.6961130969
 20
88.576842495
 30
0.0
 10
51.7692895766
 20
89.4947920301
 30
0.0
 10
52.140392426
 20
90.7552988633
 30
0.0
 10
52.6738395999
 20
91.6249581487
 30
0.0
 10
53.2124509918
 20
92.1547470341
 30
0.0
 10
53.512715828
 20
92.3642835652
 30
0.0
 10
53.6688712054
 20
92.4544605155
 30
0.0
  0
SPLINE
  5
2A0
100
AcDbEntity
  8
0
100
AcDbSpline
 62
7
  6
BYLAYER
 70
0
 71
3
 72
20
 73
16
 74
0
 42
0.0000001
 43
0.0000001
 44
0.0000000001
 40
0.0
 40
0.0
 40
0.0
 40
0.0
 40
0.0428322242
 40
0.0874331191
 40
0.1352368557
 40
0.1871688519
 40
0.2436383648
 40
0.3046205238
 40
0.3697460326
 40
0.4383821327
 40
0.5826347727
 40
0.7296944382
 40
0.8711920779
 40
0.9375939861
 40
1.0
 40
1.0
 40
1.0
 40
1.0
 10
63.1937952524
 20
75.9567096474
 30
0.0
 10
62.9589827883
 20
75.8211096298
 30
0.0
 10
62.441304371
 20
75.606054079
 30
0.0
 10
61.586850408
 20
75.4807304472
 30
0.0
 10
60.6692572008
 20
75.5482902079
 30
0.0
 10
59.7089731948
 20
75.8034788237
 30
0.0
 10
58.7248011907
 20
76.238407727
 30
0.0
 10
57.7363636263
 20
76.8430916081
 30
0.0
 10
56.7636860022
 20
77.604600957
 30
0.0
 10
55.4943561599
 20
78.827307959
 30
0.0
 10
54.0837910684
 20
80.6337721053
 30
0.0
 10
52.774308904
 20
83.0535137293
 30
0.0
 10
52.0497899067
 20
85.1957168742
 30
0.0
 10
51.7497205745
 20
86.8829946426
 30
0.0
 10
51.6961130969
 20
87.6990109163
 30
0.0
 10
51.6961130969
 20
88.0940782683
 30
0.0
  0
ENDSEC
  0
SECTION
  2
OBJECTS
  0
DICTIONARY
  5
C
100
AcDbDictionary
280
0
281
1
  3
ACAD_GROUP
350
D
  3
ACAD_MLINESTYLE
350
17
  3
ACAD_LAYOUT
350
1A
  3
ACAD_PLOTSETTINGS
350
19
  3
ACAD_PLOTSTYLENAME
350
E
  0
DICTIONARY
  5
D
102
{ACAD_REACTORS
330
C
102
}
100
AcDbDictionary
280
0
281
1
  0
ACDBDICTIONARYWDFLT
  5
E
102
{ACAD_REACTORS
330
C
102
}
100
AcDbDictionary
281
1
  3
Normal
350
F
100
AcDbDictionaryWithDefault
340
F
  0
DICTIONARY
  5
17
102
{ACAD_REACTORS
330
C
102
}
100
AcDbDictionary
280
0
281
1
  3
Standard
350
18
  0
DICTIONARY
  5
19
102
{ACAD_REACTORS
330
C
102
}
100
AcDbDictionary
281
1
  0
DICTIONARY
  5
1A
102
{ACAD_REACTORS
330
C
102
}
100
AcDbDictionary
281
1
  3
Model
350
2A1
  3
Layout1
350
2A2
  0
ACDBPLACEHOLDER
  5
F
102
{ACAD_REACTORS
330
E
102
}
  0
MLINESTYLE
  5
18
102
{ACAD_REACTORS
330
17
102
}
100
AcDbMlineStyle
  2
STANDARD
 70
0
  3

 62
256
 51
90.0
 52
90.0
 71
2
 49
0.5
 62
256
  6
BYLAYER
 49
-0.5
 62
256
  6
BYLAYER
  0
LAYOUT
  5
2A1
102
{ACAD_REACTORS
330
1A
102
}
100
AcDbPlotSettings
  1

  2
none_device
  4

  6

 40
0.0
 41
0.0
 42
0.0
 43
0.0
 44
210.0
 45
297.0
 46
0.0
 47
0.0
 48
0.0
 49
0.0
140
0.0
141
0.0
142
1.0
143
1.0
 70
1024
 72
1
 73
0
 74
0
  7

 75
0
147
1.0
148
0.0
149
0.0
100
AcDbLayout
  1
Model
 70
0
 71
0
 10
0.0
 20
0.0
 11
210.0
 21
297.0
 12
0.0
 22
0.0
 32
0.0
 14
0.0
 24
0.0
 34
0.0
 15
0.0
 25
0.0
 35
0.0
146
0.0
 13
0.0
 23
0.0
 33
0.0
 16
1.0
 26
0.0
 36
0.0
 17
0.0
 27
1.0
 37
0.0
 76
0
330
211
345
0
346
0
  0
LAYOUT
  5
2A2
102
{ACAD_REACTORS
330
1A
102
}
100
AcDbPlotSettings
  1

  2
none_device
  4

  6

 40
0.0
 41
0.0
 42
0.0
 43
0.0
 44
210.0
 45
297.0
 46
0.0
 47
0.0
 48
0.0
 49
0.0
140
0.0
141
0.0
142
1.0
143
1.0
 70
0
 72
1
 73
0
 74
0
  7

 75
0
147
1.0
148
0.0
149
0.0
100
AcDbLayout
  1
Layout1
 70
0
 71
1
 10
0.0
 20
0.0
 11
210.0
 21
297.0
 12
0.0
 22
0.0
 32
0.0
 14
0.0
 24
0.0
 34
0.0
 15
0.0
 25
0.0
 35
0.0
146
0.0
 13
0.0
 23
0.0
 33
0.0
 16
1.0
 26
0.0
 36
0.0
 17
0.0
 27
1.0
 37
0.0
 76
0
330
212
345
0
346
0
  0
ENDSEC
  0
EOF
