999
DXF file: C:\Users\sesa63760\Dev\_Creo\CAD\MCADUE0003427_3D-CAD\drw0001_3.dxf
999
Pro/ENGINEER 2019471 by Parametric Technology Corporation
  0
SECTION
  2
HEADER
  9
$ACADVER
  1
AC1024
  9
$DWGCODEPAGE
  3
ANSI_1252
  9
$EXTMAX
 10
549.8673827995
 20
777.6695842451
 30
0.0
  9
$EXTMIN
 10
0.0
 20
0.0
 30
0.0
  9
$LIMMIN
 10
0.0
 20
0.0
  9
$LIMMAX
 10
549.8673827995
 20
777.6695842451
  9
$VIEWCTR
 10
274.9336913998
 20
388.8347921225
  9
$VIEWSIZE
 40
777.6695842451
  9
$CLAYER
  8
0
  9
$LTSCALE
 40
50.6925358619
  9
$CELTYPE
  6
BYLAYER
  9
$DIMSCALE
 40
1.0
  9
$DIMASZ
 40
6.5460402714
  9
$DIMEXO
 40
1.0
  9
$DIMDLI
 40
35.0239338682
  9
$DIMEXE
 40
1.0
  9
$DIMCEN
 40
8.2951422319
  9
$DIMLFAC
 40
1.0
  9
$DIMBLK
  1
_FILLED
  9
$DIMALT
 70
0
  9
$DIMALTF
 40
0.0393700787
  9
$DIMTXT
 40
9.16445638
  9
$DIMTOL
 70
1
  9
$DIMLIM
 70
0
  9
$DIMTFAC
 40
1.0
  9
$DIMTP
 40
0.01
  9
$DIMTM
 40
0.01
  9
$DIMGAP
 40
0.625
  9
$DIMDSEP
 70
46
  9
$AUNITS
 70
0
  9
$PDMODE
 70
3
  9
$PDSIZE
 40
0.3125
  9
$HANDSEED
  5
622
  9
$TILEMODE
 70
1
  9
$MEASUREMENT
 70
1
  9
$INSUNITS
 70
4
  0
ENDSEC
  0
SECTION
  2
CLASSES
  0
CLASS
  1
ACDBDICTIONARYWDFLT
  2
AcDbDictionaryWithDefault
  3
AutoCAD 2000
 90
0
 91
1
280
0
281
0
  0
CLASS
  1
ACDBPLACEHOLDER
  2
AcDbPlaceHolder
  3
AutoCAD 2000
 90
0
 91
1
280
0
281
0
  0
CLASS
  1
LAYOUT
  2
AcDbLayout
  3
AutoCAD 2000
 90
0
 91
0
280
0
281
0
  0
ENDSEC
  0
SECTION
  2
TABLES
  0
TABLE
  2
VPORT
  5
8
100
AcDbSymbolTable
 70
2
  0
VPORT
  5
1F4
100
AcDbSymbolTableRecord
100
AcDbViewportTableRecord
  2
*ACTIVE
 70
0
 10
0.0
 20
0.0
 11
1.0
 21
1.0
 12
274.9336913998
 22
388.8347921225
 13
0.0
 23
0.0
 14
1.0
 24
1.0
 15
0.0
 25
0.0
 16
0.0
 26
0.0
 36
1.0
 17
0.0
 27
0.0
 37
0.0
 40
777.6695842451
 41
0.7070707071
 42
50.0
 43
0.0
 44
0.0
 50
0.0
 51
0.0
 71
0
 72
100
 73
1
 74
1
 75
0
 76
0
 77
0
 78
0
  0
ENDTAB
  0
TABLE
  2
LTYPE
  5
5
100
AcDbSymbolTable
 70
6
  0
LTYPE
  5
14
100
AcDbSymbolTableRecord
100
AcDbLinetypeTableRecord
  2
BYBLOCK
 70
0
  3

 72
65
 73
0
 40
0.0
  0
LTYPE
  5
15
100
AcDbSymbolTableRecord
100
AcDbLinetypeTableRecord
  2
BYLAYER
 70
0
  3

 72
65
 73
0
 40
0.0
  0
LTYPE
  5
16
100
AcDbSymbolTableRecord
100
AcDbLinetypeTableRecord
  2
CONTINUOUS
 70
64
  3
Solid line
 72
65
 73
0
 40
0.0
  0
LTYPE
  5
1F5
100
AcDbSymbolTableRecord
100
AcDbLinetypeTableRecord
  2
CENTER
 70
64
  3
____ _ ____ _ ____ _ ____ _ ____ _ ____ _ ____
 72
65
 73
4
 40
0.6
 49
0.375
 74
0
 49
-0.075
 74
0
 49
0.075
 74
0
 49
-0.075
 74
0
  0
LTYPE
  5
1F6
100
AcDbSymbolTableRecord
100
AcDbLinetypeTableRecord
  2
HIDDEN
 70
64
  3
- - - - - - - - - - - - - - - - - - - -
 72
65
 73
2
 40
0.2
 49
0.1
 74
0
 49
-0.1
 74
0
  0
LTYPE
  5
1F7
100
AcDbSymbolTableRecord
100
AcDbLinetypeTableRecord
  2
PHANTOM
 70
64
  3
_____ _ _ _____ _ _ _____ _ _ _____
 72
65
 73
6
 40
0.8
 49
0.45
 74
0
 49
-0.05
 74
0
 49
0.1
 74
0
 49
-0.05
 74
0
 49
0.1
 74
0
 49
-0.05
 74
0
  0
LTYPE
  5
1F8
100
AcDbSymbolTableRecord
100
AcDbLinetypeTableRecord
  2
DOT
 70
64
  3
. . . . . . . . . . . . . . . . . . . .
 72
65
 73
2
 40
0.2
 49
0.1
 74
0
 49
-0.1
 74
0
  0
LTYPE
  5
1F9
100
AcDbSymbolTableRecord
100
AcDbLinetypeTableRecord
  2
DASHED
 70
64
  3
- - - - - - - - - - - - - - - - - - - -
 72
65
 73
2
 40
0.2
 49
0.1
 74
0
 49
-0.1
 74
0
  0
ENDTAB
  0
TABLE
  2
LAYER
  5
2
100
AcDbSymbolTable
 70
36
  0
LAYER
  5
10
100
AcDbSymbolTableRecord
100
AcDbLayerTableRecord
  2
0
 70
0
 62
7
  6
CONTINUOUS
370
-3
390
F
  0
LAYER
  5
1FA
100
AcDbSymbolTableRecord
100
AcDbLayerTableRecord
  2
DEFAULT_1
 70
0
 62
7
  6
CENTER
370
-3
390
F
  0
LAYER
  5
1FB
100
AcDbSymbolTableRecord
100
AcDbLayerTableRecord
  2
DEFAULT_2
 70
0
 62
8
  6
HIDDEN
370
-3
390
F
  0
LAYER
  5
1FC
100
AcDbSymbolTableRecord
100
AcDbLayerTableRecord
  2
DEFAULT_3
 70
0
 62
7
  6
PHANTOM
370
-3
390
F
  0
LAYER
  5
1FD
100
AcDbSymbolTableRecord
100
AcDbLayerTableRecord
  2
00_COMPONENTS
 70
0
 62
7
  6
CONTINUOUS
370
-3
390
F
  0
LAYER
  5
1FE
100
AcDbSymbolTableRecord
100
AcDbLayerTableRecord
  2
01_1_DEFAULT_DATUMS
 70
0
 62
7
  6
CONTINUOUS
370
-3
390
F
  0
LAYER
  5
1FF
100
AcDbSymbolTableRecord
100
AcDbLayerTableRecord
  2
01_PLANES
 70
0
 62
7
  6
CONTINUOUS
370
-3
390
F
  0
LAYER
  5
200
100
AcDbSymbolTableRecord
100
AcDbLayerTableRecord
  2
02_COORD_SYS
 70
0
 62
7
  6
CONTINUOUS
370
-3
390
F
  0
LAYER
  5
201
100
AcDbSymbolTableRecord
100
AcDbLayerTableRecord
  2
03_AXES
 70
0
 62
7
  6
CONTINUOUS
370
-3
390
F
  0
LAYER
  5
202
100
AcDbSymbolTableRecord
100
AcDbLayerTableRecord
  2
04_POINTS
 70
0
 62
7
  6
CONTINUOUS
370
-3
390
F
  0
LAYER
  5
203
100
AcDbSymbolTableRecord
100
AcDbLayerTableRecord
  2
05_CURVES
 70
0
 62
7
  6
CONTINUOUS
370
-3
390
F
  0
LAYER
  5
204
100
AcDbSymbolTableRecord
100
AcDbLayerTableRecord
  2
06_SURFS
 70
0
 62
7
  6
CONTINUOUS
370
-3
390
F
  0
LAYER
  5
205
100
AcDbSymbolTableRecord
100
AcDbLayerTableRecord
  2
07_COSMETICS
 70
0
 62
7
  6
CONTINUOUS
370
-3
390
F
  0
LAYER
  5
206
100
AcDbSymbolTableRecord
100
AcDbLayerTableRecord
  2
10_NOTES
 70
0
 62
7
  6
CONTINUOUS
370
-3
390
F
  0
LAYER
  5
207
100
AcDbSymbolTableRecord
100
AcDbLayerTableRecord
  2
11_NOTES_PUB
 70
0
 62
7
  6
CONTINUOUS
370
-3
390
F
  0
LAYER
  5
208
100
AcDbSymbolTableRecord
100
AcDbLayerTableRecord
  2
13_REF_GTOL
 70
0
 62
7
  6
CONTINUOUS
370
-3
390
F
  0
LAYER
  5
209
100
AcDbSymbolTableRecord
100
AcDbLayerTableRecord
  2
16_MISC
 70
0
 62
7
  6
CONTINUOUS
370
-3
390
F
  0
LAYER
  5
20A
100
AcDbSymbolTableRecord
100
AcDbLayerTableRecord
  2
17_NO_PRINT
 70
0
 62
7
  6
CONTINUOUS
370
-3
390
F
  0
LAYER
  5
20B
100
AcDbSymbolTableRecord
100
AcDbLayerTableRecord
  2
18_DATUM_CAMS_JOINTS
 70
0
 62
7
  6
CONTINUOUS
370
-3
390
F
  0
LAYER
  5
20C
100
AcDbSymbolTableRecord
100
AcDbLayerTableRecord
  2
19_DATUM_FUNCTIONAL
 70
0
 62
7
  6
CONTINUOUS
370
-3
390
F
  0
LAYER
  5
20D
100
AcDbSymbolTableRecord
100
AcDbLayerTableRecord
  2
20_DATUM_KINEMATIC_SCHEME
 70
0
 62
7
  6
CONTINUOUS
370
-3
390
F
  0
ENDTAB
  0
TABLE
  2
STYLE
  5
3
100
AcDbSymbolTable
 70
1
  0
STYLE
  5
11
100
AcDbSymbolTableRecord
100
AcDbTextStyleTableRecord
  2
STANDARD
 70
0
 40
0.0
 41
0.8
 50
0.0
 71
0
 42
0.2
  3
txt
  4

  0
STYLE
  5
20E
100
AcDbSymbolTableRecord
100
AcDbTextStyleTableRecord
  2
TEXTSTYLE_1
 70
0
 40
0.0
 41
0.8
 50
0.0
 71
0
 42
0.2
  3
gdt
  4

  0
ENDTAB
  0
TABLE
  2
VIEW
  5
6
100
AcDbSymbolTable
 70
0
  0
ENDTAB
  0
TABLE
  2
UCS
  5
7
100
AcDbSymbolTable
 70
0
  0
ENDTAB
  0
TABLE
  2
APPID
  5
9
100
AcDbSymbolTable
 70
1
  0
APPID
  5
20F
100
AcDbSymbolTableRecord
100
AcDbRegAppTableRecord
  2
ACAD
 70
0
  0
ENDTAB
  0
TABLE
  2
BLOCK_RECORD
  5
1
100
AcDbSymbolTable
 70
0
  0
BLOCK_RECORD
  5
210
100
AcDbSymbolTableRecord
100
AcDbBlockTableRecord
  2
*Model_Space
  0
BLOCK_RECORD
  5
211
100
AcDbSymbolTableRecord
100
AcDbBlockTableRecord
  2
*Paper_Space
  0
BLOCK_RECORD
  5
212
100
AcDbSymbolTableRecord
100
AcDbBlockTableRecord
  2
_FILLED
  0
ENDTAB
  0
TABLE
  2
DIMSTYLE
  5
A
100
AcDbSymbolTable
 70
1
100
AcDbDimStyleTable
 71
0
  0
DIMSTYLE
105
213
100
AcDbSymbolTableRecord
100
AcDbDimStyleTableRecord
  2
STANDARD
 70
0
  3

  4

 40
1.0
 41
6.5460402714
 42
1.0
 43
0.38
 44
1.0
 45
0.0
 46
0.0
 47
0.01
 48
0.01
140
9.16445638
141
0.09
142
0.0
143
25.4
144
1.0
145
0.0
146
1.0
147
0.625
 71
1
 72
0
 73
0
 74
0
 75
0
 76
0
 77
1
 78
8
 79
2
170
0
171
1
172
0
173
0
174
0
175
0
176
0
177
0
178
0
270
2
179
2
271
2
272
2
273
2
274
2
275
0
280
0
281
0
282
0
283
1
284
8
285
0
286
0
287
3
288
0
340
11
278
46
341
212
342
212
343
212
344
212
  0
ENDTAB
  0
ENDSEC
  0
SECTION
  2
BLOCKS
  0
BLOCK
  5
20
100
AcDbEntity
  8
0
100
AcDbBlockBegin
  2
*Model_Space
 70
0
 10
0.0
 20
0.0
 30
0.0
  3
*Model_Space
  1

  0
ENDBLK
  5
21
100
AcDbEntity
  8
0
100
AcDbBlockEnd
  0
BLOCK
  5
1C
100
AcDbEntity
  8
0
100
AcDbBlockBegin
  2
*Paper_Space
 70
0
 10
0.0
 20
0.0
 30
0.0
  3
*Paper_Space
  1

  0
ENDBLK
  5
1D
100
AcDbEntity
  8
0
100
AcDbBlockEnd
  0
BLOCK
  5
214
100
AcDbEntity
  8
0
100
AcDbBlockBegin
  2
_FILLED
 70
64
 10
0.0
 20
0.0
  3
_FILLED
  1

  0
SOLID
  5
215
100
AcDbEntity
  8
0
  6
BYBLOCK
 62
0
100
AcDbTrace
 10
0.0
 20
0.0
 11
-1.0
 21
0.25
 12
-1.0
 22
-0.25
 13
-1.0
 23
-0.25
  0
ENDBLK
  5
216
100
AcDbEntity
  8
0
  6
BYBLOCK
 62
0
100
AcDbBlockEnd
  0
ENDSEC
  0
SECTION
  2
ENTITIES
  0
LINE
  5
217
100
AcDbEntity
  8
0
100
AcDbLine
 62
7
  6
CONTINUOUS
 10
65.0485710497
 20
432.738512035
 11
65.0485710497
 21
421.738512035
  0
LINE
  5
218
100
AcDbEntity
  8
0
100
AcDbLine
 62
7
  6
CONTINUOUS
 10
67.0485710497
 20
421.738512035
 11
67.0485710497
 21
432.738512035
  0
LINE
  5
219
100
AcDbEntity
  8
0
100
AcDbLine
 62
7
  6
CONTINUOUS
 10
77.0485710497
 20
446.197262035
 11
77.0485710497
 21
440.238512035
  0
LINE
  5
21A
100
AcDbEntity
  8
0
100
AcDbLine
 62
7
  6
CONTINUOUS
 10
77.5485710497
 20
440.238512035
 11
77.5485710497
 21
436.738512035
  0
LINE
  5
21B
100
AcDbEntity
  8
0
100
AcDbLine
 62
7
  6
CONTINUOUS
 10
83.0485710497
 20
440.238512035
 11
83.0485710497
 21
446.197262035
  0
LINE
  5
21C
100
AcDbEntity
  8
0
100
AcDbLine
 62
7
  6
CONTINUOUS
 10
96.5485710497
 20
468.738512035
 11
96.5485710497
 21
442.238512035
  0
LINE
  5
21D
100
AcDbEntity
  8
0
100
AcDbLine
 62
7
  6
CONTINUOUS
 10
98.5485710497
 20
442.238512035
 11
98.5485710497
 21
468.738512035
  0
LINE
  5
21E
100
AcDbEntity
  8
0
100
AcDbLine
 62
7
  6
CONTINUOUS
 10
77.5898210497
 20
446.738512035
 11
77.0485710497
 21
446.197262035
  0
LINE
  5
21F
100
AcDbEntity
  8
0
100
AcDbLine
 62
7
  6
CONTINUOUS
 10
109.5485710497
 20
442.438512035
 11
109.5485710497
 21
441.438512035
  0
LINE
  5
220
100
AcDbEntity
  8
0
100
AcDbLine
 62
7
  6
CONTINUOUS
 10
109.7750683578
 20
442.738512035
 11
109.7750683578
 21
447.4919300476
  0
LINE
  5
221
100
AcDbEntity
  8
0
100
AcDbLine
 62
7
  6
CONTINUOUS
 10
110.0052938546
 20
440.738512035
 11
110.0052938546
 21
441.438512035
  0
LINE
  5
222
100
AcDbEntity
  8
0
100
AcDbLine
 62
7
  6
CONTINUOUS
 10
110.7884510079
 20
441.438512035
 11
110.7884510079
 21
440.738512035
  0
LINE
  5
223
100
AcDbEntity
  8
0
100
AcDbLine
 62
7
  6
CONTINUOUS
 10
112.0485710497
 20
440.738512035
 11
112.0485710497
 21
440.238512035
  0
LINE
  5
224
100
AcDbEntity
  8
0
100
AcDbLine
 62
7
  6
CONTINUOUS
 10
112.5485710497
 20
441.438512035
 11
112.5485710497
 21
440.238512035
  0
LINE
  5
225
100
AcDbEntity
  8
0
100
AcDbLine
 62
7
  6
CONTINUOUS
 10
112.5485710497
 20
442.738512035
 11
112.5485710497
 21
447.938512035
  0
LINE
  5
226
100
AcDbEntity
  8
0
100
AcDbLine
 62
7
  6
CONTINUOUS
 10
112.6618197037
 20
442.738512035
 11
112.6618197037
 21
447.4919300476
  0
LINE
  5
227
100
AcDbEntity
  8
0
100
AcDbLine
 62
7
  6
CONTINUOUS
 10
114.7654138963
 20
440.738512035
 11
114.7654138963
 21
441.438512035
  0
LINE
  5
228
100
AcDbEntity
  8
0
100
AcDbLine
 62
7
  6
CONTINUOUS
 10
116.331728203
 20
441.438512035
 11
116.331728203
 21
440.738512035
  0
LINE
  5
229
100
AcDbEntity
  8
0
100
AcDbLine
 62
7
  6
CONTINUOUS
 10
118.4353223956
 20
442.738512035
 11
118.4353223956
 21
447.4919300476
  0
LINE
  5
22A
100
AcDbEntity
  8
0
100
AcDbLine
 62
7
  6
CONTINUOUS
 10
118.5485710497
 20
440.238512035
 11
118.5485710497
 21
441.438512035
  0
LINE
  5
22B
100
AcDbEntity
  8
0
100
AcDbLine
 62
7
  6
CONTINUOUS
 10
118.5485710497
 20
442.738512035
 11
118.5485710497
 21
447.938512035
  0
LINE
  5
22C
100
AcDbEntity
  8
0
100
AcDbLine
 62
7
  6
CONTINUOUS
 10
119.0485710497
 20
440.738512035
 11
119.0485710497
 21
440.238512035
  0
LINE
  5
22D
100
AcDbEntity
  8
0
100
AcDbLine
 62
7
  6
CONTINUOUS
 10
120.3086910914
 20
440.738512035
 11
120.3086910914
 21
441.438512035
  0
LINE
  5
22E
100
AcDbEntity
  8
0
100
AcDbLine
 62
7
  6
CONTINUOUS
 10
121.0918482447
 20
441.438512035
 11
121.0918482447
 21
440.738512035
  0
LINE
  5
22F
100
AcDbEntity
  8
0
100
AcDbLine
 62
7
  6
CONTINUOUS
 10
121.3220737416
 20
442.738512035
 11
121.3220737416
 21
447.4919300476
  0
LINE
  5
230
100
AcDbEntity
  8
0
100
AcDbLine
 62
7
  6
CONTINUOUS
 10
121.5485710497
 20
442.438512035
 11
121.5485710497
 21
441.438512035
  0
LINE
  5
231
100
AcDbEntity
  8
0
100
AcDbLine
 62
7
  6
CONTINUOUS
 10
144.5485710498
 20
483.4385120356
 11
144.7217761305
 21
483.7385120356
  0
LINE
  5
232
100
AcDbEntity
  8
0
100
AcDbLine
 62
7
  6
CONTINUOUS
 10
125.0485710497
 20
443.7385120356
 11
125.0485710497
 21
445.7385120356
  0
LINE
  5
233
100
AcDbEntity
  8
0
100
AcDbLine
 62
7
  6
CONTINUOUS
 10
129.5485710497
 20
447.438512035
 11
129.5485710497
 21
446.438512035
  0
LINE
  5
234
100
AcDbEntity
  8
0
100
AcDbLine
 62
7
  6
CONTINUOUS
 10
129.7750683578
 20
447.738512035
 11
129.7750683578
 21
452.4919300476
  0
LINE
  5
235
100
AcDbEntity
  8
0
100
AcDbLine
 62
7
  6
CONTINUOUS
 10
130.0052938546
 20
445.738512035
 11
130.0052938546
 21
446.438512035
  0
LINE
  5
236
100
AcDbEntity
  8
0
100
AcDbLine
 62
7
  6
CONTINUOUS
 10
130.7884510079
 20
446.438512035
 11
130.7884510079
 21
445.738512035
  0
LINE
  5
237
100
AcDbEntity
  8
0
100
AcDbLine
 62
7
  6
CONTINUOUS
 10
132.5485710497
 20
446.438512035
 11
132.5485710497
 21
445.7385120356
  0
LINE
  5
238
100
AcDbEntity
  8
0
100
AcDbLine
 62
7
  6
CONTINUOUS
 10
132.5485710497
 20
443.7385120356
 11
132.5485710497
 21
442.279762035
  0
LINE
  5
239
100
AcDbEntity
  8
0
100
AcDbLine
 62
7
  6
CONTINUOUS
 10
132.5485710497
 20
441.738512035
 11
132.5485710497
 21
440.988512035
  0
LINE
  5
23A
100
AcDbEntity
  8
0
100
AcDbLine
 62
7
  6
CONTINUOUS
 10
132.5485710497
 20
447.738512035
 11
132.5485710497
 21
452.938512035
  0
LINE
  5
23B
100
AcDbEntity
  8
0
100
AcDbLine
 62
7
  6
CONTINUOUS
 10
132.6618197037
 20
447.738512035
 11
132.6618197037
 21
452.4919300476
  0
LINE
  5
23C
100
AcDbEntity
  8
0
100
AcDbLine
 62
7
  6
CONTINUOUS
 10
133.0485710497
 20
443.7385120356
 11
133.0485710497
 21
445.7385120356
  0
LINE
  5
23D
100
AcDbEntity
  8
0
100
AcDbLine
 62
7
  6
CONTINUOUS
 10
134.7654138963
 20
445.738512035
 11
134.7654138963
 21
446.438512035
  0
LINE
  5
23E
100
AcDbEntity
  8
0
100
AcDbLine
 62
7
  6
CONTINUOUS
 10
136.331728203
 20
446.438512035
 11
136.331728203
 21
445.738512035
  0
LINE
  5
23F
100
AcDbEntity
  8
0
100
AcDbLine
 62
7
  6
CONTINUOUS
 10
138.4353223956
 20
447.738512035
 11
138.4353223956
 21
452.4919300476
  0
LINE
  5
240
100
AcDbEntity
  8
0
100
AcDbLine
 62
7
  6
CONTINUOUS
 10
138.5485710497
 20
440.988512035
 11
138.5485710497
 21
441.738512035
  0
LINE
  5
241
100
AcDbEntity
  8
0
100
AcDbLine
 62
7
  6
CONTINUOUS
 10
138.5485710497
 20
442.279762035
 11
138.5485710497
 21
443.7385120356
  0
LINE
  5
242
100
AcDbEntity
  8
0
100
AcDbLine
 62
7
  6
CONTINUOUS
 10
138.5485710497
 20
445.7385120356
 11
138.5485710497
 21
446.438512035
  0
LINE
  5
243
100
AcDbEntity
  8
0
100
AcDbLine
 62
7
  6
CONTINUOUS
 10
138.5485710497
 20
447.738512035
 11
138.5485710497
 21
452.938512035
  0
LINE
  5
244
100
AcDbEntity
  8
0
100
AcDbLine
 62
7
  6
CONTINUOUS
 10
138.357210277
 20
441.9298728077
 11
138.5485710497
 21
442.279762035
  0
LINE
  5
245
100
AcDbEntity
  8
0
100
AcDbLine
 62
7
  6
CONTINUOUS
 10
144.5485710498
 20
463.4385120356
 11
144.7217761305
 21
463.7385120356
  0
LINE
  5
246
100
AcDbEntity
  8
0
100
AcDbLine
 62
7
  6
CONTINUOUS
 10
164.0485710498
 20
476.2385120355
 11
163.7598959152
 21
475.7385120355
  0
LINE
  5
247
100
AcDbEntity
  8
0
100
AcDbLine
 62
7
  6
CONTINUOUS
 10
178.5485710497
 20
288.738512035
 11
158.5485710497
 21
308.738512035
  0
LINE
  5
248
100
AcDbEntity
  8
0
100
AcDbLine
 62
7
  6
CONTINUOUS
 10
140.3086910914
 20
445.738512035
 11
140.3086910914
 21
446.438512035
  0
LINE
  5
249
100
AcDbEntity
  8
0
100
AcDbLine
 62
7
  6
CONTINUOUS
 10
141.0918482447
 20
446.438512035
 11
141.0918482447
 21
445.738512035
  0
LINE
  5
24A
100
AcDbEntity
  8
0
100
AcDbLine
 62
7
  6
CONTINUOUS
 10
141.3220737416
 20
447.738512035
 11
141.3220737416
 21
452.4919300476
  0
LINE
  5
24B
100
AcDbEntity
  8
0
100
AcDbLine
 62
7
  6
CONTINUOUS
 10
141.5485710497
 20
447.438512035
 11
141.5485710497
 21
446.438512035
  0
LINE
  5
24C
100
AcDbEntity
  8
0
100
AcDbLine
 62
7
  6
CONTINUOUS
 10
144.5485710498
 20
483.4384519311
 11
144.5485710498
 21
474.0385721401
  0
LINE
  5
24D
100
AcDbEntity
  8
0
100
AcDbLine
 62
7
  6
CONTINUOUS
 10
144.5485710498
 20
463.4384519311
 11
144.5485710498
 21
454.0385721401
  0
LINE
  5
24E
100
AcDbEntity
  8
0
100
AcDbLine
 62
7
  6
CONTINUOUS
 10
146.5485710498
 20
482.017934899
 11
146.5485710498
 21
480.4590891722
  0
LINE
  5
24F
100
AcDbEntity
  8
0
100
AcDbLine
 62
7
  6
CONTINUOUS
 10
146.5485710498
 20
462.017934899
 11
146.5485710498
 21
460.4590891722
  0
LINE
  5
250
100
AcDbEntity
  8
0
100
AcDbLine
 62
7
  6
CONTINUOUS
 10
147.5485710497
 20
440.738512035
 11
147.5485710497
 21
443.738512035
  0
LINE
  5
251
100
AcDbEntity
  8
0
100
AcDbLine
 62
7
  6
CONTINUOUS
 10
148.0485710497
 20
447.7385120356
 11
148.0485710498
 21
493.7385120356
  0
LINE
  5
252
100
AcDbEntity
  8
0
100
AcDbLine
 62
7
  6
CONTINUOUS
 10
150.0485710497
 20
447.7385120356
 11
150.0485710498
 21
493.7385120356
  0
LINE
  5
253
100
AcDbEntity
  8
0
100
AcDbLine
 62
7
  6
CONTINUOUS
 10
164.0485710498
 20
456.2385120355
 11
163.7598959152
 21
455.7385120355
  0
LINE
  5
254
100
AcDbEntity
  8
0
100
AcDbLine
 62
7
  6
CONTINUOUS
 10
132.7399318223
 20
441.9298728077
 11
132.5485710497
 21
441.738512035
  0
LINE
  5
255
100
AcDbEntity
  8
0
100
AcDbLine
 62
7
  6
CONTINUOUS
 10
138.3610710497
 20
440.801012035
 11
138.5485710497
 21
440.988512035
  0
LINE
  5
256
100
AcDbEntity
  8
0
100
AcDbLine
 62
7
  6
CONTINUOUS
 10
111.9784810184
 20
441.438512035
 11
110.7884510079
 21
440.738512035
  0
LINE
  5
257
100
AcDbEntity
  8
0
100
AcDbLine
 62
7
  6
CONTINUOUS
 10
110.5485710497
 20
447.938512035
 11
109.7750683578
 21
447.4919300476
  0
LINE
  5
258
100
AcDbEntity
  8
0
100
AcDbLine
 62
7
  6
CONTINUOUS
 10
130.5485710497
 20
452.938512035
 11
129.7750683578
 21
452.4919300476
  0
LINE
  5
259
100
AcDbEntity
  8
0
100
AcDbLine
 62
7
  6
CONTINUOUS
 10
158.5485710497
 20
434.738512035
 11
158.5485710497
 21
308.738512035
  0
LINE
  5
25A
100
AcDbEntity
  8
0
100
AcDbLine
 62
7
  6
CONTINUOUS
 10
163.7598959152
 20
455.7385120355
 11
163.7598959152
 21
461.7385120355
  0
LINE
  5
25B
100
AcDbEntity
  8
0
100
AcDbLine
 62
7
  6
CONTINUOUS
 10
163.7598959152
 20
475.7385120355
 11
163.7598959152
 21
481.7385120355
  0
LINE
  5
25C
100
AcDbEntity
  8
0
100
AcDbLine
 62
7
  6
CONTINUOUS
 10
164.0485710498
 20
456.2385772603
 11
164.0485710498
 21
461.2384468108
  0
LINE
  5
25D
100
AcDbEntity
  8
0
100
AcDbLine
 62
7
  6
CONTINUOUS
 10
164.0485710498
 20
476.2385772603
 11
164.0485710498
 21
481.2384468108
  0
LINE
  5
25E
100
AcDbEntity
  8
0
100
AcDbLine
 62
7
  6
CONTINUOUS
 10
170.0485710497
 20
443.738512035
 11
170.0485710497
 21
453.738512035
  0
LINE
  5
25F
100
AcDbEntity
  8
0
100
AcDbLine
 62
7
  6
CONTINUOUS
 10
170.0485710497
 20
453.738512035
 11
175.0485710497
 21
458.738512035
  0
LINE
  5
260
100
AcDbEntity
  8
0
100
AcDbLine
 62
7
  6
CONTINUOUS
 10
131.9784810184
 20
446.438512035
 11
130.7884510079
 21
445.738512035
  0
LINE
  5
261
100
AcDbEntity
  8
0
100
AcDbLine
 62
7
  6
CONTINUOUS
 10
174.5485710497
 20
447.238512035
 11
174.5485710497
 21
452.438512035
  0
LINE
  5
262
100
AcDbEntity
  8
0
100
AcDbLine
 62
7
  6
CONTINUOUS
 10
180.5485710497
 20
447.238512035
 11
180.5485710497
 21
452.438512035
  0
LINE
  5
263
100
AcDbEntity
  8
0
100
AcDbLine
 62
7
  6
CONTINUOUS
 10
184.0485710497
 20
288.738512035
 11
184.0485710497
 21
434.738512035
  0
LINE
  5
264
100
AcDbEntity
  8
0
100
AcDbLine
 62
7
  6
CONTINUOUS
 10
185.5485710497
 20
288.738512035
 11
185.5485710497
 21
434.738512035
  0
LINE
  5
265
100
AcDbEntity
  8
0
100
AcDbLine
 62
7
  6
CONTINUOUS
 10
186.5485710497
 20
287.738512035
 11
186.5485710497
 21
288.738512035
  0
LINE
  5
266
100
AcDbEntity
  8
0
100
AcDbLine
 62
7
  6
CONTINUOUS
 10
187.5485710497
 20
289.8849586969
 11
187.5485710497
 21
289.738512035
  0
LINE
  5
267
100
AcDbEntity
  8
0
100
AcDbLine
 62
7
  6
CONTINUOUS
 10
188.0485710497
 20
434.738512035
 11
188.0485710497
 21
290.238512035
  0
LINE
  5
268
100
AcDbEntity
  8
0
100
AcDbLine
 62
7
  6
CONTINUOUS
 10
379.5485710497
 20
287.738512035
 11
186.5485710497
 21
287.738512035
  0
LINE
  5
269
100
AcDbEntity
  8
0
100
AcDbLine
 62
7
  6
CONTINUOUS
 10
178.5485710497
 20
288.738512035
 11
186.5485710497
 21
288.738512035
  0
LINE
  5
26A
100
AcDbEntity
  8
0
100
AcDbLine
 62
7
  6
CONTINUOUS
 10
379.5485710497
 20
288.738512035
 11
387.5485710497
 21
288.738512035
  0
LINE
  5
26B
100
AcDbEntity
  8
0
100
AcDbLine
 62
7
  6
CONTINUOUS
 10
188.0485710497
 20
290.238512035
 11
378.0485710497
 21
290.238512035
  0
LINE
  5
26C
100
AcDbEntity
  8
0
100
AcDbLine
 62
7
  6
CONTINUOUS
 10
273.0485710497
 20
295.738512035
 11
293.0485710497
 21
295.738512035
  0
LINE
  5
26D
100
AcDbEntity
  8
0
100
AcDbLine
 62
7
  6
CONTINUOUS
 10
293.0485710497
 20
296.238512035
 11
273.0485710497
 21
296.238512035
  0
LINE
  5
26E
100
AcDbEntity
  8
0
100
AcDbLine
 62
7
  6
CONTINUOUS
 10
83.0485710497
 20
446.197262035
 11
82.5073210497
 21
446.738512035
  0
LINE
  5
26F
100
AcDbEntity
  8
0
100
AcDbLine
 62
7
  6
CONTINUOUS
 10
132.5485710497
 20
442.279762035
 11
132.7399318223
 21
441.9298728077
  0
LINE
  5
270
100
AcDbEntity
  8
0
100
AcDbLine
 62
7
  6
CONTINUOUS
 10
202.1485710497
 20
366.4271619994
 11
202.1485710497
 21
367.2760035335
  0
LINE
  5
271
100
AcDbEntity
  8
0
100
AcDbLine
 62
7
  6
CONTINUOUS
 10
336.2671203461
 20
310.523390997
 11
336.1115111885
 21
310.5176220063
  0
LINE
  5
272
100
AcDbEntity
  8
0
100
AcDbLine
 62
7
  6
CONTINUOUS
 10
334.6300217532
 20
312.153633073
 11
334.7856309109
 21
312.1594020637
  0
LINE
  5
273
100
AcDbEntity
  8
0
100
AcDbLine
 62
7
  6
CONTINUOUS
 10
231.4662664287
 20
310.5225343856
 11
231.310651316
 21
310.5169283279
  0
LINE
  5
274
100
AcDbEntity
  8
0
100
AcDbLine
 62
7
  6
CONTINUOUS
 10
334.7856309109
 20
312.1594020637
 11
334.7942548225
 21
312.1594384654
  0
LINE
  5
275
100
AcDbEntity
  8
0
100
AcDbLine
 62
7
  6
CONTINUOUS
 10
229.9864907833
 20
312.1600957421
 11
229.9951147284
 21
312.1601231142
  0
LINE
  5
276
100
AcDbEntity
  8
0
100
AcDbLine
 62
7
  6
CONTINUOUS
 10
334.7181722704
 20
310.6050413245
 11
334.8879581924
 21
310.6054784585
  0
LINE
  5
277
100
AcDbEntity
  8
0
100
AcDbLine
 62
7
  6
CONTINUOUS
 10
336.178969829
 20
312.0719827456
 11
336.009183907
 21
312.0715456115
  0
LINE
  5
278
100
AcDbEntity
  8
0
100
AcDbLine
 62
7
  6
CONTINUOUS
 10
332.8994582967
 20
310.818161586
 11
334.6706480809
 21
310.8218784291
  0
LINE
  5
279
100
AcDbEntity
  8
0
100
AcDbLine
 62
7
  6
CONTINUOUS
 10
336.2286554695
 20
310.8251479088
 11
337.9998459591
 21
310.8288647534
  0
LINE
  5
27A
100
AcDbEntity
  8
0
100
AcDbLine
 62
7
  6
CONTINUOUS
 10
333.0886802876
 20
311.3335598021
 11
332.8423341264
 21
311.333042845
  0
LINE
  5
27B
100
AcDbEntity
  8
0
100
AcDbLine
 62
7
  6
CONTINUOUS
 10
337.8084604291
 20
311.3434642687
 11
338.0548078214
 21
311.3439812256
  0
LINE
  5
27C
100
AcDbEntity
  8
0
100
AcDbLine
 62
7
  6
CONTINUOUS
 10
337.9976844129
 20
311.8588624853
 11
336.2264940185
 21
311.8551456409
  0
LINE
  5
27D
100
AcDbEntity
  8
0
100
AcDbLine
 62
7
  6
CONTINUOUS
 10
332.8972972881
 20
311.848159319
 11
334.6684866298
 21
311.8518761612
  0
LINE
  5
27E
100
AcDbEntity
  8
0
100
AcDbLine
 62
7
  6
CONTINUOUS
 10
336.0122554989
 20
310.6078377973
 11
336.1820417602
 21
310.6081132557
  0
LINE
  5
27F
100
AcDbEntity
  8
0
100
AcDbLine
 62
7
  6
CONTINUOUS
 10
229.9174046936
 20
310.6058064872
 11
230.0871909803
 21
310.6060658474
  0
LINE
  5
280
100
AcDbEntity
  8
0
100
AcDbLine
 62
7
  6
CONTINUOUS
 10
334.8848866004
 20
312.0691862727
 11
334.7151003391
 21
312.0689108143
  0
LINE
  5
281
100
AcDbEntity
  8
0
100
AcDbLine
 62
7
  6
CONTINUOUS
 10
231.3797374057
 20
312.0712175829
 11
231.2099511191
 21
312.0709582226
  0
LINE
  5
282
100
AcDbEntity
  8
0
100
AcDbLine
 62
7
  6
CONTINUOUS
 10
228.0989148635
 20
310.8208309079
 11
229.8701075685
 21
310.8226932329
  0
LINE
  5
283
100
AcDbEntity
  8
0
100
AcDbLine
 62
7
  6
CONTINUOUS
 10
231.4281175264
 20
310.8243314065
 11
233.1993109368
 21
310.8261937323
  0
LINE
  5
284
100
AcDbEntity
  8
0
100
AcDbLine
 62
7
  6
CONTINUOUS
 10
228.288676396
 20
311.3360307175
 11
228.0423298285
 21
311.3357716962
  0
LINE
  5
285
100
AcDbEntity
  8
0
100
AcDbLine
 62
7
  6
CONTINUOUS
 10
233.0084643208
 20
311.3409933548
 11
233.2548121192
 21
311.3412523745
  0
LINE
  5
286
100
AcDbEntity
  8
0
100
AcDbLine
 62
7
  6
CONTINUOUS
 10
233.1982278461
 20
311.8561931628
 11
231.4270345309
 21
311.8543308371
  0
LINE
  5
287
100
AcDbEntity
  8
0
100
AcDbLine
 62
7
  6
CONTINUOUS
 10
228.0978323104
 20
311.850830339
 11
229.869024573
 21
311.8526926636
  0
LINE
  5
288
100
AcDbEntity
  8
0
100
AcDbLine
 62
7
  6
CONTINUOUS
 10
231.2114901409
 20
310.6072479946
 11
231.3812765975
 21
310.607345679
  0
LINE
  5
289
100
AcDbEntity
  8
0
100
AcDbLine
 62
7
  6
CONTINUOUS
 10
230.0856519585
 20
312.0697760754
 11
229.9158655018
 21
312.069678391
  0
LINE
  5
28A
100
AcDbEntity
  8
0
100
AcDbLine
 62
7
  6
CONTINUOUS
 10
293.0485710497
 20
304.738512035
 11
273.0485710497
 21
304.738512035
  0
LINE
  5
28B
100
AcDbEntity
  8
0
100
AcDbLine
 62
7
  6
CONTINUOUS
 10
334.631909607
 20
310.5184158552
 11
334.7402775702
 21
310.5148536421
  0
LINE
  5
28C
100
AcDbEntity
  8
0
100
AcDbLine
 62
7
  6
CONTINUOUS
 10
229.8310513767
 20
310.5192713863
 11
229.9394155508
 21
310.515595709
  0
LINE
  5
28D
100
AcDbEntity
  8
0
100
AcDbLine
 62
7
  6
CONTINUOUS
 10
231.4660907226
 20
312.1577526837
 11
231.3577265485
 21
312.161428361
  0
LINE
  5
28E
100
AcDbEntity
  8
0
100
AcDbLine
 62
7
  6
CONTINUOUS
 10
247.7873023237
 20
304.7415381479
 11
266.264892974
 21
297.0878695006
  0
LINE
  5
28F
100
AcDbEntity
  8
0
100
AcDbLine
 62
7
  6
CONTINUOUS
 10
269.7090438652
 20
305.4027852932
 11
251.231453215
 21
313.0564539405
  0
LINE
  5
290
100
AcDbEntity
  8
0
100
AcDbLine
 62
7
  6
CONTINUOUS
 10
230.1343904211
 20
310.5589655583
 11
230.0871909803
 21
310.6060658474
  0
LINE
  5
291
100
AcDbEntity
  8
0
100
AcDbLine
 62
7
  6
CONTINUOUS
 10
229.9173070093
 20
310.7755929438
 11
229.8701075685
 21
310.8226932329
  0
LINE
  5
292
100
AcDbEntity
  8
0
100
AcDbLine
 62
7
  6
CONTINUOUS
 10
231.3020273709
 20
310.5169009558
 11
231.2114901409
 21
310.6072479946
  0
LINE
  5
293
100
AcDbEntity
  8
0
100
AcDbLine
 62
7
  6
CONTINUOUS
 10
229.825587632
 20
311.9902391432
 11
229.9161248621
 21
311.8998921044
  0
LINE
  5
294
100
AcDbEntity
  8
0
100
AcDbLine
 62
7
  6
CONTINUOUS
 10
229.2573460664
 20
312.7268144772
 11
229.9158655018
 21
312.069678391
  0
LINE
  5
295
100
AcDbEntity
  8
0
100
AcDbLine
 62
7
  6
CONTINUOUS
 10
231.3812765975
 20
310.607345679
 11
232.039796033
 21
309.9502095929
  0
LINE
  5
296
100
AcDbEntity
  8
0
100
AcDbLine
 62
7
  6
CONTINUOUS
 10
231.4715544673
 20
310.6867849268
 11
231.3810172372
 21
310.7771319656
  0
LINE
  5
297
100
AcDbEntity
  8
0
100
AcDbLine
 62
7
  6
CONTINUOUS
 10
229.9951147284
 20
312.1601231142
 11
230.0856519585
 21
312.0697760754
  0
LINE
  5
298
100
AcDbEntity
  8
0
100
AcDbLine
 62
7
  6
CONTINUOUS
 10
231.1627516782
 20
312.1180585117
 11
231.2099511191
 21
312.0709582226
  0
LINE
  5
299
100
AcDbEntity
  8
0
100
AcDbLine
 62
7
  6
CONTINUOUS
 10
231.37983509
 20
311.9014311262
 11
231.4270345309
 21
311.8543308371
  0
LINE
  5
29A
100
AcDbEntity
  8
0
100
AcDbLine
 62
7
  6
CONTINUOUS
 10
234.1471421866
 20
314.8370831719
 11
235.4199343927
 21
313.5642909658
  0
LINE
  5
29B
100
AcDbEntity
  8
0
100
AcDbLine
 62
7
  6
CONTINUOUS
 10
227.8942421171
 20
322.7263187262
 11
234.965309929
 21
315.6552509143
  0
LINE
  5
29C
100
AcDbEntity
  8
0
100
AcDbLine
 62
7
  6
CONTINUOUS
 10
236.2381021351
 20
314.3824587082
 11
242.0363777408
 21
308.5841831025
  0
LINE
  5
29D
100
AcDbEntity
  8
0
100
AcDbLine
 62
7
  6
CONTINUOUS
 10
238.8579342872
 20
317.0022908603
 11
237.5851420811
 21
318.2750830664
  0
LINE
  5
29E
100
AcDbEntity
  8
0
100
AcDbLine
 62
7
  6
CONTINUOUS
 10
144.5485710498
 20
454.0385120356
 11
144.7217761305
 21
453.7385120356
  0
LINE
  5
29F
100
AcDbEntity
  8
0
100
AcDbLine
 62
7
  6
CONTINUOUS
 10
205.8916343309
 20
335.6483515481
 11
214.9714443257
 21
317.8282210644
  0
LINE
  5
2A0
100
AcDbEntity
  8
0
100
AcDbLine
 62
7
  6
CONTINUOUS
 10
222.9905030434
 20
321.914135562
 11
213.9106930486
 21
339.7342660458
  0
LINE
  5
2A1
100
AcDbEntity
  8
0
100
AcDbLine
 62
7
  6
CONTINUOUS
 10
200.9876266408
 20
360.8659865402
 11
204.1163159416
 21
341.1122197283
  0
LINE
  5
2A2
100
AcDbEntity
  8
0
100
AcDbLine
 62
7
  6
CONTINUOUS
 10
207.5485710497
 20
348.738512035
 11
207.5485710497
 21
361.9051380484
  0
LINE
  5
2A3
100
AcDbEntity
  8
0
100
AcDbLine
 62
7
  6
CONTINUOUS
 10
207.5485710497
 20
365.5718860216
 11
207.5485710497
 21
385.8211885374
  0
LINE
  5
2A4
100
AcDbEntity
  8
0
100
AcDbLine
 62
7
  6
CONTINUOUS
 10
207.5485710497
 20
390.9844210955
 11
207.5485710497
 21
395.0805939331
  0
LINE
  5
2A5
100
AcDbEntity
  8
0
100
AcDbLine
 62
7
  6
CONTINUOUS
 10
215.0485710497
 20
373.738512035
 11
215.0485710497
 21
353.738512035
  0
LINE
  5
2A6
100
AcDbEntity
  8
0
100
AcDbLine
 62
7
  6
CONTINUOUS
 10
204.1163159416
 20
386.3648043417
 11
200.9876266408
 21
366.6110375298
  0
LINE
  5
2A7
100
AcDbEntity
  8
0
100
AcDbLine
 62
7
  6
CONTINUOUS
 10
209.8768217061
 20
365.2031273445
 11
213.0055110069
 21
384.9568941564
  0
LINE
  5
2A8
100
AcDbEntity
  8
0
100
AcDbLine
 62
7
  6
CONTINUOUS
 10
214.9714443257
 20
409.6488030057
 11
205.8916343309
 21
391.8286725219
  0
LINE
  5
2A9
100
AcDbEntity
  8
0
100
AcDbLine
 62
7
  6
CONTINUOUS
 10
229.8308756706
 20
312.1544896844
 11
229.9864907833
 21
312.1600957421
  0
LINE
  5
2AA
100
AcDbEntity
  8
0
100
AcDbLine
 62
7
  6
CONTINUOUS
 10
336.2652324924
 20
312.1586082148
 11
336.1568645291
 21
312.1621704279
  0
LINE
  5
2AB
100
AcDbEntity
  8
0
100
AcDbLine
 62
7
  6
CONTINUOUS
 10
241.325733898
 20
322.0156748833
 11
242.5985261041
 21
320.7428826772
  0
LINE
  5
2AC
100
AcDbEntity
  8
0
100
AcDbLine
 62
7
  6
CONTINUOUS
 10
248.4003387715
 20
314.9481441331
 11
242.6020631658
 21
320.7464197389
  0
LINE
  5
2AD
100
AcDbEntity
  8
0
100
AcDbLine
 62
7
  6
CONTINUOUS
 10
241.3292709597
 20
322.019211945
 11
234.2582031478
 21
329.0902797569
  0
LINE
  5
2AE
100
AcDbEntity
  8
0
100
AcDbLine
 62
7
  6
CONTINUOUS
 10
132.5485710497
 20
440.988512035
 11
132.7360710497
 21
440.801012035
  0
LINE
  5
2AF
100
AcDbEntity
  8
0
100
AcDbLine
 62
7
  6
CONTINUOUS
 10
138.5485710497
 20
441.738512035
 11
138.357210277
 21
441.9298728077
  0
LINE
  5
2B0
100
AcDbEntity
  8
0
100
AcDbLine
 62
7
  6
CONTINUOUS
 10
144.5485710498
 20
474.0385120356
 11
144.7217761305
 21
473.7385120356
  0
LINE
  5
2B1
100
AcDbEntity
  8
0
100
AcDbLine
 62
7
  6
CONTINUOUS
 10
164.0485710498
 20
461.2385120355
 11
163.7598959152
 21
461.7385120355
  0
LINE
  5
2B2
100
AcDbEntity
  8
0
100
AcDbLine
 62
7
  6
CONTINUOUS
 10
216.3979285152
 20
346.9548339593
 11
224.0515971625
 21
328.4772433091
  0
LINE
  5
2B3
100
AcDbEntity
  8
0
100
AcDbLine
 62
7
  6
CONTINUOUS
 10
232.3665129551
 20
331.9213942004
 11
224.7128443078
 21
350.3989848506
  0
LINE
  5
2B4
100
AcDbEntity
  8
0
100
AcDbLine
 62
7
  6
CONTINUOUS
 10
213.0055110069
 20
342.5201299136
 11
209.8768217061
 21
362.2738967255
  0
LINE
  5
2B5
100
AcDbEntity
  8
0
100
AcDbLine
 62
7
  6
CONTINUOUS
 10
229.8310513767
 20
310.5192713863
 11
229.8271478283
 21
310.6276275912
  0
LINE
  5
2B6
100
AcDbEntity
  8
0
100
AcDbLine
 62
7
  6
CONTINUOUS
 10
231.4660907226
 20
312.1577526837
 11
231.4699942711
 21
312.0493964788
  0
LINE
  5
2B7
100
AcDbEntity
  8
0
100
AcDbLine
 62
7
  6
CONTINUOUS
 10
229.8301904266
 20
415.3201314317
 11
229.8264008129
 21
415.4284916811
  0
LINE
  5
2B8
100
AcDbEntity
  8
0
100
AcDbLine
 62
7
  6
CONTINUOUS
 10
231.4669516727
 20
416.9568926383
 11
231.4707412864
 21
416.8485323889
  0
LINE
  5
2B9
100
AcDbEntity
  8
0
100
AcDbLine
 62
7
  6
CONTINUOUS
 10
229.9158655018
 20
312.069678391
 11
229.9161248621
 21
311.8998921044
  0
LINE
  5
2BA
100
AcDbEntity
  8
0
100
AcDbLine
 62
7
  6
CONTINUOUS
 10
231.3812765975
 20
310.607345679
 11
231.3810172372
 21
310.7771319656
  0
LINE
  5
2BB
100
AcDbEntity
  8
0
100
AcDbLine
 62
7
  6
CONTINUOUS
 10
230.1308899221
 20
313.888168586
 11
230.1327522476
 21
312.1169755162
  0
LINE
  5
2BC
100
AcDbEntity
  8
0
100
AcDbLine
 62
7
  6
CONTINUOUS
 10
230.1362527464
 20
308.7877726727
 11
230.1343904211
 21
310.5589655583
  0
LINE
  5
2BD
100
AcDbEntity
  8
0
100
AcDbLine
 62
7
  6
CONTINUOUS
 10
231.166252177
 20
308.7888557069
 11
231.1643898517
 21
310.5600485538
  0
LINE
  5
2BE
100
AcDbEntity
  8
0
100
AcDbLine
 62
7
  6
CONTINUOUS
 10
231.1627516782
 20
312.1180585117
 11
231.1608893531
 21
313.8892512841
  0
LINE
  5
2BF
100
AcDbEntity
  8
0
100
AcDbLine
 62
7
  6
CONTINUOUS
 10
229.9173070093
 20
310.7755929438
 11
229.9174046936
 21
310.6058064872
  0
LINE
  5
2C0
100
AcDbEntity
  8
0
100
AcDbLine
 62
7
  6
CONTINUOUS
 10
231.37983509
 20
311.9014311262
 11
231.3797374057
 21
312.0712175829
  0
LINE
  5
2C1
100
AcDbEntity
  8
0
100
AcDbLine
 62
7
  6
CONTINUOUS
 10
229.9166347019
 20
416.8704484004
 11
229.9167155379
 21
416.7006619349
  0
LINE
  5
2C2
100
AcDbEntity
  8
0
100
AcDbLine
 62
7
  6
CONTINUOUS
 10
231.3805073974
 20
415.4065756696
 11
231.3804265614
 21
415.5763621352
  0
LINE
  5
2C3
100
AcDbEntity
  8
0
100
AcDbLine
 62
7
  6
CONTINUOUS
 10
224.0485710497
 20
353.738512035
 11
224.0485710497
 21
373.738512035
  0
LINE
  5
2C4
100
AcDbEntity
  8
0
100
AcDbLine
 62
7
  6
CONTINUOUS
 10
230.1335710804
 20
418.6887114996
 11
230.133571059
 21
416.9175174508
  0
LINE
  5
2C5
100
AcDbEntity
  8
0
100
AcDbLine
 62
7
  6
CONTINUOUS
 10
230.1335710189
 20
413.588312767
 11
230.1335710403
 21
415.3595066316
  0
LINE
  5
2C6
100
AcDbEntity
  8
0
100
AcDbLine
 62
7
  6
CONTINUOUS
 10
231.1635710189
 20
413.5883127933
 11
231.1635710403
 21
415.3595066192
  0
LINE
  5
2C7
100
AcDbEntity
  8
0
100
AcDbLine
 62
7
  6
CONTINUOUS
 10
231.163571059
 20
416.9175174384
 11
231.1635710804
 21
418.6887111898
  0
LINE
  5
2C8
100
AcDbEntity
  8
0
100
AcDbLine
 62
7
  6
CONTINUOUS
 10
229.9167155244
 20
415.5763621528
 11
229.9166346843
 21
415.4065756873
  0
LINE
  5
2C9
100
AcDbEntity
  8
0
100
AcDbLine
 62
7
  6
CONTINUOUS
 10
231.380426575
 20
416.7006619172
 11
231.380507415
 21
416.8704483827
  0
LINE
  5
2CA
100
AcDbEntity
  8
0
100
AcDbLine
 62
7
  6
CONTINUOUS
 10
229.825587632
 20
311.9902391432
 11
229.8255968688
 21
311.9988631268
  0
LINE
  5
2CB
100
AcDbEntity
  8
0
100
AcDbLine
 62
7
  6
CONTINUOUS
 10
229.8262733546
 20
416.7911041204
 11
229.8262916591
 21
416.7997280895
  0
LINE
  5
2CC
100
AcDbEntity
  8
0
100
AcDbLine
 62
7
  6
CONTINUOUS
 10
229.8255968688
 20
311.9988631268
 11
229.8308756706
 21
312.1544896844
  0
LINE
  5
2CD
100
AcDbEntity
  8
0
100
AcDbLine
 62
7
  6
CONTINUOUS
 10
231.4662664287
 20
310.5225343856
 11
231.4715452306
 21
310.6781609433
  0
LINE
  5
2CE
100
AcDbEntity
  8
0
100
AcDbLine
 62
7
  6
CONTINUOUS
 10
229.8262916591
 20
416.7997280895
 11
229.8317340938
 21
416.9553490106
  0
LINE
  5
2CF
100
AcDbEntity
  8
0
100
AcDbLine
 62
7
  6
CONTINUOUS
 10
231.4654080056
 20
415.3216750594
 11
231.4708504402
 21
415.4772959806
  0
LINE
  5
2D0
100
AcDbEntity
  8
0
100
AcDbLine
 62
7
  6
CONTINUOUS
 10
224.0515971625
 20
398.9997807609
 11
216.3979285152
 21
380.5221901107
  0
LINE
  5
2D1
100
AcDbEntity
  8
0
100
AcDbLine
 62
7
  6
CONTINUOUS
 10
224.7128443079
 20
377.0780392194
 11
232.3665129552
 21
395.5556298697
  0
LINE
  5
2D2
100
AcDbEntity
  8
0
100
AcDbLine
 62
7
  6
CONTINUOUS
 10
213.9106930486
 20
387.7427580242
 11
222.9905030434
 21
405.562888508
  0
LINE
  5
2D3
100
AcDbEntity
  8
0
100
AcDbLine
 62
7
  6
CONTINUOUS
 10
229.8695656463
 20
416.6535120444
 11
229.9167155379
 21
416.7006619349
  0
LINE
  5
2D4
100
AcDbEntity
  8
0
100
AcDbLine
 62
7
  6
CONTINUOUS
 10
230.0864211674
 20
416.8703675603
 11
230.133571059
 21
416.9175174508
  0
LINE
  5
2D5
100
AcDbEntity
  8
0
100
AcDbLine
 62
7
  6
CONTINUOUS
 10
231.301163135
 20
416.9608097301
 11
231.2107209495
 21
416.8703675468
  0
LINE
  5
2D6
100
AcDbEntity
  8
0
100
AcDbLine
 62
7
  6
CONTINUOUS
 10
229.8262733388
 20
415.4859199694
 11
229.9167155244
 21
415.5763621528
  0
LINE
  5
2D7
100
AcDbEntity
  8
0
100
AcDbLine
 62
7
  6
CONTINUOUS
 10
229.4035183249
 20
414.8934593403
 11
229.9166346843
 21
415.4065756873
  0
LINE
  5
2D8
100
AcDbEntity
  8
0
100
AcDbLine
 62
7
  6
CONTINUOUS
 10
231.380507415
 20
416.8704483827
 11
231.8936237744
 21
417.3835647297
  0
LINE
  5
2D9
100
AcDbEntity
  8
0
100
AcDbLine
 62
7
  6
CONTINUOUS
 10
231.4708687605
 20
416.7911041006
 11
231.380426575
 21
416.7006619172
  0
LINE
  5
2DA
100
AcDbEntity
  8
0
100
AcDbLine
 62
7
  6
CONTINUOUS
 10
229.9959789643
 20
415.3162143399
 11
230.0864211498
 21
415.4066565233
  0
LINE
  5
2DB
100
AcDbEntity
  8
0
100
AcDbLine
 62
7
  6
CONTINUOUS
 10
231.427576453
 20
415.6235120256
 11
231.3804265614
 21
415.5763621352
  0
LINE
  5
2DC
100
AcDbEntity
  8
0
100
AcDbLine
 62
7
  6
CONTINUOUS
 10
231.2107209319
 20
415.4066565097
 11
231.1635710403
 21
415.3595066192
  0
LINE
  5
2DD
100
AcDbEntity
  8
0
100
AcDbLine
 62
7
  6
CONTINUOUS
 10
236.1213632558
 20
413.2113042411
 11
234.8485710497
 21
411.938512035
  0
LINE
  5
2DE
100
AcDbEntity
  8
0
100
AcDbLine
 62
7
  6
CONTINUOUS
 10
242.0363777408
 20
418.8928409676
 11
236.2381021351
 21
413.0945653618
  0
LINE
  5
2DF
100
AcDbEntity
  8
0
100
AcDbLine
 62
7
  6
CONTINUOUS
 10
234.965309929
 20
411.8217731557
 11
227.8942421171
 21
404.7507053438
  0
LINE
  5
2E0
100
AcDbEntity
  8
0
100
AcDbLine
 62
7
  6
CONTINUOUS
 10
277.5485710497
 20
447.938512035
 11
276.7750683578
 21
447.4919300476
  0
LINE
  5
2E1
100
AcDbEntity
  8
0
100
AcDbLine
 62
7
  6
CONTINUOUS
 10
164.0485710498
 20
481.2385120355
 11
163.7598959152
 21
481.7385120355
  0
LINE
  5
2E2
100
AcDbEntity
  8
0
100
AcDbLine
 62
7
  6
CONTINUOUS
 10
237.5851420811
 20
409.2019410036
 11
238.8579342872
 21
410.4747332098
  0
LINE
  5
2E3
100
AcDbEntity
  8
0
100
AcDbLine
 62
7
  6
CONTINUOUS
 10
280.0898210497
 20
446.738512035
 11
279.5485710497
 21
446.197262035
  0
LINE
  5
2E4
100
AcDbEntity
  8
0
100
AcDbLine
 62
7
  6
CONTINUOUS
 10
242.5985261041
 20
406.7341413928
 11
241.325733898
 21
405.4613491867
  0
LINE
  5
2E5
100
AcDbEntity
  8
0
100
AcDbLine
 62
7
  6
CONTINUOUS
 10
234.2582031478
 20
398.3867443132
 11
241.3292709597
 21
405.457812125
  0
LINE
  5
2E6
100
AcDbEntity
  8
0
100
AcDbLine
 62
7
  6
CONTINUOUS
 10
242.6020631658
 20
406.7306043311
 11
248.4003387715
 21
412.5288799369
  0
LINE
  5
2E7
100
AcDbEntity
  8
0
100
AcDbLine
 62
7
  6
CONTINUOUS
 10
278.9784810184
 20
441.438512035
 11
277.7884510079
 21
440.738512035
  0
LINE
  5
2E8
100
AcDbEntity
  8
0
100
AcDbLine
 62
7
  6
CONTINUOUS
 10
266.264892974
 20
430.3891545694
 11
247.7873023237
 21
422.7354859221
  0
LINE
  5
2E9
100
AcDbEntity
  8
0
100
AcDbLine
 62
7
  6
CONTINUOUS
 10
251.231453215
 20
414.4205701295
 11
269.7090438652
 21
422.0742387768
  0
LINE
  5
2EA
100
AcDbEntity
  8
0
100
AcDbLine
 62
7
  6
CONTINUOUS
 10
204.1163159416
 20
341.1122197283
 11
213.0055110069
 21
342.5201299136
  0
LINE
  5
2EB
100
AcDbEntity
  8
0
100
AcDbLine
 62
7
  6
CONTINUOUS
 10
356.2203203932
 20
365.2031273445
 11
365.1095154586
 21
366.6110375298
  0
LINE
  5
2EC
100
AcDbEntity
  8
0
100
AcDbLine
 62
7
  6
CONTINUOUS
 10
363.1887121965
 20
348.738512035
 11
357.5485710497
 21
348.738512035
  0
LINE
  5
2ED
100
AcDbEntity
  8
0
100
AcDbLine
 62
7
  6
CONTINUOUS
 10
202.9084299028
 20
348.738512035
 11
207.5485710497
 21
348.738512035
  0
LINE
  5
2EE
100
AcDbEntity
  8
0
100
AcDbLine
 62
7
  6
CONTINUOUS
 10
215.0485710497
 20
353.738512035
 11
224.0485710497
 21
353.738512035
  0
LINE
  5
2EF
100
AcDbEntity
  8
0
100
AcDbLine
 62
7
  6
CONTINUOUS
 10
342.0485710497
 20
353.738512035
 11
351.0485710497
 21
353.738512035
  0
LINE
  5
2F0
100
AcDbEntity
  8
0
100
AcDbLine
 62
7
  6
CONTINUOUS
 10
200.9876266408
 20
366.6110375298
 11
209.8768217061
 21
365.2031273445
  0
LINE
  5
2F1
100
AcDbEntity
  8
0
100
AcDbLine
 62
7
  6
CONTINUOUS
 10
353.0916310924
 20
342.5201299136
 11
361.9808261578
 21
341.1122197283
  0
LINE
  5
2F2
100
AcDbEntity
  8
0
100
AcDbLine
 62
7
  6
CONTINUOUS
 10
216.3979285152
 20
380.5221901107
 11
224.7128443079
 21
377.0780392194
  0
LINE
  5
2F3
100
AcDbEntity
  8
0
100
AcDbLine
 62
7
  6
CONTINUOUS
 10
333.7306291442
 20
331.9213942004
 11
342.0455449368
 21
328.4772433091
  0
LINE
  5
2F4
100
AcDbEntity
  8
0
100
AcDbLine
 62
7
  6
CONTINUOUS
 10
205.8916343309
 20
391.8286725219
 11
213.9106930486
 21
387.7427580242
  0
LINE
  5
2F5
100
AcDbEntity
  8
0
100
AcDbLine
 62
7
  6
CONTINUOUS
 10
343.1066390559
 20
321.914135562
 11
351.1256977736
 21
317.8282210644
  0
LINE
  5
2F6
100
AcDbEntity
  8
0
100
AcDbLine
 62
7
  6
CONTINUOUS
 10
120.5485710497
 20
447.938512035
 11
121.3220737416
 21
447.4919300476
  0
LINE
  5
2F7
100
AcDbEntity
  8
0
100
AcDbLine
 62
7
  6
CONTINUOUS
 10
120.3086910914
 20
440.738512035
 11
119.118661081
 21
441.438512035
  0
LINE
  5
2F8
100
AcDbEntity
  8
0
100
AcDbLine
 62
7
  6
CONTINUOUS
 10
361.9808261578
 20
386.3648043417
 11
353.0916310924
 21
384.9568941564
  0
LINE
  5
2F9
100
AcDbEntity
  8
0
100
AcDbLine
 62
7
  6
CONTINUOUS
 10
209.8768217061
 20
362.2738967255
 11
200.9876266408
 21
360.8659865402
  0
LINE
  5
2FA
100
AcDbEntity
  8
0
100
AcDbLine
 62
7
  6
CONTINUOUS
 10
351.0485710497
 20
373.738512035
 11
342.0485710497
 21
373.738512035
  0
LINE
  5
2FB
100
AcDbEntity
  8
0
100
AcDbLine
 62
7
  6
CONTINUOUS
 10
224.0485710497
 20
373.738512035
 11
215.0485710497
 21
373.738512035
  0
LINE
  5
2FC
100
AcDbEntity
  8
0
100
AcDbLine
 62
7
  6
CONTINUOUS
 10
365.1095154586
 20
360.8659865402
 11
356.2203203932
 21
362.2738967255
  0
LINE
  5
2FD
100
AcDbEntity
  8
0
100
AcDbLine
 62
7
  6
CONTINUOUS
 10
213.0055110069
 20
384.9568941564
 11
204.1163159416
 21
386.3648043417
  0
LINE
  5
2FE
100
AcDbEntity
  8
0
100
AcDbLine
 62
7
  6
CONTINUOUS
 10
349.6992135841
 20
346.9548339593
 11
341.3842977915
 21
350.3989848506
  0
LINE
  5
2FF
100
AcDbEntity
  8
0
100
AcDbLine
 62
7
  6
CONTINUOUS
 10
232.3665129552
 20
395.5556298697
 11
224.0515971625
 21
398.9997807609
  0
LINE
  5
300
100
AcDbEntity
  8
0
100
AcDbLine
 62
7
  6
CONTINUOUS
 10
140.5485710497
 20
452.938512035
 11
141.3220737416
 21
452.4919300476
  0
LINE
  5
301
100
AcDbEntity
  8
0
100
AcDbLine
 62
7
  6
CONTINUOUS
 10
140.3086910914
 20
445.738512035
 11
139.118661081
 21
446.438512035
  0
LINE
  5
302
100
AcDbEntity
  8
0
100
AcDbLine
 62
7
  6
CONTINUOUS
 10
334.9352069235
 20
310.5584276152
 11
334.8879581924
 21
310.6054784585
  0
LINE
  5
303
100
AcDbEntity
  8
0
100
AcDbLine
 62
7
  6
CONTINUOUS
 10
334.7178968119
 20
310.7748275858
 11
334.6706480809
 21
310.8218784291
  0
LINE
  5
304
100
AcDbEntity
  8
0
100
AcDbLine
 62
7
  6
CONTINUOUS
 10
336.1028872768
 20
310.5175856046
 11
336.0122554989
 21
310.6078377973
  0
LINE
  5
305
100
AcDbEntity
  8
0
100
AcDbLine
 62
7
  6
CONTINUOUS
 10
334.6249056953
 20
311.989377085
 11
334.7155374732
 21
311.8991248923
  0
LINE
  5
306
100
AcDbEntity
  8
0
100
AcDbLine
 62
7
  6
CONTINUOUS
 10
334.0558932134
 20
312.7253570405
 11
334.7151003391
 21
312.0689108143
  0
LINE
  5
307
100
AcDbEntity
  8
0
100
AcDbLine
 62
7
  6
CONTINUOUS
 10
336.1820417602
 20
310.6081132557
 11
336.841248886
 21
309.9516670295
  0
LINE
  5
308
100
AcDbEntity
  8
0
100
AcDbLine
 62
7
  6
CONTINUOUS
 10
336.272236404
 20
310.687646985
 11
336.1816046261
 21
310.7778991777
  0
LINE
  5
309
100
AcDbEntity
  8
0
100
AcDbLine
 62
7
  6
CONTINUOUS
 10
334.7942548225
 20
312.1594384654
 11
334.8848866004
 21
312.0691862727
  0
LINE
  5
30A
100
AcDbEntity
  8
0
100
AcDbLine
 62
7
  6
CONTINUOUS
 10
335.9619351759
 20
312.1185964548
 11
336.009183907
 21
312.0715456115
  0
LINE
  5
30B
100
AcDbEntity
  8
0
100
AcDbLine
 62
7
  6
CONTINUOUS
 10
336.1792452874
 20
311.9021964843
 11
336.2264940185
 21
311.8551456409
  0
LINE
  5
30C
100
AcDbEntity
  8
0
100
AcDbLine
 62
7
  6
CONTINUOUS
 10
227.8942421171
 20
404.7507053438
 11
234.2582031478
 21
398.3867443132
  0
LINE
  5
30D
100
AcDbEntity
  8
0
100
AcDbLine
 62
7
  6
CONTINUOUS
 10
317.6968033278
 20
314.9481441331
 11
324.0607643585
 21
308.5841831025
  0
LINE
  5
30E
100
AcDbEntity
  8
0
100
AcDbLine
 62
7
  6
CONTINUOUS
 10
280.0080118906
 20
358.1523684636
 11
278.7352196844
 21
359.4251606698
  0
LINE
  5
30F
100
AcDbEntity
  8
0
100
AcDbLine
 62
7
  6
CONTINUOUS
 10
330.6772077066
 20
313.5642909658
 11
286.0891302088
 21
358.1523684636
  0
LINE
  5
310
100
AcDbEntity
  8
0
100
AcDbLine
 62
7
  6
CONTINUOUS
 10
230.1335710403
 20
415.3595066316
 11
230.0864211498
 21
415.4066565233
  0
LINE
  5
311
100
AcDbEntity
  8
0
100
AcDbLine
 62
7
  6
CONTINUOUS
 10
229.9167155244
 20
415.5763621528
 11
229.8695656339
 21
415.6235120444
  0
LINE
  5
312
100
AcDbEntity
  8
0
100
AcDbLine
 62
7
  6
CONTINUOUS
 10
231.3011631152
 20
415.3162143242
 11
231.2107209319
 21
415.4066565097
  0
LINE
  5
313
100
AcDbEntity
  8
0
100
AcDbLine
 62
7
  6
CONTINUOUS
 10
229.8262733546
 20
416.7911041204
 11
229.9167155379
 21
416.7006619349
  0
LINE
  5
314
100
AcDbEntity
  8
0
100
AcDbLine
 62
7
  6
CONTINUOUS
 10
278.7352196844
 20
368.0518634002
 11
234.8485710497
 21
411.938512035
  0
LINE
  5
315
100
AcDbEntity
  8
0
100
AcDbLine
 62
7
  6
CONTINUOUS
 10
229.9166347019
 20
416.8704484004
 11
229.2588065855
 21
417.5282765327
  0
LINE
  5
316
100
AcDbEntity
  8
0
100
AcDbLine
 62
7
  6
CONTINUOUS
 10
231.3805073974
 20
415.4065756696
 11
232.0383355139
 21
414.7487475373
  0
LINE
  5
317
100
AcDbEntity
  8
0
100
AcDbLine
 62
7
  6
CONTINUOUS
 10
287.3619224149
 20
359.4251606698
 11
331.9499999128
 21
314.8370831719
  0
LINE
  5
318
100
AcDbEntity
  8
0
100
AcDbLine
 62
7
  6
CONTINUOUS
 10
231.4708687448
 20
415.4859199496
 11
231.3804265614
 21
415.5763621352
  0
LINE
  5
319
100
AcDbEntity
  8
0
100
AcDbLine
 62
7
  6
CONTINUOUS
 10
229.9959789841
 20
416.9608097458
 11
230.0864211674
 21
416.8703675603
  0
LINE
  5
31A
100
AcDbEntity
  8
0
100
AcDbLine
 62
7
  6
CONTINUOUS
 10
231.163571059
 20
416.9175174384
 11
231.2107209495
 21
416.8703675468
  0
LINE
  5
31B
100
AcDbEntity
  8
0
100
AcDbLine
 62
7
  6
CONTINUOUS
 10
231.380426575
 20
416.7006619172
 11
231.4275764654
 21
416.6535120256
  0
LINE
  5
31C
100
AcDbEntity
  8
0
100
AcDbLine
 62
7
  6
CONTINUOUS
 10
236.1213632558
 20
413.2113042411
 11
280.0080118906
 21
369.3246556064
  0
LINE
  5
31D
100
AcDbEntity
  8
0
100
AcDbLine
 62
7
  6
CONTINUOUS
 10
247.7873023237
 20
422.7354859221
 11
251.231453215
 21
414.4205701295
  0
LINE
  5
31E
100
AcDbEntity
  8
0
100
AcDbLine
 62
7
  6
CONTINUOUS
 10
296.3880982341
 20
305.4027852932
 11
299.8322491254
 21
297.0878695006
  0
LINE
  5
31F
100
AcDbEntity
  8
0
100
AcDbLine
 62
7
  6
CONTINUOUS
 10
273.0485710497
 20
431.738512035
 11
273.0485710497
 21
422.738512035
  0
LINE
  5
320
100
AcDbEntity
  8
0
100
AcDbLine
 62
7
  6
CONTINUOUS
 10
273.0485710497
 20
304.738512035
 11
273.0485710497
 21
295.738512035
  0
LINE
  5
321
100
AcDbEntity
  8
0
100
AcDbLine
 62
7
  6
CONTINUOUS
 10
276.5485710497
 20
442.438512035
 11
276.5485710497
 21
441.438512035
  0
LINE
  5
322
100
AcDbEntity
  8
0
100
AcDbLine
 62
7
  6
CONTINUOUS
 10
276.7750683578
 20
442.738512035
 11
276.7750683578
 21
447.4919300476
  0
LINE
  5
323
100
AcDbEntity
  8
0
100
AcDbLine
 62
7
  6
CONTINUOUS
 10
277.0052938546
 20
440.738512035
 11
277.0052938546
 21
441.438512035
  0
LINE
  5
324
100
AcDbEntity
  8
0
100
AcDbLine
 62
7
  6
CONTINUOUS
 10
277.7884510079
 20
441.438512035
 11
277.7884510079
 21
440.738512035
  0
LINE
  5
325
100
AcDbEntity
  8
0
100
AcDbLine
 62
7
  6
CONTINUOUS
 10
279.0485710497
 20
440.738512035
 11
279.0485710497
 21
440.238512035
  0
LINE
  5
326
100
AcDbEntity
  8
0
100
AcDbLine
 62
7
  6
CONTINUOUS
 10
279.5485710497
 20
446.197262035
 11
279.5485710497
 21
440.238512035
  0
LINE
  5
327
100
AcDbEntity
  8
0
100
AcDbLine
 62
7
  6
CONTINUOUS
 10
279.5485710497
 20
446.197262035
 11
279.5485710497
 21
447.938512035
  0
LINE
  5
328
100
AcDbEntity
  8
0
100
AcDbLine
 62
7
  6
CONTINUOUS
 10
279.6618197037
 20
446.3105106891
 11
279.6618197037
 21
447.4919300476
  0
LINE
  5
329
100
AcDbEntity
  8
0
100
AcDbLine
 62
7
  6
CONTINUOUS
 10
299.8322491254
 20
430.3891545694
 11
296.3880982341
 21
422.0742387768
  0
LINE
  5
32A
100
AcDbEntity
  8
0
100
AcDbLine
 62
7
  6
CONTINUOUS
 10
251.231453215
 20
313.0564539405
 11
247.7873023237
 21
304.7415381479
  0
LINE
  5
32B
100
AcDbEntity
  8
0
100
AcDbLine
 62
7
  6
CONTINUOUS
 10
360.2055077684
 20
335.6483515481
 11
352.1864490507
 21
339.7342660458
  0
LINE
  5
32C
100
AcDbEntity
  8
0
100
AcDbLine
 62
7
  6
CONTINUOUS
 10
222.9905030434
 20
405.562888508
 11
214.9714443257
 21
409.6488030057
  0
LINE
  5
32D
100
AcDbEntity
  8
0
100
AcDbLine
 62
7
  6
CONTINUOUS
 10
286.0891302088
 20
369.3246556064
 11
287.3619224149
 21
368.0518634002
  0
LINE
  5
32E
100
AcDbEntity
  8
0
100
AcDbLine
 62
7
  6
CONTINUOUS
 10
338.2028999822
 20
322.7263187262
 11
331.8389389515
 21
329.0902797569
  0
LINE
  5
32F
100
AcDbEntity
  8
0
100
AcDbLine
 62
7
  6
CONTINUOUS
 10
248.4003387715
 20
412.5288799369
 11
242.0363777408
 21
418.8928409676
  0
LINE
  5
330
100
AcDbEntity
  8
0
100
AcDbLine
 62
7
  6
CONTINUOUS
 10
318.3098397756
 20
304.7415381479
 11
314.8656888843
 21
313.0564539405
  0
LINE
  5
331
100
AcDbEntity
  8
0
100
AcDbLine
 62
7
  6
CONTINUOUS
 10
269.7090438652
 20
422.0742387768
 11
266.264892974
 21
430.3891545694
  0
LINE
  5
332
100
AcDbEntity
  8
0
100
AcDbLine
 62
7
  6
CONTINUOUS
 10
285.4353223956
 20
446.3105106891
 11
285.4353223956
 21
447.4919300476
  0
LINE
  5
333
100
AcDbEntity
  8
0
100
AcDbLine
 62
7
  6
CONTINUOUS
 10
285.5485710497
 20
440.238512035
 11
285.5485710497
 21
446.197262035
  0
LINE
  5
334
100
AcDbEntity
  8
0
100
AcDbLine
 62
7
  6
CONTINUOUS
 10
285.5485710497
 20
446.197262035
 11
285.5485710497
 21
447.938512035
  0
LINE
  5
335
100
AcDbEntity
  8
0
100
AcDbLine
 62
7
  6
CONTINUOUS
 10
286.0485710497
 20
440.738512035
 11
286.0485710497
 21
440.238512035
  0
LINE
  5
336
100
AcDbEntity
  8
0
100
AcDbLine
 62
7
  6
CONTINUOUS
 10
287.3086910914
 20
440.738512035
 11
287.3086910914
 21
441.438512035
  0
LINE
  5
337
100
AcDbEntity
  8
0
100
AcDbLine
 62
7
  6
CONTINUOUS
 10
288.0918482447
 20
441.438512035
 11
288.0918482447
 21
440.738512035
  0
LINE
  5
338
100
AcDbEntity
  8
0
100
AcDbLine
 62
7
  6
CONTINUOUS
 10
288.3220737416
 20
442.738512035
 11
288.3220737416
 21
447.4919300476
  0
LINE
  5
339
100
AcDbEntity
  8
0
100
AcDbLine
 62
7
  6
CONTINUOUS
 10
288.5485710497
 20
442.438512035
 11
288.5485710497
 21
441.438512035
  0
LINE
  5
33A
100
AcDbEntity
  8
0
100
AcDbLine
 62
7
  6
CONTINUOUS
 10
293.0485710497
 20
295.738512035
 11
293.0485710497
 21
304.738512035
  0
LINE
  5
33B
100
AcDbEntity
  8
0
100
AcDbLine
 62
7
  6
CONTINUOUS
 10
293.0485710497
 20
422.738512035
 11
293.0485710497
 21
431.738512035
  0
LINE
  5
33C
100
AcDbEntity
  8
0
100
AcDbLine
 62
7
  6
CONTINUOUS
 10
324.0607643585
 20
418.8928409676
 11
317.6968033278
 21
412.5288799369
  0
LINE
  5
33D
100
AcDbEntity
  8
0
100
AcDbLine
 62
7
  6
CONTINUOUS
 10
234.2582031478
 20
329.0902797569
 11
227.8942421171
 21
322.7263187262
  0
LINE
  5
33E
100
AcDbEntity
  8
0
100
AcDbLine
 62
7
  6
CONTINUOUS
 10
278.7352196844
 20
368.0518634002
 11
280.0080118906
 21
369.3246556064
  0
LINE
  5
33F
100
AcDbEntity
  8
0
100
AcDbLine
 62
7
  6
CONTINUOUS
 10
286.0891302088
 20
369.3246556064
 11
329.9757788435
 21
413.2113042411
  0
LINE
  5
340
100
AcDbEntity
  8
0
100
AcDbLine
 62
7
  6
CONTINUOUS
 10
424.5485710497
 20
452.938512035
 11
423.7750683578
 21
452.4919300476
  0
LINE
  5
341
100
AcDbEntity
  8
0
100
AcDbLine
 62
7
  6
CONTINUOUS
 10
351.1256977736
 20
409.6488030057
 11
343.1066390559
 21
405.562888508
  0
LINE
  5
342
100
AcDbEntity
  8
0
100
AcDbLine
 62
7
  6
CONTINUOUS
 10
213.9106930486
 20
339.7342660458
 11
205.8916343309
 21
335.6483515481
  0
LINE
  5
343
100
AcDbEntity
  8
0
100
AcDbLine
 62
7
  6
CONTINUOUS
 10
342.0455449368
 20
398.9997807609
 11
333.7306291442
 21
395.5556298697
  0
LINE
  5
344
100
AcDbEntity
  8
0
100
AcDbLine
 62
7
  6
CONTINUOUS
 10
224.7128443078
 20
350.3989848506
 11
216.3979285152
 21
346.9548339593
  0
LINE
  5
345
100
AcDbEntity
  8
0
100
AcDbLine
 62
7
  6
CONTINUOUS
 10
266.264892974
 20
297.0878695006
 11
269.7090438652
 21
305.4027852932
  0
LINE
  5
346
100
AcDbEntity
  8
0
100
AcDbLine
 62
7
  6
CONTINUOUS
 10
314.8656888843
 20
414.4205701295
 11
318.3098397756
 21
422.7354859221
  0
LINE
  5
347
100
AcDbEntity
  8
0
100
AcDbLine
 62
7
  6
CONTINUOUS
 10
229.869024573
 20
311.8526926636
 11
229.9161248621
 21
311.8998921044
  0
LINE
  5
348
100
AcDbEntity
  8
0
100
AcDbLine
 62
7
  6
CONTINUOUS
 10
230.0856519585
 20
312.0697760754
 11
230.1327522476
 21
312.1169755162
  0
LINE
  5
349
100
AcDbEntity
  8
0
100
AcDbLine
 62
7
  6
CONTINUOUS
 10
231.3002981579
 20
312.1614954526
 11
231.2099511191
 21
312.0709582226
  0
LINE
  5
34A
100
AcDbEntity
  8
0
100
AcDbLine
 62
7
  6
CONTINUOUS
 10
229.8269599705
 20
310.6850557137
 11
229.9173070093
 21
310.7755929438
  0
LINE
  5
34B
100
AcDbEntity
  8
0
100
AcDbLine
 62
7
  6
CONTINUOUS
 10
229.4048281413
 20
310.0921509004
 11
229.9174046936
 21
310.6058064872
  0
LINE
  5
34C
100
AcDbEntity
  8
0
100
AcDbLine
 62
7
  6
CONTINUOUS
 10
231.3797374057
 20
312.0712175829
 11
231.8923139581
 21
312.5848731696
  0
LINE
  5
34D
100
AcDbEntity
  8
0
100
AcDbLine
 62
7
  6
CONTINUOUS
 10
231.4701821289
 20
311.9919683563
 11
231.37983509
 21
311.9014311262
  0
LINE
  5
34E
100
AcDbEntity
  8
0
100
AcDbLine
 62
7
  6
CONTINUOUS
 10
229.9968439415
 20
310.5155286174
 11
230.0871909803
 21
310.6060658474
  0
LINE
  5
34F
100
AcDbEntity
  8
0
100
AcDbLine
 62
7
  6
CONTINUOUS
 10
231.4281175264
 20
310.8243314065
 11
231.3810172372
 21
310.7771319656
  0
LINE
  5
350
100
AcDbEntity
  8
0
100
AcDbLine
 62
7
  6
CONTINUOUS
 10
231.2114901409
 20
310.6072479946
 11
231.1643898517
 21
310.5600485538
  0
LINE
  5
351
100
AcDbEntity
  8
0
100
AcDbLine
 62
7
  6
CONTINUOUS
 10
334.6690615488
 20
416.6527487181
 11
334.7161652319
 21
416.6999447719
  0
LINE
  5
352
100
AcDbEntity
  8
0
100
AcDbLine
 62
7
  6
CONTINUOUS
 10
334.8857045439
 20
416.8698165521
 11
334.9328082269
 21
416.9170126059
  0
LINE
  5
353
100
AcDbEntity
  8
0
100
AcDbLine
 62
7
  6
CONTINUOUS
 10
336.1003573355
 20
416.9614485859
 11
336.0100037866
 21
416.8709178528
  0
LINE
  5
354
100
AcDbEntity
  8
0
100
AcDbLine
 62
7
  6
CONTINUOUS
 10
334.6269129837
 20
415.4851147961
 11
334.7172665326
 21
415.5756455292
  0
LINE
  5
355
100
AcDbEntity
  8
0
100
AcDbLine
 62
7
  6
CONTINUOUS
 10
334.2047385208
 20
414.8922403391
 11
334.7173520079
 21
415.405859066
  0
LINE
  5
356
100
AcDbEntity
  8
0
100
AcDbLine
 62
7
  6
CONTINUOUS
 10
336.1797900914
 20
416.871165004
 11
336.6924035785
 21
417.3847837309
  0
LINE
  5
357
100
AcDbEntity
  8
0
100
AcDbLine
 62
7
  6
CONTINUOUS
 10
336.2702291157
 20
416.7919092739
 11
336.1798755667
 21
416.7013785408
  0
LINE
  5
358
100
AcDbEntity
  8
0
100
AcDbLine
 62
7
  6
CONTINUOUS
 10
334.7967847638
 20
415.3155754841
 11
334.8871383128
 21
415.4061062172
  0
LINE
  5
359
100
AcDbEntity
  8
0
100
AcDbLine
 62
7
  6
CONTINUOUS
 10
336.2280805505
 20
415.6242753519
 11
336.1809768675
 21
415.5770792981
  0
LINE
  5
35A
100
AcDbEntity
  8
0
100
AcDbLine
 62
7
  6
CONTINUOUS
 10
336.0114375555
 20
415.407207518
 11
335.9643338724
 21
415.3600114642
  0
LINE
  5
35B
100
AcDbEntity
  8
0
100
AcDbLine
 62
7
  6
CONTINUOUS
 10
234.1471421866
 20
314.8370831719
 11
278.7352196844
 21
359.4251606698
  0
LINE
  5
35C
100
AcDbEntity
  8
0
100
AcDbLine
 62
7
  6
CONTINUOUS
 10
287.3619224149
 20
368.0518634002
 11
331.2485710497
 21
411.938512035
  0
LINE
  5
35D
100
AcDbEntity
  8
0
100
AcDbLine
 62
7
  6
CONTINUOUS
 10
235.4199343927
 20
313.5642909658
 11
280.0080118906
 21
358.1523684636
  0
LINE
  5
35E
100
AcDbEntity
  8
0
100
AcDbLine
 62
7
  6
CONTINUOUS
 10
287.3619224149
 20
359.4251606698
 11
286.0891302088
 21
358.1523684636
  0
LINE
  5
35F
100
AcDbEntity
  8
0
100
AcDbLine
 62
7
  6
CONTINUOUS
 10
242.0363777408
 20
308.5841831025
 11
248.4003387715
 21
314.9481441331
  0
LINE
  5
360
100
AcDbEntity
  8
0
100
AcDbLine
 62
7
  6
CONTINUOUS
 10
331.8389389515
 20
398.3867443132
 11
338.2028999822
 21
404.7507053438
  0
LINE
  5
361
100
AcDbEntity
  8
0
100
AcDbLine
 62
7
  6
CONTINUOUS
 10
425.9784810184
 20
446.438512035
 11
424.7884510079
 21
445.738512035
  0
LINE
  5
362
100
AcDbEntity
  8
0
100
AcDbLine
 62
7
  6
CONTINUOUS
 10
444.5485710497
 20
447.938512035
 11
443.7750683578
 21
447.4919300476
  0
LINE
  5
363
100
AcDbEntity
  8
0
100
AcDbLine
 62
7
  6
CONTINUOUS
 10
445.5485710497
 20
442.738512035
 11
443.5485710497
 21
442.438512035
  0
LINE
  5
364
100
AcDbEntity
  8
0
100
AcDbLine
 62
7
  6
CONTINUOUS
 10
336.266207751
 20
415.3224755886
 11
336.1105922356
 21
415.316880721
  0
LINE
  5
365
100
AcDbEntity
  8
0
100
AcDbLine
 62
7
  6
CONTINUOUS
 10
334.6309343483
 20
416.9545484814
 11
334.7865498637
 21
416.9601433491
  0
LINE
  5
366
100
AcDbEntity
  8
0
100
AcDbLine
 62
7
  6
CONTINUOUS
 10
231.4654080056
 20
415.3216750594
 11
231.3097870843
 21
415.3162326285
  0
LINE
  5
367
100
AcDbEntity
  8
0
100
AcDbLine
 62
7
  6
CONTINUOUS
 10
229.8317340938
 20
416.9553490106
 11
229.987355015
 21
416.9607914415
  0
LINE
  5
368
100
AcDbEntity
  8
0
100
AcDbLine
 62
7
  6
CONTINUOUS
 10
334.7865498637
 20
416.9601433491
 11
334.7951738107
 21
416.960170101
  0
LINE
  5
369
100
AcDbEntity
  8
0
100
AcDbLine
 62
7
  6
CONTINUOUS
 10
229.987355015
 20
416.9607914415
 11
229.9959789841
 21
416.9608097458
  0
LINE
  5
36A
100
AcDbEntity
  8
0
100
AcDbLine
 62
7
  6
CONTINUOUS
 10
334.7173520079
 20
415.405859066
 11
334.8871383128
 21
415.4061062172
  0
LINE
  5
36B
100
AcDbEntity
  8
0
100
AcDbLine
 62
7
  6
CONTINUOUS
 10
336.1797900914
 20
416.871165004
 11
336.0100037866
 21
416.8709178528
  0
LINE
  5
36C
100
AcDbEntity
  8
0
100
AcDbLine
 62
7
  6
CONTINUOUS
 10
332.8988776445
 20
415.6210142507
 11
334.6700704788
 21
415.6227492123
  0
LINE
  5
36D
100
AcDbEntity
  8
0
100
AcDbLine
 62
7
  6
CONTINUOUS
 10
336.2280805505
 20
415.6242753519
 11
337.9992740902
 21
415.6260103142
  0
LINE
  5
36E
100
AcDbEntity
  8
0
100
AcDbLine
 62
7
  6
CONTINUOUS
 10
333.0886762236
 20
416.1362004135
 11
332.8423296382
 21
416.1359591066
  0
LINE
  5
36F
100
AcDbEntity
  8
0
100
AcDbLine
 62
7
  6
CONTINUOUS
 10
337.8084644931
 20
416.1408236589
 11
338.0548123095
 21
416.1410649641
  0
LINE
  5
370
100
AcDbEntity
  8
0
100
AcDbLine
 62
7
  6
CONTINUOUS
 10
337.9982650651
 20
416.65600982
 11
336.2270716205
 21
416.6542748578
  0
LINE
  5
371
100
AcDbEntity
  8
0
100
AcDbLine
 62
7
  6
CONTINUOUS
 10
332.8978691569
 20
416.6510137569
 11
334.6690615488
 21
416.6527487181
  0
LINE
  5
372
100
AcDbEntity
  8
0
100
AcDbLine
 62
7
  6
CONTINUOUS
 10
336.0114375555
 20
415.407207518
 11
336.1812240187
 21
415.4072929933
  0
LINE
  5
373
100
AcDbEntity
  8
0
100
AcDbLine
 62
7
  6
CONTINUOUS
 10
334.8857045439
 20
416.8698165521
 11
334.7159180806
 21
416.8697310768
  0
LINE
  5
374
100
AcDbEntity
  8
0
100
AcDbLine
 62
7
  6
CONTINUOUS
 10
229.9166346843
 20
415.4065756873
 11
230.0864211498
 21
415.4066565233
  0
LINE
  5
375
100
AcDbEntity
  8
0
100
AcDbLine
 62
7
  6
CONTINUOUS
 10
231.380507415
 20
416.8704483827
 11
231.2107209495
 21
416.8703675468
  0
LINE
  5
376
100
AcDbEntity
  8
0
100
AcDbLine
 62
7
  6
CONTINUOUS
 10
228.0983719499
 20
415.6235120657
 11
229.8695656339
 21
415.6235120444
  0
LINE
  5
377
100
AcDbEntity
  8
0
100
AcDbLine
 62
7
  6
CONTINUOUS
 10
231.427576453
 20
415.6235120256
 11
233.1987708425
 21
415.6235120043
  0
LINE
  5
378
100
AcDbEntity
  8
0
100
AcDbLine
 62
7
  6
CONTINUOUS
 10
228.2886750915
 20
416.1385120631
 11
228.0423283878
 21
416.1385120665
  0
LINE
  5
379
100
AcDbEntity
  8
0
100
AcDbLine
 62
7
  6
CONTINUOUS
 10
233.0084656253
 20
416.1385120106
 11
233.2548135599
 21
416.1385120043
  0
LINE
  5
37A
100
AcDbEntity
  8
0
100
AcDbLine
 62
7
  6
CONTINUOUS
 10
233.1987707598
 20
416.6535120043
 11
231.4275764654
 21
416.6535120256
  0
LINE
  5
37B
100
AcDbEntity
  8
0
100
AcDbLine
 62
7
  6
CONTINUOUS
 10
228.0983724047
 20
416.6535120657
 11
229.8695656463
 21
416.6535120444
  0
LINE
  5
37C
100
AcDbEntity
  8
0
100
AcDbLine
 62
7
  6
CONTINUOUS
 10
500.0485710497
 20
421.738512035
 11
498.0485710497
 21
421.738512035
  0
LINE
  5
37D
100
AcDbEntity
  8
0
100
AcDbLine
 62
7
  6
CONTINUOUS
 10
65.0485710497
 20
421.738512035
 11
67.0485710497
 21
421.738512035
  0
LINE
  5
37E
100
AcDbEntity
  8
0
100
AcDbLine
 62
7
  6
CONTINUOUS
 10
273.0485710497
 20
422.738512035
 11
293.0485710497
 21
422.738512035
  0
LINE
  5
37F
100
AcDbEntity
  8
0
100
AcDbLine
 62
7
  6
CONTINUOUS
 10
231.2107209319
 20
415.4066565097
 11
231.3805073974
 21
415.4065756696
  0
LINE
  5
380
100
AcDbEntity
  8
0
100
AcDbLine
 62
7
  6
CONTINUOUS
 10
230.0864211674
 20
416.8703675603
 11
229.9166347019
 21
416.8704484004
  0
LINE
  5
381
100
AcDbEntity
  8
0
100
AcDbLine
 62
7
  6
CONTINUOUS
 10
334.6309924687
 20
415.3193301749
 11
334.7393563781
 21
415.3156467053
  0
LINE
  5
382
100
AcDbEntity
  8
0
100
AcDbLine
 62
7
  6
CONTINUOUS
 10
336.2661496307
 20
416.9576938951
 11
336.1577857212
 21
416.9613773647
  0
LINE
  5
383
100
AcDbEntity
  8
0
100
AcDbLine
 62
7
  6
CONTINUOUS
 10
229.8301904266
 20
415.3201314317
 11
229.9385506759
 21
415.3163418154
  0
LINE
  5
384
100
AcDbEntity
  8
0
100
AcDbLine
 62
7
  6
CONTINUOUS
 10
231.4669516727
 20
416.9568926383
 11
231.3585914234
 21
416.9606822546
  0
LINE
  5
385
100
AcDbEntity
  8
0
100
AcDbLine
 62
7
  6
CONTINUOUS
 10
119.5485710497
 20
442.738512035
 11
121.5485710497
 21
442.438512035
  0
LINE
  5
386
100
AcDbEntity
  8
0
100
AcDbLine
 62
7
  6
CONTINUOUS
 10
334.631909607
 20
310.5184158552
 11
334.6278926068
 21
310.6267679135
  0
LINE
  5
387
100
AcDbEntity
  8
0
100
AcDbLine
 62
7
  6
CONTINUOUS
 10
445.9784810184
 20
441.438512035
 11
444.7884510079
 21
440.738512035
  0
LINE
  5
388
100
AcDbEntity
  8
0
100
AcDbLine
 62
7
  6
CONTINUOUS
 10
214.9714443257
 20
317.8282210644
 11
222.9905030434
 21
321.914135562
  0
LINE
  5
389
100
AcDbEntity
  8
0
100
AcDbLine
 62
7
  6
CONTINUOUS
 10
352.1864490507
 20
387.7427580242
 11
360.2055077684
 21
391.8286725219
  0
LINE
  5
38A
100
AcDbEntity
  8
0
100
AcDbLine
 62
7
  6
CONTINUOUS
 10
224.0515971625
 20
328.4772433091
 11
232.3665129551
 21
331.9213942004
  0
LINE
  5
38B
100
AcDbEntity
  8
0
100
AcDbLine
 62
7
  6
CONTINUOUS
 10
341.3842977915
 20
377.0780392194
 11
349.6992135841
 21
380.5221901107
  0
LINE
  5
38C
100
AcDbEntity
  8
0
100
AcDbLine
 62
7
  6
CONTINUOUS
 10
425.5485710497
 20
447.738512035
 11
423.5485710497
 21
447.438512035
  0
LINE
  5
38D
100
AcDbEntity
  8
0
100
AcDbLine
 62
7
  6
CONTINUOUS
 10
273.0485710497
 20
431.238512035
 11
293.0485710497
 21
431.238512035
  0
LINE
  5
38E
100
AcDbEntity
  8
0
100
AcDbLine
 62
7
  6
CONTINUOUS
 10
500.0485710497
 20
431.738512035
 11
498.0485710497
 21
431.738512035
  0
LINE
  5
38F
100
AcDbEntity
  8
0
100
AcDbLine
 62
7
  6
CONTINUOUS
 10
293.0485710497
 20
431.738512035
 11
273.0485710497
 21
431.738512035
  0
LINE
  5
390
100
AcDbEntity
  8
0
100
AcDbLine
 62
7
  6
CONTINUOUS
 10
65.0485710497
 20
431.738512035
 11
67.0485710497
 21
431.738512035
  0
LINE
  5
391
100
AcDbEntity
  8
0
100
AcDbLine
 62
7
  6
CONTINUOUS
 10
496.0485710497
 20
434.738512035
 11
69.0485710497
 21
434.738512035
  0
LINE
  5
392
100
AcDbEntity
  8
0
100
AcDbLine
 62
7
  6
CONTINUOUS
 10
496.0485710497
 20
436.738512035
 11
69.0485710497
 21
436.738512035
  0
LINE
  5
393
100
AcDbEntity
  8
0
100
AcDbLine
 62
7
  6
CONTINUOUS
 10
496.410702959
 20
436.738512035
 11
498.5066109412
 21
436.738512035
  0
LINE
  5
394
100
AcDbEntity
  8
0
100
AcDbLine
 62
7
  6
CONTINUOUS
 10
495.5485710497
 20
440.238512035
 11
69.5485710497
 21
440.238512035
  0
LINE
  5
395
100
AcDbEntity
  8
0
100
AcDbLine
 62
7
  6
CONTINUOUS
 10
465.0485710497
 20
440.738512035
 11
452.5485710497
 21
440.738512035
  0
LINE
  5
396
100
AcDbEntity
  8
0
100
AcDbLine
 62
7
  6
CONTINUOUS
 10
446.5485710497
 20
440.738512035
 11
285.5485710497
 21
440.738512035
  0
LINE
  5
397
100
AcDbEntity
  8
0
100
AcDbLine
 62
7
  6
CONTINUOUS
 10
279.5485710497
 20
440.738512035
 11
118.5485710497
 21
440.738512035
  0
LINE
  5
398
100
AcDbEntity
  8
0
100
AcDbLine
 62
7
  6
CONTINUOUS
 10
112.5485710497
 20
440.738512035
 11
100.0485710497
 21
440.738512035
  0
LINE
  5
399
100
AcDbEntity
  8
0
100
AcDbLine
 62
7
  6
CONTINUOUS
 10
114.7654138963
 20
440.738512035
 11
116.331728203
 21
440.738512035
  0
LINE
  5
39A
100
AcDbEntity
  8
0
100
AcDbLine
 62
7
  6
CONTINUOUS
 10
448.7654138963
 20
440.738512035
 11
450.331728203
 21
440.738512035
  0
LINE
  5
39B
100
AcDbEntity
  8
0
100
AcDbLine
 62
7
  6
CONTINUOUS
 10
132.5485710497
 20
440.988512035
 11
138.5485710497
 21
440.988512035
  0
LINE
  5
39C
100
AcDbEntity
  8
0
100
AcDbLine
 62
7
  6
CONTINUOUS
 10
426.5485710497
 20
440.988512035
 11
432.5485710497
 21
440.988512035
  0
LINE
  5
39D
100
AcDbEntity
  8
0
100
AcDbLine
 62
7
  6
CONTINUOUS
 10
139.5485710497
 20
447.738512035
 11
141.5485710497
 21
447.438512035
  0
LINE
  5
39E
100
AcDbEntity
  8
0
100
AcDbLine
 62
7
  6
CONTINUOUS
 10
296.3880982341
 20
422.0742387768
 11
314.8656888843
 21
414.4205701295
  0
LINE
  5
39F
100
AcDbEntity
  8
0
100
AcDbLine
 62
7
  6
CONTINUOUS
 10
318.3098397756
 20
422.7354859221
 11
299.8322491254
 21
430.3891545694
  0
LINE
  5
3A0
100
AcDbEntity
  8
0
100
AcDbLine
 62
7
  6
CONTINUOUS
 10
287.3086910914
 20
440.738512035
 11
286.118661081
 21
441.438512035
  0
LINE
  5
3A1
100
AcDbEntity
  8
0
100
AcDbLine
 62
7
  6
CONTINUOUS
 10
317.6968033278
 20
412.5288799369
 11
323.4950789335
 21
406.7306043311
  0
LINE
  5
3A2
100
AcDbEntity
  8
0
100
AcDbLine
 62
7
  6
CONTINUOUS
 10
324.7678711397
 20
405.457812125
 11
331.8389389515
 21
398.3867443132
  0
LINE
  5
3A3
100
AcDbEntity
  8
0
100
AcDbLine
 62
7
  6
CONTINUOUS
 10
324.7714082014
 20
405.4613491867
 11
323.4986159952
 21
406.7341413928
  0
LINE
  5
3A4
100
AcDbEntity
  8
0
100
AcDbLine
 62
7
  6
CONTINUOUS
 10
285.5485710497
 20
446.197262035
 11
285.0073210497
 21
446.738512035
  0
LINE
  5
3A5
100
AcDbEntity
  8
0
100
AcDbLine
 62
7
  6
CONTINUOUS
 10
327.2392078121
 20
410.4747332098
 11
328.5120000183
 21
409.2019410036
  0
LINE
  5
3A6
100
AcDbEntity
  8
0
100
AcDbLine
 62
7
  6
CONTINUOUS
 10
338.2028999822
 20
404.7507053438
 11
331.1318321704
 21
411.8217731557
  0
LINE
  5
3A7
100
AcDbEntity
  8
0
100
AcDbLine
 62
7
  6
CONTINUOUS
 10
329.8590399642
 20
413.0945653618
 11
324.0607643585
 21
418.8928409676
  0
LINE
  5
3A8
100
AcDbEntity
  8
0
100
AcDbLine
 62
7
  6
CONTINUOUS
 10
331.2485710497
 20
411.938512035
 11
329.9757788435
 21
413.2113042411
  0
LINE
  5
3A9
100
AcDbEntity
  8
0
100
AcDbLine
 62
7
  6
CONTINUOUS
 10
333.7306291442
 20
395.5556298697
 11
341.3842977915
 21
377.0780392194
  0
LINE
  5
3AA
100
AcDbEntity
  8
0
100
AcDbLine
 62
7
  6
CONTINUOUS
 10
336.2652324924
 20
312.1586082148
 11
336.2692494926
 21
312.0502561565
  0
LINE
  5
3AB
100
AcDbEntity
  8
0
100
AcDbLine
 62
7
  6
CONTINUOUS
 10
334.6309924687
 20
415.3193301749
 11
334.6270967119
 21
415.4276866602
  0
LINE
  5
3AC
100
AcDbEntity
  8
0
100
AcDbLine
 62
7
  6
CONTINUOUS
 10
336.2661496307
 20
416.9576938951
 11
336.2700453874
 21
416.8493374099
  0
LINE
  5
3AD
100
AcDbEntity
  8
0
100
AcDbLine
 62
7
  6
CONTINUOUS
 10
334.7151003391
 20
312.0689108143
 11
334.7155374732
 21
311.8991248923
  0
LINE
  5
3AE
100
AcDbEntity
  8
0
100
AcDbLine
 62
7
  6
CONTINUOUS
 10
336.1820417602
 20
310.6081132557
 11
336.1816046261
 21
310.7778991777
  0
LINE
  5
3AF
100
AcDbEntity
  8
0
100
AcDbLine
 62
7
  6
CONTINUOUS
 10
334.9282205999
 20
313.8876251528
 11
334.9319374438
 21
312.1164350038
  0
LINE
  5
3B0
100
AcDbEntity
  8
0
100
AcDbLine
 62
7
  6
CONTINUOUS
 10
334.938923767
 20
308.7872376504
 11
334.9352069235
 21
310.5584276152
  0
LINE
  5
3B1
100
AcDbEntity
  8
0
100
AcDbLine
 62
7
  6
CONTINUOUS
 10
335.968921499
 20
308.7893991402
 11
335.9652046556
 21
310.5605890662
  0
LINE
  5
3B2
100
AcDbEntity
  8
0
100
AcDbLine
 62
7
  6
CONTINUOUS
 10
335.9619351759
 20
312.1185964548
 11
335.9582183326
 21
313.8897863064
  0
LINE
  5
3B3
100
AcDbEntity
  8
0
100
AcDbLine
 62
7
  6
CONTINUOUS
 10
334.7178968119
 20
310.7748275858
 11
334.7181722704
 21
310.6050413245
  0
LINE
  5
3B4
100
AcDbEntity
  8
0
100
AcDbLine
 62
7
  6
CONTINUOUS
 10
336.1792452874
 20
311.9021964843
 11
336.178969829
 21
312.0719827456
  0
LINE
  5
3B5
100
AcDbEntity
  8
0
100
AcDbLine
 62
7
  6
CONTINUOUS
 10
334.7159180806
 20
416.8697310768
 11
334.7161652319
 21
416.6999447719
  0
LINE
  5
3B6
100
AcDbEntity
  8
0
100
AcDbLine
 62
7
  6
CONTINUOUS
 10
336.1812240187
 20
415.4072929933
 11
336.1809768675
 21
415.5770792981
  0
LINE
  5
3B7
100
AcDbEntity
  8
0
100
AcDbLine
 62
7
  6
CONTINUOUS
 10
334.931073265
 20
418.688205805
 11
334.9328082269
 21
416.9170126059
  0
LINE
  5
3B8
100
AcDbEntity
  8
0
100
AcDbLine
 62
7
  6
CONTINUOUS
 10
334.9360693283
 20
413.5878095192
 11
334.9343343666
 21
415.3590025342
  0
LINE
  5
3B9
100
AcDbEntity
  8
0
100
AcDbLine
 62
7
  6
CONTINUOUS
 10
335.9660688342
 20
413.588818488
 11
335.9643338724
 21
415.3600114642
  0
LINE
  5
3BA
100
AcDbEntity
  8
0
100
AcDbLine
 62
7
  6
CONTINUOUS
 10
335.9628077328
 20
416.9180215359
 11
335.9610727711
 21
418.6892144376
  0
LINE
  5
3BB
100
AcDbEntity
  8
0
100
AcDbLine
 62
7
  6
CONTINUOUS
 10
334.7172665326
 20
415.5756455292
 11
334.7173520079
 21
415.405859066
  0
LINE
  5
3BC
100
AcDbEntity
  8
0
100
AcDbLine
 62
7
  6
CONTINUOUS
 10
336.1798755667
 20
416.7013785408
 11
336.1797900914
 21
416.871165004
  0
LINE
  5
3BD
100
AcDbEntity
  8
0
100
AcDbLine
 62
7
  6
CONTINUOUS
 10
334.6249056953
 20
311.989377085
 11
334.6249059023
 21
311.9980010735
  0
LINE
  5
3BE
100
AcDbEntity
  8
0
100
AcDbLine
 62
7
  6
CONTINUOUS
 10
342.0485710497
 20
373.738512035
 11
342.0485710497
 21
353.738512035
  0
LINE
  5
3BF
100
AcDbEntity
  8
0
100
AcDbLine
 62
7
  6
CONTINUOUS
 10
334.6256344988
 20
416.7902983209
 11
334.6256443556
 21
416.7989223037
  0
LINE
  5
3C0
100
AcDbEntity
  8
0
100
AcDbLine
 62
7
  6
CONTINUOUS
 10
334.6249059023
 20
311.9980010735
 11
334.6300217532
 21
312.153633073
  0
LINE
  5
3C1
100
AcDbEntity
  8
0
100
AcDbLine
 62
7
  6
CONTINUOUS
 10
336.2671203461
 20
310.523390997
 11
336.272236197
 21
310.6790229965
  0
LINE
  5
3C2
100
AcDbEntity
  8
0
100
AcDbLine
 62
7
  6
CONTINUOUS
 10
334.6256443556
 20
416.7989223037
 11
334.6309343483
 21
416.9545484814
  0
LINE
  5
3C3
100
AcDbEntity
  8
0
100
AcDbLine
 62
7
  6
CONTINUOUS
 10
336.266207751
 20
415.3224755886
 11
336.2714977437
 21
415.4781017663
  0
LINE
  5
3C4
100
AcDbEntity
  8
0
100
AcDbLine
 62
7
  6
CONTINUOUS
 10
401.0485710497
 20
481.238512035
 11
401.3372461843
 21
481.738512035
  0
LINE
  5
3C5
100
AcDbEntity
  8
0
100
AcDbLine
 62
7
  6
CONTINUOUS
 10
426.7399318223
 20
441.9298728077
 11
426.5485710497
 21
441.738512035
  0
LINE
  5
3C6
100
AcDbEntity
  8
0
100
AcDbLine
 62
7
  6
CONTINUOUS
 10
278.5485710497
 20
442.738512035
 11
276.5485710497
 21
442.438512035
  0
LINE
  5
3C7
100
AcDbEntity
  8
0
100
AcDbLine
 62
7
  6
CONTINUOUS
 10
109.5485729226
 20
441.438512035
 11
110.0052938546
 21
441.438512035
  0
LINE
  5
3C8
100
AcDbEntity
  8
0
100
AcDbLine
 62
7
  6
CONTINUOUS
 10
110.7884510079
 20
441.438512035
 11
114.7654138963
 21
441.438512035
  0
LINE
  5
3C9
100
AcDbEntity
  8
0
100
AcDbLine
 62
7
  6
CONTINUOUS
 10
116.331728203
 20
441.438512035
 11
120.3086910914
 21
441.438512035
  0
LINE
  5
3CA
100
AcDbEntity
  8
0
100
AcDbLine
 62
7
  6
CONTINUOUS
 10
121.0918482447
 20
441.438512035
 11
121.5485691768
 21
441.438512035
  0
LINE
  5
3CB
100
AcDbEntity
  8
0
100
AcDbLine
 62
7
  6
CONTINUOUS
 10
276.5485729226
 20
441.438512035
 11
277.0052938546
 21
441.438512035
  0
LINE
  5
3CC
100
AcDbEntity
  8
0
100
AcDbLine
 62
7
  6
CONTINUOUS
 10
277.7884510079
 20
441.438512035
 11
279.5485710497
 21
441.438512035
  0
LINE
  5
3CD
100
AcDbEntity
  8
0
100
AcDbLine
 62
7
  6
CONTINUOUS
 10
285.5485710497
 20
441.438512035
 11
287.3086910914
 21
441.438512035
  0
LINE
  5
3CE
100
AcDbEntity
  8
0
100
AcDbLine
 62
7
  6
CONTINUOUS
 10
288.0918482447
 20
441.438512035
 11
288.5485691768
 21
441.438512035
  0
LINE
  5
3CF
100
AcDbEntity
  8
0
100
AcDbLine
 62
7
  6
CONTINUOUS
 10
443.5485729226
 20
441.438512035
 11
444.0052938546
 21
441.438512035
  0
LINE
  5
3D0
100
AcDbEntity
  8
0
100
AcDbLine
 62
7
  6
CONTINUOUS
 10
444.7884510079
 20
441.438512035
 11
448.7654138963
 21
441.438512035
  0
LINE
  5
3D1
100
AcDbEntity
  8
0
100
AcDbLine
 62
7
  6
CONTINUOUS
 10
450.331728203
 20
441.438512035
 11
454.3086910914
 21
441.438512035
  0
LINE
  5
3D2
100
AcDbEntity
  8
0
100
AcDbLine
 62
7
  6
CONTINUOUS
 10
455.0918482447
 20
441.438512035
 11
455.5485691768
 21
441.438512035
  0
LINE
  5
3D3
100
AcDbEntity
  8
0
100
AcDbLine
 62
7
  6
CONTINUOUS
 10
432.5485710497
 20
441.738512035
 11
426.5485710497
 21
441.738512035
  0
LINE
  5
3D4
100
AcDbEntity
  8
0
100
AcDbLine
 62
7
  6
CONTINUOUS
 10
138.5485710497
 20
441.738512035
 11
132.5485710497
 21
441.738512035
  0
LINE
  5
3D5
100
AcDbEntity
  8
0
100
AcDbLine
 62
7
  6
CONTINUOUS
 10
132.7399318223
 20
441.9298728077
 11
138.357210277
 21
441.9298728077
  0
LINE
  5
3D6
100
AcDbEntity
  8
0
100
AcDbLine
 62
7
  6
CONTINUOUS
 10
426.7399318223
 20
441.9298728077
 11
432.357210277
 21
441.9298728077
  0
LINE
  5
3D7
100
AcDbEntity
  8
0
100
AcDbLine
 62
7
  6
CONTINUOUS
 10
132.5485710497
 20
442.279762035
 11
138.5485710497
 21
442.279762035
  0
LINE
  5
3D8
100
AcDbEntity
  8
0
100
AcDbLine
 62
7
  6
CONTINUOUS
 10
426.5485710497
 20
442.279762035
 11
432.5485710497
 21
442.279762035
  0
LINE
  5
3D9
100
AcDbEntity
  8
0
100
AcDbLine
 62
7
  6
CONTINUOUS
 10
455.5485710497
 20
442.438512035
 11
443.5485710497
 21
442.438512035
  0
LINE
  5
3DA
100
AcDbEntity
  8
0
100
AcDbLine
 62
7
  6
CONTINUOUS
 10
288.5485710497
 20
442.438512035
 11
285.5485710497
 21
442.438512035
  0
LINE
  5
3DB
100
AcDbEntity
  8
0
100
AcDbLine
 62
7
  6
CONTINUOUS
 10
279.5485710497
 20
442.438512035
 11
276.5485710497
 21
442.438512035
  0
LINE
  5
3DC
100
AcDbEntity
  8
0
100
AcDbLine
 62
7
  6
CONTINUOUS
 10
121.5485710497
 20
442.438512035
 11
109.5485710497
 21
442.438512035
  0
LINE
  5
3DD
100
AcDbEntity
  8
0
100
AcDbLine
 62
7
  6
CONTINUOUS
 10
285.5485710497
 20
442.738512035
 11
279.5485710497
 21
442.738512035
  0
LINE
  5
3DE
100
AcDbEntity
  8
0
100
AcDbLine
 62
7
  6
CONTINUOUS
 10
109.7750683578
 20
442.738512035
 11
121.3220737416
 21
442.738512035
  0
LINE
  5
3DF
100
AcDbEntity
  8
0
100
AcDbLine
 62
7
  6
CONTINUOUS
 10
276.7750683578
 20
442.738512035
 11
279.5485710497
 21
442.738512035
  0
LINE
  5
3E0
100
AcDbEntity
  8
0
100
AcDbLine
 62
7
  6
CONTINUOUS
 10
285.5485710497
 20
442.738512035
 11
288.3220737416
 21
442.738512035
  0
LINE
  5
3E1
100
AcDbEntity
  8
0
100
AcDbLine
 62
7
  6
CONTINUOUS
 10
443.7750683578
 20
442.738512035
 11
455.3220737416
 21
442.738512035
  0
LINE
  5
3E2
100
AcDbEntity
  8
0
100
AcDbLine
 62
7
  6
CONTINUOUS
 10
125.0485710497
 20
443.7385120356
 11
146.0485710497
 21
443.7385120356
  0
LINE
  5
3E3
100
AcDbEntity
  8
0
100
AcDbLine
 62
7
  6
CONTINUOUS
 10
147.5485710497
 20
443.738512035
 11
276.7750683578
 21
443.738512035
  0
LINE
  5
3E4
100
AcDbEntity
  8
0
100
AcDbLine
 62
7
  6
CONTINUOUS
 10
288.3220737416
 20
443.738512035
 11
417.5485710497
 21
443.738512035
  0
LINE
  5
3E5
100
AcDbEntity
  8
0
100
AcDbLine
 62
7
  6
CONTINUOUS
 10
419.0485710497
 20
443.738512035
 11
440.0485710497
 21
443.738512035
  0
LINE
  5
3E6
100
AcDbEntity
  8
0
100
AcDbLine
 62
7
  6
CONTINUOUS
 10
440.0485710497
 20
445.738512035
 11
419.0485710497
 21
445.738512035
  0
LINE
  5
3E7
100
AcDbEntity
  8
0
100
AcDbLine
 62
7
  6
CONTINUOUS
 10
146.0485710497
 20
445.7385120356
 11
125.0485710497
 21
445.7385120356
  0
LINE
  5
3E8
100
AcDbEntity
  8
0
100
AcDbLine
 62
7
  6
CONTINUOUS
 10
488.0485710497
 20
446.197262035
 11
482.0485710497
 21
446.197262035
  0
LINE
  5
3E9
100
AcDbEntity
  8
0
100
AcDbLine
 62
7
  6
CONTINUOUS
 10
285.5485710497
 20
446.197262035
 11
279.5485710497
 21
446.197262035
  0
LINE
  5
3EA
100
AcDbEntity
  8
0
100
AcDbLine
 62
7
  6
CONTINUOUS
 10
83.0485710497
 20
446.197262035
 11
77.0485710497
 21
446.197262035
  0
LINE
  5
3EB
100
AcDbEntity
  8
0
100
AcDbLine
 62
7
  6
CONTINUOUS
 10
129.5485729226
 20
446.438512035
 11
130.0052938546
 21
446.438512035
  0
LINE
  5
3EC
100
AcDbEntity
  8
0
100
AcDbLine
 62
7
  6
CONTINUOUS
 10
130.7884510079
 20
446.438512035
 11
134.7654138963
 21
446.438512035
  0
LINE
  5
3ED
100
AcDbEntity
  8
0
100
AcDbLine
 62
7
  6
CONTINUOUS
 10
136.331728203
 20
446.438512035
 11
140.3086910914
 21
446.438512035
  0
LINE
  5
3EE
100
AcDbEntity
  8
0
100
AcDbLine
 62
7
  6
CONTINUOUS
 10
141.0918482447
 20
446.438512035
 11
141.5485691768
 21
446.438512035
  0
LINE
  5
3EF
100
AcDbEntity
  8
0
100
AcDbLine
 62
7
  6
CONTINUOUS
 10
423.5485729226
 20
446.438512035
 11
424.0052938546
 21
446.438512035
  0
LINE
  5
3F0
100
AcDbEntity
  8
0
100
AcDbLine
 62
7
  6
CONTINUOUS
 10
424.7884510079
 20
446.438512035
 11
428.7654138963
 21
446.438512035
  0
LINE
  5
3F1
100
AcDbEntity
  8
0
100
AcDbLine
 62
7
  6
CONTINUOUS
 10
430.331728203
 20
446.438512035
 11
434.3086910914
 21
446.438512035
  0
LINE
  5
3F2
100
AcDbEntity
  8
0
100
AcDbLine
 62
7
  6
CONTINUOUS
 10
435.0918482447
 20
446.438512035
 11
435.5485691768
 21
446.438512035
  0
LINE
  5
3F3
100
AcDbEntity
  8
0
100
AcDbLine
 62
7
  6
CONTINUOUS
 10
487.5073210497
 20
446.738512035
 11
482.5898210497
 21
446.738512035
  0
LINE
  5
3F4
100
AcDbEntity
  8
0
100
AcDbLine
 62
7
  6
CONTINUOUS
 10
285.0073210497
 20
446.738512035
 11
280.0898210497
 21
446.738512035
  0
LINE
  5
3F5
100
AcDbEntity
  8
0
100
AcDbLine
 62
7
  6
CONTINUOUS
 10
82.5073210497
 20
446.738512035
 11
77.5898210497
 21
446.738512035
  0
LINE
  5
3F6
100
AcDbEntity
  8
0
100
AcDbLine
 62
7
  6
CONTINUOUS
 10
170.0485710497
 20
446.738512035
 11
276.7750683578
 21
446.738512035
  0
LINE
  5
3F7
100
AcDbEntity
  8
0
100
AcDbLine
 62
7
  6
CONTINUOUS
 10
288.3220737416
 20
446.738512035
 11
395.0485710497
 21
446.738512035
  0
LINE
  5
3F8
100
AcDbEntity
  8
0
100
AcDbLine
 62
7
  6
CONTINUOUS
 10
390.5485710497
 20
447.238512035
 11
384.5485710497
 21
447.238512035
  0
LINE
  5
3F9
100
AcDbEntity
  8
0
100
AcDbLine
 62
7
  6
CONTINUOUS
 10
180.5485710497
 20
447.238512035
 11
174.5485710497
 21
447.238512035
  0
LINE
  5
3FA
100
AcDbEntity
  8
0
100
AcDbLine
 62
7
  6
CONTINUOUS
 10
435.5485710497
 20
447.438512035
 11
423.5485710497
 21
447.438512035
  0
LINE
  5
3FB
100
AcDbEntity
  8
0
100
AcDbLine
 62
7
  6
CONTINUOUS
 10
141.5485710497
 20
447.438512035
 11
129.5485710497
 21
447.438512035
  0
LINE
  5
3FC
100
AcDbEntity
  8
0
100
AcDbLine
 62
7
  6
CONTINUOUS
 10
129.7750683578
 20
447.738512035
 11
141.3220737416
 21
447.738512035
  0
LINE
  5
3FD
100
AcDbEntity
  8
0
100
AcDbLine
 62
7
  6
CONTINUOUS
 10
423.7750683578
 20
447.738512035
 11
435.3220737416
 21
447.738512035
  0
LINE
  5
3FE
100
AcDbEntity
  8
0
100
AcDbLine
 62
7
  6
CONTINUOUS
 10
454.5485710497
 20
447.938512035
 11
444.5485710497
 21
447.938512035
  0
LINE
  5
3FF
100
AcDbEntity
  8
0
100
AcDbLine
 62
7
  6
CONTINUOUS
 10
287.5485710497
 20
447.938512035
 11
277.5485710497
 21
447.938512035
  0
LINE
  5
400
100
AcDbEntity
  8
0
100
AcDbLine
 62
7
  6
CONTINUOUS
 10
120.5485710497
 20
447.938512035
 11
110.5485710497
 21
447.938512035
  0
LINE
  5
401
100
AcDbEntity
  8
0
100
AcDbLine
 62
7
  6
CONTINUOUS
 10
390.5485710497
 20
452.438512035
 11
384.5485710497
 21
452.438512035
  0
LINE
  5
402
100
AcDbEntity
  8
0
100
AcDbLine
 62
7
  6
CONTINUOUS
 10
180.5485710497
 20
452.438512035
 11
174.5485710497
 21
452.438512035
  0
LINE
  5
403
100
AcDbEntity
  8
0
100
AcDbLine
 62
7
  6
CONTINUOUS
 10
434.5485710497
 20
452.938512035
 11
424.5485710497
 21
452.938512035
  0
LINE
  5
404
100
AcDbEntity
  8
0
100
AcDbLine
 62
7
  6
CONTINUOUS
 10
140.5485710497
 20
452.938512035
 11
130.5485710497
 21
452.938512035
  0
LINE
  5
405
100
AcDbEntity
  8
0
100
AcDbLine
 62
7
  6
CONTINUOUS
 10
420.3753613689
 20
453.738512035
 11
417.0485710497
 21
453.738512035
  0
LINE
  5
406
100
AcDbEntity
  8
0
100
AcDbLine
 62
7
  6
CONTINUOUS
 10
144.7217807305
 20
453.7385120356
 11
148.0485710498
 21
453.7385120356
  0
LINE
  5
407
100
AcDbEntity
  8
0
100
AcDbLine
 62
7
  6
CONTINUOUS
 10
418.5485710497
 20
455.4590891716
 11
420.3289733816
 21
455.4590891716
  0
LINE
  5
408
100
AcDbEntity
  8
0
100
AcDbLine
 62
7
  6
CONTINUOUS
 10
415.0485710497
 20
455.738512035
 11
401.3372461843
 21
455.738512035
  0
LINE
  5
409
100
AcDbEntity
  8
0
100
AcDbLine
 62
7
  6
CONTINUOUS
 10
150.0485710497
 20
455.7385120356
 11
163.7598959152
 21
455.7385120355
  0
LINE
  5
40A
100
AcDbEntity
  8
0
100
AcDbLine
 62
7
  6
CONTINUOUS
 10
468.5485710497
 20
456.738512035
 11
466.5485710497
 21
456.738512035
  0
LINE
  5
40B
100
AcDbEntity
  8
0
100
AcDbLine
 62
7
  6
CONTINUOUS
 10
96.5485710497
 20
456.738512035
 11
98.5485710497
 21
456.738512035
  0
LINE
  5
40C
100
AcDbEntity
  8
0
100
AcDbLine
 62
7
  6
CONTINUOUS
 10
418.5485710497
 20
457.0179348984
 11
420.3289733816
 21
457.0179348984
  0
LINE
  5
40D
100
AcDbEntity
  8
0
100
AcDbLine
 62
7
  6
CONTINUOUS
 10
286.5485710497
 20
442.738512035
 11
288.5485710497
 21
442.438512035
  0
LINE
  5
40E
100
AcDbEntity
  8
0
100
AcDbLine
 62
7
  6
CONTINUOUS
 10
287.5485710497
 20
447.938512035
 11
288.3220737416
 21
447.4919300476
  0
LINE
  5
40F
100
AcDbEntity
  8
0
100
AcDbLine
 62
7
  6
CONTINUOUS
 10
334.9343343666
 20
415.3590025342
 11
334.8871383128
 21
415.4061062172
  0
LINE
  5
410
100
AcDbEntity
  8
0
100
AcDbLine
 62
7
  6
CONTINUOUS
 10
334.7172665326
 20
415.5756455292
 11
334.6700704788
 21
415.6227492123
  0
LINE
  5
411
100
AcDbEntity
  8
0
100
AcDbLine
 62
7
  6
CONTINUOUS
 10
336.1019682886
 20
415.316853969
 11
336.0114375555
 21
415.407207518
  0
LINE
  5
412
100
AcDbEntity
  8
0
100
AcDbLine
 62
7
  6
CONTINUOUS
 10
334.6256344988
 20
416.7902983209
 11
334.7161652319
 21
416.6999447719
  0
LINE
  5
413
100
AcDbEntity
  8
0
100
AcDbLine
 62
7
  6
CONTINUOUS
 10
334.0574459004
 20
417.5269145142
 11
334.7159180806
 21
416.8697310768
  0
LINE
  5
414
100
AcDbEntity
  8
0
100
AcDbLine
 62
7
  6
CONTINUOUS
 10
336.1812240187
 20
415.4072929933
 11
336.8396961989
 21
414.7501095558
  0
LINE
  5
415
100
AcDbEntity
  8
0
100
AcDbLine
 62
7
  6
CONTINUOUS
 10
336.2715076006
 20
415.4867257491
 11
336.1809768675
 21
415.5770792981
  0
LINE
  5
416
100
AcDbEntity
  8
0
100
AcDbLine
 62
7
  6
CONTINUOUS
 10
334.7951738107
 20
416.960170101
 11
334.8857045439
 21
416.8698165521
  0
LINE
  5
417
100
AcDbEntity
  8
0
100
AcDbLine
 62
7
  6
CONTINUOUS
 10
335.9628077328
 20
416.9180215359
 11
336.0100037866
 21
416.8709178528
  0
LINE
  5
418
100
AcDbEntity
  8
0
100
AcDbLine
 62
7
  6
CONTINUOUS
 10
336.1798755667
 20
416.7013785408
 11
336.2270716205
 21
416.6542748578
  0
LINE
  5
419
100
AcDbEntity
  8
0
100
AcDbLine
 62
7
  6
CONTINUOUS
 10
343.1066390559
 20
405.562888508
 11
352.1864490507
 21
387.7427580242
  0
LINE
  5
41A
100
AcDbEntity
  8
0
100
AcDbLine
 62
7
  6
CONTINUOUS
 10
349.6992135841
 20
380.5221901107
 11
342.0455449368
 21
398.9997807609
  0
LINE
  5
41B
100
AcDbEntity
  8
0
100
AcDbLine
 62
7
  6
CONTINUOUS
 10
351.0485710497
 20
353.738512035
 11
351.0485710497
 21
373.738512035
  0
LINE
  5
41C
100
AcDbEntity
  8
0
100
AcDbLine
 62
7
  6
CONTINUOUS
 10
357.5485710497
 20
348.738512035
 11
357.5485710497
 21
362.0635224887
  0
LINE
  5
41D
100
AcDbEntity
  8
0
100
AcDbLine
 62
7
  6
CONTINUOUS
 10
357.5485710497
 20
365.4135015813
 11
357.5485710497
 21
385.6628040971
  0
LINE
  5
41E
100
AcDbEntity
  8
0
100
AcDbLine
 62
7
  6
CONTINUOUS
 10
357.5485710497
 20
390.474895646
 11
357.5485710497
 21
397.0432044386
  0
LINE
  5
41F
100
AcDbEntity
  8
0
100
AcDbLine
 62
7
  6
CONTINUOUS
 10
362.9485710497
 20
367.2760035335
 11
362.9485710497
 21
366.2687775591
  0
LINE
  5
420
100
AcDbEntity
  8
0
100
AcDbLine
 62
7
  6
CONTINUOUS
 10
364.1485710497
 20
366.4588388874
 11
364.1485710497
 21
367.2760035335
  0
LINE
  5
421
100
AcDbEntity
  8
0
100
AcDbLine
 62
7
  6
CONTINUOUS
 10
356.2203203932
 20
362.2738967255
 11
353.0916310924
 21
342.5201299136
  0
LINE
  5
422
100
AcDbEntity
  8
0
100
AcDbLine
 62
7
  6
CONTINUOUS
 10
341.3842977915
 20
350.3989848506
 11
333.7306291442
 21
331.9213942004
  0
LINE
  5
423
100
AcDbEntity
  8
0
100
AcDbLine
 62
7
  6
CONTINUOUS
 10
342.0455449368
 20
328.4772433091
 11
349.6992135841
 21
346.9548339593
  0
LINE
  5
424
100
AcDbEntity
  8
0
100
AcDbLine
 62
7
  6
CONTINUOUS
 10
401.0485710497
 20
461.238512035
 11
401.3372461843
 21
461.738512035
  0
LINE
  5
425
100
AcDbEntity
  8
0
100
AcDbLine
 62
7
  6
CONTINUOUS
 10
420.5485710497
 20
474.038512035
 11
420.3753659689
 21
473.738512035
  0
LINE
  5
426
100
AcDbEntity
  8
0
100
AcDbLine
 62
7
  6
CONTINUOUS
 10
432.3610710497
 20
440.801012035
 11
432.5485710497
 21
440.988512035
  0
LINE
  5
427
100
AcDbEntity
  8
0
100
AcDbLine
 62
7
  6
CONTINUOUS
 10
331.8389389515
 20
329.0902797569
 11
324.7678711397
 21
322.019211945
  0
LINE
  5
428
100
AcDbEntity
  8
0
100
AcDbLine
 62
7
  6
CONTINUOUS
 10
323.4950789335
 20
320.7464197389
 11
317.6968033278
 21
314.9481441331
  0
LINE
  5
429
100
AcDbEntity
  8
0
100
AcDbLine
 62
7
  6
CONTINUOUS
 10
323.4986159952
 20
320.7428826772
 11
324.7714082014
 21
322.0156748833
  0
LINE
  5
42A
100
AcDbEntity
  8
0
100
AcDbLine
 62
7
  6
CONTINUOUS
 10
111.5485710497
 20
442.738512035
 11
109.5485710497
 21
442.438512035
  0
LINE
  5
42B
100
AcDbEntity
  8
0
100
AcDbLine
 62
7
  6
CONTINUOUS
 10
131.5485710497
 20
447.738512035
 11
129.5485710497
 21
447.438512035
  0
LINE
  5
42C
100
AcDbEntity
  8
0
100
AcDbLine
 62
7
  6
CONTINUOUS
 10
419.9287839815
 20
458.738512035
 11
417.0485710497
 21
458.738512035
  0
LINE
  5
42D
100
AcDbEntity
  8
0
100
AcDbLine
 62
7
  6
CONTINUOUS
 10
145.1683581179
 20
458.7385120356
 11
148.0485710498
 21
458.7385120356
  0
LINE
  5
42E
100
AcDbEntity
  8
0
100
AcDbLine
 62
7
  6
CONTINUOUS
 10
175.0485710497
 20
458.738512035
 11
390.0485710497
 21
458.738512035
  0
LINE
  5
42F
100
AcDbEntity
  8
0
100
AcDbLine
 62
7
  6
CONTINUOUS
 10
146.5485710498
 20
460.4590891722
 11
144.7681687179
 21
460.4590891722
  0
LINE
  5
430
100
AcDbEntity
  8
0
100
AcDbLine
 62
7
  6
CONTINUOUS
 10
415.0485710497
 20
461.738512035
 11
401.3372461843
 21
461.738512035
  0
LINE
  5
431
100
AcDbEntity
  8
0
100
AcDbLine
 62
7
  6
CONTINUOUS
 10
150.0485710497
 20
461.7385120356
 11
163.7598959152
 21
461.7385120355
  0
LINE
  5
432
100
AcDbEntity
  8
0
100
AcDbLine
 62
7
  6
CONTINUOUS
 10
146.5485710498
 20
462.017934899
 11
144.7681687179
 21
462.017934899
  0
LINE
  5
433
100
AcDbEntity
  8
0
100
AcDbLine
 62
7
  6
CONTINUOUS
 10
144.7217807305
 20
463.7385120356
 11
148.0485710498
 21
463.7385120356
  0
LINE
  5
434
100
AcDbEntity
  8
0
100
AcDbLine
 62
7
  6
CONTINUOUS
 10
417.0485710497
 20
463.738512035
 11
420.3753613689
 21
463.738512035
  0
LINE
  5
435
100
AcDbEntity
  8
0
100
AcDbLine
 62
7
  6
CONTINUOUS
 10
468.5485710497
 20
468.738512035
 11
466.5485710497
 21
468.738512035
  0
LINE
  5
436
100
AcDbEntity
  8
0
100
AcDbLine
 62
7
  6
CONTINUOUS
 10
96.5485710497
 20
468.738512035
 11
98.5485710497
 21
468.738512035
  0
LINE
  5
437
100
AcDbEntity
  8
0
100
AcDbLine
 62
7
  6
CONTINUOUS
 10
453.5485710497
 20
442.738512035
 11
455.5485710497
 21
442.438512035
  0
LINE
  5
438
100
AcDbEntity
  8
0
100
AcDbLine
 62
7
  6
CONTINUOUS
 10
433.5485710497
 20
447.738512035
 11
435.5485710497
 21
447.438512035
  0
LINE
  5
439
100
AcDbEntity
  8
0
100
AcDbLine
 62
7
  6
CONTINUOUS
 10
360.2055077684
 20
391.8286725219
 11
351.1256977736
 21
409.6488030057
  0
LINE
  5
43A
100
AcDbEntity
  8
0
100
AcDbLine
 62
7
  6
CONTINUOUS
 10
353.0916310924
 20
384.9568941564
 11
356.2203203932
 21
365.2031273445
  0
LINE
  5
43B
100
AcDbEntity
  8
0
100
AcDbLine
 62
7
  6
CONTINUOUS
 10
365.1095154586
 20
366.6110375298
 11
361.9808261578
 21
386.3648043417
  0
LINE
  5
43C
100
AcDbEntity
  8
0
100
AcDbLine
 62
7
  6
CONTINUOUS
 10
378.0485710497
 20
290.238512035
 11
378.0485710497
 21
434.738512035
  0
LINE
  5
43D
100
AcDbEntity
  8
0
100
AcDbLine
 62
7
  6
CONTINUOUS
 10
378.5485710497
 20
289.738512035
 11
378.5485710497
 21
289.8849585919
  0
LINE
  5
43E
100
AcDbEntity
  8
0
100
AcDbLine
 62
7
  6
CONTINUOUS
 10
379.5485710497
 20
288.738512035
 11
379.5485710497
 21
287.738512035
  0
LINE
  5
43F
100
AcDbEntity
  8
0
100
AcDbLine
 62
7
  6
CONTINUOUS
 10
380.5485710497
 20
434.738512035
 11
380.5485710497
 21
288.738512035
  0
LINE
  5
440
100
AcDbEntity
  8
0
100
AcDbLine
 62
7
  6
CONTINUOUS
 10
361.9808261578
 20
341.1122197283
 11
365.1095154586
 21
360.8659865402
  0
LINE
  5
441
100
AcDbEntity
  8
0
100
AcDbLine
 62
7
  6
CONTINUOUS
 10
352.1864490507
 20
339.7342660458
 11
343.1066390559
 21
321.914135562
  0
LINE
  5
442
100
AcDbEntity
  8
0
100
AcDbLine
 62
7
  6
CONTINUOUS
 10
351.1256977736
 20
317.8282210644
 11
360.2055077684
 21
335.6483515481
  0
LINE
  5
443
100
AcDbEntity
  8
0
100
AcDbLine
 62
7
  6
CONTINUOUS
 10
420.5485710497
 20
454.038512035
 11
420.3753659689
 21
453.738512035
  0
LINE
  5
444
100
AcDbEntity
  8
0
100
AcDbLine
 62
7
  6
CONTINUOUS
 10
334.6684866298
 20
311.8518761612
 11
334.7155374732
 21
311.8991248923
  0
LINE
  5
445
100
AcDbEntity
  8
0
100
AcDbLine
 62
7
  6
CONTINUOUS
 10
334.8848866004
 20
312.0691862727
 11
334.9319374438
 21
312.1164350038
  0
LINE
  5
446
100
AcDbEntity
  8
0
100
AcDbLine
 62
7
  6
CONTINUOUS
 10
336.0994360997
 20
312.1621773893
 11
336.009183907
 21
312.0715456115
  0
LINE
  5
447
100
AcDbEntity
  8
0
100
AcDbLine
 62
7
  6
CONTINUOUS
 10
334.6276446192
 20
310.6841958079
 11
334.7178968119
 21
310.7748275858
  0
LINE
  5
448
100
AcDbEntity
  8
0
100
AcDbLine
 62
7
  6
CONTINUOUS
 10
334.2061338197
 20
310.0908493284
 11
334.7181722704
 21
310.6050413245
  0
LINE
  5
449
100
AcDbEntity
  8
0
100
AcDbLine
 62
7
  6
CONTINUOUS
 10
336.178969829
 20
312.0719827456
 11
336.6910082797
 21
312.5861747416
  0
LINE
  5
44A
100
AcDbEntity
  8
0
100
AcDbLine
 62
7
  6
CONTINUOUS
 10
336.2694974801
 20
311.9928282621
 11
336.1792452874
 21
311.9021964843
  0
LINE
  5
44B
100
AcDbEntity
  8
0
100
AcDbLine
 62
7
  6
CONTINUOUS
 10
334.7977059997
 20
310.5148466807
 11
334.8879581924
 21
310.6054784585
  0
LINE
  5
44C
100
AcDbEntity
  8
0
100
AcDbLine
 62
7
  6
CONTINUOUS
 10
336.2286554695
 20
310.8251479088
 11
336.1816046261
 21
310.7778991777
  0
LINE
  5
44D
100
AcDbEntity
  8
0
100
AcDbLine
 62
7
  6
CONTINUOUS
 10
336.0122554989
 20
310.6078377973
 11
335.9652046556
 21
310.5605890662
  0
LINE
  5
44E
100
AcDbEntity
  8
0
100
AcDbLine
 62
7
  6
CONTINUOUS
 10
328.5120000183
 20
318.2750830664
 11
327.2392078121
 21
317.0022908603
  0
LINE
  5
44F
100
AcDbEntity
  8
0
100
AcDbLine
 62
7
  6
CONTINUOUS
 10
324.0607643585
 20
308.5841831025
 11
329.8590399642
 21
314.3824587082
  0
LINE
  5
450
100
AcDbEntity
  8
0
100
AcDbLine
 62
7
  6
CONTINUOUS
 10
331.1318321703
 20
315.6552509143
 11
338.2028999822
 21
322.7263187262
  0
LINE
  5
451
100
AcDbEntity
  8
0
100
AcDbLine
 62
7
  6
CONTINUOUS
 10
330.6772077066
 20
313.5642909658
 11
331.9499999128
 21
314.8370831719
  0
LINE
  5
452
100
AcDbEntity
  8
0
100
AcDbLine
 62
7
  6
CONTINUOUS
 10
314.8656888843
 20
313.0564539405
 11
296.3880982341
 21
305.4027852932
  0
LINE
  5
453
100
AcDbEntity
  8
0
100
AcDbLine
 62
7
  6
CONTINUOUS
 10
299.8322491254
 20
297.0878695006
 11
318.3098397756
 21
304.7415381479
  0
LINE
  5
454
100
AcDbEntity
  8
0
100
AcDbLine
 62
7
  6
CONTINUOUS
 10
420.3753613689
 20
473.738512035
 11
417.0485710497
 21
473.738512035
  0
LINE
  5
455
100
AcDbEntity
  8
0
100
AcDbLine
 62
7
  6
CONTINUOUS
 10
144.7217807305
 20
473.7385120356
 11
148.0485710498
 21
473.7385120356
  0
LINE
  5
456
100
AcDbEntity
  8
0
100
AcDbLine
 62
7
  6
CONTINUOUS
 10
418.5485710497
 20
475.4590891716
 11
420.3289733816
 21
475.4590891716
  0
LINE
  5
457
100
AcDbEntity
  8
0
100
AcDbLine
 62
7
  6
CONTINUOUS
 10
415.0485710497
 20
475.738512035
 11
401.3372461843
 21
475.738512035
  0
LINE
  5
458
100
AcDbEntity
  8
0
100
AcDbLine
 62
7
  6
CONTINUOUS
 10
150.0485710498
 20
475.7385120356
 11
163.7598959152
 21
475.7385120355
  0
LINE
  5
459
100
AcDbEntity
  8
0
100
AcDbLine
 62
7
  6
CONTINUOUS
 10
418.5485710497
 20
477.0179348984
 11
420.3289733816
 21
477.0179348984
  0
LINE
  5
45A
100
AcDbEntity
  8
0
100
AcDbLine
 62
7
  6
CONTINUOUS
 10
419.9287839815
 20
478.738512035
 11
417.0485710497
 21
478.738512035
  0
LINE
  5
45B
100
AcDbEntity
  8
0
100
AcDbLine
 62
7
  6
CONTINUOUS
 10
145.1683581179
 20
478.7385120356
 11
148.0485710498
 21
478.7385120356
  0
LINE
  5
45C
100
AcDbEntity
  8
0
100
AcDbLine
 62
7
  6
CONTINUOUS
 10
146.5485710498
 20
480.4590891722
 11
144.7681687179
 21
480.4590891722
  0
LINE
  5
45D
100
AcDbEntity
  8
0
100
AcDbLine
 62
7
  6
CONTINUOUS
 10
415.0485710497
 20
481.738512035
 11
401.3372461843
 21
481.738512035
  0
LINE
  5
45E
100
AcDbEntity
  8
0
100
AcDbLine
 62
7
  6
CONTINUOUS
 10
150.0485710498
 20
481.7385120356
 11
163.7598959152
 21
481.7385120355
  0
LINE
  5
45F
100
AcDbEntity
  8
0
100
AcDbLine
 62
7
  6
CONTINUOUS
 10
146.5485710498
 20
482.017934899
 11
144.7681687179
 21
482.017934899
  0
LINE
  5
460
100
AcDbEntity
  8
0
100
AcDbLine
 62
7
  6
CONTINUOUS
 10
144.7217807305
 20
483.7385120356
 11
148.0485710498
 21
483.7385120356
  0
LINE
  5
461
100
AcDbEntity
  8
0
100
AcDbLine
 62
7
  6
CONTINUOUS
 10
417.0485710497
 20
483.738512035
 11
420.3753613689
 21
483.738512035
  0
LINE
  5
462
100
AcDbEntity
  8
0
100
AcDbLine
 62
7
  6
CONTINUOUS
 10
150.0485710498
 20
485.7385120356
 11
148.0485710498
 21
485.7385120356
  0
LINE
  5
463
100
AcDbEntity
  8
0
100
AcDbLine
 62
7
  6
CONTINUOUS
 10
415.0485710497
 20
485.738512035
 11
417.0485710497
 21
485.738512035
  0
LINE
  5
464
100
AcDbEntity
  8
0
100
AcDbLine
 62
7
  6
CONTINUOUS
 10
382.0485710497
 20
434.738512035
 11
382.0485710497
 21
288.738512035
  0
LINE
  5
465
100
AcDbEntity
  8
0
100
AcDbLine
 62
7
  6
CONTINUOUS
 10
384.5485710497
 20
447.238512035
 11
384.5485710497
 21
452.438512035
  0
LINE
  5
466
100
AcDbEntity
  8
0
100
AcDbLine
 62
7
  6
CONTINUOUS
 10
390.5485710497
 20
447.238512035
 11
390.5485710497
 21
452.438512035
  0
LINE
  5
467
100
AcDbEntity
  8
0
100
AcDbLine
 62
7
  6
CONTINUOUS
 10
395.0485710497
 20
443.738512035
 11
395.0485710497
 21
453.738512035
  0
LINE
  5
468
100
AcDbEntity
  8
0
100
AcDbLine
 62
7
  6
CONTINUOUS
 10
432.357210277
 20
441.9298728077
 11
432.5485710497
 21
442.279762035
  0
LINE
  5
469
100
AcDbEntity
  8
0
100
AcDbLine
 62
7
  6
CONTINUOUS
 10
482.5898210497
 20
446.738512035
 11
482.0485710497
 21
446.197262035
  0
LINE
  5
46A
100
AcDbEntity
  8
0
100
AcDbLine
 62
7
  6
CONTINUOUS
 10
150.0485710498
 20
493.7385120356
 11
148.0485710498
 21
493.7385120356
  0
LINE
  5
46B
100
AcDbEntity
  8
0
100
AcDbLine
 62
7
  6
CONTINUOUS
 10
415.0485710497
 20
493.738512035
 11
417.0485710497
 21
493.738512035
  0
LINE
  5
46C
100
AcDbEntity
  8
0
100
AcDbLine
 62
7
  6
CONTINUOUS
 10
401.0485710497
 20
481.2384468103
 11
401.0485710497
 21
476.2385772598
  0
LINE
  5
46D
100
AcDbEntity
  8
0
100
AcDbLine
 62
7
  6
CONTINUOUS
 10
401.0485710497
 20
461.2384468103
 11
401.0485710497
 21
456.2385772598
  0
LINE
  5
46E
100
AcDbEntity
  8
0
100
AcDbLine
 62
7
  6
CONTINUOUS
 10
401.3372461843
 20
481.738512035
 11
401.3372461843
 21
475.738512035
  0
LINE
  5
46F
100
AcDbEntity
  8
0
100
AcDbLine
 62
7
  6
CONTINUOUS
 10
401.3372461843
 20
461.738512035
 11
401.3372461843
 21
455.738512035
  0
LINE
  5
470
100
AcDbEntity
  8
0
100
AcDbLine
 62
7
  6
CONTINUOUS
 10
407.5485710497
 20
308.738512035
 11
407.5485710497
 21
434.738512035
  0
LINE
  5
471
100
AcDbEntity
  8
0
100
AcDbLine
 62
7
  6
CONTINUOUS
 10
434.5485710497
 20
452.938512035
 11
435.3220737416
 21
452.4919300476
  0
LINE
  5
472
100
AcDbEntity
  8
0
100
AcDbLine
 62
7
  6
CONTINUOUS
 10
434.3086910914
 20
445.738512035
 11
433.118661081
 21
446.438512035
  0
LINE
  5
473
100
AcDbEntity
  8
0
100
AcDbLine
 62
7
  6
CONTINUOUS
 10
454.3086910914
 20
440.738512035
 11
453.118661081
 21
441.438512035
  0
LINE
  5
474
100
AcDbEntity
  8
0
100
AcDbLine
 62
7
  6
CONTINUOUS
 10
390.0485710497
 20
458.738512035
 11
395.0485710497
 21
453.738512035
  0
LINE
  5
475
100
AcDbEntity
  8
0
100
AcDbLine
 62
7
  6
CONTINUOUS
 10
415.0485710497
 20
493.738512035
 11
415.0485710497
 21
447.738512035
  0
LINE
  5
476
100
AcDbEntity
  8
0
100
AcDbLine
 62
7
  6
CONTINUOUS
 10
417.0485710497
 20
447.738512035
 11
417.0485710497
 21
493.738512035
  0
LINE
  5
477
100
AcDbEntity
  8
0
100
AcDbLine
 62
7
  6
CONTINUOUS
 10
417.5485710497
 20
440.738512035
 11
417.5485710497
 21
443.738512035
  0
LINE
  5
478
100
AcDbEntity
  8
0
100
AcDbLine
 62
7
  6
CONTINUOUS
 10
418.5485710497
 20
477.0179348984
 11
418.5485710497
 21
475.4590891716
  0
LINE
  5
479
100
AcDbEntity
  8
0
100
AcDbLine
 62
7
  6
CONTINUOUS
 10
418.5485710497
 20
457.0179348984
 11
418.5485710497
 21
455.4590891716
  0
LINE
  5
47A
100
AcDbEntity
  8
0
100
AcDbLine
 62
7
  6
CONTINUOUS
 10
420.5485710497
 20
454.0385721395
 11
420.5485710497
 21
463.4384519305
  0
LINE
  5
47B
100
AcDbEntity
  8
0
100
AcDbLine
 62
7
  6
CONTINUOUS
 10
420.5485710497
 20
474.0385721395
 11
420.5485710497
 21
483.4384519305
  0
LINE
  5
47C
100
AcDbEntity
  8
0
100
AcDbLine
 62
7
  6
CONTINUOUS
 10
423.5485710497
 20
447.438512035
 11
423.5485710497
 21
446.438512035
  0
LINE
  5
47D
100
AcDbEntity
  8
0
100
AcDbLine
 62
7
  6
CONTINUOUS
 10
423.7750683578
 20
447.738512035
 11
423.7750683578
 21
452.4919300476
  0
LINE
  5
47E
100
AcDbEntity
  8
0
100
AcDbLine
 62
7
  6
CONTINUOUS
 10
424.0052938546
 20
445.738512035
 11
424.0052938546
 21
446.438512035
  0
LINE
  5
47F
100
AcDbEntity
  8
0
100
AcDbLine
 62
7
  6
CONTINUOUS
 10
424.7884510079
 20
446.438512035
 11
424.7884510079
 21
445.738512035
  0
LINE
  5
480
100
AcDbEntity
  8
0
100
AcDbLine
 62
7
  6
CONTINUOUS
 10
426.5485710497
 20
446.438512035
 11
426.5485710497
 21
445.738512035
  0
LINE
  5
481
100
AcDbEntity
  8
0
100
AcDbLine
 62
7
  6
CONTINUOUS
 10
426.5485710497
 20
443.738512035
 11
426.5485710497
 21
442.279762035
  0
LINE
  5
482
100
AcDbEntity
  8
0
100
AcDbLine
 62
7
  6
CONTINUOUS
 10
426.5485710497
 20
441.738512035
 11
426.5485710497
 21
440.988512035
  0
LINE
  5
483
100
AcDbEntity
  8
0
100
AcDbLine
 62
7
  6
CONTINUOUS
 10
426.5485710497
 20
447.738512035
 11
426.5485710497
 21
452.938512035
  0
LINE
  5
484
100
AcDbEntity
  8
0
100
AcDbLine
 62
7
  6
CONTINUOUS
 10
426.6618197037
 20
447.738512035
 11
426.6618197037
 21
452.4919300476
  0
LINE
  5
485
100
AcDbEntity
  8
0
100
AcDbLine
 62
7
  6
CONTINUOUS
 10
428.7654138963
 20
445.738512035
 11
428.7654138963
 21
446.438512035
  0
LINE
  5
486
100
AcDbEntity
  8
0
100
AcDbLine
 62
7
  6
CONTINUOUS
 10
407.5485710497
 20
308.738512035
 11
387.5485710497
 21
288.738512035
  0
LINE
  5
487
100
AcDbEntity
  8
0
100
AcDbLine
 62
7
  6
CONTINUOUS
 10
454.5485710497
 20
447.938512035
 11
455.3220737416
 21
447.4919300476
  0
LINE
  5
488
100
AcDbEntity
  8
0
100
AcDbLine
 62
7
  6
CONTINUOUS
 10
426.5485710497
 20
440.988512035
 11
426.7360710497
 21
440.801012035
  0
LINE
  5
489
100
AcDbEntity
  8
0
100
AcDbLine
 62
7
  6
CONTINUOUS
 10
432.5485710497
 20
441.738512035
 11
432.357210277
 21
441.9298728077
  0
LINE
  5
48A
100
AcDbEntity
  8
0
100
AcDbLine
 62
7
  6
CONTINUOUS
 10
401.0485710497
 20
456.238512035
 11
401.3372461843
 21
455.738512035
  0
LINE
  5
48B
100
AcDbEntity
  8
0
100
AcDbLine
 62
7
  6
CONTINUOUS
 10
401.0485710497
 20
476.238512035
 11
401.3372461843
 21
475.738512035
  0
LINE
  5
48C
100
AcDbEntity
  8
0
100
AcDbLine
 62
7
  6
CONTINUOUS
 10
430.331728203
 20
446.438512035
 11
430.331728203
 21
445.738512035
  0
LINE
  5
48D
100
AcDbEntity
  8
0
100
AcDbLine
 62
7
  6
CONTINUOUS
 10
432.0485710497
 20
443.738512035
 11
432.0485710497
 21
445.738512035
  0
LINE
  5
48E
100
AcDbEntity
  8
0
100
AcDbLine
 62
7
  6
CONTINUOUS
 10
432.4353223956
 20
447.738512035
 11
432.4353223956
 21
452.4919300476
  0
LINE
  5
48F
100
AcDbEntity
  8
0
100
AcDbLine
 62
7
  6
CONTINUOUS
 10
432.5485710497
 20
440.988512035
 11
432.5485710497
 21
441.738512035
  0
LINE
  5
490
100
AcDbEntity
  8
0
100
AcDbLine
 62
7
  6
CONTINUOUS
 10
432.5485710497
 20
442.279762035
 11
432.5485710497
 21
443.738512035
  0
LINE
  5
491
100
AcDbEntity
  8
0
100
AcDbLine
 62
7
  6
CONTINUOUS
 10
432.5485710497
 20
445.738512035
 11
432.5485710497
 21
446.438512035
  0
LINE
  5
492
100
AcDbEntity
  8
0
100
AcDbLine
 62
7
  6
CONTINUOUS
 10
432.5485710497
 20
447.738512035
 11
432.5485710497
 21
452.938512035
  0
LINE
  5
493
100
AcDbEntity
  8
0
100
AcDbLine
 62
7
  6
CONTINUOUS
 10
434.3086910914
 20
445.738512035
 11
434.3086910914
 21
446.438512035
  0
LINE
  5
494
100
AcDbEntity
  8
0
100
AcDbLine
 62
7
  6
CONTINUOUS
 10
435.0918482447
 20
446.438512035
 11
435.0918482447
 21
445.738512035
  0
LINE
  5
495
100
AcDbEntity
  8
0
100
AcDbLine
 62
7
  6
CONTINUOUS
 10
435.3220737416
 20
447.738512035
 11
435.3220737416
 21
452.4919300476
  0
LINE
  5
496
100
AcDbEntity
  8
0
100
AcDbLine
 62
7
  6
CONTINUOUS
 10
435.5485710497
 20
447.438512035
 11
435.5485710497
 21
446.438512035
  0
LINE
  5
497
100
AcDbEntity
  8
0
100
AcDbLine
 62
7
  6
CONTINUOUS
 10
440.0485710497
 20
443.738512035
 11
440.0485710497
 21
445.738512035
  0
LINE
  5
498
100
AcDbEntity
  8
0
100
AcDbLine
 62
7
  6
CONTINUOUS
 10
443.5485710497
 20
442.438512035
 11
443.5485710497
 21
441.438512035
  0
LINE
  5
499
100
AcDbEntity
  8
0
100
AcDbLine
 62
7
  6
CONTINUOUS
 10
443.7750683578
 20
442.738512035
 11
443.7750683578
 21
447.4919300476
  0
LINE
  5
49A
100
AcDbEntity
  8
0
100
AcDbLine
 62
7
  6
CONTINUOUS
 10
444.0052938546
 20
440.738512035
 11
444.0052938546
 21
441.438512035
  0
LINE
  5
49B
100
AcDbEntity
  8
0
100
AcDbLine
 62
7
  6
CONTINUOUS
 10
444.7884510079
 20
441.438512035
 11
444.7884510079
 21
440.738512035
  0
LINE
  5
49C
100
AcDbEntity
  8
0
100
AcDbLine
 62
7
  6
CONTINUOUS
 10
420.5485710497
 20
463.438512035
 11
420.3753659689
 21
463.738512035
  0
LINE
  5
49D
100
AcDbEntity
  8
0
100
AcDbLine
 62
7
  6
CONTINUOUS
 10
426.5485710497
 20
442.279762035
 11
426.7399318223
 21
441.9298728077
  0
LINE
  5
49E
100
AcDbEntity
  8
0
100
AcDbLine
 62
7
  6
CONTINUOUS
 10
446.0485710497
 20
440.738512035
 11
446.0485710497
 21
440.238512035
  0
LINE
  5
49F
100
AcDbEntity
  8
0
100
AcDbLine
 62
7
  6
CONTINUOUS
 10
446.5485710497
 20
441.438512035
 11
446.5485710497
 21
440.238512035
  0
LINE
  5
4A0
100
AcDbEntity
  8
0
100
AcDbLine
 62
7
  6
CONTINUOUS
 10
446.5485710497
 20
442.738512035
 11
446.5485710497
 21
447.938512035
  0
LINE
  5
4A1
100
AcDbEntity
  8
0
100
AcDbLine
 62
7
  6
CONTINUOUS
 10
446.6618197037
 20
442.738512035
 11
446.6618197037
 21
447.4919300476
  0
LINE
  5
4A2
100
AcDbEntity
  8
0
100
AcDbLine
 62
7
  6
CONTINUOUS
 10
448.7654138963
 20
440.738512035
 11
448.7654138963
 21
441.438512035
  0
LINE
  5
4A3
100
AcDbEntity
  8
0
100
AcDbLine
 62
7
  6
CONTINUOUS
 10
450.331728203
 20
441.438512035
 11
450.331728203
 21
440.738512035
  0
LINE
  5
4A4
100
AcDbEntity
  8
0
100
AcDbLine
 62
7
  6
CONTINUOUS
 10
452.4353223956
 20
442.738512035
 11
452.4353223956
 21
447.4919300476
  0
LINE
  5
4A5
100
AcDbEntity
  8
0
100
AcDbLine
 62
7
  6
CONTINUOUS
 10
452.5485710497
 20
440.238512035
 11
452.5485710497
 21
441.438512035
  0
LINE
  5
4A6
100
AcDbEntity
  8
0
100
AcDbLine
 62
7
  6
CONTINUOUS
 10
452.5485710497
 20
442.738512035
 11
452.5485710497
 21
447.938512035
  0
LINE
  5
4A7
100
AcDbEntity
  8
0
100
AcDbLine
 62
7
  6
CONTINUOUS
 10
453.0485710497
 20
440.738512035
 11
453.0485710497
 21
440.238512035
  0
LINE
  5
4A8
100
AcDbEntity
  8
0
100
AcDbLine
 62
7
  6
CONTINUOUS
 10
454.3086910914
 20
440.738512035
 11
454.3086910914
 21
441.438512035
  0
LINE
  5
4A9
100
AcDbEntity
  8
0
100
AcDbLine
 62
7
  6
CONTINUOUS
 10
455.0918482447
 20
441.438512035
 11
455.0918482447
 21
440.738512035
  0
LINE
  5
4AA
100
AcDbEntity
  8
0
100
AcDbLine
 62
7
  6
CONTINUOUS
 10
455.3220737416
 20
442.738512035
 11
455.3220737416
 21
447.4919300476
  0
LINE
  5
4AB
100
AcDbEntity
  8
0
100
AcDbLine
 62
7
  6
CONTINUOUS
 10
455.5485710497
 20
442.438512035
 11
455.5485710497
 21
441.438512035
  0
LINE
  5
4AC
100
AcDbEntity
  8
0
100
AcDbLine
 62
7
  6
CONTINUOUS
 10
420.5485710497
 20
483.438512035
 11
420.3753659689
 21
483.738512035
  0
LINE
  5
4AD
100
AcDbEntity
  8
0
100
AcDbLine
 62
7
  6
CONTINUOUS
 10
466.5485710497
 20
442.238512035
 11
466.5485710497
 21
468.738512035
  0
LINE
  5
4AE
100
AcDbEntity
  8
0
100
AcDbLine
 62
7
  6
CONTINUOUS
 10
468.5485710497
 20
442.238512035
 11
468.5485710497
 21
468.738512035
  0
LINE
  5
4AF
100
AcDbEntity
  8
0
100
AcDbLine
 62
7
  6
CONTINUOUS
 10
488.0485710497
 20
446.197262035
 11
487.5073210497
 21
446.738512035
  0
LINE
  5
4B0
100
AcDbEntity
  8
0
100
AcDbLine
 62
7
  6
CONTINUOUS
 10
482.0485710497
 20
446.197262035
 11
482.0485710497
 21
440.238512035
  0
LINE
  5
4B1
100
AcDbEntity
  8
0
100
AcDbLine
 62
7
  6
CONTINUOUS
 10
487.5485710497
 20
436.738512035
 11
487.5485710497
 21
440.238512035
  0
LINE
  5
4B2
100
AcDbEntity
  8
0
100
AcDbLine
 62
7
  6
CONTINUOUS
 10
488.0485710497
 20
440.238512035
 11
488.0485710497
 21
446.197262035
  0
LINE
  5
4B3
100
AcDbEntity
  8
0
100
AcDbLine
 62
7
  6
CONTINUOUS
 10
498.0485710497
 20
421.738512035
 11
498.0485710497
 21
432.738512035
  0
LINE
  5
4B4
100
AcDbEntity
  8
0
100
AcDbLine
 62
7
  6
CONTINUOUS
 10
500.0485710497
 20
421.738512035
 11
500.0485710497
 21
432.738512035
  0
ARC
  5
4B5
100
AcDbEntity
  8
0
100
AcDbCircle
 62
7
  6
CONTINUOUS
 10
199.2751158651
 20
259.9503660238
 40
32.2997284301
100
AcDbArc
 50
111.3333007293
 51
111.5433065074
  0
ARC
  5
4B6
100
AcDbEntity
  8
0
100
AcDbCircle
 62
7
  6
CONTINUOUS
 10
197.5486894561
 20
264.3272276548
 40
27.5946818161
100
AcDbArc
 50
111.5461800794
 51
111.6667166365
  0
ARC
  5
4B7
100
AcDbEntity
  8
0
100
AcDbCircle
 62
7
  6
CONTINUOUS
 10
164.6316147932
 20
298.7495997779
 40
24.911430465
100
AcDbArc
 50
338.0538203017
 51
338.462731491
  0
ARC
  5
4B8
100
AcDbEntity
  8
0
100
AcDbCircle
 62
7
  6
CONTINUOUS
 10
169.5794274506
 20
296.7569955222
 40
19.5774525279
100
AcDbArc
 50
337.629560666
 51
338.0510039428
  0
ARC
  5
4B9
100
AcDbEntity
  8
0
100
AcDbCircle
 62
7
  6
CONTINUOUS
 10
179.6037153041
 20
292.4731285769
 40
8.6753542846
100
AcDbArc
 50
334.4730702959
 51
335.8662524808
  0
ARC
  5
4BA
100
AcDbEntity
  8
0
100
AcDbCircle
 62
7
  6
CONTINUOUS
 10
192.3040162662
 20
282.8570158277
 40
8.5096857922
100
AcDbArc
 50
124.3124265209
 51
124.9135462244
  0
ARC
  5
4BB
100
AcDbEntity
  8
0
100
AcDbCircle
 62
7
  6
CONTINUOUS
 10
189.8773931152
 20
282.6537221028
 40
7.7243758899
100
AcDbArc
 50
115.2771655665
 51
115.5261527624
  0
ARC
  5
4BC
100
AcDbEntity
  8
0
100
AcDbCircle
 62
7
  6
CONTINUOUS
 10
191.5524934902
 20
283.9331608992
 40
7.1971026289
100
AcDbArc
 50
124.910835333
 51
125.6930871559
  0
ARC
  5
4BD
100
AcDbEntity
  8
0
100
AcDbCircle
 62
7
  6
CONTINUOUS
 10
182.0046174649
 20
293.5577331332
 40
6.8770407209
100
AcDbArc
 50
323.864843753
 51
325.1047025241
  0
ARC
  5
4BE
100
AcDbEntity
  8
0
100
AcDbCircle
 62
7
  6
CONTINUOUS
 10
184.1173495376
 20
290.1638224227
 40
3.6033177333
100
AcDbArc
 50
328.9140432847
 51
329.7741990542
  0
ARC
  5
4BF
100
AcDbEntity
  8
0
100
AcDbCircle
 62
7
  6
CONTINUOUS
 10
185.0578760677
 20
291.1942159167
 40
3.0143719076
100
AcDbArc
 50
318.0164663001
 51
319.1751627989
  0
ARC
  5
4C0
100
AcDbEntity
  8
0
100
AcDbCircle
 62
7
  6
CONTINUOUS
 10
188.5485710497
 20
289.738512035
 40
2.0
100
AcDbArc
 50
200.6053029018
 51
206.1895819664
  0
ARC
  5
4C1
100
AcDbEntity
  8
0
100
AcDbCircle
 62
7
  6
CONTINUOUS
 10
188.5485710497
 20
289.738512035
 40
1.0
100
AcDbArc
 50
180.0
 51
190.9713512481
  0
ARC
  5
4C2
100
AcDbEntity
  8
0
100
AcDbCircle
 62
7
  6
CONTINUOUS
 10
214.5410931881
 20
220.6148481926
 40
74.4936795714
100
AcDbArc
 50
110.8323361368
 51
111.2640619111
  0
ARC
  5
4C3
100
AcDbEntity
  8
0
100
AcDbCircle
 62
7
  6
CONTINUOUS
 10
222.3490575491
 20
303.086135937
 40
11.8603175739
100
AcDbArc
 50
49.9131196915
 51
54.3754870244
  0
ARC
  5
4C4
100
AcDbEntity
  8
0
100
AcDbCircle
 62
7
  6
CONTINUOUS
 10
222.5172987289
 20
303.1025601452
 40
11.7289495636
100
AcDbArc
 50
35.7199976882
 51
40.2323706775
  0
ARC
  5
4C5
100
AcDbEntity
  8
0
100
AcDbCircle
 62
7
  6
CONTINUOUS
 10
230.6487944705
 20
311.12617408
 40
2.3939086055
100
AcDbArc
 50
257.6371238697
 51
282.4833559466
  0
ARC
  5
4C6
100
AcDbEntity
  8
0
100
AcDbCircle
 62
7
  6
CONTINUOUS
 10
230.4688795744
 20
311.3373549574
 40
2.1802035806
100
AcDbArc
 50
166.3707194462
 51
180.034801036
  0
ARC
  5
4C7
100
AcDbEntity
  8
0
100
AcDbCircle
 62
7
  6
CONTINUOUS
 10
230.6487684114
 20
311.1509241764
 40
2.1723039023
100
AcDbArc
 50
256.3462443239
 51
283.7742369342
  0
ARC
  5
4C8
100
AcDbEntity
  8
0
100
AcDbCircle
 62
7
  6
CONTINUOUS
 10
222.3470933812
 20
319.6787206324
 40
11.8925988617
100
AcDbArc
 50
320.0948439871
 51
323.3808890494
  0
ARC
  5
4C9
100
AcDbEntity
  8
0
100
AcDbCircle
 62
7
  6
CONTINUOUS
 10
222.3505522166
 20
319.5471533317
 40
11.7966045876
100
AcDbArc
 50
306.7262247676
 51
310.0390172775
  0
CIRCLE
  5
4CA
100
AcDbEntity
  8
0
100
AcDbCircle
 62
7
  6
CONTINUOUS
 10
230.6485710497
 20
311.338512035
 40
4.75
  0
CIRCLE
  5
4CB
100
AcDbEntity
  8
0
100
AcDbCircle
 62
7
  6
CONTINUOUS
 10
230.6485710497
 20
311.338512035
 40
4.6689421051
  0
ARC
  5
4CC
100
AcDbEntity
  8
0
100
AcDbCircle
 62
7
  6
CONTINUOUS
 10
230.4441238384
 20
311.3391297903
 40
2.4017964188
100
AcDbArc
 50
180.0801086599
 51
192.462251077
  0
ARC
  5
4CD
100
AcDbEntity
  8
0
100
AcDbCircle
 62
7
  6
CONTINUOUS
 10
230.4438284643
 20
311.3375071846
 40
2.4014993242
100
AcDbArc
 50
167.657731813
 51
180.0414058751
  0
ARC
  5
4CE
100
AcDbEntity
  8
0
100
AcDbCircle
 62
7
  6
CONTINUOUS
 10
230.6483476188
 20
311.5508622113
 40
2.3938966662
100
AcDbArc
 50
77.6370609948
 51
102.4834189657
  0
ARC
  5
4CF
100
AcDbEntity
  8
0
100
AcDbCircle
 62
7
  6
CONTINUOUS
 10
230.4693437641
 20
311.3393462708
 40
2.1806698601
100
AcDbArc
 50
180.0871141787
 51
193.748259972
  0
ARC
  5
4D0
100
AcDbEntity
  8
0
100
AcDbCircle
 62
7
  6
CONTINUOUS
 10
230.6483736901
 20
311.5260990947
 40
2.172304673
100
AcDbArc
 50
76.3462493485
 51
103.774231975
  0
ARC
  5
4D1
100
AcDbEntity
  8
0
100
AcDbCircle
 62
7
  6
CONTINUOUS
 10
230.6485710497
 20
311.338512035
 40
1.17
100
AcDbArc
 50
63.945455471
 51
116.1750320698
  0
ARC
  5
4D2
100
AcDbEntity
  8
0
100
AcDbCircle
 62
7
  6
CONTINUOUS
 10
230.6485710497
 20
311.338512035
 40
1.17
100
AcDbArc
 50
243.945455471
 51
296.1750320698
  0
ARC
  5
4D3
100
AcDbEntity
  8
0
100
AcDbCircle
 62
7
  6
CONTINUOUS
 10
230.6485710497
 20
311.338512035
 40
1.17
100
AcDbArc
 50
333.945455471
 51
26.1750320698
  0
ARC
  5
4D4
100
AcDbEntity
  8
0
100
AcDbCircle
 62
7
  6
CONTINUOUS
 10
230.6485710497
 20
311.338512035
 40
1.17
100
AcDbArc
 50
153.945455471
 51
206.1750320698
  0
ARC
  5
4D5
100
AcDbEntity
  8
0
100
AcDbCircle
 62
7
  6
CONTINUOUS
 10
238.9527562765
 20
302.9961680409
 40
11.8960457471
100
AcDbArc
 50
140.0953201842
 51
143.3804128523
  0
ARC
  5
4D6
100
AcDbEntity
  8
0
100
AcDbCircle
 62
7
  6
CONTINUOUS
 10
238.9476387298
 20
303.1285465976
 40
11.7982930914
100
AcDbArc
 50
126.7264618875
 51
130.0387801575
  0
ARC
  5
4D7
100
AcDbEntity
  8
0
100
AcDbCircle
 62
7
  6
CONTINUOUS
 10
238.9545609844
 20
319.5992207634
 40
11.8708631069
100
AcDbArc
 50
229.9151027744
 51
234.3735039415
  0
ARC
  5
4D8
100
AcDbEntity
  8
0
100
AcDbCircle
 62
7
  6
CONTINUOUS
 10
238.7797576221
 20
319.5743969883
 40
11.728840867
100
AcDbArc
 50
215.7199767683
 51
220.2323915974
  0
ARC
  5
4D9
100
AcDbEntity
  8
0
100
AcDbCircle
 62
7
  6
CONTINUOUS
 10
236.9048586332
 20
312.0793667253
 40
3.9
100
AcDbArc
 50
134.9999999999
 51
138.6373275284
  0
ARC
  5
4DA
100
AcDbEntity
  8
0
100
AcDbCircle
 62
7
  6
CONTINUOUS
 10
230.85302135
 20
311.3395465925
 40
2.4017915879
100
AcDbArc
 50
347.6585319277
 51
0.0406921611
  0
ARC
  5
4DB
100
AcDbEntity
  8
0
100
AcDbCircle
 62
7
  6
CONTINUOUS
 10
230.8535060758
 20
311.3379602962
 40
2.401308513
100
AcDbArc
 50
0.0785497663
 51
12.4632107941
  0
ARC
  5
4DC
100
AcDbEntity
  8
0
100
AcDbCircle
 62
7
  6
CONTINUOUS
 10
230.8276653608
 20
311.3376637719
 40
2.1808013901
100
AcDbArc
 50
0.087477418
 51
13.747788962
  0
ARC
  5
4DD
100
AcDbEntity
  8
0
100
AcDbCircle
 62
7
  6
CONTINUOUS
 10
230.8276836614
 20
311.339734949
 40
2.1807810224
100
AcDbArc
 50
346.3726219689
 51
0.0330620624
  0
ARC
  5
4DE
100
AcDbEntity
  8
0
100
AcDbCircle
 62
7
  6
CONTINUOUS
 10
236.9048586332
 20
312.0793667253
 40
2.1
100
AcDbArc
 50
134.9999999999
 51
152.293634049
  0
CIRCLE
  5
4DF
100
AcDbEntity
  8
0
100
AcDbCircle
 62
7
  6
CONTINUOUS
 10
167.5485710497
 20
354.738512035
 40
2.5
  0
ARC
  5
4E0
100
AcDbEntity
  8
0
100
AcDbCircle
 62
7
  6
CONTINUOUS
 10
146.0485710497
 20
447.7385120356
 40
4.0
100
AcDbArc
 50
269.9999999999
 51
359.9999999999
  0
ARC
  5
4E1
100
AcDbEntity
  8
0
100
AcDbCircle
 62
7
  6
CONTINUOUS
 10
69.0485710497
 20
432.738512035
 40
4.0
100
AcDbArc
 50
90.0
 51
180.0
  0
ARC
  5
4E2
100
AcDbEntity
  8
0
100
AcDbCircle
 62
7
  6
CONTINUOUS
 10
100.0485710497
 20
442.238512035
 40
3.5
100
AcDbArc
 50
180.0
 51
216.4817137935
  0
ARC
  5
4E3
100
AcDbEntity
  8
0
100
AcDbCircle
 62
7
  6
CONTINUOUS
 10
69.5485710497
 20
437.238512035
 40
3.0
100
AcDbArc
 50
90.0
 51
189.594068227
  0
CIRCLE
  5
4E4
100
AcDbEntity
  8
0
100
AcDbCircle
 62
7
  6
CONTINUOUS
 10
165.5485710497
 20
430.738512035
 40
2.5
  0
ARC
  5
4E5
100
AcDbEntity
  8
0
100
AcDbCircle
 62
7
  6
CONTINUOUS
 10
146.0485710497
 20
447.7385120356
 40
2.0
100
AcDbArc
 50
269.9999999999
 51
359.9999999999
  0
ARC
  5
4E6
100
AcDbEntity
  8
0
100
AcDbCircle
 62
7
  6
CONTINUOUS
 10
69.0485710497
 20
432.738512035
 40
2.0
100
AcDbArc
 50
90.0
 51
180.0
  0
ARC
  5
4E7
100
AcDbEntity
  8
0
100
AcDbCircle
 62
7
  6
CONTINUOUS
 10
100.0485710497
 20
442.238512035
 40
1.5
100
AcDbArc
 50
180.0
 51
270.0
  0
ARC
  5
4E8
100
AcDbEntity
  8
0
100
AcDbCircle
 62
7
  6
CONTINUOUS
 10
201.5485556766
 20
352.9028130346
 40
14.3857090046
100
AcDbArc
 50
87.6095495854
 51
91.8131807425
  0
ARC
  5
4E9
100
AcDbEntity
  8
0
100
AcDbCircle
 62
7
  6
CONTINUOUS
 10
274.4218683192
 20
363.738512035
 40
7.9
100
AcDbArc
 50
315.0
 51
45.0
  0
ARC
  5
4EA
100
AcDbEntity
  8
0
100
AcDbCircle
 62
7
  6
CONTINUOUS
 10
274.4218683192
 20
363.738512035
 40
6.1
100
AcDbArc
 50
315.0
 51
45.0
  0
ARC
  5
4EB
100
AcDbEntity
  8
0
100
AcDbCircle
 62
7
  6
CONTINUOUS
 10
201.5485710497
 20
365.238512035
 40
4.0
100
AcDbArc
 50
15.9024581026
 51
93.5196608536
  0
ARC
  5
4EC
100
AcDbEntity
  8
0
100
AcDbCircle
 62
7
  6
CONTINUOUS
 10
201.5485710497
 20
365.238512035
 40
3.5
100
AcDbArc
 50
20.2226564531
 51
96.205345029
  0
ARC
  5
4ED
100
AcDbEntity
  8
0
100
AcDbCircle
 62
7
  6
CONTINUOUS
 10
201.5485710497
 20
365.238512035
 40
2.9545454545
100
AcDbArc
 50
16.9570528229
 51
96.4696406836
  0
ARC
  5
4EE
100
AcDbEntity
  8
0
100
AcDbCircle
 62
7
  6
CONTINUOUS
 10
222.3403850606
 20
407.8948671385
 40
11.8603175739
100
AcDbArc
 50
49.8528752309
 51
54.3152425638
  0
ARC
  5
4EF
100
AcDbEntity
  8
0
100
AcDbCircle
 62
7
  6
CONTINUOUS
 10
222.5086434169
 20
407.9111144381
 40
11.7289495635
100
AcDbArc
 50
35.6597532276
 51
40.1721262169
  0
ARC
  5
4F0
100
AcDbEntity
  8
0
100
AcDbCircle
 62
7
  6
CONTINUOUS
 10
230.6485712047
 20
415.9261739625
 40
2.3939086055
100
AcDbArc
 50
257.5768794091
 51
282.423111486
  0
ARC
  5
4F1
100
AcDbEntity
  8
0
100
AcDbCircle
 62
7
  6
CONTINUOUS
 10
230.6485711694
 20
415.9509240726
 40
2.1723039023
100
AcDbArc
 50
256.2859998633
 51
283.7139924736
  0
ARC
  5
4F2
100
AcDbEntity
  8
0
100
AcDbCircle
 62
7
  6
CONTINUOUS
 10
222.3558673992
 20
424.4874447269
 40
11.8925988618
100
AcDbArc
 50
320.0345995265
 51
323.3206445889
  0
ARC
  5
4F3
100
AcDbEntity
  8
0
100
AcDbCircle
 62
7
  6
CONTINUOUS
 10
222.3591878945
 20
424.3558738622
 40
11.7966045877
100
AcDbArc
 50
306.665980307
 51
309.9787728169
  0
CIRCLE
  5
4F4
100
AcDbEntity
  8
0
100
AcDbCircle
 62
7
  6
CONTINUOUS
 10
230.6485710497
 20
416.138512035
 40
4.75
  0
CIRCLE
  5
4F5
100
AcDbEntity
  8
0
100
AcDbCircle
 62
7
  6
CONTINUOUS
 10
230.6485710497
 20
416.138512035
 40
4.6689421051
  0
ARC
  5
4F6
100
AcDbEntity
  8
0
100
AcDbCircle
 62
7
  6
CONTINUOUS
 10
230.444124601
 20
416.1393447588
 40
2.4017964188
100
AcDbArc
 50
180.0198641993
 51
192.4020066164
  0
ARC
  5
4F7
100
AcDbEntity
  8
0
100
AcDbCircle
 62
7
  6
CONTINUOUS
 10
230.4438275209
 20
416.1377224646
 40
2.4014993242
100
AcDbArc
 50
167.5974873524
 51
179.9811614145
  0
ARC
  5
4F8
100
AcDbEntity
  8
0
100
AcDbCircle
 62
7
  6
CONTINUOUS
 10
230.6485708975
 20
416.3508623289
 40
2.3938966662
100
AcDbArc
 50
77.5768165343
 51
102.4231745051
  0
ARC
  5
4F9
100
AcDbEntity
  8
0
100
AcDbCircle
 62
7
  6
CONTINUOUS
 10
230.4693447404
 20
416.1395347214
 40
2.1806698601
100
AcDbArc
 50
180.0268697181
 51
193.6880155114
  0
ARC
  5
4FA
100
AcDbEntity
  8
0
100
AcDbCircle
 62
7
  6
CONTINUOUS
 10
230.4688784571
 20
416.1375438971
 40
2.1802035806
100
AcDbArc
 50
166.3104749856
 51
179.9745565754
  0
ARC
  5
4FB
100
AcDbEntity
  8
0
100
AcDbCircle
 62
7
  6
CONTINUOUS
 10
230.6485709312
 20
416.3260991985
 40
2.172304673
100
AcDbArc
 50
76.286004888
 51
103.7139875144
  0
ARC
  5
4FC
100
AcDbEntity
  8
0
100
AcDbCircle
 62
7
  6
CONTINUOUS
 10
230.6485710497
 20
416.138512035
 40
1.17
100
AcDbArc
 50
63.8852110105
 51
116.1147876092
  0
ARC
  5
4FD
100
AcDbEntity
  8
0
100
AcDbCircle
 62
7
  6
CONTINUOUS
 10
230.6485710497
 20
416.138512035
 40
1.17
100
AcDbArc
 50
243.8852110105
 51
296.1147876092
  0
ARC
  5
4FE
100
AcDbEntity
  8
0
100
AcDbCircle
 62
7
  6
CONTINUOUS
 10
230.6485710497
 20
416.138512035
 40
1.17
100
AcDbArc
 50
333.8852110105
 51
26.1147876092
  0
ARC
  5
4FF
100
AcDbEntity
  8
0
100
AcDbCircle
 62
7
  6
CONTINUOUS
 10
230.6485710497
 20
416.138512035
 40
1.17
100
AcDbArc
 50
153.8852110105
 51
206.1147876092
  0
ARC
  5
500
100
AcDbEntity
  8
0
100
AcDbCircle
 62
7
  6
CONTINUOUS
 10
238.9439800117
 20
407.7874411005
 40
11.8960457473
100
AcDbArc
 50
140.0350757236
 51
143.3201683917
  0
ARC
  5
501
100
AcDbEntity
  8
0
100
AcDbCircle
 62
7
  6
CONTINUOUS
 10
238.9390016592
 20
407.919824965
 40
11.7982930916
100
AcDbArc
 50
126.6662174269
 51
129.9785356969
  0
ARC
  5
502
100
AcDbEntity
  8
0
100
AcDbCircle
 62
7
  6
CONTINUOUS
 10
233.3636468092
 20
410.4535877945
 40
3.9
100
AcDbArc
 50
45.0
 51
63.5688188999
  0
ARC
  5
503
100
AcDbEntity
  8
0
100
AcDbCircle
 62
7
  6
CONTINUOUS
 10
233.3636468092
 20
410.4535877945
 40
2.1
100
AcDbArc
 50
45.0
 51
81.0810187441
  0
ARC
  5
504
100
AcDbEntity
  8
0
100
AcDbCircle
 62
7
  6
CONTINUOUS
 10
238.9632422308
 20
424.3904827475
 40
11.8708631068
100
AcDbArc
 50
229.8548583138
 51
234.3132594809
  0
ARC
  5
505
100
AcDbEntity
  8
0
100
AcDbCircle
 62
7
  6
CONTINUOUS
 10
238.7884128639
 20
424.3658427857
 40
11.7288408671
100
AcDbArc
 50
215.6597323077
 51
220.1721471368
  0
ARC
  5
506
100
AcDbEntity
  8
0
100
AcDbCircle
 62
7
  6
CONTINUOUS
 10
230.8530223247
 20
416.1393316198
 40
2.4017915879
100
AcDbArc
 50
347.5982874671
 51
359.9804477005
  0
ARC
  5
507
100
AcDbEntity
  8
0
100
AcDbCircle
 62
7
  6
CONTINUOUS
 10
230.8535053824
 20
416.1377448147
 40
2.401308513
100
AcDbArc
 50
0.0183053057
 51
12.4029663335
  0
ARC
  5
508
100
AcDbEntity
  8
0
100
AcDbCircle
 62
7
  6
CONTINUOUS
 10
230.8276643699
 20
416.1374754611
 40
2.1808013901
100
AcDbArc
 50
0.0272329575
 51
13.6875445014
  0
ARC
  5
509
100
AcDbEntity
  8
0
100
AcDbCircle
 62
7
  6
CONTINUOUS
 10
230.8276848482
 20
416.1395466178
 40
2.1807810224
100
AcDbArc
 50
346.3123775083
 51
359.9728176018
  0
ARC
  5
50A
100
AcDbEntity
  8
0
100
AcDbCircle
 62
7
  6
CONTINUOUS
 10
351.556044119
 20
220.6148356646
 40
74.4936929848
100
AcDbArc
 50
68.7359382185
 51
69.1676638451
  0
ARC
  5
50B
100
AcDbEntity
  8
0
100
AcDbCircle
 62
7
  6
CONTINUOUS
 10
327.1577027103
 20
303.0774504934
 40
11.8603175741
100
AcDbArc
 50
49.9731109816
 51
54.4354783144
  0
ARC
  5
50C
100
AcDbEntity
  8
0
100
AcDbCircle
 62
7
  6
CONTINUOUS
 10
327.3259266012
 20
303.094050849
 40
11.7289495634
100
AcDbArc
 50
35.7799889783
 51
40.2923619676
  0
ARC
  5
50D
100
AcDbEntity
  8
0
100
AcDbCircle
 62
7
  6
CONTINUOUS
 10
335.2438296287
 20
311.3372928104
 40
2.4014993242
100
AcDbArc
 50
167.717723103
 51
180.1013971652
  0
ARC
  5
50E
100
AcDbEntity
  8
0
100
AcDbCircle
 62
7
  6
CONTINUOUS
 10
335.4490167979
 20
311.1261744304
 40
2.3939086055
100
AcDbArc
 50
257.6971151597
 51
282.5433472366
  0
ARC
  5
50F
100
AcDbEntity
  8
0
100
AcDbCircle
 62
7
  6
CONTINUOUS
 10
335.2688808844
 20
311.3371668129
 40
2.1802035806
100
AcDbArc
 50
166.4307107362
 51
180.0947923261
  0
ARC
  5
510
100
AcDbEntity
  8
0
100
AcDbCircle
 62
7
  6
CONTINUOUS
 10
335.4489648243
 20
311.1509244859
 40
2.1723039023
100
AcDbArc
 50
256.4062356139
 51
283.8342282242
  0
ARC
  5
511
100
AcDbEntity
  8
0
100
AcDbCircle
 62
7
  6
CONTINUOUS
 10
327.1383653553
 20
319.670024037
 40
11.8925988615
100
AcDbArc
 50
320.1548352771
 51
323.4408803395
  0
ARC
  5
512
100
AcDbEntity
  8
0
100
AcDbCircle
 62
7
  6
CONTINUOUS
 10
327.1419619454
 20
319.5384604304
 40
11.7966045879
100
AcDbArc
 50
306.7862160576
 51
310.0990085675
  0
CIRCLE
  5
513
100
AcDbEntity
  8
0
100
AcDbCircle
 62
7
  6
CONTINUOUS
 10
335.4485710497
 20
311.338512035
 40
4.75
  0
CIRCLE
  5
514
100
AcDbEntity
  8
0
100
AcDbCircle
 62
7
  6
CONTINUOUS
 10
335.4485710497
 20
311.338512035
 40
4.6689421051
  0
ARC
  5
515
100
AcDbEntity
  8
0
100
AcDbCircle
 62
7
  6
CONTINUOUS
 10
329.1922834661
 20
312.0793667253
 40
3.9
100
AcDbArc
 50
41.3997486972
 51
45.0000000001
  0
ARC
  5
516
100
AcDbEntity
  8
0
100
AcDbCircle
 62
7
  6
CONTINUOUS
 10
335.2441233037
 20
311.3389157245
 40
2.4017964188
100
AcDbArc
 50
180.1400999499
 51
192.522242367
  0
ARC
  5
517
100
AcDbEntity
  8
0
100
AcDbCircle
 62
7
  6
CONTINUOUS
 10
335.4481252787
 20
311.550861861
 40
2.3938966662
100
AcDbArc
 50
77.6970522849
 51
102.5434102558
  0
ARC
  5
518
100
AcDbEntity
  8
0
100
AcDbCircle
 62
7
  6
CONTINUOUS
 10
335.2693429889
 20
311.3391586112
 40
2.1806698601
100
AcDbArc
 50
180.1471054688
 51
193.808251262
  0
ARC
  5
519
100
AcDbEntity
  8
0
100
AcDbCircle
 62
7
  6
CONTINUOUS
 10
335.448177278
 20
311.5260987852
 40
2.172304673
100
AcDbArc
 50
76.4062406386
 51
103.834223265
  0
ARC
  5
51A
100
AcDbEntity
  8
0
100
AcDbCircle
 62
7
  6
CONTINUOUS
 10
329.1922834661
 20
312.0793667253
 40
2.1
100
AcDbArc
 50
27.6923563939
 51
45.0000000001
  0
ARC
  5
51B
100
AcDbEntity
  8
0
100
AcDbCircle
 62
7
  6
CONTINUOUS
 10
335.4485710497
 20
311.338512035
 40
1.17
100
AcDbArc
 50
64.0054467611
 51
116.2350233598
  0
ARC
  5
51C
100
AcDbEntity
  8
0
100
AcDbCircle
 62
7
  6
CONTINUOUS
 10
335.4485710497
 20
311.338512035
 40
1.17
100
AcDbArc
 50
244.0054467611
 51
296.2350233598
  0
ARC
  5
51D
100
AcDbEntity
  8
0
100
AcDbCircle
 62
7
  6
CONTINUOUS
 10
335.4485710497
 20
311.338512035
 40
1.17
100
AcDbArc
 50
334.0054467611
 51
26.2350233598
  0
ARC
  5
51E
100
AcDbEntity
  8
0
100
AcDbCircle
 62
7
  6
CONTINUOUS
 10
335.4485710497
 20
311.338512035
 40
1.17
100
AcDbArc
 50
154.0054467611
 51
206.2350233598
  0
ARC
  5
51F
100
AcDbEntity
  8
0
100
AcDbCircle
 62
7
  6
CONTINUOUS
 10
343.7614865373
 20
303.0048674719
 40
11.8960457476
100
AcDbArc
 50
140.1553114743
 51
143.4404041423
  0
ARC
  5
520
100
AcDbEntity
  8
0
100
AcDbCircle
 62
7
  6
CONTINUOUS
 10
343.756230387
 20
303.1372405978
 40
11.7982930918
100
AcDbArc
 50
126.7864531776
 51
130.0987714475
  0
ARC
  5
521
100
AcDbEntity
  8
0
100
AcDbCircle
 62
7
  6
CONTINUOUS
 10
343.7459070948
 20
319.6079129833
 40
11.8708631068
100
AcDbArc
 50
229.9750940644
 51
234.4334952315
  0
ARC
  5
522
100
AcDbEntity
  8
0
100
AcDbCircle
 62
7
  6
CONTINUOUS
 10
343.5711298202
 20
319.5829061949
 40
11.7288408672
100
AcDbArc
 50
215.7799680584
 51
220.2923828874
  0
ARC
  5
523
100
AcDbEntity
  8
0
100
AcDbCircle
 62
7
  6
CONTINUOUS
 10
335.6530201547
 20
311.3397606607
 40
2.4017915879
100
AcDbArc
 50
347.7185232177
 51
0.1006834511
  0
ARC
  5
524
100
AcDbEntity
  8
0
100
AcDbCircle
 62
7
  6
CONTINUOUS
 10
335.6535065411
 20
311.3381748728
 40
2.401308513
100
AcDbArc
 50
0.1385410563
 51
12.5232020841
  0
ARC
  5
525
100
AcDbEntity
  8
0
100
AcDbCircle
 62
7
  6
CONTINUOUS
 10
335.6276661508
 20
311.3378512922
 40
2.1808013901
100
AcDbArc
 50
0.1474687081
 51
13.807780252
  0
ARC
  5
526
100
AcDbEntity
  8
0
100
AcDbCircle
 62
7
  6
CONTINUOUS
 10
335.6276822828
 20
311.3399224873
 40
2.1807810224
100
AcDbArc
 50
346.4326132589
 51
0.0930533524
  0
ARC
  5
527
100
AcDbEntity
  8
0
100
AcDbCircle
 62
7
  6
CONTINUOUS
 10
366.8220245658
 20
259.9503617764
 40
32.2997329936
100
AcDbArc
 50
68.4566937322
 51
68.6666994163
  0
ARC
  5
528
100
AcDbEntity
  8
0
100
AcDbCircle
 62
7
  6
CONTINUOUS
 10
368.5484509873
 20
264.3272234913
 40
27.5946862969
100
AcDbArc
 50
68.3332836664
 51
68.4538201616
  0
ARC
  5
529
100
AcDbEntity
  8
0
100
AcDbCircle
 62
7
  6
CONTINUOUS
 10
401.4655206729
 20
298.7495971254
 40
24.9114233211
100
AcDbArc
 50
201.5372687276
 51
201.9461803556
  0
ARC
  5
52A
100
AcDbEntity
  8
0
100
AcDbCircle
 62
7
  6
CONTINUOUS
 10
396.5177070016
 20
296.7569924068
 40
19.5774442705
100
AcDbArc
 50
201.9489967471
 51
202.3704399389
  0
ARC
  5
52B
100
AcDbEntity
  8
0
100
AcDbCircle
 62
7
  6
CONTINUOUS
 10
386.4934274748
 20
292.4731288533
 40
8.6753550175
100
AcDbArc
 50
204.1337496226
 51
205.5269271616
  0
ARC
  5
52C
100
AcDbEntity
  8
0
100
AcDbCircle
 62
7
  6
CONTINUOUS
 10
373.7931274412
 20
282.8570181269
 40
8.5096829867
100
AcDbArc
 50
55.086452904
 51
55.6875726679
  0
ARC
  5
52D
100
AcDbEntity
  8
0
100
AcDbCircle
 62
7
  6
CONTINUOUS
 10
376.2299545234
 20
282.6752477166
 40
7.7005535534
100
AcDbArc
 50
64.4394574322
 51
64.72313113
  0
ARC
  5
52E
100
AcDbEntity
  8
0
100
AcDbCircle
 62
7
  6
CONTINUOUS
 10
374.5446504956
 20
283.9331635621
 40
7.1970993658
100
AcDbArc
 50
54.3069108606
 51
55.089163798
  0
ARC
  5
52F
100
AcDbEntity
  8
0
100
AcDbCircle
 62
7
  6
CONTINUOUS
 10
384.0925263826
 20
293.5577343809
 40
6.8770428683
100
AcDbArc
 50
214.8952965681
 51
216.1351552868
  0
ARC
  5
530
100
AcDbEntity
  8
0
100
AcDbCircle
 62
7
  6
CONTINUOUS
 10
381.9797909272
 20
290.1638214552
 40
3.6033158334
100
AcDbArc
 50
210.225809293
 51
211.0859591249
  0
ARC
  5
531
100
AcDbEntity
  8
0
100
AcDbCircle
 62
7
  6
CONTINUOUS
 10
381.0392696207
 20
291.194219077
 40
3.0143766898
100
AcDbArc
 50
220.824834414
 51
221.9835032357
  0
ARC
  5
532
100
AcDbEntity
  8
0
100
AcDbCircle
 62
7
  6
CONTINUOUS
 10
377.5485710497
 20
289.738512035
 40
2.0
100
AcDbArc
 50
333.8104180336
 51
339.3947043007
  0
ARC
  5
533
100
AcDbEntity
  8
0
100
AcDbCircle
 62
7
  6
CONTINUOUS
 10
377.5485710497
 20
289.738512035
 40
1.0
100
AcDbArc
 50
349.0286424292
 51
360.0
  0
CIRCLE
  5
534
100
AcDbEntity
  8
0
100
AcDbCircle
 62
7
  6
CONTINUOUS
 10
283.0485710497
 20
363.738512035
 40
57.8
  0
CIRCLE
  5
535
100
AcDbEntity
  8
0
100
AcDbCircle
 62
7
  6
CONTINUOUS
 10
283.0485710497
 20
363.738512035
 40
56.0
  0
ARC
  5
536
100
AcDbEntity
  8
0
100
AcDbCircle
 62
7
  6
CONTINUOUS
 10
283.0485710497
 20
363.738512035
 40
55.0
100
AcDbArc
 50
226.8729848467
 51
313.1217796293
  0
ARC
  5
537
100
AcDbEntity
  8
0
100
AcDbCircle
 62
7
  6
CONTINUOUS
 10
283.0485710497
 20
363.738512035
 40
55.0
100
AcDbArc
 50
315.0015333416
 51
44.9928251509
  0
ARC
  5
538
100
AcDbEntity
  8
0
100
AcDbCircle
 62
7
  6
CONTINUOUS
 10
283.0485710497
 20
363.738512035
 40
55.0
100
AcDbArc
 50
46.8729848467
 51
133.1217796293
  0
ARC
  5
539
100
AcDbEntity
  8
0
100
AcDbCircle
 62
7
  6
CONTINUOUS
 10
283.0485710497
 20
363.738512035
 40
55.0
100
AcDbArc
 50
135.0015333416
 51
224.9928251509
  0
CIRCLE
  5
53A
100
AcDbEntity
  8
0
100
AcDbCircle
 62
7
  6
CONTINUOUS
 10
283.0485710497
 20
363.738512035
 40
50.55
  0
CIRCLE
  5
53B
100
AcDbEntity
  8
0
100
AcDbCircle
 62
7
  6
CONTINUOUS
 10
283.0485710497
 20
363.738512035
 40
48.75
  0
CIRCLE
  5
53C
100
AcDbEntity
  8
0
100
AcDbCircle
 62
7
  6
CONTINUOUS
 10
283.0485710497
 20
363.738512035
 40
43.15
  0
CIRCLE
  5
53D
100
AcDbEntity
  8
0
100
AcDbCircle
 62
7
  6
CONTINUOUS
 10
283.0485710497
 20
363.738512035
 40
41.35
  0
CIRCLE
  5
53E
100
AcDbEntity
  8
0
100
AcDbCircle
 62
7
  6
CONTINUOUS
 10
283.0485710497
 20
363.738512035
 40
35.9
  0
CIRCLE
  5
53F
100
AcDbEntity
  8
0
100
AcDbCircle
 62
7
  6
CONTINUOUS
 10
283.0485710497
 20
363.738512035
 40
34.1
  0
ARC
  5
540
100
AcDbEntity
  8
0
100
AcDbCircle
 62
7
  6
CONTINUOUS
 10
283.0485710497
 20
363.738512035
 40
28.45
100
AcDbArc
 50
316.7408774976
 51
223.2591225024
  0
ARC
  5
541
100
AcDbEntity
  8
0
100
AcDbCircle
 62
7
  6
CONTINUOUS
 10
283.0485710497
 20
363.738512035
 40
28.45
100
AcDbArc
 50
226.4777587595
 51
313.5222412405
  0
ARC
  5
542
100
AcDbEntity
  8
0
100
AcDbCircle
 62
7
  6
CONTINUOUS
 10
283.0485710497
 20
363.738512035
 40
26.65
100
AcDbArc
 50
316.7408774976
 51
223.2591225024
  0
ARC
  5
543
100
AcDbEntity
  8
0
100
AcDbCircle
 62
7
  6
CONTINUOUS
 10
283.0485710497
 20
363.738512035
 40
26.65
100
AcDbArc
 50
226.695152578
 51
313.304847422
  0
ARC
  5
544
100
AcDbEntity
  8
0
100
AcDbCircle
 62
7
  6
CONTINUOUS
 10
283.0485710497
 20
363.738512035
 40
21.1
100
AcDbArc
 50
316.7408774976
 51
223.2591225024
  0
ARC
  5
545
100
AcDbEntity
  8
0
100
AcDbCircle
 62
7
  6
CONTINUOUS
 10
283.0485710497
 20
363.738512035
 40
21.1
100
AcDbArc
 50
227.5989424794
 51
312.4010575206
  0
ARC
  5
546
100
AcDbEntity
  8
0
100
AcDbCircle
 62
7
  6
CONTINUOUS
 10
283.0485710497
 20
363.738512035
 40
19.3
100
AcDbArc
 50
136.7408774976
 51
223.2591225024
  0
ARC
  5
547
100
AcDbEntity
  8
0
100
AcDbCircle
 62
7
  6
CONTINUOUS
 10
283.0485710497
 20
363.738512035
 40
19.3
100
AcDbArc
 50
48.0036925291
 51
131.9963074709
  0
ARC
  5
548
100
AcDbEntity
  8
0
100
AcDbCircle
 62
7
  6
CONTINUOUS
 10
283.0485710497
 20
363.738512035
 40
19.3
100
AcDbArc
 50
316.7408774976
 51
43.2591225024
  0
ARC
  5
549
100
AcDbEntity
  8
0
100
AcDbCircle
 62
7
  6
CONTINUOUS
 10
283.0485710497
 20
363.738512035
 40
19.3
100
AcDbArc
 50
228.0036925291
 51
311.9963074709
  0
ARC
  5
54A
100
AcDbEntity
  8
0
100
AcDbCircle
 62
7
  6
CONTINUOUS
 10
283.0485710497
 20
363.738512035
 40
13.9
100
AcDbArc
 50
316.7408774976
 51
43.2591225024
  0
ARC
  5
54B
100
AcDbEntity
  8
0
100
AcDbCircle
 62
7
  6
CONTINUOUS
 10
283.0485710497
 20
363.738512035
 40
13.9
100
AcDbArc
 50
49.8866183134
 51
130.1133816866
  0
ARC
  5
54C
100
AcDbEntity
  8
0
100
AcDbCircle
 62
7
  6
CONTINUOUS
 10
283.0485710497
 20
363.738512035
 40
13.9
100
AcDbArc
 50
136.7408774976
 51
223.2591225024
  0
ARC
  5
54D
100
AcDbEntity
  8
0
100
AcDbCircle
 62
7
  6
CONTINUOUS
 10
283.0485710497
 20
363.738512035
 40
13.9
100
AcDbArc
 50
229.8866183134
 51
310.1133816866
  0
ARC
  5
54E
100
AcDbEntity
  8
0
100
AcDbCircle
 62
7
  6
CONTINUOUS
 10
283.0485710497
 20
363.738512035
 40
12.1
100
AcDbArc
 50
134.9790737224
 51
225.0209262776
  0
ARC
  5
54F
100
AcDbEntity
  8
0
100
AcDbCircle
 62
7
  6
CONTINUOUS
 10
283.0485710497
 20
363.738512035
 40
12.1
100
AcDbArc
 50
53.5951482028
 51
126.4048517972
  0
ARC
  5
550
100
AcDbEntity
  8
0
100
AcDbCircle
 62
7
  6
CONTINUOUS
 10
283.0485710497
 20
363.738512035
 40
12.1
100
AcDbArc
 50
314.9790737224
 51
45.0209262776
  0
ARC
  5
551
100
AcDbEntity
  8
0
100
AcDbCircle
 62
7
  6
CONTINUOUS
 10
283.0485710497
 20
363.738512035
 40
12.1
100
AcDbArc
 50
233.5951482028
 51
306.4048517972
  0
ARC
  5
552
100
AcDbEntity
  8
0
100
AcDbCircle
 62
7
  6
CONTINUOUS
 10
291.6752737801
 20
363.738512035
 40
7.9
100
AcDbArc
 50
135.0
 51
225.0
  0
ARC
  5
553
100
AcDbEntity
  8
0
100
AcDbCircle
 62
7
  6
CONTINUOUS
 10
283.0485710497
 20
363.738512035
 40
6.5
100
AcDbArc
 50
316.7408774976
 51
43.2591225024
  0
ARC
  5
554
100
AcDbEntity
  8
0
100
AcDbCircle
 62
7
  6
CONTINUOUS
 10
283.0485710497
 20
363.738512035
 40
6.5
100
AcDbArc
 50
57.7668513192
 51
122.2331486808
  0
ARC
  5
555
100
AcDbEntity
  8
0
100
AcDbCircle
 62
7
  6
CONTINUOUS
 10
283.0485710497
 20
363.738512035
 40
6.5
100
AcDbArc
 50
136.7408774976
 51
223.2591225024
  0
ARC
  5
556
100
AcDbEntity
  8
0
100
AcDbCircle
 62
7
  6
CONTINUOUS
 10
283.0485710497
 20
363.738512035
 40
6.5
100
AcDbArc
 50
237.7668513192
 51
302.2331486808
  0
ARC
  5
557
100
AcDbEntity
  8
0
100
AcDbCircle
 62
7
  6
CONTINUOUS
 10
291.6752737801
 20
363.738512035
 40
6.1
100
AcDbArc
 50
135.0
 51
225.0
  0
ARC
  5
558
100
AcDbEntity
  8
0
100
AcDbCircle
 62
7
  6
CONTINUOUS
 10
283.0485710497
 20
363.738512035
 40
4.7
100
AcDbArc
 50
135.204085744
 51
224.795914256
  0
ARC
  5
559
100
AcDbEntity
  8
0
100
AcDbCircle
 62
7
  6
CONTINUOUS
 10
283.0485710497
 20
363.738512035
 40
4.7
100
AcDbArc
 50
64.5779544162
 51
115.4220455838
  0
ARC
  5
55A
100
AcDbEntity
  8
0
100
AcDbCircle
 62
7
  6
CONTINUOUS
 10
283.0485710497
 20
363.738512035
 40
4.7
100
AcDbArc
 50
315.204085744
 51
44.795914256
  0
ARC
  5
55B
100
AcDbEntity
  8
0
100
AcDbCircle
 62
7
  6
CONTINUOUS
 10
283.0485710497
 20
363.738512035
 40
4.7
100
AcDbArc
 50
244.5779544162
 51
295.4220455838
  0
ARC
  5
55C
100
AcDbEntity
  8
0
100
AcDbCircle
 62
7
  6
CONTINUOUS
 10
363.5485710497
 20
352.9109364451
 40
14.3775920257
100
AcDbArc
 50
87.6082605704
 51
92.3917394296
  0
ARC
  5
55D
100
AcDbEntity
  8
0
100
AcDbCircle
 62
7
  6
CONTINUOUS
 10
363.5485710497
 20
365.238512035
 40
4.0
100
AcDbArc
 50
70.3134839838
 51
167.97370627
  0
ARC
  5
55E
100
AcDbEntity
  8
0
100
AcDbCircle
 62
7
  6
CONTINUOUS
 10
363.5485710497
 20
365.238512035
 40
3.5
100
AcDbArc
 50
66.8815556315
 51
164.0422334092
  0
ARC
  5
55F
100
AcDbEntity
  8
0
100
AcDbCircle
 62
7
  6
CONTINUOUS
 10
363.5485710497
 20
365.238512035
 40
2.9545454545
100
AcDbArc
 50
62.2114142379
 51
166.7238083341
  0
ARC
  5
560
100
AcDbEntity
  8
0
100
AcDbCircle
 62
7
  6
CONTINUOUS
 10
327.1484641562
 20
407.8867327623
 40
11.8603175738
100
AcDbArc
 50
49.9089996492
 51
54.3713669822
  0
ARC
  5
561
100
AcDbEntity
  8
0
100
AcDbCircle
 62
7
  6
CONTINUOUS
 10
327.3167065166
 20
407.9031448725
 40
11.7289495635
100
AcDbArc
 50
35.715877646
 51
40.2282506353
  0
ARC
  5
562
100
AcDbEntity
  8
0
100
AcDbCircle
 62
7
  6
CONTINUOUS
 10
332.7334952902
 20
410.4535877945
 40
3.9
100
AcDbArc
 50
116.4141553033
 51
135.0
  0
ARC
  5
563
100
AcDbEntity
  8
0
100
AcDbCircle
 62
7
  6
CONTINUOUS
 10
335.4487792017
 20
415.9261740645
 40
2.3939086055
100
AcDbArc
 50
257.6330038275
 51
282.4792359043
  0
ARC
  5
564
100
AcDbEntity
  8
0
100
AcDbCircle
 62
7
  6
CONTINUOUS
 10
335.2688794916
 20
416.1373678787
 40
2.1802035806
100
AcDbArc
 50
166.3665994039
 51
180.0306809938
  0
ARC
  5
565
100
AcDbEntity
  8
0
100
AcDbCircle
 62
7
  6
CONTINUOUS
 10
335.4487549222
 20
415.9509241627
 40
2.1723039023
100
AcDbArc
 50
256.3421242816
 51
283.770116892
  0
ARC
  5
566
100
AcDbEntity
  8
0
100
AcDbCircle
 62
7
  6
CONTINUOUS
 10
332.7334952902
 20
410.4535877945
 40
2.1
100
AcDbArc
 50
99.1876399233
 51
135.0
  0
ARC
  5
567
100
AcDbEntity
  8
0
100
AcDbCircle
 62
7
  6
CONTINUOUS
 10
327.1476931331
 20
424.4793175558
 40
11.8925988615
100
AcDbArc
 50
320.0907239448
 51
323.3767690073
  0
ARC
  5
568
100
AcDbEntity
  8
0
100
AcDbCircle
 62
7
  6
CONTINUOUS
 10
327.1511425076
 20
424.3477500069
 40
11.7966045876
100
AcDbArc
 50
306.7221047253
 51
310.0348972353
  0
CIRCLE
  5
569
100
AcDbEntity
  8
0
100
AcDbCircle
 62
7
  6
CONTINUOUS
 10
335.4485710497
 20
416.138512035
 40
4.75
  0
CIRCLE
  5
56A
100
AcDbEntity
  8
0
100
AcDbCircle
 62
7
  6
CONTINUOUS
 10
335.4485710497
 20
416.138512035
 40
4.6689421051
  0
ARC
  5
56B
100
AcDbEntity
  8
0
100
AcDbCircle
 62
7
  6
CONTINUOUS
 10
335.2441238834
 20
416.1391444917
 40
2.4017964188
100
AcDbArc
 50
180.0759886177
 51
192.4581310347
  0
ARC
  5
56C
100
AcDbEntity
  8
0
100
AcDbCircle
 62
7
  6
CONTINUOUS
 10
335.2438283926
 20
416.1375219073
 40
2.4014993242
100
AcDbArc
 50
167.6536117708
 51
180.0372858329
  0
ARC
  5
56D
100
AcDbEntity
  8
0
100
AcDbCircle
 62
7
  6
CONTINUOUS
 10
335.4483628886
 20
416.3508622268
 40
2.3938966662
100
AcDbArc
 50
77.6329409526
 51
102.4792989235
  0
ARC
  5
56E
100
AcDbEntity
  8
0
100
AcDbCircle
 62
7
  6
CONTINUOUS
 10
335.2693438246
 20
416.1393591587
 40
2.1806698601
100
AcDbArc
 50
180.0829941365
 51
193.7441399298
  0
ARC
  5
56F
100
AcDbEntity
  8
0
100
AcDbCircle
 62
7
  6
CONTINUOUS
 10
335.4483871791
 20
416.3260991084
 40
2.172304673
100
AcDbArc
 50
76.3421293063
 51
103.7701119328
  0
ARC
  5
570
100
AcDbEntity
  8
0
100
AcDbCircle
 62
7
  6
CONTINUOUS
 10
335.4485710497
 20
416.138512035
 40
1.17
100
AcDbArc
 50
63.9413354288
 51
116.1709120275
  0
ARC
  5
571
100
AcDbEntity
  8
0
100
AcDbCircle
 62
7
  6
CONTINUOUS
 10
335.4485710497
 20
416.138512035
 40
1.17
100
AcDbArc
 50
243.9413354288
 51
296.1709120275
  0
ARC
  5
572
100
AcDbEntity
  8
0
100
AcDbCircle
 62
7
  6
CONTINUOUS
 10
335.4485710497
 20
416.138512035
 40
1.17
100
AcDbArc
 50
333.9413354288
 51
26.1709120275
  0
ARC
  5
573
100
AcDbEntity
  8
0
100
AcDbCircle
 62
7
  6
CONTINUOUS
 10
335.4485710497
 20
416.138512035
 40
1.17
100
AcDbArc
 50
153.9413354288
 51
206.1709120275
  0
ARC
  5
574
100
AcDbEntity
  8
0
100
AcDbCircle
 62
7
  6
CONTINUOUS
 10
343.7521563713
 20
407.7955709225
 40
11.8960457472
100
AcDbArc
 50
140.091200142
 51
143.3762928101
  0
ARC
  5
575
100
AcDbEntity
  8
0
100
AcDbCircle
 62
7
  6
CONTINUOUS
 10
343.7470483436
 20
407.9279498471
 40
11.7982930913
100
AcDbArc
 50
126.7223418453
 51
130.0346601153
  0
ARC
  5
576
100
AcDbEntity
  8
0
100
AcDbCircle
 62
7
  6
CONTINUOUS
 10
343.7551549764
 20
424.3986234723
 40
11.8708631067
100
AcDbArc
 50
229.9109827321
 51
234.3693838993
  0
ARC
  5
577
100
AcDbEntity
  8
0
100
AcDbCircle
 62
7
  6
CONTINUOUS
 10
343.5803498296
 20
424.3738122672
 40
11.7288408671
100
AcDbArc
 50
215.7158567261
 51
220.2282715552
  0
ARC
  5
578
100
AcDbEntity
  8
0
100
AcDbCircle
 62
7
  6
CONTINUOUS
 10
335.6530214238
 20
416.1395318908
 40
2.4017915879
100
AcDbArc
 50
347.6544118855
 51
0.0365721188
  0
ARC
  5
579
100
AcDbEntity
  8
0
100
AcDbCircle
 62
7
  6
CONTINUOUS
 10
335.6535060356
 20
416.1379455597
 40
2.401308513
100
AcDbArc
 50
0.074429724
 51
12.4590907519
  0
ARC
  5
57A
100
AcDbEntity
  8
0
100
AcDbCircle
 62
7
  6
CONTINUOUS
 10
335.6276652994
 20
416.1376508935
 40
2.1808013901
100
AcDbArc
 50
0.0833573758
 51
13.7436689197
  0
ARC
  5
57B
100
AcDbEntity
  8
0
100
AcDbCircle
 62
7
  6
CONTINUOUS
 10
335.6276837489
 20
416.1397220693
 40
2.1807810224
100
AcDbArc
 50
346.3685019267
 51
0.0289420202
  0
CIRCLE
  5
57C
100
AcDbEntity
  8
0
100
AcDbCircle
 62
7
  6
CONTINUOUS
 10
398.5485710497
 20
354.738512035
 40
2.5
  0
ARC
  5
57D
100
AcDbEntity
  8
0
100
AcDbCircle
 62
7
  6
CONTINUOUS
 10
419.0485710497
 20
447.738512035
 40
4.0
100
AcDbArc
 50
180.0
 51
270.0
  0
ARC
  5
57E
100
AcDbEntity
  8
0
100
AcDbCircle
 62
7
  6
CONTINUOUS
 10
496.0485710497
 20
432.738512035
 40
4.0
100
AcDbArc
 50
0.0
 51
90.0
  0
ARC
  5
57F
100
AcDbEntity
  8
0
100
AcDbCircle
 62
7
  6
CONTINUOUS
 10
465.0485710497
 20
442.238512035
 40
3.5
100
AcDbArc
 50
323.5182862065
 51
360.0
  0
ARC
  5
580
100
AcDbEntity
  8
0
100
AcDbCircle
 62
7
  6
CONTINUOUS
 10
495.5485710497
 20
437.238512035
 40
3.0
100
AcDbArc
 50
350.405931773
 51
90.0
  0
CIRCLE
  5
581
100
AcDbEntity
  8
0
100
AcDbCircle
 62
7
  6
CONTINUOUS
 10
400.5485710497
 20
430.738512035
 40
2.5
  0
ARC
  5
582
100
AcDbEntity
  8
0
100
AcDbCircle
 62
7
  6
CONTINUOUS
 10
419.0485710497
 20
447.738512035
 40
2.0
100
AcDbArc
 50
180.0
 51
270.0
  0
ARC
  5
583
100
AcDbEntity
  8
0
100
AcDbCircle
 62
7
  6
CONTINUOUS
 10
496.0485710497
 20
432.738512035
 40
2.0
100
AcDbArc
 50
0.0
 51
90.0
  0
ARC
  5
584
100
AcDbEntity
  8
0
100
AcDbCircle
 62
7
  6
CONTINUOUS
 10
465.0485710497
 20
442.238512035
 40
1.5
100
AcDbArc
 50
270.0
 51
360.0
  0
SPLINE
  5
585
100
AcDbEntity
  8
0
100
AcDbSpline
 62
7
  6
CONTINUOUS
 70
0
 71
3
 72
9
 73
5
 74
0
 42
0.0000001
 43
0.0000001
 44
0.0000000001
 40
0.0
 40
0.0
 40
0.0
 40
0.0
 40
0.4940022682
 40
1.0
 40
1.0
 40
1.0
 40
1.0
 10
362.9485710497
 20
366.4347498255
 30
0.0
 10
363.0757189194
 20
366.4149445945
 30
0.0
 10
363.3346317469
 20
366.3830842355
 30
0.0
 10
363.5959092347
 20
366.3812244765
 30
0.0
 10
363.7275137589
 20
366.3885052957
 30
0.0
  0
SPLINE
  5
586
100
AcDbEntity
  8
0
100
AcDbSpline
 62
7
  6
CONTINUOUS
 70
0
 71
3
 72
11
 73
7
 74
0
 42
0.0000001
 43
0.0000001
 44
0.0000000001
 40
0.0
 40
0.0
 40
0.0
 40
0.0
 40
0.2616433677
 40
0.5144965769
 40
0.7595948856
 40
1.0
 40
1.0
 40
1.0
 40
1.0
 10
435.3220737416
 20
452.4919300476
 30
0.0
 10
435.206692133
 20
452.5585456504
 30
0.0
 10
434.974570243
 20
452.6808860167
 30
0.0
 10
434.6146464607
 20
452.8249767502
 30
0.0
 10
434.2487959343
 20
452.9171686676
 30
0.0
 10
434.0011145605
 20
452.938512035
 30
0.0
 10
433.8786980686
 20
452.938512035
 30
0.0
  0
SPLINE
  5
587
100
AcDbEntity
  8
0
100
AcDbSpline
 62
7
  6
CONTINUOUS
 70
0
 71
3
 72
11
 73
7
 74
0
 42
0.0000001
 43
0.0000001
 44
0.0000000001
 40
0.0
 40
0.0
 40
0.0
 40
0.0
 40
0.2404051783
 40
0.4855034955
 40
0.7383567051
 40
1.0
 40
1.0
 40
1.0
 40
1.0
 10
425.2184440307
 20
452.938512035
 30
0.0
 10
425.0960275069
 20
452.938512035
 30
0.0
 10
424.8483461031
 20
452.9171686459
 30
0.0
 10
424.482495518
 20
452.8249767789
 30
0.0
 10
424.1225718664
 20
452.6808858218
 30
0.0
 10
423.8904499337
 20
452.5585456315
 30
0.0
 10
423.7750683578
 20
452.4919300476
 30
0.0
  0
SPLINE
  5
588
100
AcDbEntity
  8
0
100
AcDbSpline
 62
7
  6
CONTINUOUS
 70
0
 71
3
 72
11
 73
7
 74
0
 42
0.0000001
 43
0.0000001
 44
0.0000000001
 40
0.0
 40
0.0
 40
0.0
 40
0.0
 40
0.2616433677
 40
0.5144965769
 40
0.7595948856
 40
1.0
 40
1.0
 40
1.0
 40
1.0
 10
426.6618197037
 20
452.4919300476
 30
0.0
 10
426.5464380952
 20
452.5585456504
 30
0.0
 10
426.3143162052
 20
452.6808860167
 30
0.0
 10
425.9543924229
 20
452.8249767502
 30
0.0
 10
425.5885418965
 20
452.9171686676
 30
0.0
 10
425.3408605226
 20
452.938512035
 30
0.0
 10
425.2184440307
 20
452.938512035
 30
0.0
  0
SPLINE
  5
589
100
AcDbEntity
  8
0
100
AcDbSpline
 62
7
  6
CONTINUOUS
 70
0
 71
3
 72
10
 73
6
 74
0
 42
0.0000001
 43
0.0000001
 44
0.0000000001
 40
0.0
 40
0.0
 40
0.0
 40
0.0
 40
0.2500482299
 40
0.5000995429
 40
1.0
 40
1.0
 40
1.0
 40
1.0
 10
429.5485710496
 20
452.938512035
 30
0.0
 10
429.3043832595
 20
452.938512035
 30
0.0
 10
428.8157459785
 20
452.9176717889
 30
0.0
 10
427.8459052576
 20
452.7965961264
 30
0.0
 10
427.130851884
 20
452.6273279754
 30
0.0
 10
426.6618197037
 20
452.4919300476
 30
0.0
  0
SPLINE
  5
58A
100
AcDbEntity
  8
0
100
AcDbSpline
 62
7
  6
CONTINUOUS
 70
0
 71
3
 72
10
 73
6
 74
0
 42
0.0000001
 43
0.0000001
 44
0.0000000001
 40
0.0
 40
0.0
 40
0.0
 40
0.0
 40
0.4999005286
 40
0.7499518349
 40
1.0
 40
1.0
 40
1.0
 40
1.0
 10
432.4353223956
 20
452.4919300476
 30
0.0
 10
431.9662901486
 20
452.6273279947
 30
0.0
 10
431.2512367069
 20
452.7965961316
 30
0.0
 10
430.2813959875
 20
452.9176717985
 30
0.0
 10
429.7927587762
 20
452.938512035
 30
0.0
 10
429.5485710496
 20
452.938512035
 30
0.0
  0
SPLINE
  5
58B
100
AcDbEntity
  8
0
100
AcDbSpline
 62
7
  6
CONTINUOUS
 70
0
 71
3
 72
11
 73
7
 74
0
 42
0.0000001
 43
0.0000001
 44
0.0000000001
 40
0.0
 40
0.0
 40
0.0
 40
0.0
 40
0.2404051783
 40
0.4855034955
 40
0.7383567051
 40
1.0
 40
1.0
 40
1.0
 40
1.0
 10
433.8786980686
 20
452.938512035
 30
0.0
 10
433.7562815448
 20
452.938512035
 30
0.0
 10
433.5086001409
 20
452.9171686459
 30
0.0
 10
433.1427495558
 20
452.8249767789
 30
0.0
 10
432.7828259043
 20
452.6808858218
 30
0.0
 10
432.5507039715
 20
452.5585456315
 30
0.0
 10
432.4353223956
 20
452.4919300476
 30
0.0
  0
SPLINE
  5
58C
100
AcDbEntity
  8
0
100
AcDbSpline
 62
7
  6
CONTINUOUS
 70
0
 71
3
 72
11
 73
7
 74
0
 42
0.0000001
 43
0.0000001
 44
0.0000000001
 40
0.0
 40
0.0
 40
0.0
 40
0.0
 40
0.2616433677
 40
0.5144965769
 40
0.7595948856
 40
1.0
 40
1.0
 40
1.0
 40
1.0
 10
141.3220737416
 20
452.4919300476
 30
0.0
 10
141.206692133
 20
452.5585456504
 30
0.0
 10
140.974570243
 20
452.6808860167
 30
0.0
 10
140.6146464607
 20
452.8249767502
 30
0.0
 10
140.2487959343
 20
452.9171686676
 30
0.0
 10
140.0011145605
 20
452.938512035
 30
0.0
 10
139.8786980686
 20
452.938512035
 30
0.0
  0
SPLINE
  5
58D
100
AcDbEntity
  8
0
100
AcDbSpline
 62
7
  6
CONTINUOUS
 70
0
 71
3
 72
11
 73
7
 74
0
 42
0.0000001
 43
0.0000001
 44
0.0000000001
 40
0.0
 40
0.0
 40
0.0
 40
0.0
 40
0.2404051783
 40
0.4855034955
 40
0.7383567051
 40
1.0
 40
1.0
 40
1.0
 40
1.0
 10
131.2184440307
 20
452.938512035
 30
0.0
 10
131.0960275069
 20
452.938512035
 30
0.0
 10
130.8483461031
 20
452.9171686459
 30
0.0
 10
130.482495518
 20
452.8249767789
 30
0.0
 10
130.1225718664
 20
452.6808858218
 30
0.0
 10
129.8904499337
 20
452.5585456315
 30
0.0
 10
129.7750683578
 20
452.4919300476
 30
0.0
  0
SPLINE
  5
58E
100
AcDbEntity
  8
0
100
AcDbSpline
 62
7
  6
CONTINUOUS
 70
0
 71
3
 72
11
 73
7
 74
0
 42
0.0000001
 43
0.0000001
 44
0.0000000001
 40
0.0
 40
0.0
 40
0.0
 40
0.0
 40
0.2616433677
 40
0.5144965769
 40
0.7595948856
 40
1.0
 40
1.0
 40
1.0
 40
1.0
 10
132.6618197037
 20
452.4919300476
 30
0.0
 10
132.5464380952
 20
452.5585456504
 30
0.0
 10
132.3143162052
 20
452.6808860167
 30
0.0
 10
131.9543924229
 20
452.8249767502
 30
0.0
 10
131.5885418965
 20
452.9171686676
 30
0.0
 10
131.3408605226
 20
452.938512035
 30
0.0
 10
131.2184440307
 20
452.938512035
 30
0.0
  0
SPLINE
  5
58F
100
AcDbEntity
  8
0
100
AcDbSpline
 62
7
  6
CONTINUOUS
 70
0
 71
3
 72
10
 73
6
 74
0
 42
0.0000001
 43
0.0000001
 44
0.0000000001
 40
0.0
 40
0.0
 40
0.0
 40
0.0
 40
0.2500482299
 40
0.5000995429
 40
1.0
 40
1.0
 40
1.0
 40
1.0
 10
135.5485710496
 20
452.938512035
 30
0.0
 10
135.3043832595
 20
452.938512035
 30
0.0
 10
134.8157459785
 20
452.9176717889
 30
0.0
 10
133.8459052576
 20
452.7965961264
 30
0.0
 10
133.130851884
 20
452.6273279754
 30
0.0
 10
132.6618197037
 20
452.4919300476
 30
0.0
  0
SPLINE
  5
590
100
AcDbEntity
  8
0
100
AcDbSpline
 62
7
  6
CONTINUOUS
 70
0
 71
3
 72
10
 73
6
 74
0
 42
0.0000001
 43
0.0000001
 44
0.0000000001
 40
0.0
 40
0.0
 40
0.0
 40
0.0
 40
0.4999005286
 40
0.7499518349
 40
1.0
 40
1.0
 40
1.0
 40
1.0
 10
138.4353223956
 20
452.4919300476
 30
0.0
 10
137.9662901486
 20
452.6273279947
 30
0.0
 10
137.2512367069
 20
452.7965961316
 30
0.0
 10
136.2813959875
 20
452.9176717985
 30
0.0
 10
135.7927587762
 20
452.938512035
 30
0.0
 10
135.5485710496
 20
452.938512035
 30
0.0
  0
SPLINE
  5
591
100
AcDbEntity
  8
0
100
AcDbSpline
 62
7
  6
CONTINUOUS
 70
0
 71
3
 72
11
 73
7
 74
0
 42
0.0000001
 43
0.0000001
 44
0.0000000001
 40
0.0
 40
0.0
 40
0.0
 40
0.0
 40
0.2404051783
 40
0.4855034955
 40
0.7383567051
 40
1.0
 40
1.0
 40
1.0
 40
1.0
 10
139.8786980686
 20
452.938512035
 30
0.0
 10
139.7562815448
 20
452.938512035
 30
0.0
 10
139.5086001409
 20
452.9171686459
 30
0.0
 10
139.1427495558
 20
452.8249767789
 30
0.0
 10
138.7828259043
 20
452.6808858218
 30
0.0
 10
138.5507039715
 20
452.5585456315
 30
0.0
 10
138.4353223956
 20
452.4919300476
 30
0.0
  0
SPLINE
  5
592
100
AcDbEntity
  8
0
100
AcDbSpline
 62
7
  6
CONTINUOUS
 70
0
 71
3
 72
11
 73
7
 74
0
 42
0.0000001
 43
0.0000001
 44
0.0000000001
 40
0.0
 40
0.0
 40
0.0
 40
0.0
 40
0.2616433677
 40
0.5144965769
 40
0.7595948856
 40
1.0
 40
1.0
 40
1.0
 40
1.0
 10
121.3220737416
 20
447.4919300476
 30
0.0
 10
121.206692133
 20
447.5585456504
 30
0.0
 10
120.974570243
 20
447.6808860167
 30
0.0
 10
120.6146464607
 20
447.8249767502
 30
0.0
 10
120.2487959343
 20
447.9171686676
 30
0.0
 10
120.0011145605
 20
447.938512035
 30
0.0
 10
119.8786980686
 20
447.938512035
 30
0.0
  0
SPLINE
  5
593
100
AcDbEntity
  8
0
100
AcDbSpline
 62
7
  6
CONTINUOUS
 70
0
 71
3
 72
11
 73
7
 74
0
 42
0.0000001
 43
0.0000001
 44
0.0000000001
 40
0.0
 40
0.0
 40
0.0
 40
0.0
 40
0.2404051783
 40
0.4855034955
 40
0.7383567051
 40
1.0
 40
1.0
 40
1.0
 40
1.0
 10
111.2184440307
 20
447.938512035
 30
0.0
 10
111.0960275069
 20
447.938512035
 30
0.0
 10
110.8483461031
 20
447.9171686459
 30
0.0
 10
110.482495518
 20
447.8249767789
 30
0.0
 10
110.1225718664
 20
447.6808858218
 30
0.0
 10
109.8904499337
 20
447.5585456315
 30
0.0
 10
109.7750683578
 20
447.4919300476
 30
0.0
  0
SPLINE
  5
594
100
AcDbEntity
  8
0
100
AcDbSpline
 62
7
  6
CONTINUOUS
 70
0
 71
3
 72
11
 73
7
 74
0
 42
0.0000001
 43
0.0000001
 44
0.0000000001
 40
0.0
 40
0.0
 40
0.0
 40
0.0
 40
0.2616433677
 40
0.5144965769
 40
0.7595948856
 40
1.0
 40
1.0
 40
1.0
 40
1.0
 10
112.6618197037
 20
447.4919300476
 30
0.0
 10
112.5464380952
 20
447.5585456504
 30
0.0
 10
112.3143162052
 20
447.6808860167
 30
0.0
 10
111.9543924229
 20
447.8249767502
 30
0.0
 10
111.5885418965
 20
447.9171686676
 30
0.0
 10
111.3408605226
 20
447.938512035
 30
0.0
 10
111.2184440307
 20
447.938512035
 30
0.0
  0
SPLINE
  5
595
100
AcDbEntity
  8
0
100
AcDbSpline
 62
7
  6
CONTINUOUS
 70
0
 71
3
 72
10
 73
6
 74
0
 42
0.0000001
 43
0.0000001
 44
0.0000000001
 40
0.0
 40
0.0
 40
0.0
 40
0.0
 40
0.2500482299
 40
0.5000995429
 40
1.0
 40
1.0
 40
1.0
 40
1.0
 10
115.5485710496
 20
447.938512035
 30
0.0
 10
115.3043832595
 20
447.938512035
 30
0.0
 10
114.8157459785
 20
447.9176717889
 30
0.0
 10
113.8459052576
 20
447.7965961264
 30
0.0
 10
113.130851884
 20
447.6273279754
 30
0.0
 10
112.6618197037
 20
447.4919300476
 30
0.0
  0
SPLINE
  5
596
100
AcDbEntity
  8
0
100
AcDbSpline
 62
7
  6
CONTINUOUS
 70
0
 71
3
 72
10
 73
6
 74
0
 42
0.0000001
 43
0.0000001
 44
0.0000000001
 40
0.0
 40
0.0
 40
0.0
 40
0.0
 40
0.4999005286
 40
0.7499518349
 40
1.0
 40
1.0
 40
1.0
 40
1.0
 10
118.4353223956
 20
447.4919300476
 30
0.0
 10
117.9662901486
 20
447.6273279947
 30
0.0
 10
117.2512367069
 20
447.7965961316
 30
0.0
 10
116.2813959875
 20
447.9176717985
 30
0.0
 10
115.7927587762
 20
447.938512035
 30
0.0
 10
115.5485710496
 20
447.938512035
 30
0.0
  0
SPLINE
  5
597
100
AcDbEntity
  8
0
100
AcDbSpline
 62
7
  6
CONTINUOUS
 70
0
 71
3
 72
11
 73
7
 74
0
 42
0.0000001
 43
0.0000001
 44
0.0000000001
 40
0.0
 40
0.0
 40
0.0
 40
0.0
 40
0.2404051783
 40
0.4855034955
 40
0.7383567051
 40
1.0
 40
1.0
 40
1.0
 40
1.0
 10
119.8786980686
 20
447.938512035
 30
0.0
 10
119.7562815448
 20
447.938512035
 30
0.0
 10
119.5086001409
 20
447.9171686459
 30
0.0
 10
119.1427495558
 20
447.8249767789
 30
0.0
 10
118.7828259043
 20
447.6808858218
 30
0.0
 10
118.5507039715
 20
447.5585456315
 30
0.0
 10
118.4353223956
 20
447.4919300476
 30
0.0
  0
SPLINE
  5
598
100
AcDbEntity
  8
0
100
AcDbSpline
 62
7
  6
CONTINUOUS
 70
0
 71
3
 72
11
 73
7
 74
0
 42
0.0000001
 43
0.0000001
 44
0.0000000001
 40
0.0
 40
0.0
 40
0.0
 40
0.0
 40
0.2616433677
 40
0.5144965769
 40
0.7595948856
 40
1.0
 40
1.0
 40
1.0
 40
1.0
 10
288.3220737416
 20
447.4919300476
 30
0.0
 10
288.206692133
 20
447.5585456504
 30
0.0
 10
287.974570243
 20
447.6808860167
 30
0.0
 10
287.6146464607
 20
447.8249767502
 30
0.0
 10
287.2487959343
 20
447.9171686676
 30
0.0
 10
287.0011145605
 20
447.938512035
 30
0.0
 10
286.8786980686
 20
447.938512035
 30
0.0
  0
SPLINE
  5
599
100
AcDbEntity
  8
0
100
AcDbSpline
 62
7
  6
CONTINUOUS
 70
0
 71
3
 72
11
 73
7
 74
0
 42
0.0000001
 43
0.0000001
 44
0.0000000001
 40
0.0
 40
0.0
 40
0.0
 40
0.0
 40
0.2404051783
 40
0.4855034955
 40
0.7383567051
 40
1.0
 40
1.0
 40
1.0
 40
1.0
 10
278.2184440307
 20
447.938512035
 30
0.0
 10
278.0960275069
 20
447.938512035
 30
0.0
 10
277.8483461031
 20
447.9171686459
 30
0.0
 10
277.482495518
 20
447.8249767789
 30
0.0
 10
277.1225718664
 20
447.6808858218
 30
0.0
 10
276.8904499337
 20
447.5585456315
 30
0.0
 10
276.7750683578
 20
447.4919300476
 30
0.0
  0
SPLINE
  5
59A
100
AcDbEntity
  8
0
100
AcDbSpline
 62
7
  6
CONTINUOUS
 70
0
 71
3
 72
11
 73
7
 74
0
 42
0.0000001
 43
0.0000001
 44
0.0000000001
 40
0.0
 40
0.0
 40
0.0
 40
0.0
 40
0.2616433677
 40
0.5144965769
 40
0.7595948856
 40
1.0
 40
1.0
 40
1.0
 40
1.0
 10
279.6618197037
 20
447.4919300476
 30
0.0
 10
279.5464380952
 20
447.5585456504
 30
0.0
 10
279.3143162052
 20
447.6808860167
 30
0.0
 10
278.9543924229
 20
447.8249767502
 30
0.0
 10
278.5885418965
 20
447.9171686676
 30
0.0
 10
278.3408605226
 20
447.938512035
 30
0.0
 10
278.2184440307
 20
447.938512035
 30
0.0
  0
SPLINE
  5
59B
100
AcDbEntity
  8
0
100
AcDbSpline
 62
7
  6
CONTINUOUS
 70
0
 71
3
 72
10
 73
6
 74
0
 42
0.0000001
 43
0.0000001
 44
0.0000000001
 40
0.0
 40
0.0
 40
0.0
 40
0.0
 40
0.2500482299
 40
0.5000995429
 40
1.0
 40
1.0
 40
1.0
 40
1.0
 10
282.5485710496
 20
447.938512035
 30
0.0
 10
282.3043832595
 20
447.938512035
 30
0.0
 10
281.8157459785
 20
447.9176717889
 30
0.0
 10
280.8459052576
 20
447.7965961264
 30
0.0
 10
280.130851884
 20
447.6273279754
 30
0.0
 10
279.6618197037
 20
447.4919300476
 30
0.0
  0
SPLINE
  5
59C
100
AcDbEntity
  8
0
100
AcDbSpline
 62
7
  6
CONTINUOUS
 70
0
 71
3
 72
10
 73
6
 74
0
 42
0.0000001
 43
0.0000001
 44
0.0000000001
 40
0.0
 40
0.0
 40
0.0
 40
0.0
 40
0.4999005286
 40
0.7499518349
 40
1.0
 40
1.0
 40
1.0
 40
1.0
 10
285.4353223956
 20
447.4919300476
 30
0.0
 10
284.9662901486
 20
447.6273279947
 30
0.0
 10
284.2512367069
 20
447.7965961316
 30
0.0
 10
283.2813959875
 20
447.9176717985
 30
0.0
 10
282.7927587762
 20
447.938512035
 30
0.0
 10
282.5485710496
 20
447.938512035
 30
0.0
  0
SPLINE
  5
59D
100
AcDbEntity
  8
0
100
AcDbSpline
 62
7
  6
CONTINUOUS
 70
0
 71
3
 72
11
 73
7
 74
0
 42
0.0000001
 43
0.0000001
 44
0.0000000001
 40
0.0
 40
0.0
 40
0.0
 40
0.0
 40
0.2404051783
 40
0.4855034955
 40
0.7383567051
 40
1.0
 40
1.0
 40
1.0
 40
1.0
 10
286.8786980686
 20
447.938512035
 30
0.0
 10
286.7562815448
 20
447.938512035
 30
0.0
 10
286.5086001409
 20
447.9171686459
 30
0.0
 10
286.1427495558
 20
447.8249767789
 30
0.0
 10
285.7828259043
 20
447.6808858218
 30
0.0
 10
285.5507039715
 20
447.5585456315
 30
0.0
 10
285.4353223956
 20
447.4919300476
 30
0.0
  0
SPLINE
  5
59E
100
AcDbEntity
  8
0
100
AcDbSpline
 62
7
  6
CONTINUOUS
 70
0
 71
3
 72
11
 73
7
 74
0
 42
0.0000001
 43
0.0000001
 44
0.0000000001
 40
0.0
 40
0.0
 40
0.0
 40
0.0
 40
0.2616433677
 40
0.5144965769
 40
0.7595948856
 40
1.0
 40
1.0
 40
1.0
 40
1.0
 10
455.3220737416
 20
447.4919300476
 30
0.0
 10
455.206692133
 20
447.5585456504
 30
0.0
 10
454.974570243
 20
447.6808860167
 30
0.0
 10
454.6146464607
 20
447.8249767502
 30
0.0
 10
454.2487959343
 20
447.9171686676
 30
0.0
 10
454.0011145605
 20
447.938512035
 30
0.0
 10
453.8786980686
 20
447.938512035
 30
0.0
  0
SPLINE
  5
59F
100
AcDbEntity
  8
0
100
AcDbSpline
 62
7
  6
CONTINUOUS
 70
0
 71
3
 72
11
 73
7
 74
0
 42
0.0000001
 43
0.0000001
 44
0.0000000001
 40
0.0
 40
0.0
 40
0.0
 40
0.0
 40
0.2404051783
 40
0.4855034955
 40
0.7383567051
 40
1.0
 40
1.0
 40
1.0
 40
1.0
 10
445.2184440307
 20
447.938512035
 30
0.0
 10
445.0960275069
 20
447.938512035
 30
0.0
 10
444.8483461031
 20
447.9171686459
 30
0.0
 10
444.482495518
 20
447.8249767789
 30
0.0
 10
444.1225718664
 20
447.6808858218
 30
0.0
 10
443.8904499337
 20
447.5585456315
 30
0.0
 10
443.7750683578
 20
447.4919300476
 30
0.0
  0
SPLINE
  5
5A0
100
AcDbEntity
  8
0
100
AcDbSpline
 62
7
  6
CONTINUOUS
 70
0
 71
3
 72
11
 73
7
 74
0
 42
0.0000001
 43
0.0000001
 44
0.0000000001
 40
0.0
 40
0.0
 40
0.0
 40
0.0
 40
0.2616433677
 40
0.5144965769
 40
0.7595948856
 40
1.0
 40
1.0
 40
1.0
 40
1.0
 10
446.6618197037
 20
447.4919300476
 30
0.0
 10
446.5464380952
 20
447.5585456504
 30
0.0
 10
446.3143162052
 20
447.6808860167
 30
0.0
 10
445.9543924229
 20
447.8249767502
 30
0.0
 10
445.5885418965
 20
447.9171686676
 30
0.0
 10
445.3408605226
 20
447.938512035
 30
0.0
 10
445.2184440307
 20
447.938512035
 30
0.0
  0
SPLINE
  5
5A1
100
AcDbEntity
  8
0
100
AcDbSpline
 62
7
  6
CONTINUOUS
 70
0
 71
3
 72
10
 73
6
 74
0
 42
0.0000001
 43
0.0000001
 44
0.0000000001
 40
0.0
 40
0.0
 40
0.0
 40
0.0
 40
0.2500482299
 40
0.5000995429
 40
1.0
 40
1.0
 40
1.0
 40
1.0
 10
449.5485710496
 20
447.938512035
 30
0.0
 10
449.3043832595
 20
447.938512035
 30
0.0
 10
448.8157459785
 20
447.9176717889
 30
0.0
 10
447.8459052576
 20
447.7965961264
 30
0.0
 10
447.130851884
 20
447.6273279754
 30
0.0
 10
446.6618197037
 20
447.4919300476
 30
0.0
  0
SPLINE
  5
5A2
100
AcDbEntity
  8
0
100
AcDbSpline
 62
7
  6
CONTINUOUS
 70
0
 71
3
 72
10
 73
6
 74
0
 42
0.0000001
 43
0.0000001
 44
0.0000000001
 40
0.0
 40
0.0
 40
0.0
 40
0.0
 40
0.4999005286
 40
0.7499518349
 40
1.0
 40
1.0
 40
1.0
 40
1.0
 10
452.4353223956
 20
447.4919300476
 30
0.0
 10
451.9662901486
 20
447.6273279947
 30
0.0
 10
451.2512367069
 20
447.7965961316
 30
0.0
 10
450.2813959875
 20
447.9176717985
 30
0.0
 10
449.7927587762
 20
447.938512035
 30
0.0
 10
449.5485710496
 20
447.938512035
 30
0.0
  0
SPLINE
  5
5A3
100
AcDbEntity
  8
0
100
AcDbSpline
 62
7
  6
CONTINUOUS
 70
0
 71
3
 72
11
 73
7
 74
0
 42
0.0000001
 43
0.0000001
 44
0.0000000001
 40
0.0
 40
0.0
 40
0.0
 40
0.0
 40
0.2404051783
 40
0.4855034955
 40
0.7383567051
 40
1.0
 40
1.0
 40
1.0
 40
1.0
 10
453.8786980686
 20
447.938512035
 30
0.0
 10
453.7562815448
 20
447.938512035
 30
0.0
 10
453.5086001409
 20
447.9171686459
 30
0.0
 10
453.1427495558
 20
447.8249767789
 30
0.0
 10
452.7828259043
 20
447.6808858218
 30
0.0
 10
452.5507039715
 20
447.5585456315
 30
0.0
 10
452.4353223956
 20
447.4919300476
 30
0.0
  0
LINE
  5
5A4
100
AcDbEntity
  8
0
100
AcDbLine
 62
7
  6
CONTINUOUS
 10
231.301163135
 20
416.9608097301
 11
231.3585914234
 21
416.9606822546
  0
LINE
  5
5A5
100
AcDbEntity
  8
0
100
AcDbLine
 62
7
  6
CONTINUOUS
 10
231.4707412864
 20
416.8485323889
 11
231.4708687605
 21
416.7911041006
  0
LINE
  5
5A6
100
AcDbEntity
  8
0
100
AcDbLine
 62
7
  6
CONTINUOUS
 10
229.9385506759
 20
415.3163418154
 11
229.9959789643
 21
415.3162143399
  0
LINE
  5
5A7
100
AcDbEntity
  8
0
100
AcDbLine
 62
7
  6
CONTINUOUS
 10
229.9959789643
 20
415.3162143399
 11
230.1335710381
 21
415.1789553975
  0
LINE
  5
5A8
100
AcDbEntity
  8
0
100
AcDbLine
 62
7
  6
CONTINUOUS
 10
229.8262733546
 20
416.7911041204
 11
229.6890144122
 21
416.6535120466
  0
LINE
  5
5A9
100
AcDbEntity
  8
0
100
AcDbLine
 62
7
  6
CONTINUOUS
 10
230.1335710612
 20
417.0980686849
 11
229.9959789841
 21
416.9608097458
  0
LINE
  5
5AA
100
AcDbEntity
  8
0
100
AcDbLine
 62
7
  6
CONTINUOUS
 10
231.301163135
 20
416.9608097301
 11
231.1635710612
 21
417.0980686725
  0
LINE
  5
5AB
100
AcDbEntity
  8
0
100
AcDbLine
 62
7
  6
CONTINUOUS
 10
231.6081276996
 20
416.6535120235
 11
231.4708687605
 21
416.7911041006
  0
LINE
  5
5AC
100
AcDbEntity
  8
0
100
AcDbLine
 62
7
  6
CONTINUOUS
 10
231.1635710381
 20
415.1789553851
 11
231.3011631152
 21
415.3162143242
  0
LINE
  5
5AD
100
AcDbEntity
  8
0
100
AcDbLine
 62
7
  6
CONTINUOUS
 10
231.3011631152
 20
415.3162143242
 11
231.3097870843
 21
415.3162326285
  0
LINE
  5
5AE
100
AcDbEntity
  8
0
100
AcDbLine
 62
7
  6
CONTINUOUS
 10
231.4708504402
 20
415.4772959806
 11
231.4708687448
 21
415.4859199496
  0
LINE
  5
5AF
100
AcDbEntity
  8
0
100
AcDbLine
 62
7
  6
CONTINUOUS
 10
231.4708687448
 20
415.4859199496
 11
231.6081276871
 21
415.6235120235
  0
LINE
  5
5B0
100
AcDbEntity
  8
0
100
AcDbLine
 62
7
  6
CONTINUOUS
 10
229.6890143998
 20
415.6235120466
 11
229.8262733388
 21
415.4859199694
  0
LINE
  5
5B1
100
AcDbEntity
  8
0
100
AcDbLine
 62
7
  6
CONTINUOUS
 10
229.8262733388
 20
415.4859199694
 11
229.8264008129
 21
415.4284916811
  0
LINE
  5
5B2
100
AcDbEntity
  8
0
100
AcDbLine
 62
7
  6
CONTINUOUS
 10
336.1003573355
 20
416.9614485859
 11
336.1577857212
 21
416.9613773647
  0
LINE
  5
5B3
100
AcDbEntity
  8
0
100
AcDbLine
 62
7
  6
CONTINUOUS
 10
336.2700453874
 20
416.8493374099
 11
336.2702291157
 21
416.7919092739
  0
LINE
  5
5B4
100
AcDbEntity
  8
0
100
AcDbLine
 62
7
  6
CONTINUOUS
 10
334.7393563781
 20
415.3156467053
 11
334.7967847638
 21
415.3155754841
  0
LINE
  5
5B5
100
AcDbEntity
  8
0
100
AcDbLine
 62
7
  6
CONTINUOUS
 10
334.7967847638
 20
415.3155754841
 11
334.9345112244
 21
415.1784513867
  0
LINE
  5
5B6
100
AcDbEntity
  8
0
100
AcDbLine
 62
7
  6
CONTINUOUS
 10
334.6256344988
 20
416.7902983209
 11
334.4885104013
 21
416.6525718603
  0
LINE
  5
5B7
100
AcDbEntity
  8
0
100
AcDbLine
 62
7
  6
CONTINUOUS
 10
334.9326313691
 20
417.0975637533
 11
334.7951738107
 21
416.960170101
  0
LINE
  5
5B8
100
AcDbEntity
  8
0
100
AcDbLine
 62
7
  6
CONTINUOUS
 10
336.1003573355
 20
416.9614485859
 11
335.9626308749
 21
417.0985726833
  0
LINE
  5
5B9
100
AcDbEntity
  8
0
100
AcDbLine
 62
7
  6
CONTINUOUS
 10
336.407622768
 20
416.6544517156
 11
336.2702291157
 21
416.7919092739
  0
LINE
  5
5BA
100
AcDbEntity
  8
0
100
AcDbLine
 62
7
  6
CONTINUOUS
 10
335.9645107302
 20
415.1794603167
 11
336.1019682886
 21
415.316853969
  0
LINE
  5
5BB
100
AcDbEntity
  8
0
100
AcDbLine
 62
7
  6
CONTINUOUS
 10
336.1019682886
 20
415.316853969
 11
336.1105922356
 21
415.316880721
  0
LINE
  5
5BC
100
AcDbEntity
  8
0
100
AcDbLine
 62
7
  6
CONTINUOUS
 10
336.2714977437
 20
415.4781017663
 11
336.2715076006
 21
415.4867257491
  0
LINE
  5
5BD
100
AcDbEntity
  8
0
100
AcDbLine
 62
7
  6
CONTINUOUS
 10
336.2715076006
 20
415.4867257491
 11
336.408631698
 21
415.6244522097
  0
LINE
  5
5BE
100
AcDbEntity
  8
0
100
AcDbLine
 62
7
  6
CONTINUOUS
 10
334.4895193313
 20
415.6225723544
 11
334.6269129837
 21
415.4851147961
  0
LINE
  5
5BF
100
AcDbEntity
  8
0
100
AcDbLine
 62
7
  6
CONTINUOUS
 10
334.6269129837
 20
415.4851147961
 11
334.6270967119
 21
415.4276866602
  0
LINE
  5
5C0
100
AcDbEntity
  8
0
100
AcDbLine
 62
7
  6
CONTINUOUS
 10
231.3002981579
 20
312.1614954526
 11
231.3577265485
 21
312.161428361
  0
LINE
  5
5C1
100
AcDbEntity
  8
0
100
AcDbLine
 62
7
  6
CONTINUOUS
 10
231.4699942711
 20
312.0493964788
 11
231.4701821289
 21
311.9919683563
  0
LINE
  5
5C2
100
AcDbEntity
  8
0
100
AcDbLine
 62
7
  6
CONTINUOUS
 10
229.9394155508
 20
310.515595709
 11
229.9968439415
 21
310.5155286174
  0
LINE
  5
5C3
100
AcDbEntity
  8
0
100
AcDbLine
 62
7
  6
CONTINUOUS
 10
229.9968439415
 20
310.5155286174
 11
230.1345802621
 21
310.378414424
  0
LINE
  5
5C4
100
AcDbEntity
  8
0
100
AcDbLine
 62
7
  6
CONTINUOUS
 10
229.825587632
 20
311.9902391432
 11
229.6884734386
 21
311.8525028226
  0
LINE
  5
5C5
100
AcDbEntity
  8
0
100
AcDbLine
 62
7
  6
CONTINUOUS
 10
230.1325624066
 20
312.2975266505
 11
229.9951147284
 21
312.1601231142
  0
LINE
  5
5C6
100
AcDbEntity
  8
0
100
AcDbLine
 62
7
  6
CONTINUOUS
 10
231.3002981579
 20
312.1614954526
 11
231.1625618373
 21
312.298609646
  0
LINE
  5
5C7
100
AcDbEntity
  8
0
100
AcDbLine
 62
7
  6
CONTINUOUS
 10
231.6075856652
 20
311.854520678
 11
231.4701821289
 21
311.9919683563
  0
LINE
  5
5C8
100
AcDbEntity
  8
0
100
AcDbLine
 62
7
  6
CONTINUOUS
 10
231.1645796927
 20
310.3794974195
 11
231.3020273709
 21
310.5169009558
  0
LINE
  5
5C9
100
AcDbEntity
  8
0
100
AcDbLine
 62
7
  6
CONTINUOUS
 10
231.3020273709
 20
310.5169009558
 11
231.310651316
 21
310.5169283279
  0
LINE
  5
5CA
100
AcDbEntity
  8
0
100
AcDbLine
 62
7
  6
CONTINUOUS
 10
231.4715452306
 20
310.6781609433
 11
231.4715544673
 21
310.6867849268
  0
LINE
  5
5CB
100
AcDbEntity
  8
0
100
AcDbLine
 62
7
  6
CONTINUOUS
 10
231.4715544673
 20
310.6867849268
 11
231.6086686607
 21
310.8245212474
  0
LINE
  5
5CC
100
AcDbEntity
  8
0
100
AcDbLine
 62
7
  6
CONTINUOUS
 10
229.6895564342
 20
310.822503392
 11
229.8269599705
 21
310.6850557137
  0
LINE
  5
5CD
100
AcDbEntity
  8
0
100
AcDbLine
 62
7
  6
CONTINUOUS
 10
229.8269599705
 20
310.6850557137
 11
229.8271478283
 21
310.6276275912
  0
LINE
  5
5CE
100
AcDbEntity
  8
0
100
AcDbLine
 62
7
  6
CONTINUOUS
 10
336.0994360997
 20
312.1621773893
 11
336.1568645291
 21
312.1621704279
  0
LINE
  5
5CF
100
AcDbEntity
  8
0
100
AcDbLine
 62
7
  6
CONTINUOUS
 10
336.2692494926
 20
312.0502561565
 11
336.2694974801
 21
311.9928282621
  0
LINE
  5
5D0
100
AcDbEntity
  8
0
100
AcDbLine
 62
7
  6
CONTINUOUS
 10
334.7402775702
 20
310.5148536421
 11
334.7977059997
 21
310.5148466807
  0
LINE
  5
5D1
100
AcDbEntity
  8
0
100
AcDbLine
 62
7
  6
CONTINUOUS
 10
334.7977059997
 20
310.5148466807
 11
334.9355858095
 21
310.3778767786
  0
LINE
  5
5D2
100
AcDbEntity
  8
0
100
AcDbLine
 62
7
  6
CONTINUOUS
 10
334.6249056953
 20
311.989377085
 11
334.4879357933
 21
311.8514972751
  0
LINE
  5
5D3
100
AcDbEntity
  8
0
100
AcDbLine
 62
7
  6
CONTINUOUS
 10
334.9315585577
 20
312.2969858404
 11
334.7942548225
 21
312.1594384654
  0
LINE
  5
5D4
100
AcDbEntity
  8
0
100
AcDbLine
 62
7
  6
CONTINUOUS
 10
336.0994360997
 20
312.1621773893
 11
335.9615562898
 21
312.2991472914
  0
LINE
  5
5D5
100
AcDbEntity
  8
0
100
AcDbLine
 62
7
  6
CONTINUOUS
 10
336.407044855
 20
311.855524527
 11
336.2694974801
 21
311.9928282621
  0
LINE
  5
5D6
100
AcDbEntity
  8
0
100
AcDbLine
 62
7
  6
CONTINUOUS
 10
335.9655835416
 20
310.3800382296
 11
336.1028872768
 21
310.5175856046
  0
LINE
  5
5D7
100
AcDbEntity
  8
0
100
AcDbLine
 62
7
  6
CONTINUOUS
 10
336.1028872768
 20
310.5175856046
 11
336.1115111885
 21
310.5176220063
  0
LINE
  5
5D8
100
AcDbEntity
  8
0
100
AcDbLine
 62
7
  6
CONTINUOUS
 10
336.272236197
 20
310.6790229965
 11
336.272236404
 21
310.687646985
  0
LINE
  5
5D9
100
AcDbEntity
  8
0
100
AcDbLine
 62
7
  6
CONTINUOUS
 10
336.272236404
 20
310.687646985
 11
336.4092063061
 21
310.8255267949
  0
LINE
  5
5DA
100
AcDbEntity
  8
0
100
AcDbLine
 62
7
  6
CONTINUOUS
 10
334.4900972443
 20
310.821499543
 11
334.6276446192
 21
310.6841958079
  0
LINE
  5
5DB
100
AcDbEntity
  8
0
100
AcDbLine
 62
7
  6
CONTINUOUS
 10
334.6276446192
 20
310.6841958079
 11
334.6278926068
 21
310.6267679135
  0
LINE
  5
5DC
100
AcDbEntity
  8
0
100
AcDbLine
 62
7
  6
CONTINUOUS
 10
420.5485710497
 20
457.2114223795
 11
420.3289733816
 21
457.0179348984
  0
LINE
  5
5DD
100
AcDbEntity
  8
0
100
AcDbLine
 62
7
  6
CONTINUOUS
 10
420.3289733816
 20
455.4590891716
 11
420.5485710497
 21
455.6525766527
  0
SPLINE
  5
5DE
100
AcDbEntity
  8
0
100
AcDbSpline
 62
7
  6
CONTINUOUS
 70
0
 71
3
 72
9
 73
5
 74
0
 42
0.0000001
 43
0.0000001
 44
0.0000000001
 40
0.0
 40
0.0
 40
0.0
 40
0.0
 40
0.2491223356
 40
1.0
 40
1.0
 40
1.0
 40
1.0
 10
420.3289733816
 20
455.4590891716
 30
0.0
 10
420.3117499982
 20
455.3132543548
 30
0.0
 10
420.2240507156
 20
454.7300206149
 30
0.0
 10
420.0687509636
 20
454.1584129813
 30
0.0
 10
419.9287839815
 20
453.738512035
 30
0.0
  0
SPLINE
  5
5DF
100
AcDbEntity
  8
0
100
AcDbSpline
 62
7
  6
CONTINUOUS
 70
0
 71
3
 72
9
 73
5
 74
0
 42
0.0000001
 43
0.0000001
 44
0.0000000001
 40
0.0
 40
0.0
 40
0.0
 40
0.0
 40
0.2512608425
 40
1.0
 40
1.0
 40
1.0
 40
1.0
 10
419.9287839815
 20
458.738512035
 30
0.0
 10
419.9756122672
 20
458.598027178
 30
0.0
 10
420.15138609
 20
458.0356088112
 30
0.0
 10
420.2772170624
 20
457.4561689648
 30
0.0
 10
420.3289733816
 20
457.0179348984
 30
0.0
  0
SPLINE
  5
5E0
100
AcDbEntity
  8
0
100
AcDbSpline
 62
7
  6
CONTINUOUS
 70
0
 71
3
 72
13
 73
9
 74
0
 42
0.0000001
 43
0.0000001
 44
0.0000000001
 40
0.0
 40
0.0
 40
0.0
 40
0.0
 40
0.2507972322
 40
0.3755357351
 40
0.4999999894
 40
0.6244642602
 40
0.7492027741
 40
1.0
 40
1.0
 40
1.0
 40
1.0
 10
419.9287839815
 20
458.738512035
 30
0.0
 10
420.0635773732
 20
459.1428922102
 30
0.0
 10
420.2329638579
 20
459.7610968326
 30
0.0
 10
420.3544670242
 20
460.603171781
 30
0.0
 10
420.3857970707
 20
461.2385119979
 30
0.0
 10
420.3544669269
 20
461.8738522288
 30
0.0
 10
420.2329636957
 20
462.7159271977
 30
0.0
 10
420.0635773699
 20
463.3341318699
 30
0.0
 10
419.9287839815
 20
463.738512035
 30
0.0
  0
LINE
  5
5E1
100
AcDbEntity
  8
0
100
AcDbLine
 62
7
  6
CONTINUOUS
 10
420.5485710497
 20
477.2114223795
 11
420.3289733816
 21
477.0179348984
  0
LINE
  5
5E2
100
AcDbEntity
  8
0
100
AcDbLine
 62
7
  6
CONTINUOUS
 10
420.3289733816
 20
475.4590891716
 11
420.5485710497
 21
475.6525766527
  0
SPLINE
  5
5E3
100
AcDbEntity
  8
0
100
AcDbSpline
 62
7
  6
CONTINUOUS
 70
0
 71
3
 72
9
 73
5
 74
0
 42
0.0000001
 43
0.0000001
 44
0.0000000001
 40
0.0
 40
0.0
 40
0.0
 40
0.0
 40
0.2491223356
 40
1.0
 40
1.0
 40
1.0
 40
1.0
 10
420.3289733816
 20
475.4590891716
 30
0.0
 10
420.3117499982
 20
475.3132543548
 30
0.0
 10
420.2240507156
 20
474.7300206149
 30
0.0
 10
420.0687509636
 20
474.1584129813
 30
0.0
 10
419.9287839815
 20
473.738512035
 30
0.0
  0
SPLINE
  5
5E4
100
AcDbEntity
  8
0
100
AcDbSpline
 62
7
  6
CONTINUOUS
 70
0
 71
3
 72
9
 73
5
 74
0
 42
0.0000001
 43
0.0000001
 44
0.0000000001
 40
0.0
 40
0.0
 40
0.0
 40
0.0
 40
0.2512608425
 40
1.0
 40
1.0
 40
1.0
 40
1.0
 10
419.9287839815
 20
478.738512035
 30
0.0
 10
419.9756122672
 20
478.598027178
 30
0.0
 10
420.15138609
 20
478.0356088112
 30
0.0
 10
420.2772170624
 20
477.4561689648
 30
0.0
 10
420.3289733816
 20
477.0179348984
 30
0.0
  0
SPLINE
  5
5E5
100
AcDbEntity
  8
0
100
AcDbSpline
 62
7
  6
CONTINUOUS
 70
0
 71
3
 72
13
 73
9
 74
0
 42
0.0000001
 43
0.0000001
 44
0.0000000001
 40
0.0
 40
0.0
 40
0.0
 40
0.0
 40
0.2507972322
 40
0.3755357351
 40
0.4999999894
 40
0.6244642602
 40
0.7492027741
 40
1.0
 40
1.0
 40
1.0
 40
1.0
 10
419.9287839815
 20
478.738512035
 30
0.0
 10
420.0635773732
 20
479.1428922102
 30
0.0
 10
420.2329638579
 20
479.7610968326
 30
0.0
 10
420.3544670242
 20
480.603171781
 30
0.0
 10
420.3857970707
 20
481.2385119979
 30
0.0
 10
420.3544669269
 20
481.8738522288
 30
0.0
 10
420.2329636957
 20
482.7159271977
 30
0.0
 10
420.0635773699
 20
483.3341318699
 30
0.0
 10
419.9287839815
 20
483.738512035
 30
0.0
  0
LINE
  5
5E6
100
AcDbEntity
  8
0
100
AcDbLine
 62
7
  6
CONTINUOUS
 10
144.5485710498
 20
480.2656016911
 11
144.7681687179
 21
480.4590891722
  0
LINE
  5
5E7
100
AcDbEntity
  8
0
100
AcDbLine
 62
7
  6
CONTINUOUS
 10
144.7681687179
 20
482.017934899
 11
144.5485710498
 21
481.8244474179
  0
SPLINE
  5
5E8
100
AcDbEntity
  8
0
100
AcDbSpline
 62
7
  6
CONTINUOUS
 70
0
 71
3
 72
9
 73
5
 74
0
 42
0.0000001
 43
0.0000001
 44
0.0000000001
 40
0.0
 40
0.0
 40
0.0
 40
0.0
 40
0.2491223356
 40
1.0
 40
1.0
 40
1.0
 40
1.0
 10
144.7681687179
 20
482.017934899
 30
0.0
 10
144.7853921012
 20
482.1637697158
 30
0.0
 10
144.8730913839
 20
482.7470034557
 30
0.0
 10
145.0283911358
 20
483.3186110893
 30
0.0
 10
145.1683581179
 20
483.7385120356
 30
0.0
  0
SPLINE
  5
5E9
100
AcDbEntity
  8
0
100
AcDbSpline
 62
7
  6
CONTINUOUS
 70
0
 71
3
 72
9
 73
5
 74
0
 42
0.0000001
 43
0.0000001
 44
0.0000000001
 40
0.0
 40
0.0
 40
0.0
 40
0.0
 40
0.2512608425
 40
1.0
 40
1.0
 40
1.0
 40
1.0
 10
145.1683581179
 20
478.7385120356
 30
0.0
 10
145.1215298323
 20
478.8789968926
 30
0.0
 10
144.9457560095
 20
479.4414152594
 30
0.0
 10
144.8199250371
 20
480.0208551058
 30
0.0
 10
144.7681687179
 20
480.4590891722
 30
0.0
  0
SPLINE
  5
5EA
100
AcDbEntity
  8
0
100
AcDbSpline
 62
7
  6
CONTINUOUS
 70
0
 71
3
 72
13
 73
9
 74
0
 42
0.0000001
 43
0.0000001
 44
0.0000000001
 40
0.0
 40
0.0
 40
0.0
 40
0.0
 40
0.2507972322
 40
0.3755357351
 40
0.4999999894
 40
0.6244642602
 40
0.7492027741
 40
1.0
 40
1.0
 40
1.0
 40
1.0
 10
145.1683581179
 20
478.7385120356
 30
0.0
 10
145.0335647262
 20
478.3341318604
 30
0.0
 10
144.8641782415
 20
477.715927238
 30
0.0
 10
144.7426750752
 20
476.8738522896
 30
0.0
 10
144.7113450287
 20
476.2385120727
 30
0.0
 10
144.7426751725
 20
475.6031718418
 30
0.0
 10
144.8641784037
 20
474.7610968729
 30
0.0
 10
145.0335647295
 20
474.1428922007
 30
0.0
 10
145.1683581179
 20
473.7385120356
 30
0.0
  0
LINE
  5
5EB
100
AcDbEntity
  8
0
100
AcDbLine
 62
7
  6
CONTINUOUS
 10
144.5485710498
 20
460.2656016911
 11
144.7681687179
 21
460.4590891722
  0
LINE
  5
5EC
100
AcDbEntity
  8
0
100
AcDbLine
 62
7
  6
CONTINUOUS
 10
144.7681687179
 20
462.017934899
 11
144.5485710498
 21
461.8244474179
  0
SPLINE
  5
5ED
100
AcDbEntity
  8
0
100
AcDbSpline
 62
7
  6
CONTINUOUS
 70
0
 71
3
 72
9
 73
5
 74
0
 42
0.0000001
 43
0.0000001
 44
0.0000000001
 40
0.0
 40
0.0
 40
0.0
 40
0.0
 40
0.2491223356
 40
1.0
 40
1.0
 40
1.0
 40
1.0
 10
144.7681687179
 20
462.017934899
 30
0.0
 10
144.7853921012
 20
462.1637697158
 30
0.0
 10
144.8730913839
 20
462.7470034557
 30
0.0
 10
145.0283911358
 20
463.3186110893
 30
0.0
 10
145.1683581179
 20
463.7385120356
 30
0.0
  0
SPLINE
  5
5EE
100
AcDbEntity
  8
0
100
AcDbSpline
 62
7
  6
CONTINUOUS
 70
0
 71
3
 72
9
 73
5
 74
0
 42
0.0000001
 43
0.0000001
 44
0.0000000001
 40
0.0
 40
0.0
 40
0.0
 40
0.0
 40
0.2512608425
 40
1.0
 40
1.0
 40
1.0
 40
1.0
 10
145.1683581179
 20
458.7385120356
 30
0.0
 10
145.1215298323
 20
458.8789968926
 30
0.0
 10
144.9457560095
 20
459.4414152594
 30
0.0
 10
144.8199250371
 20
460.0208551058
 30
0.0
 10
144.7681687179
 20
460.4590891722
 30
0.0
  0
SPLINE
  5
5EF
100
AcDbEntity
  8
0
100
AcDbSpline
 62
7
  6
CONTINUOUS
 70
0
 71
3
 72
13
 73
9
 74
0
 42
0.0000001
 43
0.0000001
 44
0.0000000001
 40
0.0
 40
0.0
 40
0.0
 40
0.0
 40
0.2507972322
 40
0.3755357351
 40
0.4999999894
 40
0.6244642602
 40
0.7492027741
 40
1.0
 40
1.0
 40
1.0
 40
1.0
 10
145.1683581179
 20
458.7385120356
 30
0.0
 10
145.0335647262
 20
458.3341318604
 30
0.0
 10
144.8641782415
 20
457.715927238
 30
0.0
 10
144.7426750752
 20
456.8738522896
 30
0.0
 10
144.7113450287
 20
456.2385120727
 30
0.0
 10
144.7426751725
 20
455.6031718418
 30
0.0
 10
144.8641784037
 20
454.7610968729
 30
0.0
 10
145.0335647295
 20
454.1428922007
 30
0.0
 10
145.1683581179
 20
453.7385120356
 30
0.0
  0
SPLINE
  5
5F0
100
AcDbEntity
  8
0
100
AcDbSpline
 62
7
  6
CONTINUOUS
 70
0
 71
3
 72
11
 73
7
 74
0
 42
0.0000001
 43
0.0000001
 44
0.0000000001
 40
0.0
 40
0.0
 40
0.0
 40
0.0
 40
0.205897236
 40
0.4399539867
 40
0.708859782
 40
1.0
 40
1.0
 40
1.0
 40
1.0
 10
326.5121512743
 20
317.7293473981
 30
0.0
 10
326.5701001059
 20
317.6713985665
 30
0.0
 10
326.7346936679
 20
317.5855745902
 30
0.0
 10
327.0249068555
 20
317.5927319011
 30
0.0
 10
327.3236163294
 20
317.7096348126
 30
0.0
 10
327.5028412225
 20
317.8475695009
 30
0.0
 10
327.5847813001
 20
317.9295095785
 30
0.0
  0
SPLINE
  5
5F1
100
AcDbEntity
  8
0
100
AcDbSpline
 62
7
  6
CONTINUOUS
 70
0
 71
3
 72
11
 73
7
 74
0
 42
0.0000001
 43
0.0000001
 44
0.0000000001
 40
0.0
 40
0.0
 40
0.0
 40
0.0
 40
0.291140218
 40
0.5600460133
 40
0.794102764
 40
1.0
 40
1.0
 40
1.0
 40
1.0
 10
327.5847813001
 20
317.9295095785
 30
0.0
 10
327.6667213776
 20
318.011449656
 30
0.0
 10
327.8046560659
 20
318.1906745492
 30
0.0
 10
327.9215589774
 20
318.489384023
 30
0.0
 10
327.9287162883
 20
318.7795972106
 30
0.0
 10
327.8428923121
 20
318.9441907726
 30
0.0
 10
327.7849434804
 20
319.0021396042
 30
0.0
  0
SPLINE
  5
5F2
100
AcDbEntity
  8
0
100
AcDbSpline
 62
7
  6
CONTINUOUS
 70
0
 71
3
 72
11
 73
7
 74
0
 42
0.0000001
 43
0.0000001
 44
0.0000000001
 40
0.0
 40
0.0
 40
0.0
 40
0.0
 40
0.205897236
 40
0.4399539867
 40
0.708859782
 40
1.0
 40
1.0
 40
1.0
 40
1.0
 10
324.2256725331
 20
407.4611979307
 30
0.0
 10
324.2836213647
 20
407.5191467623
 30
0.0
 10
324.4482149267
 20
407.6049707386
 30
0.0
 10
324.7384281143
 20
407.5978134276
 30
0.0
 10
325.0371375882
 20
407.4809105162
 30
0.0
 10
325.2163624813
 20
407.3429758278
 30
0.0
 10
325.2983025588
 20
407.2610357503
 30
0.0
  0
SPLINE
  5
5F3
100
AcDbEntity
  8
0
100
AcDbSpline
 62
7
  6
CONTINUOUS
 70
0
 71
3
 72
11
 73
7
 74
0
 42
0.0000001
 43
0.0000001
 44
0.0000000001
 40
0.0
 40
0.0
 40
0.0
 40
0.0
 40
0.291140218
 40
0.5600460133
 40
0.794102764
 40
1.0
 40
1.0
 40
1.0
 40
1.0
 10
325.2983025588
 20
407.2610357503
 30
0.0
 10
325.3802426364
 20
407.1790956728
 30
0.0
 10
325.5181773247
 20
406.9998707796
 30
0.0
 10
325.6350802362
 20
406.7011613058
 30
0.0
 10
325.6422375471
 20
406.4109481182
 30
0.0
 10
325.5564135709
 20
406.2463545562
 30
0.0
 10
325.4984647392
 20
406.1884057245
 30
0.0
  0
SPLINE
  5
5F4
100
AcDbEntity
  8
0
100
AcDbSpline
 62
7
  6
CONTINUOUS
 70
0
 71
3
 72
11
 73
7
 74
0
 42
0.0000001
 43
0.0000001
 44
0.0000000001
 40
0.0
 40
0.0
 40
0.0
 40
0.0
 40
0.205897236
 40
0.4399539867
 40
0.708859782
 40
1.0
 40
1.0
 40
1.0
 40
1.0
 10
325.4984647392
 20
321.2886183455
 30
0.0
 10
325.5564135708
 20
321.2306695138
 30
0.0
 10
325.6422375471
 20
321.0660759518
 30
0.0
 10
325.6350802362
 20
320.7758627642
 30
0.0
 10
325.5181773247
 20
320.4771532904
 30
0.0
 10
325.3802426364
 20
320.2979283972
 30
0.0
 10
325.2983025588
 20
320.2159883197
 30
0.0
  0
SPLINE
  5
5F5
100
AcDbEntity
  8
0
100
AcDbSpline
 62
7
  6
CONTINUOUS
 70
0
 71
3
 72
11
 73
7
 74
0
 42
0.0000001
 43
0.0000001
 44
0.0000000001
 40
0.0
 40
0.0
 40
0.0
 40
0.0
 40
0.291140218
 40
0.5600460133
 40
0.794102764
 40
1.0
 40
1.0
 40
1.0
 40
1.0
 10
325.2983025588
 20
320.2159883197
 30
0.0
 10
325.2163624813
 20
320.1340482422
 30
0.0
 10
325.0371375882
 20
319.9961135538
 30
0.0
 10
324.7384281143
 20
319.8792106424
 30
0.0
 10
324.4482149267
 20
319.8720533314
 30
0.0
 10
324.2836213647
 20
319.9578773077
 30
0.0
 10
324.2256725331
 20
320.0158261393
 30
0.0
  0
SPLINE
  5
5F6
100
AcDbEntity
  8
0
100
AcDbSpline
 62
7
  6
CONTINUOUS
 70
0
 71
3
 72
11
 73
7
 74
0
 42
0.0000001
 43
0.0000001
 44
0.0000000001
 40
0.0
 40
0.0
 40
0.0
 40
0.0
 40
0.205897236
 40
0.4399539867
 40
0.708859782
 40
1.0
 40
1.0
 40
1.0
 40
1.0
 10
327.7849434804
 20
408.4748844658
 30
0.0
 10
327.8428923121
 20
408.5328332974
 30
0.0
 10
327.9287162883
 20
408.6974268594
 30
0.0
 10
327.9215589774
 20
408.987640047
 30
0.0
 10
327.804656066
 20
409.2863495209
 30
0.0
 10
327.6667213776
 20
409.465574414
 30
0.0
 10
327.5847813001
 20
409.5475144916
 30
0.0
  0
SPLINE
  5
5F7
100
AcDbEntity
  8
0
100
AcDbSpline
 62
7
  6
CONTINUOUS
 70
0
 71
3
 72
11
 73
7
 74
0
 42
0.0000001
 43
0.0000001
 44
0.0000000001
 40
0.0
 40
0.0
 40
0.0
 40
0.0
 40
0.291140218
 40
0.5600460133
 40
0.794102764
 40
1.0
 40
1.0
 40
1.0
 40
1.0
 10
327.5847813001
 20
409.5475144916
 30
0.0
 10
327.5028412225
 20
409.6294545691
 30
0.0
 10
327.3236163294
 20
409.7673892574
 30
0.0
 10
327.0249068555
 20
409.8842921689
 30
0.0
 10
326.7346936679
 20
409.8914494798
 30
0.0
 10
326.5701001059
 20
409.8056255036
 30
0.0
 10
326.5121512743
 20
409.7476766719
 30
0.0
  0
SPLINE
  5
5F8
100
AcDbEntity
  8
0
100
AcDbSpline
 62
7
  6
CONTINUOUS
 70
0
 71
3
 72
11
 73
7
 74
0
 42
0.0000001
 43
0.0000001
 44
0.0000000001
 40
0.0
 40
0.0
 40
0.0
 40
0.0
 40
0.205897236
 40
0.4399539867
 40
0.708859782
 40
1.0
 40
1.0
 40
1.0
 40
1.0
 10
238.3121986189
 20
319.0021396042
 30
0.0
 10
238.2542497873
 20
318.9441907726
 30
0.0
 10
238.168425811
 20
318.7795972106
 30
0.0
 10
238.1755831219
 20
318.489384023
 30
0.0
 10
238.2924860334
 20
318.1906745492
 30
0.0
 10
238.4304207217
 20
318.011449656
 30
0.0
 10
238.5123607993
 20
317.9295095785
 30
0.0
  0
SPLINE
  5
5F9
100
AcDbEntity
  8
0
100
AcDbSpline
 62
7
  6
CONTINUOUS
 70
0
 71
3
 72
11
 73
7
 74
0
 42
0.0000001
 43
0.0000001
 44
0.0000000001
 40
0.0
 40
0.0
 40
0.0
 40
0.0
 40
0.291140218
 40
0.5600460133
 40
0.794102764
 40
1.0
 40
1.0
 40
1.0
 40
1.0
 10
238.5123607993
 20
317.9295095785
 30
0.0
 10
238.5943008768
 20
317.8475695009
 30
0.0
 10
238.77352577
 20
317.7096348126
 30
0.0
 10
239.0722352438
 20
317.5927319011
 30
0.0
 10
239.3624484314
 20
317.5855745902
 30
0.0
 10
239.5270419934
 20
317.6713985665
 30
0.0
 10
239.584990825
 20
317.7293473981
 30
0.0
  0
SPLINE
  5
5FA
100
AcDbEntity
  8
0
100
AcDbSpline
 62
7
  6
CONTINUOUS
 70
0
 71
3
 72
11
 73
7
 74
0
 42
0.0000001
 43
0.0000001
 44
0.0000000001
 40
0.0
 40
0.0
 40
0.0
 40
0.0
 40
0.205897236
 40
0.4399539867
 40
0.708859782
 40
1.0
 40
1.0
 40
1.0
 40
1.0
 10
240.5986773601
 20
406.1884057245
 30
0.0
 10
240.5407285285
 20
406.2463545562
 30
0.0
 10
240.4549045522
 20
406.4109481182
 30
0.0
 10
240.4620618632
 20
406.7011613058
 30
0.0
 10
240.5789647746
 20
406.9998707796
 30
0.0
 10
240.716899463
 20
407.1790956728
 30
0.0
 10
240.7988395405
 20
407.2610357503
 30
0.0
  0
SPLINE
  5
5FB
100
AcDbEntity
  8
0
100
AcDbSpline
 62
7
  6
CONTINUOUS
 70
0
 71
3
 72
11
 73
7
 74
0
 42
0.0000001
 43
0.0000001
 44
0.0000000001
 40
0.0
 40
0.0
 40
0.0
 40
0.0
 40
0.291140218
 40
0.5600460133
 40
0.794102764
 40
1.0
 40
1.0
 40
1.0
 40
1.0
 10
240.7988395405
 20
407.2610357503
 30
0.0
 10
240.880779618
 20
407.3429758278
 30
0.0
 10
241.0600045112
 20
407.4809105162
 30
0.0
 10
241.358713985
 20
407.5978134276
 30
0.0
 10
241.6489271726
 20
407.6049707386
 30
0.0
 10
241.8135207346
 20
407.5191467623
 30
0.0
 10
241.8714695663
 20
407.4611979307
 30
0.0
  0
SPLINE
  5
5FC
100
AcDbEntity
  8
0
100
AcDbSpline
 62
7
  6
CONTINUOUS
 70
0
 71
3
 72
11
 73
7
 74
0
 42
0.0000001
 43
0.0000001
 44
0.0000000001
 40
0.0
 40
0.0
 40
0.0
 40
0.0
 40
0.205897236
 40
0.4399539867
 40
0.708859782
 40
1.0
 40
1.0
 40
1.0
 40
1.0
 10
241.8714695663
 20
320.0158261393
 30
0.0
 10
241.8135207346
 20
319.9578773077
 30
0.0
 10
241.6489271726
 20
319.8720533314
 30
0.0
 10
241.358713985
 20
319.8792106424
 30
0.0
 10
241.0600045112
 20
319.9961135538
 30
0.0
 10
240.880779618
 20
320.1340482422
 30
0.0
 10
240.7988395405
 20
320.2159883197
 30
0.0
  0
SPLINE
  5
5FD
100
AcDbEntity
  8
0
100
AcDbSpline
 62
7
  6
CONTINUOUS
 70
0
 71
3
 72
11
 73
7
 74
0
 42
0.0000001
 43
0.0000001
 44
0.0000000001
 40
0.0
 40
0.0
 40
0.0
 40
0.0
 40
0.291140218
 40
0.5600460133
 40
0.794102764
 40
1.0
 40
1.0
 40
1.0
 40
1.0
 10
240.7988395405
 20
320.2159883197
 30
0.0
 10
240.716899463
 20
320.2979283972
 30
0.0
 10
240.5789647746
 20
320.4771532904
 30
0.0
 10
240.4620618632
 20
320.7758627642
 30
0.0
 10
240.4549045522
 20
321.0660759518
 30
0.0
 10
240.5407285285
 20
321.2306695138
 30
0.0
 10
240.5986773601
 20
321.2886183455
 30
0.0
  0
SPLINE
  5
5FE
100
AcDbEntity
  8
0
100
AcDbSpline
 62
7
  6
CONTINUOUS
 70
0
 71
3
 72
11
 73
7
 74
0
 42
0.0000001
 43
0.0000001
 44
0.0000000001
 40
0.0
 40
0.0
 40
0.0
 40
0.0
 40
0.205897236
 40
0.4399539867
 40
0.708859782
 40
1.0
 40
1.0
 40
1.0
 40
1.0
 10
239.584990825
 20
409.7476766719
 30
0.0
 10
239.5270419934
 20
409.8056255036
 30
0.0
 10
239.3624484314
 20
409.8914494798
 30
0.0
 10
239.0722352438
 20
409.8842921689
 30
0.0
 10
238.77352577
 20
409.7673892574
 30
0.0
 10
238.5943008768
 20
409.6294545691
 30
0.0
 10
238.5123607993
 20
409.5475144916
 30
0.0
  0
SPLINE
  5
5FF
100
AcDbEntity
  8
0
100
AcDbSpline
 62
7
  6
CONTINUOUS
 70
0
 71
3
 72
11
 73
7
 74
0
 42
0.0000001
 43
0.0000001
 44
0.0000000001
 40
0.0
 40
0.0
 40
0.0
 40
0.0
 40
0.291140218
 40
0.5600460133
 40
0.794102764
 40
1.0
 40
1.0
 40
1.0
 40
1.0
 10
238.5123607993
 20
409.5475144916
 30
0.0
 10
238.4304207217
 20
409.465574414
 30
0.0
 10
238.2924860334
 20
409.2863495209
 30
0.0
 10
238.1755831219
 20
408.987640047
 30
0.0
 10
238.168425811
 20
408.6974268594
 30
0.0
 10
238.2542497873
 20
408.5328332974
 30
0.0
 10
238.3121986189
 20
408.4748844658
 30
0.0
  0
SPLINE
  5
600
100
AcDbEntity
  8
0
100
AcDbSpline
 62
7
  6
CONTINUOUS
 70
0
 71
3
 72
9
 73
5
 74
0
 42
0.0000001
 43
0.0000001
 44
0.0000000001
 40
0.0
 40
0.0
 40
0.0
 40
0.0
 40
0.754850394
 40
1.0
 40
1.0
 40
1.0
 40
1.0
 10
378.0485710497
 20
290.238512035
 30
0.0
 10
378.1857434725
 20
290.1511853584
 30
0.0
 10
378.367514256
 20
290.0355354792
 30
0.0
 10
378.5464643967
 20
289.9155883624
 30
0.0
 10
378.5900801157
 20
289.8858124454
 30
0.0
  0
SPLINE
  5
601
100
AcDbEntity
  8
0
100
AcDbSpline
 62
7
  6
CONTINUOUS
 70
0
 71
3
 72
9
 73
5
 74
0
 42
0.0000001
 43
0.0000001
 44
0.0000000001
 40
0.0
 40
0.0
 40
0.0
 40
0.0
 40
0.2626023166
 40
1.0
 40
1.0
 40
1.0
 40
1.0
 10
378.743749582
 20
289.7783159248
 30
0.0
 10
378.7769127334
 20
289.7544820435
 30
0.0
 10
378.9023255302
 20
289.662549195
 30
0.0
 10
379.0240024769
 20
289.5652389015
 30
0.0
 10
379.1092317978
 20
289.4885115161
 30
0.0
  0
SPLINE
  5
602
100
AcDbEntity
  8
0
100
AcDbSpline
 62
7
  6
CONTINUOUS
 70
0
 71
3
 72
9
 73
5
 74
0
 42
0.0000001
 43
0.0000001
 44
0.0000000001
 40
0.0
 40
0.0
 40
0.0
 40
0.0
 40
0.2664954259
 40
1.0
 40
1.0
 40
1.0
 40
1.0
 10
379.1092317978
 20
289.4885115161
 30
0.0
 10
379.1336579508
 20
289.466521961
 30
0.0
 10
379.2238323617
 20
289.3824404187
 30
0.0
 10
379.3078575617
 20
289.2912865448
 30
0.0
 10
379.3625084701
 20
289.2192001927
 30
0.0
  0
SPLINE
  5
603
100
AcDbEntity
  8
0
100
AcDbSpline
 62
7
  6
CONTINUOUS
 70
0
 71
3
 72
8
 73
4
 74
0
 42
0.0000001
 43
0.0000001
 44
0.0000000001
 40
0.0
 40
0.0
 40
0.0
 40
0.0
 40
1.0
 40
1.0
 40
1.0
 40
1.0
 10
379.3625084701
 20
289.2192001927
 30
0.0
 10
379.3959723233
 20
289.1750602658
 30
0.0
 10
379.4268932588
 20
289.1287404099
 30
0.0
 10
379.453543697
 20
289.0801820248
 30
0.0
  0
SPLINE
  5
604
100
AcDbEntity
  8
0
100
AcDbSpline
 62
7
  6
CONTINUOUS
 70
0
 71
3
 72
9
 73
5
 74
0
 42
0.0000001
 43
0.0000001
 44
0.0000000001
 40
0.0
 40
0.0
 40
0.0
 40
0.0
 40
0.2663434997
 40
1.0
 40
1.0
 40
1.0
 40
1.0
 10
379.453543697
 20
289.0801820248
 30
0.0
 10
379.468779561
 20
289.0524215449
 30
0.0
 10
379.520894441
 20
288.9456441898
 30
0.0
 10
379.5485710497
 20
288.8257393671
 30
0.0
 10
379.5485710497
 20
288.738512035
 30
0.0
  0
SPLINE
  5
605
100
AcDbEntity
  8
0
100
AcDbSpline
 62
7
  6
CONTINUOUS
 70
0
 71
3
 72
9
 73
5
 74
0
 42
0.0000001
 43
0.0000001
 44
0.0000000001
 40
0.0
 40
0.0
 40
0.0
 40
0.0
 40
0.7370546741
 40
1.0
 40
1.0
 40
1.0
 40
1.0
 10
379.5485710497
 20
288.738512035
 30
0.0
 10
379.4730278567
 20
288.738512035
 30
0.0
 10
379.3697287776
 20
288.7589760244
 30
0.0
 10
379.2754498749
 20
288.7991110493
 30
0.0
 10
379.2511537203
 20
288.8107732584
 30
0.0
  0
SPLINE
  5
606
100
AcDbEntity
  8
0
100
AcDbSpline
 62
7
  6
CONTINUOUS
 70
0
 71
3
 72
9
 73
5
 74
0
 42
0.0000001
 43
0.0000001
 44
0.0000000001
 40
0.0
 40
0.0
 40
0.0
 40
0.0
 40
0.2226753082
 40
1.0
 40
1.0
 40
1.0
 40
1.0
 10
379.2511537203
 20
288.8107732584
 30
0.0
 10
379.2120076294
 20
288.8295634705
 30
0.0
 10
379.0425591113
 20
288.927345553
 30
0.0
 10
378.8999875793
 20
289.0651975441
 30
0.0
 10
378.7985705308
 20
289.1778524396
 30
0.0
  0
SPLINE
  5
607
100
AcDbEntity
  8
0
100
AcDbSpline
 62
7
  6
CONTINUOUS
 70
0
 71
3
 72
9
 73
5
 74
0
 42
0.0000001
 43
0.0000001
 44
0.0000000001
 40
0.0
 40
0.0
 40
0.0
 40
0.0
 40
0.2401222924
 40
1.0
 40
1.0
 40
1.0
 40
1.0
 10
378.7582553171
 20
289.2235743665
 30
0.0
 10
378.7396691147
 20
289.2450791447
 30
0.0
 10
378.6634620567
 20
289.3356710664
 30
0.0
 10
378.5915079327
 20
289.4297775117
 30
0.0
 10
378.5384325238
 20
289.5023971544
 30
0.0
  0
SPLINE
  5
608
100
AcDbEntity
  8
0
100
AcDbSpline
 62
7
  6
CONTINUOUS
 70
0
 71
3
 72
9
 73
5
 74
0
 42
0.0000001
 43
0.0000001
 44
0.0000000001
 40
0.0
 40
0.0
 40
0.0
 40
0.0
 40
0.2434223452
 40
1.0
 40
1.0
 40
1.0
 40
1.0
 10
378.451983794
 20
289.6235257032
 30
0.0
 10
378.4178182817
 20
289.6724607679
 30
0.0
 10
378.2797693099
 20
289.8751047712
 30
0.0
 10
378.148188008
 20
290.0820340828
 30
0.0
 10
378.0485710497
 20
290.238512035
 30
0.0
  0
SPLINE
  5
609
100
AcDbEntity
  8
0
100
AcDbSpline
 62
7
  6
CONTINUOUS
 70
0
 71
3
 72
9
 73
5
 74
0
 42
0.0000001
 43
0.0000001
 44
0.0000000001
 40
0.0
 40
0.0
 40
0.0
 40
0.0
 40
0.2542798602
 40
1.0
 40
1.0
 40
1.0
 40
1.0
 10
188.0485710497
 20
290.238512035
 30
0.0
 10
188.0150915126
 20
290.1859225012
 30
0.0
 10
187.8834034724
 20
289.9791359162
 30
0.0
 10
187.7498207263
 20
289.7734330751
 30
0.0
 10
187.6451582298
 20
289.6235255947
 30
0.0
  0
SPLINE
  5
60A
100
AcDbEntity
  8
0
100
AcDbSpline
 62
7
  6
CONTINUOUS
 70
0
 71
3
 72
9
 73
5
 74
0
 42
0.0000001
 43
0.0000001
 44
0.0000000001
 40
0.0
 40
0.0
 40
0.0
 40
0.0
 40
0.2595323802
 40
1.0
 40
1.0
 40
1.0
 40
1.0
 10
187.5587095214
 20
289.50239708
 30
0.0
 10
187.5405823257
 20
289.4775948137
 30
0.0
 10
187.4700096429
 20
289.3825716347
 30
0.0
 10
187.3961997305
 20
289.2898871115
 30
0.0
 10
187.3388866567
 20
289.2235742216
 30
0.0
  0
SPLINE
  5
60B
100
AcDbEntity
  8
0
100
AcDbSpline
 62
7
  6
CONTINUOUS
 70
0
 71
3
 72
9
 73
5
 74
0
 42
0.0000001
 43
0.0000001
 44
0.0000000001
 40
0.0
 40
0.0
 40
0.0
 40
0.0
 40
0.2793644966
 40
1.0
 40
1.0
 40
1.0
 40
1.0
 10
187.2985705308
 20
289.1778512868
 30
0.0
 10
187.2621543658
 20
289.137399954
 30
0.0
 10
187.1279634814
 20
288.9967736473
 30
0.0
 10
186.9725629947
 20
288.871529384
 30
0.0
 10
186.8459885043
 20
288.8107733167
 30
0.0
  0
SPLINE
  5
60C
100
AcDbEntity
  8
0
100
AcDbSpline
 62
7
  6
CONTINUOUS
 70
0
 71
3
 72
9
 73
5
 74
0
 42
0.0000001
 43
0.0000001
 44
0.0000000001
 40
0.0
 40
0.0
 40
0.0
 40
0.0
 40
0.2629453334
 40
1.0
 40
1.0
 40
1.0
 40
1.0
 10
186.8459885043
 20
288.8107733167
 30
0.0
 10
186.8216923401
 20
288.799111098
 30
0.0
 10
186.7274134014
 20
288.7589760411
 30
0.0
 10
186.6241142756
 20
288.738512035
 30
0.0
 10
186.5485710497
 20
288.738512035
 30
0.0
  0
SPLINE
  5
60D
100
AcDbEntity
  8
0
100
AcDbSpline
 62
7
  6
CONTINUOUS
 70
0
 71
3
 72
9
 73
5
 74
0
 42
0.0000001
 43
0.0000001
 44
0.0000000001
 40
0.0
 40
0.0
 40
0.0
 40
0.0
 40
0.2392719706
 40
1.0
 40
1.0
 40
1.0
 40
1.0
 10
186.5485710497
 20
288.738512035
 30
0.0
 10
186.5485710497
 20
288.7669759042
 30
0.0
 10
186.5570736934
 20
288.8859847726
 30
0.0
 10
186.6000574654
 20
289.0008482762
 30
0.0
 10
186.6435982704
 20
289.0801817821
 30
0.0
  0
SPLINE
  5
60E
100
AcDbEntity
  8
0
100
AcDbSpline
 62
7
  6
CONTINUOUS
 70
0
 71
3
 72
8
 73
4
 74
0
 42
0.0000001
 43
0.0000001
 44
0.0000000001
 40
0.0
 40
0.0
 40
0.0
 40
0.0
 40
1.0
 40
1.0
 40
1.0
 40
1.0
 10
186.6435982704
 20
289.0801817821
 30
0.0
 10
186.6702486788
 20
289.1287401478
 30
0.0
 10
186.7011695828
 20
289.1750599871
 30
0.0
 10
186.7346334051
 20
289.2191998981
 30
0.0
  0
SPLINE
  5
60F
100
AcDbEntity
  8
0
100
AcDbSpline
 62
7
  6
CONTINUOUS
 70
0
 71
3
 72
9
 73
5
 74
0
 42
0.0000001
 43
0.0000001
 44
0.0000000001
 40
0.0
 40
0.0
 40
0.0
 40
0.0
 40
0.2340768636
 40
1.0
 40
1.0
 40
1.0
 40
1.0
 10
186.7346334051
 20
289.2191998981
 30
0.0
 10
186.7517177749
 20
289.2417347585
 30
0.0
 10
186.8276960743
 20
289.3357414101
 30
0.0
 10
186.9136605706
 20
289.4213191094
 30
0.0
 10
186.9822630587
 20
289.4834138412
 30
0.0
  0
SPLINE
  5
610
100
AcDbEntity
  8
0
100
AcDbSpline
 62
7
  6
CONTINUOUS
 70
0
 71
3
 72
9
 73
5
 74
0
 42
0.0000001
 43
0.0000001
 44
0.0000000001
 40
0.0
 40
0.0
 40
0.0
 40
0.0
 40
0.2365182898
 40
1.0
 40
1.0
 40
1.0
 40
1.0
 10
186.9822630587
 20
289.4834138412
 30
0.0
 10
187.0099796489
 20
289.5085011854
 30
0.0
 10
187.1292994898
 20
289.6122170013
 30
0.0
 10
187.2553984949
 20
289.7078890312
 30
0.0
 10
187.3533927023
 20
289.7783160575
 30
0.0
  0
SPLINE
  5
611
100
AcDbEntity
  8
0
100
AcDbSpline
 62
7
  6
CONTINUOUS
 70
0
 71
3
 72
9
 73
5
 74
0
 42
0.0000001
 43
0.0000001
 44
0.0000000001
 40
0.0
 40
0.0
 40
0.0
 40
0.0
 40
0.2451496062
 40
1.0
 40
1.0
 40
1.0
 40
1.0
 10
187.5070621097
 20
289.8858125315
 30
0.0
 10
187.5506778189
 20
289.9155884408
 30
0.0
 10
187.7296279186
 20
290.0355355273
 30
0.0
 10
187.9113986592
 20
290.151185379
 30
0.0
 10
188.0485710497
 20
290.238512035
 30
0.0
  0
SPLINE
  5
612
100
AcDbEntity
  8
0
100
AcDbSpline
 62
7
  6
CONTINUOUS
 70
0
 71
3
 72
9
 73
5
 74
0
 42
0.0000001
 43
0.0000001
 44
0.0000000001
 40
0.0
 40
0.0
 40
0.0
 40
0.0
 40
0.2629486482
 40
1.0
 40
1.0
 40
1.0
 40
1.0
 10
187.3605409305
 20
289.972267997
 30
0.0
 10
187.2913199394
 20
289.944766783
 30
0.0
 10
187.0285523998
 20
289.8390206072
 30
0.0
 10
186.7678925388
 20
289.7276623677
 30
0.0
 10
186.5791037669
 20
289.6385105937
 30
0.0
  0
SPLINE
  5
613
100
AcDbEntity
  8
0
100
AcDbSpline
 62
7
  6
CONTINUOUS
 70
0
 71
3
 72
9
 73
5
 74
0
 42
0.0000001
 43
0.0000001
 44
0.0000000001
 40
0.0
 40
0.0
 40
0.0
 40
0.0
 40
0.2643316684
 40
1.0
 40
1.0
 40
1.0
 40
1.0
 10
186.5487815852
 20
289.6241114872
 30
0.0
 10
186.5138862703
 20
289.607447021
 30
0.0
 10
186.3823732086
 20
289.5433822932
 30
0.0
 10
186.2529235539
 20
289.4749213926
 30
0.0
 10
186.1599380771
 20
289.4207304484
 30
0.0
  0
SPLINE
  5
614
100
AcDbEntity
  8
0
100
AcDbSpline
 62
7
  6
CONTINUOUS
 70
0
 71
3
 72
10
 73
6
 74
0
 42
0.0000001
 43
0.0000001
 44
0.0000000001
 40
0.0
 40
0.0
 40
0.0
 40
0.0
 40
0.3299293493
 40
0.6021879649
 40
1.0
 40
1.0
 40
1.0
 40
1.0
 10
186.1599380771
 20
289.4207304484
 30
0.0
 10
186.0701591735
 20
289.3684082608
 30
0.0
 10
185.9094364722
 20
289.2650527603
 30
0.0
 10
185.6698158189
 20
289.0660363701
 30
0.0
 10
185.5485710497
 20
288.8638047646
 30
0.0
 10
185.5485710497
 20
288.738512035
 30
0.0
  0
SPLINE
  5
615
100
AcDbEntity
  8
0
100
AcDbSpline
 62
7
  6
CONTINUOUS
 70
0
 71
3
 72
9
 73
5
 74
0
 42
0.0000001
 43
0.0000001
 44
0.0000000001
 40
0.0
 40
0.0
 40
0.0
 40
0.0
 40
0.4023823665
 40
1.0
 40
1.0
 40
1.0
 40
1.0
 10
186.5485710497
 20
287.738512035
 30
0.0
 10
186.6679697502
 20
287.738512035
 30
0.0
 10
186.9509768127
 20
287.9018786625
 30
0.0
 10
187.111628423
 20
288.1514918703
 30
0.0
 10
187.2032080066
 20
288.3033450117
 30
0.0
  0
SPLINE
  5
616
100
AcDbEntity
  8
0
100
AcDbSpline
 62
7
  6
CONTINUOUS
 70
0
 71
3
 72
9
 73
5
 74
0
 42
0.0000001
 43
0.0000001
 44
0.0000000001
 40
0.0
 40
0.0
 40
0.0
 40
0.0
 40
0.2353922937
 40
1.0
 40
1.0
 40
1.0
 40
1.0
 10
187.2307897344
 20
288.3498795271
 30
0.0
 10
187.2479496958
 20
288.3793240726
 30
0.0
 10
187.3191586183
 20
288.5053968426
 30
0.0
 10
187.3844410897
 20
288.6347480295
 30
0.0
 10
187.4322061352
 20
288.7346123911
 30
0.0
  0
SPLINE
  5
617
100
AcDbEntity
  8
0
100
AcDbSpline
 62
7
  6
CONTINUOUS
 70
0
 71
3
 72
8
 73
4
 74
0
 42
0.0000001
 43
0.0000001
 44
0.0000000001
 40
0.0
 40
0.0
 40
0.0
 40
0.0
 40
1.0
 40
1.0
 40
1.0
 40
1.0
 10
187.5207873219
 20
288.9260533552
 30
0.0
 10
187.5771900403
 20
289.0517397459
 30
0.0
 10
187.6310831284
 20
289.1785600265
 30
0.0
 10
187.6835301689
 20
289.3059477943
 30
0.0
  0
SPLINE
  5
618
100
AcDbEntity
  8
0
100
AcDbSpline
 62
7
  6
CONTINUOUS
 70
0
 71
3
 72
8
 73
4
 74
0
 42
0.0000001
 43
0.0000001
 44
0.0000000001
 40
0.0
 40
0.0
 40
0.0
 40
0.0
 40
1.0
 40
1.0
 40
1.0
 40
1.0
 10
187.8037037099
 20
289.6044555444
 30
0.0
 10
187.8869138393
 20
289.8151876852
 30
0.0
 10
187.967726366
 20
290.0268611481
 30
0.0
 10
188.0485710497
 20
290.238512035
 30
0.0
  0
SPLINE
  5
619
100
AcDbEntity
  8
0
100
AcDbSpline
 62
7
  6
CONTINUOUS
 70
0
 71
3
 72
10
 73
6
 74
0
 42
0.0000001
 43
0.0000001
 44
0.0000000001
 40
0.0
 40
0.0
 40
0.0
 40
0.0
 40
0.3978120002
 40
0.670070629
 40
1.0
 40
1.0
 40
1.0
 40
1.0
 10
380.5485710497
 20
288.738512035
 30
0.0
 10
380.5485710497
 20
288.8638048238
 30
0.0
 10
380.4273261641
 20
289.0660365203
 30
0.0
 10
380.1877053419
 20
289.2650529718
 30
0.0
 10
380.0269825249
 20
289.3684085123
 30
0.0
 10
379.9372035576
 20
289.4207307197
 30
0.0
  0
SPLINE
  5
61A
100
AcDbEntity
  8
0
100
AcDbSpline
 62
7
  6
CONTINUOUS
 70
0
 71
3
 72
9
 73
5
 74
0
 42
0.0000001
 43
0.0000001
 44
0.0000000001
 40
0.0
 40
0.0
 40
0.0
 40
0.0
 40
0.2353922937
 40
1.0
 40
1.0
 40
1.0
 40
1.0
 10
379.9372035576
 20
289.4207307197
 30
0.0
 10
379.9077590121
 20
289.4378906811
 30
0.0
 10
379.7816862421
 20
289.5090996036
 30
0.0
 10
379.6523350552
 20
289.574382075
 30
0.0
 10
379.5524706936
 20
289.6221471205
 30
0.0
  0
SPLINE
  5
61B
100
AcDbEntity
  8
0
100
AcDbSpline
 62
7
  6
CONTINUOUS
 70
0
 71
3
 72
9
 73
5
 74
0
 42
0.0000001
 43
0.0000001
 44
0.0000000001
 40
0.0
 40
0.0
 40
0.0
 40
0.0
 40
0.23561451
 40
1.0
 40
1.0
 40
1.0
 40
1.0
 10
379.5180357351
 20
289.6385118201
 30
0.0
 10
379.4576837925
 20
289.667011808
 30
0.0
 10
379.1999975784
 20
289.784718753
 30
0.0
 10
378.9378297863
 20
289.8923206994
 30
0.0
 10
378.7366010317
 20
289.9722680515
 30
0.0
  0
SPLINE
  5
61C
100
AcDbEntity
  8
0
100
AcDbSpline
 62
7
  6
CONTINUOUS
 70
0
 71
3
 72
8
 73
4
 74
0
 42
0.0000001
 43
0.0000001
 44
0.0000000001
 40
0.0
 40
0.0
 40
0.0
 40
0.0
 40
1.0
 40
1.0
 40
1.0
 40
1.0
 10
378.0485710497
 20
290.238512035
 30
0.0
 10
378.1294157485
 20
290.0268611085
 30
0.0
 10
378.2102282904
 20
289.815187606
 30
0.0
 10
378.2934384363
 20
289.6044554261
 30
0.0
  0
SPLINE
  5
61D
100
AcDbEntity
  8
0
100
AcDbSpline
 62
7
  6
CONTINUOUS
 70
0
 71
3
 72
8
 73
4
 74
0
 42
0.0000001
 43
0.0000001
 44
0.0000000001
 40
0.0
 40
0.0
 40
0.0
 40
0.0
 40
1.0
 40
1.0
 40
1.0
 40
1.0
 10
378.4136119979
 20
289.3059476304
 30
0.0
 10
378.466059061
 20
289.1785598117
 30
0.0
 10
378.519952173
 20
289.051739481
 30
0.0
 10
378.5763549184
 20
288.9260530414
 30
0.0
  0
SPLINE
  5
61E
100
AcDbEntity
  8
0
100
AcDbSpline
 62
7
  6
CONTINUOUS
 70
0
 71
3
 72
9
 73
5
 74
0
 42
0.0000001
 43
0.0000001
 44
0.0000000001
 40
0.0
 40
0.0
 40
0.0
 40
0.0
 40
0.2642189141
 40
1.0
 40
1.0
 40
1.0
 40
1.0
 10
378.6649358165
 20
288.7346126992
 30
0.0
 10
378.681441226
 20
288.7001041509
 30
0.0
 10
378.7449150779
 20
288.5699913706
 30
0.0
 10
378.8127157313
 20
288.4419138712
 30
0.0
 10
378.8663526363
 20
288.3498790625
 30
0.0
  0
SPLINE
  5
61F
100
AcDbEntity
  8
0
100
AcDbSpline
 62
7
  6
CONTINUOUS
 70
0
 71
3
 72
9
 73
5
 74
0
 42
0.0000001
 43
0.0000001
 44
0.0000000001
 40
0.0
 40
0.0
 40
0.0
 40
0.0
 40
0.5976176256
 40
1.0
 40
1.0
 40
1.0
 40
1.0
 10
378.8939341635
 20
288.3033448954
 30
0.0
 10
378.9855137381
 20
288.1514917826
 30
0.0
 10
379.1461653384
 20
287.9018786182
 30
0.0
 10
379.4291723647
 20
287.738512035
 30
0.0
 10
379.5485710497
 20
287.738512035
 30
0.0
  0
ENDSEC
  0
SECTION
  2
OBJECTS
  0
DICTIONARY
  5
C
100
AcDbDictionary
280
0
281
1
  3
ACAD_GROUP
350
D
  3
ACAD_MLINESTYLE
350
17
  3
ACAD_LAYOUT
350
1A
  3
ACAD_PLOTSETTINGS
350
19
  3
ACAD_PLOTSTYLENAME
350
E
  0
DICTIONARY
  5
D
102
{ACAD_REACTORS
330
C
102
}
100
AcDbDictionary
280
0
281
1
  0
ACDBDICTIONARYWDFLT
  5
E
102
{ACAD_REACTORS
330
C
102
}
100
AcDbDictionary
281
1
  3
Normal
350
F
100
AcDbDictionaryWithDefault
340
F
  0
DICTIONARY
  5
17
102
{ACAD_REACTORS
330
C
102
}
100
AcDbDictionary
280
0
281
1
  3
Standard
350
18
  0
DICTIONARY
  5
19
102
{ACAD_REACTORS
330
C
102
}
100
AcDbDictionary
281
1
  0
DICTIONARY
  5
1A
102
{ACAD_REACTORS
330
C
102
}
100
AcDbDictionary
281
1
  3
Model
350
620
  3
Layout1
350
621
  0
ACDBPLACEHOLDER
  5
F
102
{ACAD_REACTORS
330
E
102
}
  0
MLINESTYLE
  5
18
102
{ACAD_REACTORS
330
17
102
}
100
AcDbMlineStyle
  2
STANDARD
 70
0
  3

 62
256
 51
90.0
 52
90.0
 71
2
 49
0.5
 62
256
  6
BYLAYER
 49
-0.5
 62
256
  6
BYLAYER
  0
LAYOUT
  5
620
102
{ACAD_REACTORS
330
1A
102
}
100
AcDbPlotSettings
  1

  2
none_device
  4

  6

 40
0.0
 41
0.0
 42
0.0
 43
0.0
 44
210.0
 45
297.0
 46
0.0
 47
0.0
 48
0.0
 49
0.0
140
0.0
141
0.0
142
1.0
143
1.0
 70
1024
 72
1
 73
0
 74
0
  7

 75
0
147
1.0
148
0.0
149
0.0
100
AcDbLayout
  1
Model
 70
0
 71
0
 10
0.0
 20
0.0
 11
210.0
 21
297.0
 12
0.0
 22
0.0
 32
0.0
 14
0.0
 24
0.0
 34
0.0
 15
0.0
 25
0.0
 35
0.0
146
0.0
 13
0.0
 23
0.0
 33
0.0
 16
1.0
 26
0.0
 36
0.0
 17
0.0
 27
1.0
 37
0.0
 76
0
330
210
345
0
346
0
  0
LAYOUT
  5
621
102
{ACAD_REACTORS
330
1A
102
}
100
AcDbPlotSettings
  1

  2
none_device
  4

  6

 40
0.0
 41
0.0
 42
0.0
 43
0.0
 44
210.0
 45
297.0
 46
0.0
 47
0.0
 48
0.0
 49
0.0
140
0.0
141
0.0
142
1.0
143
1.0
 70
0
 72
1
 73
0
 74
0
  7

 75
0
147
1.0
148
0.0
149
0.0
100
AcDbLayout
  1
Layout1
 70
0
 71
1
 10
0.0
 20
0.0
 11
210.0
 21
297.0
 12
0.0
 22
0.0
 32
0.0
 14
0.0
 24
0.0
 34
0.0
 15
0.0
 25
0.0
 35
0.0
146
0.0
 13
0.0
 23
0.0
 33
0.0
 16
1.0
 26
0.0
 36
0.0
 17
0.0
 27
1.0
 37
0.0
 76
0
330
211
345
0
346
0
  0
ENDSEC
  0
EOF
